  0
SECTION
  2
HEADER
  9
$ACADVER
  1
AC1024
  9
$ACADMAINTVER
 70
     6
  9
$DWGCODEPAGE
  3
UNDEFINED
  9
$INSBASE
 10
0.0
 20
0.0
 30
0.0
  9
$EXTMIN
 10
1.000000000000000E+20
 20
1.000000000000000E+20
 30
1.000000000000000E+20
  9
$EXTMAX
 10
-1.000000000000000E+20
 20
-1.000000000000000E+20
 30
-1.000000000000000E+20
  9
$LIMMIN
 10
0.0
 20
0.0
  9
$LIMMAX
 10
12.0
 20
9.0
  9
$ORTHOMODE
 70
     0
  9
$REGENMODE
 70
     1
  9
$FILLMODE
 70
     1
  9
$QTEXTMODE
 70
     0
  9
$MIRRTEXT
 70
     1
  9
$LTSCALE
 40
1.0
  9
$ATTMODE
 70
     1
  9
$TEXTSIZE
 40
0.2
  9
$TRACEWID
 40
0.05
  9
$TEXTSTYLE
  7
Standard
  9
$CLAYER
  8
0
  9
$CELTYPE
  6
ByLayer
  9
$CECOLOR
 62
   256
  9
$CELTSCALE
 40
1.0
  9
$DISPSILH
 70
     0
  9
$DIMSCALE
 40
1.0
  9
$DIMASZ
 40
0.18
  9
$DIMEXO
 40
0.0625
  9
$DIMDLI
 40
0.38
  9
$DIMRND
 40
0.0
  9
$DIMDLE
 40
0.0
  9
$DIMEXE
 40
0.18
  9
$DIMTP
 40
0.0
  9
$DIMTM
 40
0.0
  9
$DIMTXT
 40
0.18
  9
$DIMCEN
 40
0.09
  9
$DIMTSZ
 40
0.0
  9
$DIMTOL
 70
     0
  9
$DIMLIM
 70
     0
  9
$DIMTIH
 70
     1
  9
$DIMTOH
 70
     1
  9
$DIMSE1
 70
     0
  9
$DIMSE2
 70
     0
  9
$DIMTAD
 70
     0
  9
$DIMZIN
 70
     0
  9
$DIMBLK
  1

  9
$DIMASO
 70
     1
  9
$DIMSHO
 70
     1
  9
$DIMPOST
  1

  9
$DIMAPOST
  1

  9
$DIMALT
 70
     0
  9
$DIMALTD
 70
     2
  9
$DIMALTF
 40
25.4
  9
$DIMLFAC
 40
1.0
  9
$DIMTOFL
 70
     0
  9
$DIMTVP
 40
0.0
  9
$DIMTIX
 70
     0
  9
$DIMSOXD
 70
     0
  9
$DIMSAH
 70
     0
  9
$DIMBLK1
  1

  9
$DIMBLK2
  1

  9
$DIMSTYLE
  2
Standard
  9
$DIMCLRD
 70
     0
  9
$DIMCLRE
 70
     0
  9
$DIMCLRT
 70
     0
  9
$DIMTFAC
 40
1.0
  9
$DIMGAP
 40
0.09
  9
$DIMJUST
 70
     0
  9
$DIMSD1
 70
     0
  9
$DIMSD2
 70
     0
  9
$DIMTOLJ
 70
     1
  9
$DIMTZIN
 70
     0
  9
$DIMALTZ
 70
     0
  9
$DIMALTTZ
 70
     0
  9
$DIMUPT
 70
     0
  9
$DIMDEC
 70
     4
  9
$DIMTDEC
 70
     4
  9
$DIMALTU
 70
     2
  9
$DIMALTTD
 70
     2
  9
$DIMTXSTY
  7
Standard
  9
$DIMAUNIT
 70
     0
  9
$DIMADEC
 70
     0
  9
$DIMALTRND
 40
0.0
  9
$DIMAZIN
 70
     0
  9
$DIMDSEP
 70
    46
  9
$DIMATFIT
 70
     3
  9
$DIMFRAC
 70
     0
  9
$DIMLDRBLK
  1

  9
$DIMLUNIT
 70
     2
  9
$DIMLWD
 70
    -2
  9
$DIMLWE
 70
    -2
  9
$DIMTMOVE
 70
     0
  9
$DIMFXL
 40
1.0
  9
$DIMFXLON
 70
     0
  9
$DIMJOGANG
 40
0.7853981633974483
  9
$DIMTFILL
 70
     0
  9
$DIMTFILLCLR
 70
     0
  9
$DIMARCSYM
 70
     0
  9
$DIMLTYPE
  6

  9
$DIMLTEX1
  6

  9
$DIMLTEX2
  6

  9
$DIMTXTDIRECTION
 70
     0
  9
$LUNITS
 70
     2
  9
$LUPREC
 70
     4
  9
$SKETCHINC
 40
0.1
  9
$FILLETRAD
 40
0.5
  9
$AUNITS
 70
     0
  9
$AUPREC
 70
     0
  9
$MENU
  1
.
  9
$ELEVATION
 40
0.0
  9
$PELEVATION
 40
0.0
  9
$THICKNESS
 40
0.0
  9
$LIMCHECK
 70
     0
  9
$CHAMFERA
 40
0.5
  9
$CHAMFERB
 40
0.5
  9
$CHAMFERC
 40
1.0
  9
$CHAMFERD
 40
0.0
  9
$SKPOLY
 70
     0
  9
$TDCREATE
 40
2457917.624745359
  9
$TDUCREATE
 40
2457917.24974537
  9
$TDUPDATE
 40
2457917.624745359
  9
$TDUUPDATE
 40
2457917.24974537
  9
$TDINDWG
 40
0.0000000116
  9
$TDUSRTIMER
 40
0.0000000116
  9
$USRTIMER
 70
     1
  9
$ANGBASE
 50
0.0
  9
$ANGDIR
 70
     0
  9
$PDMODE
 70
     0
  9
$PDSIZE
 40
0.0
  9
$PLINEWID
 40
0.0
  9
$SPLFRAME
 70
     0
  9
$SPLINETYPE
 70
     6
  9
$SPLINESEGS
 70
     8
  9
$HANDSEED
  5
99
  9
$SURFTAB1
 70
     6
  9
$SURFTAB2
 70
     6
  9
$SURFTYPE
 70
     6
  9
$SURFU
 70
     6
  9
$SURFV
 70
     6
  9
$UCSBASE
  2

  9
$UCSNAME
  2

  9
$UCSORG
 10
0.0
 20
0.0
 30
0.0
  9
$UCSXDIR
 10
1.0
 20
0.0
 30
0.0
  9
$UCSYDIR
 10
0.0
 20
1.0
 30
0.0
  9
$UCSORTHOREF
  2

  9
$UCSORTHOVIEW
 70
     0
  9
$UCSORGTOP
 10
0.0
 20
0.0
 30
0.0
  9
$UCSORGBOTTOM
 10
0.0
 20
0.0
 30
0.0
  9
$UCSORGLEFT
 10
0.0
 20
0.0
 30
0.0
  9
$UCSORGRIGHT
 10
0.0
 20
0.0
 30
0.0
  9
$UCSORGFRONT
 10
0.0
 20
0.0
 30
0.0
  9
$UCSORGBACK
 10
0.0
 20
0.0
 30
0.0
  9
$PUCSBASE
  2

  9
$PUCSNAME
  2

  9
$PUCSORG
 10
0.0
 20
0.0
 30
0.0
  9
$PUCSXDIR
 10
1.0
 20
0.0
 30
0.0
  9
$PUCSYDIR
 10
0.0
 20
1.0
 30
0.0
  9
$PUCSORTHOREF
  2

  9
$PUCSORTHOVIEW
 70
     0
  9
$PUCSORGTOP
 10
0.0
 20
0.0
 30
0.0
  9
$PUCSORGBOTTOM
 10
0.0
 20
0.0
 30
0.0
  9
$PUCSORGLEFT
 10
0.0
 20
0.0
 30
0.0
  9
$PUCSORGRIGHT
 10
0.0
 20
0.0
 30
0.0
  9
$PUCSORGFRONT
 10
0.0
 20
0.0
 30
0.0
  9
$PUCSORGBACK
 10
0.0
 20
0.0
 30
0.0
  9
$USERI1
 70
     0
  9
$USERI2
 70
     0
  9
$USERI3
 70
     0
  9
$USERI4
 70
     0
  9
$USERI5
 70
     0
  9
$USERR1
 40
0.0
  9
$USERR2
 40
0.0
  9
$USERR3
 40
0.0
  9
$USERR4
 40
0.0
  9
$USERR5
 40
0.0
  9
$WORLDVIEW
 70
     1
  9
$SHADEDGE
 70
     3
  9
$SHADEDIF
 70
    70
  9
$TILEMODE
 70
     1
  9
$MAXACTVP
 70
    64
  9
$PINSBASE
 10
0.0
 20
0.0
 30
0.0
  9
$PLIMCHECK
 70
     0
  9
$PEXTMIN
 10
1.000000000000000E+20
 20
1.000000000000000E+20
 30
1.000000000000000E+20
  9
$PEXTMAX
 10
-1.000000000000000E+20
 20
-1.000000000000000E+20
 30
-1.000000000000000E+20
  9
$PLIMMIN
 10
0.0
 20
0.0
  9
$PLIMMAX
 10
12.0
 20
9.0
  9
$UNITMODE
 70
     0
  9
$VISRETAIN
 70
     1
  9
$PLINEGEN
 70
     0
  9
$PSLTSCALE
 70
     1
  9
$TREEDEPTH
 70
  3020
  9
$CMLSTYLE
  2
Standard
  9
$CMLJUST
 70
     0
  9
$CMLSCALE
 40
1.0
  9
$PROXYGRAPHICS
 70
     1
  9
$MEASUREMENT
 70
     0
  9
$CELWEIGHT
370
    -1
  9
$ENDCAPS
280
     0
  9
$JOINSTYLE
280
     0
  9
$LWDISPLAY
290
     1
  9
$INSUNITS
 70
     1
  9
$HYPERLINKBASE
  1

  9
$STYLESHEET
  1

  9
$XEDIT
290
     1
  9
$CEPSNTYPE
380
     0
  9
$PSTYLEMODE
290
     1
  9
$FINGERPRINTGUID
  2
{ED0C8E46-DE4F-7616-2B95-701FAFE63B5A}
  9
$VERSIONGUID
  2
{FAEB1C32-E019-11D5-929B-00C0DF256EC4}
  9
$EXTNAMES
290
     1
  9
$PSVPSCALE
 40
0.0
  9
$OLESTARTUP
290
     0
  9
$SORTENTS
280
   127
  9
$INDEXCTL
280
     0
  9
$HIDETEXT
280
     1
  9
$XCLIPFRAME
280
     2
  9
$HALOGAP
280
     0
  9
$OBSCOLOR
 70
   257
  9
$OBSLTYPE
280
     0
  9
$INTERSECTIONDISPLAY
280
     0
  9
$INTERSECTIONCOLOR
 70
   257
  9
$DIMASSOC
280
     2
  9
$PROJECTNAME
  1

  9
$CAMERADISPLAY
290
     0
  9
$LENSLENGTH
 40
50.0
  9
$CAMERAHEIGHT
 40
0.0
  9
$STEPSPERSEC
 40
2.0
  9
$STEPSIZE
 40
6.0
  9
$3DDWFPREC
 40
2.0
  9
$PSOLWIDTH
 40
0.25
  9
$PSOLHEIGHT
 40
4.0
  9
$LOFTANG1
 40
1.570796326794897
  9
$LOFTANG2
 40
1.570796326794897
  9
$LOFTMAG1
 40
0.0
  9
$LOFTMAG2
 40
0.0
  9
$LOFTPARAM
 70
     7
  9
$LOFTNORMALS
280
     1
  9
$LATITUDE
 40
37.795
  9
$LONGITUDE
 40
-122.394
  9
$NORTHDIRECTION
 40
0.0
  9
$TIMEZONE
 70
 -8000
  9
$LIGHTGLYPHDISPLAY
280
     1
  9
$TILEMODELIGHTSYNCH
280
     1
  9
$CMATERIAL
347
3C
  9
$SOLIDHIST
280
     1
  9
$SHOWHIST
280
     1
  9
$DWFFRAME
280
     2
  9
$DGNFRAME
280
     2
  9
$REALWORLDSCALE
290
     1
  9
$INTERFERECOLOR
 62
   256
  9
$CSHADOW
280
     0
  9
$SHADOWPLANELOCATION
 40
0.0
  0
ENDSEC
  0
SECTION
  2
CLASSES
  0
CLASS
  1
ACDBDICTIONARYWDFLT
  2
AcDbDictionaryWithDefault
  3
ObjectDBX Classes
 90
        0
 91
        4
280
     0
281
     0
  0
CLASS
  1
VISUALSTYLE
  2
AcDbVisualStyle
  3
ObjectDBX Classes
 90
     4095
 91
        4
280
     0
281
     0
  0
CLASS
  1
MATERIAL
  2
AcDbMaterial
  3
ObjectDBX Classes
 90
     1153
 91
        4
280
     0
281
     0
  0
CLASS
  1
SUN
  2
AcDbSun
  3
SCENEOE
 90
     1024
 91
        4
280
     0
281
     0
  0
ENDSEC
  0
SECTION
  2
TABLES
  0
TABLE
  2
VPORT
  5
8
330
0
100
AcDbSymbolTable
 70
     1
  0
VPORT
  5
29
330
8
100
AcDbSymbolTableRecord
100
AcDbViewportTableRecord
  2
*Active
 70
     0
 10
0.0
 20
0.0
 11
1.0
 21
1.0
 12
0.0
 22
0.0
 13
0.0
 23
0.0
 14
0.5
 24
0.5
 15
0.5
 25
0.5
 16
0.0
 26
0.0
 36
1.0
 17
91.00082462281999
 27
-128.4993055234307
 37
0.0
 40
256.9986110468615
 41
0.7081814508812795
 42
50.0
 43
0.0
 44
0.0
 50
0.0
 51
0.0
 71
     0
 72
   100
 73
     1
 74
     3
 75
     0
 76
     0
 77
     0
 78
     0
281
     0
 65
     1
110
0.0
120
0.0
130
0.0
111
1.0
121
0.0
131
0.0
112
0.0
122
1.0
132
0.0
 79
     0
146
0.0
 60
     3
 61
     5
292
     1
282
     1
141
0.0
142
0.0
 63
   250
361
3F
  0
ENDTAB
  0
TABLE
  2
LTYPE
  5
5
330
0
100
AcDbSymbolTable
 70
     1
  0
LTYPE
  5
14
330
5
100
AcDbSymbolTableRecord
100
AcDbLinetypeTableRecord
  2
ByBlock
 70
     0
  3

 72
    65
 73
     0
 40
0.0
  0
LTYPE
  5
15
330
5
100
AcDbSymbolTableRecord
100
AcDbLinetypeTableRecord
  2
ByLayer
 70
     0
  3

 72
    65
 73
     0
 40
0.0
  0
LTYPE
  5
16
330
5
100
AcDbSymbolTableRecord
100
AcDbLinetypeTableRecord
  2
Continuous
 70
     0
  3
Solid line
 72
    65
 73
     0
 40
0.0
  0
ENDTAB
  0
TABLE
  2
LAYER
  5
2
330
0
100
AcDbSymbolTable
 70
     2
  0
LAYER
  5
10
330
2
100
AcDbSymbolTableRecord
100
AcDbLayerTableRecord
  2
0
 70
     0
 62
     7
  6
Continuous
370
    -3
390
F
347
3E
  0
LAYER
  5
40
330
2
100
AcDbSymbolTableRecord
100
AcDbLayerTableRecord
  2
_U+30EC_U+30A4_U+30E4_U+30FC 1
 70
     0
 62
     7
  6
Continuous
370
    -3
390
F
347
3E
  0
ENDTAB
  0
TABLE
  2
STYLE
  5
3
330
0
100
AcDbSymbolTable
 70
     1
  0
STYLE
  5
11
330
3
100
AcDbSymbolTableRecord
100
AcDbTextStyleTableRecord
  2
Standard
 70
     0
 40
0.0
 41
1.0
 50
0.0
 71
     0
 42
0.2
  3
txt
  4

  0
ENDTAB
  0
TABLE
  2
VIEW
  5
6
330
0
100
AcDbSymbolTable
 70
     0
  0
ENDTAB
  0
TABLE
  2
UCS
  5
7
330
0
100
AcDbSymbolTable
 70
     0
  0
ENDTAB
  0
TABLE
  2
APPID
  5
9
330
0
100
AcDbSymbolTable
 70
     1
  0
APPID
  5
12
330
9
100
AcDbSymbolTableRecord
100
AcDbRegAppTableRecord
  2
ACAD
 70
     0
  0
ENDTAB
  0
TABLE
  2
DIMSTYLE
  5
A
330
0
100
AcDbSymbolTable
 70
     1
100
AcDbDimStyleTable
  0
DIMSTYLE
105
27
330
A
100
AcDbSymbolTableRecord
100
AcDbDimStyleTableRecord
  2
Standard
 70
     0
178
     0
340
11
  0
ENDTAB
  0
TABLE
  2
BLOCK_RECORD
  5
1
330
0
100
AcDbSymbolTable
 70
     4
  0
BLOCK_RECORD
  5
1F
330
1
100
AcDbSymbolTableRecord
100
AcDbBlockTableRecord
  2
*Model_Space
340
22
 70
     0
280
     1
281
     0
  0
BLOCK_RECORD
  5
1B
330
1
100
AcDbSymbolTableRecord
100
AcDbBlockTableRecord
  2
*Paper_Space
340
1E
 70
     0
280
     1
281
     0
  0
BLOCK_RECORD
  5
23
330
1
100
AcDbSymbolTableRecord
100
AcDbBlockTableRecord
  2
*Paper_Space0
340
26
 70
     0
280
     1
281
     0
  0
BLOCK_RECORD
  5
54
330
1
100
AcDbSymbolTableRecord
100
AcDbBlockTableRecord
  2
block 2
340
0
102
{BLKREFS
331
55
102
}
 70
     0
280
     1
281
     0
  0
BLOCK_RECORD
  5
5D
330
1
100
AcDbSymbolTableRecord
100
AcDbBlockTableRecord
  2
block 3
340
0
102
{BLKREFS
331
5E
102
}
 70
     0
280
     1
281
     0
  0
BLOCK_RECORD
  5
65
330
1
100
AcDbSymbolTableRecord
100
AcDbBlockTableRecord
  2
block 4
340
0
102
{BLKREFS
331
66
102
}
 70
     0
280
     1
281
     0
  0
ENDTAB
  0
ENDSEC
  0
SECTION
  2
BLOCKS
  0
BLOCK
  5
20
330
1F
100
AcDbEntity
  8
0
100
AcDbBlockBegin
  2
*Model_Space
 70
     0
 10
0.0
 20
0.0
 30
0.0
  3
*Model_Space
  1

  0
ENDBLK
  5
21
330
1F
100
AcDbEntity
  8
0
100
AcDbBlockEnd
  0
BLOCK
  5
1C
330
1B
100
AcDbEntity
 67
     1
  8
0
100
AcDbBlockBegin
  2
*Paper_Space
 70
     0
 10
0.0
 20
0.0
 30
0.0
  3
*Paper_Space
  1

  0
ENDBLK
  5
1D
330
1B
100
AcDbEntity
 67
     1
  8
0
100
AcDbBlockEnd
  0
BLOCK
  5
24
330
23
100
AcDbEntity
  8
0
100
AcDbBlockBegin
  2
*Paper_Space0
 70
     0
 10
0.0
 20
0.0
 30
0.0
  3
*Paper_Space0
  1

  0
ENDBLK
  5
25
330
23
100
AcDbEntity
  8
0
100
AcDbBlockEnd
  0
BLOCK
  5
56
330
54
100
AcDbEntity
  8
0
100
AcDbBlockBegin
  2
block 2
 70
     0
 10
0.0
 20
0.0
 30
0.0
  3
block 2
  1

  0
SPLINE
  5
58
330
54
100
AcDbEntity
  8
_U+30EC_U+30A4_U+30E4_U+30FC 1
370
     0
100
AcDbSpline
210
0.0
220
0.0
230
1.0
 70
    11
 71
     3
 72
    44
 73
    40
 74
     0
 42
0.0000000001
 43
0.0000000001
 12
1.0
 22
0.0
 32
0.0
 13
1.0
 23
0.0
 33
0.0
 40
0.0
 40
0.0
 40
0.0
 40
0.0
 40
1.0
 40
1.0
 40
1.0
 40
2.0
 40
2.0
 40
2.0
 40
3.0
 40
3.0
 40
3.0
 40
4.0
 40
4.0
 40
4.0
 40
5.0
 40
5.0
 40
5.0
 40
6.0
 40
6.0
 40
6.0
 40
7.0
 40
7.0
 40
7.0
 40
8.0
 40
8.0
 40
8.0
 40
9.0
 40
9.0
 40
9.0
 40
10.0
 40
10.0
 40
10.0
 40
11.0
 40
11.0
 40
11.0
 40
12.0
 40
12.0
 40
12.0
 40
13.0
 40
13.0
 40
13.0
 40
13.0
 10
87.92951657958012
 20
-117.0676174295005
 30
0.0
 10
87.69662812477723
 20
-117.2262640765962
 30
0.0
 10
87.59706486525351
 20
-117.3003336295291
 30
0.0
 10
87.54538843297476
 20
-117.4441663660383
 30
0.0
 10
87.54538843297476
 20
-117.4441663660383
 30
0.0
 10
88.37703448311407
 20
-117.4441663660383
 30
0.0
 10
88.37703448311407
 20
-117.4441663660383
 30
0.0
 10
88.37703448311407
 20
-117.4441663660383
 30
0.0
 10
88.37703448311407
 20
-117.6493218021849
 30
0.0
 10
88.37703448311407
 20
-117.6493218021849
 30
0.0
 10
88.37703448311407
 20
-117.6493218021849
 30
0.0
 10
87.27839353286791
 20
-117.6493218021849
 30
0.0
 10
87.27839353286791
 20
-117.6493218021849
 30
0.0
 10
87.31249997817189
 20
-117.291720890816
 30
0.0
 10
87.38243541652245
 20
-117.2135172233008
 30
0.0
 10
87.79377981746129
 20
-116.9151719542782
 30
0.0
 10
88.06732039899012
 20
-116.7163899447792
 30
0.0
 10
88.13760034688922
 20
-116.6486938184941
 30
0.0
 10
88.13760034688922
 20
-116.5112345086326
 30
0.0
 10
88.13760034688922
 20
-116.39272322394
 30
0.0
 10
88.06077471756814
 20
-116.2616373407263
 30
0.0
 10
87.85027938341938
 20
-116.2616373407263
 30
0.0
 10
87.57226017775972
 20
-116.2616373407263
 30
0.0
 10
87.56330292949806
 20
-116.4921142286895
 30
0.0
 10
87.55882430536724
 20
-116.6085584560909
 30
0.0
 10
87.55882430536724
 20
-116.6085584560909
 30
0.0
 10
87.31904565959385
 20
-116.6085584560909
 30
0.0
 10
87.31904565959385
 20
-116.6085584560909
 30
0.0
 10
87.32834741740403
 20
-116.4816066874595
 30
0.0
 10
87.33937172295683
 20
-116.3694688294146
 30
0.0
 10
87.42549911008807
 20
-116.250957544722
 30
0.0
 10
87.54297686613509
 20
-116.0902438403351
 30
0.0
 10
87.741758875634
 20
-116.0563096498054
 30
0.0
 10
87.86612682265152
 20
-116.0563096498054
 30
0.0
 10
88.16240503438301
 20
-116.0563096498054
 30
0.0
 10
88.38392467408458
 20
-116.240450003492
 30
0.0
 10
88.38392467408458
 20
-116.5133015659238
 30
0.0
 10
88.38392467408458
 20
-116.7417113965958
 30
0.0
 10
88.25955672706706
 20
-116.8412746561196
 30
0.0
 10
87.92951657958012
 20
-117.0676174295005
 30
0.0
  0
HATCH
  5
59
330
54
100
AcDbEntity
  8
_U+30EC_U+30A4_U+30E4_U+30FC 1
 62
   179
420
  2234388
100
AcDbHatch
 10
0.0
 20
0.0
 30
0.0
210
0.0
220
0.0
230
1.0
  2
SOLID
 70
     1
 71
     0
 91
        1
 92
        1
 93
        1
 72
     4
 94
        3
 73
     0
 74
     1
 95
       44
 96
       40
 40
0.0
 40
0.0
 40
0.0
 40
0.0
 40
1.0
 40
1.0
 40
1.0
 40
2.0
 40
2.0
 40
2.0
 40
3.0
 40
3.0
 40
3.0
 40
4.0
 40
4.0
 40
4.0
 40
5.0
 40
5.0
 40
5.0
 40
6.0
 40
6.0
 40
6.0
 40
7.0
 40
7.0
 40
7.0
 40
8.0
 40
8.0
 40
8.0
 40
9.0
 40
9.0
 40
9.0
 40
10.0
 40
10.0
 40
10.0
 40
11.0
 40
11.0
 40
11.0
 40
12.0
 40
12.0
 40
12.0
 40
13.0
 40
13.0
 40
13.0
 40
13.0
 10
87.92951657958012
 20
-117.0676174295005
 10
87.69662812477723
 20
-117.2262640765962
 10
87.59706486525351
 20
-117.3003336295291
 10
87.54538843297476
 20
-117.4441663660383
 10
87.54538843297476
 20
-117.4441663660383
 10
88.37703448311407
 20
-117.4441663660383
 10
88.37703448311407
 20
-117.4441663660383
 10
88.37703448311407
 20
-117.4441663660383
 10
88.37703448311407
 20
-117.6493218021849
 10
88.37703448311407
 20
-117.6493218021849
 10
88.37703448311407
 20
-117.6493218021849
 10
87.27839353286791
 20
-117.6493218021849
 10
87.27839353286791
 20
-117.6493218021849
 10
87.31249997817189
 20
-117.291720890816
 10
87.38243541652245
 20
-117.2135172233008
 10
87.79377981746129
 20
-116.9151719542782
 10
88.06732039899012
 20
-116.7163899447792
 10
88.13760034688922
 20
-116.6486938184941
 10
88.13760034688922
 20
-116.5112345086326
 10
88.13760034688922
 20
-116.39272322394
 10
88.06077471756814
 20
-116.2616373407263
 10
87.85027938341938
 20
-116.2616373407263
 10
87.57226017775972
 20
-116.2616373407263
 10
87.56330292949806
 20
-116.4921142286895
 10
87.55882430536724
 20
-116.6085584560909
 10
87.55882430536724
 20
-116.6085584560909
 10
87.31904565959385
 20
-116.6085584560909
 10
87.31904565959385
 20
-116.6085584560909
 10
87.32834741740403
 20
-116.4816066874595
 10
87.33937172295683
 20
-116.3694688294146
 10
87.42549911008807
 20
-116.250957544722
 10
87.54297686613509
 20
-116.0902438403351
 10
87.741758875634
 20
-116.0563096498054
 10
87.86612682265152
 20
-116.0563096498054
 10
88.16240503438301
 20
-116.0563096498054
 10
88.38392467408458
 20
-116.240450003492
 10
88.38392467408458
 20
-116.5133015659238
 10
88.38392467408458
 20
-116.7417113965958
 10
88.25955672706706
 20
-116.8412746561196
 10
87.92951657958012
 20
-117.0676174295005
 97
        0
 97
        0
 75
     2
 76
     1
 98
        0
  0
SPLINE
  5
5A
330
54
100
AcDbEntity
  8
_U+30EC_U+30A4_U+30E4_U+30FC 1
370
     0
100
AcDbSpline
210
0.0
220
0.0
230
1.0
 70
    11
 71
     3
 72
    29
 73
    25
 74
     0
 42
0.0000000001
 43
0.0000000001
 12
1.0
 22
0.0
 32
0.0
 13
1.0
 23
0.0
 33
0.0
 40
0.0
 40
0.0
 40
0.0
 40
0.0
 40
1.0
 40
1.0
 40
1.0
 40
2.0
 40
2.0
 40
2.0
 40
3.0
 40
3.0
 40
3.0
 40
4.0
 40
4.0
 40
4.0
 40
5.0
 40
5.0
 40
5.0
 40
6.0
 40
6.0
 40
6.0
 40
7.0
 40
7.0
 40
7.0
 40
8.0
 40
8.0
 40
8.0
 40
8.0
 10
89.51288246460095
 20
-117.471554875146
 30
0.0
 10
89.39747176584508
 20
-117.6810166806492
 30
0.0
 10
89.21212562873863
 20
-117.7001369605923
 30
0.0
 10
89.08775768172111
 20
-117.7001369605923
 30
0.0
 10
88.91619192655568
 20
-117.7001369605923
 30
0.0
 10
88.76460772520468
 20
-117.6536281715415
 30
0.0
 10
88.66297740838982
 20
-117.471554875146
 30
0.0
 10
88.55204533376477
 20
-117.2769069802294
 30
0.0
 10
88.5317192704018
 20
-117.0400566656185
 30
0.0
 10
88.5317192704018
 20
-116.8771036491661
 30
0.0
 10
88.5317192704018
 20
-116.733270912657
 30
0.0
 10
88.54997827647362
 20
-116.4816066874595
 30
0.0
 10
88.66297740838982
 20
-116.2826524231863
 30
0.0
 10
88.77804359759716
 20
-116.0795640443308
 30
0.0
 10
88.94995386231113
 20
-116.0563096498054
 30
0.0
 10
89.08775768172111
 20
-116.0563096498054
 30
0.0
 10
89.25760088914393
 20
-116.0563096498054
 30
0.0
 10
89.41125214778609
 20
-116.1007513815651
 30
0.0
 10
89.51288246460095
 20
-116.2826524231863
 30
0.0
 10
89.61933591509516
 20
-116.4752332608117
 30
0.0
 10
89.64414060258896
 20
-116.7036430914838
 30
0.0
 10
89.64414060258896
 20
-116.8771036491661
 30
0.0
 10
89.64414060258896
 20
-117.0484971495573
 30
0.0
 10
89.62140297238632
 20
-117.2791462922948
 30
0.0
 10
89.51288246460095
 20
-117.471554875146
 30
0.0
  0
SPLINE
  5
5B
330
54
100
AcDbEntity
  8
_U+30EC_U+30A4_U+30E4_U+30FC 1
370
     0
100
AcDbSpline
210
0.0
220
0.0
230
1.0
 70
    11
 71
     3
 72
    17
 73
    13
 74
     0
 42
0.0000000001
 43
0.0000000001
 12
1.0
 22
0.0
 32
0.0
 13
1.0
 23
0.0
 33
0.0
 40
0.0
 40
0.0
 40
0.0
 40
0.0
 40
1.0
 40
1.0
 40
1.0
 40
2.0
 40
2.0
 40
2.0
 40
3.0
 40
3.0
 40
3.0
 40
4.0
 40
4.0
 40
4.0
 40
4.0
 10
89.08775768172111
 20
-116.2488904874308
 30
0.0
 10
88.82110729116279
 20
-116.2488904874308
 30
0.0
 10
88.77149791617518
 20
-116.5324218458669
 30
0.0
 10
88.77149791617518
 20
-116.8771036491661
 30
0.0
 10
88.77149791617518
 20
-117.1966362554231
 30
0.0
 10
88.80973847606145
 20
-117.5054890656757
 30
0.0
 10
89.08775768172111
 20
-117.5054890656757
 30
0.0
 10
89.35234101498831
 20
-117.5054890656757
 30
0.0
 10
89.40436195681558
 20
-117.2240247645308
 30
0.0
 10
89.40436195681558
 20
-116.8771036491661
 30
0.0
 10
89.40436195681558
 20
-116.5577432976835
 30
0.0
 10
89.36370983008963
 20
-116.2488904874308
 30
0.0
 10
89.08775768172111
 20
-116.2488904874308
 30
0.0
  0
HATCH
  5
5C
330
54
100
AcDbEntity
  8
_U+30EC_U+30A4_U+30E4_U+30FC 1
 62
   179
420
  2234388
100
AcDbHatch
 10
0.0
 20
0.0
 30
0.0
210
0.0
220
0.0
230
1.0
  2
SOLID
 70
     1
 71
     0
 91
        2
 92
        1
 93
        1
 72
     4
 94
        3
 73
     0
 74
     1
 95
       29
 96
       25
 40
0.0
 40
0.0
 40
0.0
 40
0.0
 40
1.0
 40
1.0
 40
1.0
 40
2.0
 40
2.0
 40
2.0
 40
3.0
 40
3.0
 40
3.0
 40
4.0
 40
4.0
 40
4.0
 40
5.0
 40
5.0
 40
5.0
 40
6.0
 40
6.0
 40
6.0
 40
7.0
 40
7.0
 40
7.0
 40
8.0
 40
8.0
 40
8.0
 40
8.0
 10
89.51288246460095
 20
-117.471554875146
 10
89.39747176584508
 20
-117.6810166806492
 10
89.21212562873863
 20
-117.7001369605923
 10
89.08775768172111
 20
-117.7001369605923
 10
88.91619192655568
 20
-117.7001369605923
 10
88.76460772520468
 20
-117.6536281715415
 10
88.66297740838982
 20
-117.471554875146
 10
88.55204533376477
 20
-117.2769069802294
 10
88.5317192704018
 20
-117.0400566656185
 10
88.5317192704018
 20
-116.8771036491661
 10
88.5317192704018
 20
-116.733270912657
 10
88.54997827647362
 20
-116.4816066874595
 10
88.66297740838982
 20
-116.2826524231863
 10
88.77804359759716
 20
-116.0795640443308
 10
88.94995386231113
 20
-116.0563096498054
 10
89.08775768172111
 20
-116.0563096498054
 10
89.25760088914393
 20
-116.0563096498054
 10
89.41125214778609
 20
-116.1007513815651
 10
89.51288246460095
 20
-116.2826524231863
 10
89.61933591509516
 20
-116.4752332608117
 10
89.64414060258896
 20
-116.7036430914838
 10
89.64414060258896
 20
-116.8771036491661
 10
89.64414060258896
 20
-117.0484971495573
 10
89.62140297238632
 20
-117.2791462922948
 10
89.51288246460095
 20
-117.471554875146
 97
        0
 97
        0
 92
        1
 93
        1
 72
     4
 94
        3
 73
     0
 74
     1
 95
       17
 96
       13
 40
0.0
 40
0.0
 40
0.0
 40
0.0
 40
1.0
 40
1.0
 40
1.0
 40
2.0
 40
2.0
 40
2.0
 40
3.0
 40
3.0
 40
3.0
 40
4.0
 40
4.0
 40
4.0
 40
4.0
 10
89.08775768172111
 20
-116.2488904874308
 10
88.82110729116279
 20
-116.2488904874308
 10
88.77149791617518
 20
-116.5324218458669
 10
88.77149791617518
 20
-116.8771036491661
 10
88.77149791617518
 20
-117.1966362554231
 10
88.80973847606145
 20
-117.5054890656757
 10
89.08775768172111
 20
-117.5054890656757
 10
89.35234101498831
 20
-117.5054890656757
 10
89.40436195681558
 20
-117.2240247645308
 10
89.40436195681558
 20
-116.8771036491661
 10
89.40436195681558
 20
-116.5577432976835
 10
89.36370983008963
 20
-116.2488904874308
 10
89.08775768172111
 20
-116.2488904874308
 97
        0
 97
        0
 75
     2
 76
     1
 98
        0
  0
ENDBLK
  5
57
330
54
100
AcDbEntity
  8
0
100
AcDbBlockEnd
  0
BLOCK
  5
5F
330
5D
100
AcDbEntity
  8
0
100
AcDbBlockBegin
  2
block 3
 70
     0
 10
0.0
 20
0.0
 30
0.0
  3
block 3
  1

  0
SPLINE
  5
61
330
5D
100
AcDbEntity
  8
_U+30EC_U+30A4_U+30E4_U+30FC 1
370
     0
100
AcDbSpline
210
0.0
220
0.0
230
1.0
 70
    11
 71
     3
 72
    26
 73
    22
 74
     0
 42
0.0000000001
 43
0.0000000001
 12
1.0
 22
0.0
 32
0.0
 13
1.0
 23
0.0
 33
0.0
 40
0.0
 40
0.0
 40
0.0
 40
0.0
 40
1.0
 40
1.0
 40
1.0
 40
2.0
 40
2.0
 40
2.0
 40
3.0
 40
3.0
 40
3.0
 40
4.0
 40
4.0
 40
4.0
 40
5.0
 40
5.0
 40
5.0
 40
6.0
 40
6.0
 40
6.0
 40
7.0
 40
7.0
 40
7.0
 40
7.0
 10
101.8135958946855
 20
-129.4759900934991
 30
0.0
 10
101.8135958946855
 20
-129.4759900934991
 30
0.0
 10
100.7090982821144
 20
-129.4759900934991
 30
0.0
 10
100.7090982821144
 20
-129.4759900934991
 30
0.0
 10
100.7090982821144
 20
-129.4759900934991
 30
0.0
 10
100.7090982821144
 20
-129.8284233616401
 30
0.0
 10
100.7090982821144
 20
-129.8284233616401
 30
0.0
 10
100.7090982821144
 20
-129.8284233616401
 30
0.0
 10
100.5609591762487
 20
-129.8284233616401
 30
0.0
 10
100.5609591762487
 20
-129.8284233616401
 30
0.0
 10
100.5464897752106
 20
-129.4735785266594
 30
0.0
 10
100.3831922492098
 20
-129.4239691516718
 30
0.0
 10
100.269159588648
 20
-129.3922742732075
 30
0.0
 10
100.269159588648
 20
-129.3922742732075
 30
0.0
 10
100.269159588648
 20
-129.2362114477257
 30
0.0
 10
100.269159588648
 20
-129.2362114477257
 30
0.0
 10
100.269159588648
 20
-129.2362114477257
 30
0.0
 10
101.8135958946855
 20
-129.2362114477257
 30
0.0
 10
101.8135958946855
 20
-129.2362114477257
 30
0.0
 10
101.8135958946855
 20
-129.2362114477257
 30
0.0
 10
101.8135958946855
 20
-129.4759900934991
 30
0.0
 10
101.8135958946855
 20
-129.4759900934991
 30
0.0
  0
HATCH
  5
62
330
5D
100
AcDbEntity
  8
_U+30EC_U+30A4_U+30E4_U+30FC 1
 62
   179
420
  2234388
100
AcDbHatch
 10
0.0
 20
0.0
 30
0.0
210
0.0
220
0.0
230
1.0
  2
SOLID
 70
     1
 71
     0
 91
        1
 92
        1
 93
        1
 72
     4
 94
        3
 73
     0
 74
     1
 95
       26
 96
       22
 40
0.0
 40
0.0
 40
0.0
 40
0.0
 40
1.0
 40
1.0
 40
1.0
 40
2.0
 40
2.0
 40
2.0
 40
3.0
 40
3.0
 40
3.0
 40
4.0
 40
4.0
 40
4.0
 40
5.0
 40
5.0
 40
5.0
 40
6.0
 40
6.0
 40
6.0
 40
7.0
 40
7.0
 40
7.0
 40
7.0
 10
101.8135958946855
 20
-129.4759900934991
 10
101.8135958946855
 20
-129.4759900934991
 10
100.7090982821144
 20
-129.4759900934991
 10
100.7090982821144
 20
-129.4759900934991
 10
100.7090982821144
 20
-129.4759900934991
 10
100.7090982821144
 20
-129.8284233616401
 10
100.7090982821144
 20
-129.8284233616401
 10
100.7090982821144
 20
-129.8284233616401
 10
100.5609591762487
 20
-129.8284233616401
 10
100.5609591762487
 20
-129.8284233616401
 10
100.5464897752106
 20
-129.4735785266594
 10
100.3831922492098
 20
-129.4239691516718
 10
100.269159588648
 20
-129.3922742732075
 10
100.269159588648
 20
-129.3922742732075
 10
100.269159588648
 20
-129.2362114477257
 10
100.269159588648
 20
-129.2362114477257
 10
100.269159588648
 20
-129.2362114477257
 10
101.8135958946855
 20
-129.2362114477257
 10
101.8135958946855
 20
-129.2362114477257
 10
101.8135958946855
 20
-129.2362114477257
 10
101.8135958946855
 20
-129.4759900934991
 10
101.8135958946855
 20
-129.4759900934991
 97
        0
 97
        0
 75
     2
 76
     1
 98
        0
  0
SPLINE
  5
63
330
5D
100
AcDbEntity
  8
_U+30EC_U+30A4_U+30E4_U+30FC 1
370
     0
100
AcDbSpline
210
0.0
220
0.0
230
1.0
 70
    11
 71
     3
 72
    62
 73
    58
 74
     0
 42
0.0000000001
 43
0.0000000001
 12
1.0
 22
0.0
 32
0.0
 13
1.0
 23
0.0
 33
0.0
 40
0.0
 40
0.0
 40
0.0
 40
0.0
 40
1.0
 40
1.0
 40
1.0
 40
2.0
 40
2.0
 40
2.0
 40
3.0
 40
3.0
 40
3.0
 40
4.0
 40
4.0
 40
4.0
 40
5.0
 40
5.0
 40
5.0
 40
6.0
 40
6.0
 40
6.0
 40
7.0
 40
7.0
 40
7.0
 40
8.0
 40
8.0
 40
8.0
 40
9.0
 40
9.0
 40
9.0
 40
10.0
 40
10.0
 40
10.0
 40
11.0
 40
11.0
 40
11.0
 40
12.0
 40
12.0
 40
12.0
 40
13.0
 40
13.0
 40
13.0
 40
14.0
 40
14.0
 40
14.0
 40
15.0
 40
15.0
 40
15.0
 40
16.0
 40
16.0
 40
16.0
 40
17.0
 40
17.0
 40
17.0
 40
18.0
 40
18.0
 40
18.0
 40
19.0
 40
19.0
 40
19.0
 40
19.0
 10
101.8642387983187
 20
-128.1751220382687
 30
0.0
 10
101.8642387983187
 20
-128.2767523550836
 30
0.0
 10
101.8432237158586
 20
-128.5096408098865
 30
0.0
 10
101.6568440501066
 20
-128.6429660051656
 30
0.0
 10
101.544878446836
 20
-128.7222032013264
 30
0.0
 10
101.4453151873123
 20
-128.7266818254572
 30
0.0
 10
101.3609103479237
 20
-128.7311604495881
 30
0.0
 10
101.3609103479237
 20
-128.7311604495881
 30
0.0
 10
101.3609103479237
 20
-128.496204937494
 30
0.0
 10
101.3609103479237
 20
-128.496204937494
 30
0.0
 10
101.434635391308
 20
-128.4937933706543
 30
0.0
 10
101.6695909034021
 20
-128.482424555553
 30
0.0
 10
101.6695909034021
 20
-128.1796006623995
 30
0.0
 10
101.6695909034021
 20
-128.0324950851794
 30
0.0
 10
101.5999999746
 20
-127.8698865782756
 30
0.0
 10
101.3712456343794
 20
-127.8698865782756
 30
0.0
 10
101.254801406978
 20
-127.8698865782756
 30
0.0
 10
101.2062255606359
 20
-127.9105387050015
 30
0.0
 10
101.1745306821716
 20
-127.9446451503055
 30
0.0
 10
101.1004611292388
 20
-128.0235378369177
 30
0.0
 10
101.0880587854919
 20
-128.1479057839352
 30
0.0
 10
101.0880587854919
 20
-128.206816916733
 30
0.0
 10
101.0880587854919
 20
-128.227142980096
 30
0.0
 10
101.090125842783
 20
-128.2653835399823
 30
0.0
 10
101.0942599573653
 20
-128.2950113611554
 30
0.0
 10
101.0942599573653
 20
-128.2950113611554
 30
0.0
 10
100.8992675529002
 20
-128.2950113611554
 30
0.0
 10
100.8992675529002
 20
-128.2950113611554
 30
0.0
 10
100.9058132343222
 20
-128.2543592344295
 30
0.0
 10
100.9082248011618
 20
-128.2088839740242
 30
0.0
 10
100.9082248011618
 20
-128.2023382926022
 30
0.0
 10
100.9082248011618
 20
-128.1320583447031
 30
0.0
 10
100.8868652091533
 20
-127.9194959532632
 30
0.0
 10
100.6498426397681
 20
-127.9194959532632
 30
0.0
 10
100.4720757127292
 20
-127.9194959532632
 30
0.0
 10
100.4169541849652
 20
-128.0597113395129
 30
0.0
 10
100.4169541849652
 20
-128.1771890955599
 30
0.0
 10
100.4169541849652
 20
-128.4600314348989
 30
0.0
 10
100.6498426397681
 20
-128.4689886831605
 30
0.0
 10
100.7218451354098
 20
-128.4734673072914
 30
0.0
 10
100.7218451354098
 20
-128.4734673072914
 30
0.0
 10
100.7218451354098
 20
-128.6905083228621
 30
0.0
 10
100.7218451354098
 20
-128.6905083228621
 30
0.0
 10
100.5967881692953
 20
-128.6815510746005
 30
0.0
 10
100.220583742306
 20
-128.6522677629758
 30
0.0
 10
100.220583742306
 20
-128.1637532231674
 30
0.0
 10
100.220583742306
 20
-127.923974577394
 30
0.0
 10
100.3473632561632
 20
-127.6662814350973
 30
0.0
 10
100.6436414678947
 20
-127.6662814350973
 30
0.0
 10
100.8296766240981
 20
-127.6662814350973
 30
0.0
 10
100.9123589157441
 20
-127.7682562614607
 30
0.0
 10
100.9736816153816
 20
-127.8743652024064
 30
0.0
 10
101.0012423792636
 20
-127.8089083881867
 30
0.0
 10
101.0815131040699
 20
-127.6142604932701
 30
0.0
 10
101.3588432906325
 20
-127.6142604932701
 30
0.0
 10
101.697151667284
 20
-127.6142604932701
 30
0.0
 10
101.8642387983187
 20
-127.8788438265372
 30
0.0
 10
101.8642387983187
 20
-128.1751220382687
 30
0.0
  0
HATCH
  5
64
330
5D
100
AcDbEntity
  8
_U+30EC_U+30A4_U+30E4_U+30FC 1
 62
   179
420
  2234388
100
AcDbHatch
 10
0.0
 20
0.0
 30
0.0
210
0.0
220
0.0
230
1.0
  2
SOLID
 70
     1
 71
     0
 91
        1
 92
        1
 93
        1
 72
     4
 94
        3
 73
     0
 74
     1
 95
       62
 96
       58
 40
0.0
 40
0.0
 40
0.0
 40
0.0
 40
1.0
 40
1.0
 40
1.0
 40
2.0
 40
2.0
 40
2.0
 40
3.0
 40
3.0
 40
3.0
 40
4.0
 40
4.0
 40
4.0
 40
5.0
 40
5.0
 40
5.0
 40
6.0
 40
6.0
 40
6.0
 40
7.0
 40
7.0
 40
7.0
 40
8.0
 40
8.0
 40
8.0
 40
9.0
 40
9.0
 40
9.0
 40
10.0
 40
10.0
 40
10.0
 40
11.0
 40
11.0
 40
11.0
 40
12.0
 40
12.0
 40
12.0
 40
13.0
 40
13.0
 40
13.0
 40
14.0
 40
14.0
 40
14.0
 40
15.0
 40
15.0
 40
15.0
 40
16.0
 40
16.0
 40
16.0
 40
17.0
 40
17.0
 40
17.0
 40
18.0
 40
18.0
 40
18.0
 40
19.0
 40
19.0
 40
19.0
 40
19.0
 10
101.8642387983187
 20
-128.1751220382687
 10
101.8642387983187
 20
-128.2767523550836
 10
101.8432237158586
 20
-128.5096408098865
 10
101.6568440501066
 20
-128.6429660051656
 10
101.544878446836
 20
-128.7222032013264
 10
101.4453151873123
 20
-128.7266818254572
 10
101.3609103479237
 20
-128.7311604495881
 10
101.3609103479237
 20
-128.7311604495881
 10
101.3609103479237
 20
-128.496204937494
 10
101.3609103479237
 20
-128.496204937494
 10
101.434635391308
 20
-128.4937933706543
 10
101.6695909034021
 20
-128.482424555553
 10
101.6695909034021
 20
-128.1796006623995
 10
101.6695909034021
 20
-128.0324950851794
 10
101.5999999746
 20
-127.8698865782756
 10
101.3712456343794
 20
-127.8698865782756
 10
101.254801406978
 20
-127.8698865782756
 10
101.2062255606359
 20
-127.9105387050015
 10
101.1745306821716
 20
-127.9446451503055
 10
101.1004611292388
 20
-128.0235378369177
 10
101.0880587854919
 20
-128.1479057839352
 10
101.0880587854919
 20
-128.206816916733
 10
101.0880587854919
 20
-128.227142980096
 10
101.090125842783
 20
-128.2653835399823
 10
101.0942599573653
 20
-128.2950113611554
 10
101.0942599573653
 20
-128.2950113611554
 10
100.8992675529002
 20
-128.2950113611554
 10
100.8992675529002
 20
-128.2950113611554
 10
100.9058132343222
 20
-128.2543592344295
 10
100.9082248011618
 20
-128.2088839740242
 10
100.9082248011618
 20
-128.2023382926022
 10
100.9082248011618
 20
-128.1320583447031
 10
100.8868652091533
 20
-127.9194959532632
 10
100.6498426397681
 20
-127.9194959532632
 10
100.4720757127292
 20
-127.9194959532632
 10
100.4169541849652
 20
-128.0597113395129
 10
100.4169541849652
 20
-128.1771890955599
 10
100.4169541849652
 20
-128.4600314348989
 10
100.6498426397681
 20
-128.4689886831605
 10
100.7218451354098
 20
-128.4734673072914
 10
100.7218451354098
 20
-128.4734673072914
 10
100.7218451354098
 20
-128.6905083228621
 10
100.7218451354098
 20
-128.6905083228621
 10
100.5967881692953
 20
-128.6815510746005
 10
100.220583742306
 20
-128.6522677629758
 10
100.220583742306
 20
-128.1637532231674
 10
100.220583742306
 20
-127.923974577394
 10
100.3473632561632
 20
-127.6662814350973
 10
100.6436414678947
 20
-127.6662814350973
 10
100.8296766240981
 20
-127.6662814350973
 10
100.9123589157441
 20
-127.7682562614607
 10
100.9736816153816
 20
-127.8743652024064
 10
101.0012423792636
 20
-127.8089083881867
 10
101.0815131040699
 20
-127.6142604932701
 10
101.3588432906325
 20
-127.6142604932701
 10
101.697151667284
 20
-127.6142604932701
 10
101.8642387983187
 20
-127.8788438265372
 10
101.8642387983187
 20
-128.1751220382687
 97
        0
 97
        0
 75
     2
 76
     1
 98
        0
  0
ENDBLK
  5
60
330
5D
100
AcDbEntity
  8
0
100
AcDbBlockEnd
  0
BLOCK
  5
67
330
65
100
AcDbEntity
  8
0
100
AcDbBlockBegin
  2
block 4
 70
     0
 10
0.0
 20
0.0
 30
0.0
  3
block 4
  1

  0
SPLINE
  5
69
330
65
100
AcDbEntity
  8
_U+30EC_U+30A4_U+30E4_U+30FC 1
370
     0
100
AcDbSpline
210
0.0
220
0.0
230
1.0
 70
    11
 71
     3
 72
    26
 73
    22
 74
     0
 42
0.0000000001
 43
0.0000000001
 12
1.0
 22
0.0
 32
0.0
 13
1.0
 23
0.0
 33
0.0
 40
0.0
 40
0.0
 40
0.0
 40
0.0
 40
1.0
 40
1.0
 40
1.0
 40
2.0
 40
2.0
 40
2.0
 40
3.0
 40
3.0
 40
3.0
 40
4.0
 40
4.0
 40
4.0
 40
5.0
 40
5.0
 40
5.0
 40
6.0
 40
6.0
 40
6.0
 40
7.0
 40
7.0
 40
7.0
 40
7.0
 10
85.27765432980907
 20
-139.6493570614418
 30
0.0
 10
85.27765432980907
 20
-139.6493570614418
 30
0.0
 10
85.27765432980907
 20
-138.5452039584193
 30
0.0
 10
85.27765432980907
 20
-138.5452039584193
 30
0.0
 10
85.27765432980907
 20
-138.5452039584193
 30
0.0
 10
84.925221061668
 20
-138.5452039584193
 30
0.0
 10
84.925221061668
 20
-138.5452039584193
 30
0.0
 10
84.925221061668
 20
-138.5452039584193
 30
0.0
 10
84.925221061668
 20
-138.3970648525535
 30
0.0
 10
84.925221061668
 20
-138.3970648525535
 30
0.0
 10
85.28006589664874
 20
-138.3822509419669
 30
0.0
 10
85.32967527163633
 20
-138.2192979255146
 30
0.0
 10
85.36137015010064
 20
-138.1049207554043
 30
0.0
 10
85.36137015010064
 20
-138.1049207554043
 30
0.0
 10
85.51743297558245
 20
-138.1049207554043
 30
0.0
 10
85.51743297558245
 20
-138.1049207554043
 30
0.0
 10
85.51743297558245
 20
-138.1049207554043
 30
0.0
 10
85.51743297558245
 20
-139.6493570614418
 30
0.0
 10
85.51743297558245
 20
-139.6493570614418
 30
0.0
 10
85.51743297558245
 20
-139.6493570614418
 30
0.0
 10
85.27765432980907
 20
-139.6493570614418
 30
0.0
 10
85.27765432980907
 20
-139.6493570614418
 30
0.0
  0
HATCH
  5
6A
330
65
100
AcDbEntity
  8
_U+30EC_U+30A4_U+30E4_U+30FC 1
 62
   179
420
  2234388
100
AcDbHatch
 10
0.0
 20
0.0
 30
0.0
210
0.0
220
0.0
230
1.0
  2
SOLID
 70
     1
 71
     0
 91
        1
 92
        1
 93
        1
 72
     4
 94
        3
 73
     0
 74
     1
 95
       26
 96
       22
 40
0.0
 40
0.0
 40
0.0
 40
0.0
 40
1.0
 40
1.0
 40
1.0
 40
2.0
 40
2.0
 40
2.0
 40
3.0
 40
3.0
 40
3.0
 40
4.0
 40
4.0
 40
4.0
 40
5.0
 40
5.0
 40
5.0
 40
6.0
 40
6.0
 40
6.0
 40
7.0
 40
7.0
 40
7.0
 40
7.0
 10
85.27765432980907
 20
-139.6493570614418
 10
85.27765432980907
 20
-139.6493570614418
 10
85.27765432980907
 20
-138.5452039584193
 10
85.27765432980907
 20
-138.5452039584193
 10
85.27765432980907
 20
-138.5452039584193
 10
84.925221061668
 20
-138.5452039584193
 10
84.925221061668
 20
-138.5452039584193
 10
84.925221061668
 20
-138.5452039584193
 10
84.925221061668
 20
-138.3970648525535
 10
84.925221061668
 20
-138.3970648525535
 10
85.28006589664874
 20
-138.3822509419669
 10
85.32967527163633
 20
-138.2192979255146
 10
85.36137015010064
 20
-138.1049207554043
 10
85.36137015010064
 20
-138.1049207554043
 10
85.51743297558245
 20
-138.1049207554043
 10
85.51743297558245
 20
-138.1049207554043
 10
85.51743297558245
 20
-138.1049207554043
 10
85.51743297558245
 20
-139.6493570614418
 10
85.51743297558245
 20
-139.6493570614418
 10
85.51743297558245
 20
-139.6493570614418
 10
85.27765432980907
 20
-139.6493570614418
 10
85.27765432980907
 20
-139.6493570614418
 97
        0
 97
        0
 75
     2
 76
     1
 98
        0
  0
SPLINE
  5
6B
330
65
100
AcDbEntity
  8
_U+30EC_U+30A4_U+30E4_U+30FC 1
370
     0
100
AcDbSpline
210
0.0
220
0.0
230
1.0
 70
    11
 71
     3
 72
    53
 73
    49
 74
     0
 42
0.0000000001
 43
0.0000000001
 12
1.0
 22
0.0
 32
0.0
 13
1.0
 23
0.0
 33
0.0
 40
0.0
 40
0.0
 40
0.0
 40
0.0
 40
1.0
 40
1.0
 40
1.0
 40
2.0
 40
2.0
 40
2.0
 40
3.0
 40
3.0
 40
3.0
 40
4.0
 40
4.0
 40
4.0
 40
5.0
 40
5.0
 40
5.0
 40
6.0
 40
6.0
 40
6.0
 40
7.0
 40
7.0
 40
7.0
 40
8.0
 40
8.0
 40
8.0
 40
9.0
 40
9.0
 40
9.0
 40
10.0
 40
10.0
 40
10.0
 40
11.0
 40
11.0
 40
11.0
 40
12.0
 40
12.0
 40
12.0
 40
13.0
 40
13.0
 40
13.0
 40
14.0
 40
14.0
 40
14.0
 40
15.0
 40
15.0
 40
15.0
 40
16.0
 40
16.0
 40
16.0
 40
16.0
 10
86.56715356993807
 20
-139.699999965075
 30
0.0
 10
86.48343774964651
 20
-139.699999965075
 30
0.0
 10
86.37526175140967
 20
-139.6831189971973
 30
0.0
 10
86.26639673407577
 20
-139.6197292402687
 30
0.0
 10
86.08105059696932
 20
-139.5098306942892
 30
0.0
 10
86.0586574763152
 20
-139.3785725563012
 30
0.0
 10
86.03833141295223
 20
-139.2707410676129
 30
0.0
 10
86.03833141295223
 20
-139.2707410676129
 30
0.0
 10
86.27569849188595
 20
-139.2707410676129
 30
0.0
 10
86.27569849188595
 20
-139.2707410676129
 30
0.0
 10
86.33426511513518
 20
-139.4695230771118
 30
0.0
 10
86.47000187725403
 20
-139.4991508982849
 30
0.0
 10
86.56956513677775
 20
-139.4991508982849
 30
0.0
 10
86.71873777128907
 20
-139.4991508982849
 30
0.0
 10
86.88169078774139
 20
-139.3995876387612
 30
0.0
 10
86.88169078774139
 20
-139.1670436935069
 30
0.0
 10
86.88169078774139
 20
-138.9110730989528
 30
0.0
 10
86.68945445966445
 20
-138.8414821701508
 30
0.0
 10
86.5606078885161
 20
-138.8414821701508
 30
0.0
 10
86.52650144321213
 20
-138.8414821701508
 30
0.0
 10
86.37526175140967
 20
-138.8414821701508
 30
0.0
 10
86.28017711601676
 20
-138.9703287412991
 30
0.0
 10
86.28017711601676
 20
-138.9703287412991
 30
0.0
 10
86.09241941207065
 20
-138.9510362065817
 30
0.0
 10
86.09241941207065
 20
-138.9510362065817
 30
0.0
 10
86.09241941207065
 20
-138.9510362065817
 30
0.0
 10
86.221265983219
 20
-138.1049207554043
 30
0.0
 10
86.221265983219
 20
-138.1049207554043
 30
0.0
 10
86.221265983219
 20
-138.1049207554043
 30
0.0
 10
87.05325654290682
 20
-138.1049207554043
 30
0.0
 10
87.05325654290682
 20
-138.1049207554043
 30
0.0
 10
87.05325654290682
 20
-138.1049207554043
 30
0.0
 10
87.05325654290682
 20
-138.2999131598695
 30
0.0
 10
87.05325654290682
 20
-138.2999131598695
 30
0.0
 10
87.05325654290682
 20
-138.2999131598695
 30
0.0
 10
86.39558781477264
 20
-138.2999131598695
 30
0.0
 10
86.39558781477264
 20
-138.2999131598695
 30
0.0
 10
86.39558781477264
 20
-138.2999131598695
 30
0.0
 10
86.32530786687354
 20
-138.7229708854582
 30
0.0
 10
86.32530786687354
 20
-138.7229708854582
 30
0.0
 10
86.39076468109329
 20
-138.6888644401542
 30
0.0
 10
86.47895912551569
 20
-138.6485568229768
 30
0.0
 10
86.60573863937287
 20
-138.6485568229768
 30
0.0
 10
86.87686765406204
 20
-138.6485568229768
 30
0.0
 10
87.1300821722279
 20
-138.8349364887288
 30
0.0
 10
87.1300821722279
 20
-139.148095668338
 30
0.0
 10
87.1300821722279
 20
-139.4653889625295
 30
0.0
 10
86.89064803600304
 20
-139.699999965075
 30
0.0
 10
86.56715356993807
 20
-139.699999965075
 30
0.0
  0
HATCH
  5
6C
330
65
100
AcDbEntity
  8
_U+30EC_U+30A4_U+30E4_U+30FC 1
 62
   179
420
  2234388
100
AcDbHatch
 10
0.0
 20
0.0
 30
0.0
210
0.0
220
0.0
230
1.0
  2
SOLID
 70
     1
 71
     0
 91
        1
 92
        1
 93
        1
 72
     4
 94
        3
 73
     0
 74
     1
 95
       53
 96
       49
 40
0.0
 40
0.0
 40
0.0
 40
0.0
 40
1.0
 40
1.0
 40
1.0
 40
2.0
 40
2.0
 40
2.0
 40
3.0
 40
3.0
 40
3.0
 40
4.0
 40
4.0
 40
4.0
 40
5.0
 40
5.0
 40
5.0
 40
6.0
 40
6.0
 40
6.0
 40
7.0
 40
7.0
 40
7.0
 40
8.0
 40
8.0
 40
8.0
 40
9.0
 40
9.0
 40
9.0
 40
10.0
 40
10.0
 40
10.0
 40
11.0
 40
11.0
 40
11.0
 40
12.0
 40
12.0
 40
12.0
 40
13.0
 40
13.0
 40
13.0
 40
14.0
 40
14.0
 40
14.0
 40
15.0
 40
15.0
 40
15.0
 40
16.0
 40
16.0
 40
16.0
 40
16.0
 10
86.56715356993807
 20
-139.699999965075
 10
86.48343774964651
 20
-139.699999965075
 10
86.37526175140967
 20
-139.6831189971973
 10
86.26639673407577
 20
-139.6197292402687
 10
86.08105059696932
 20
-139.5098306942892
 10
86.0586574763152
 20
-139.3785725563012
 10
86.03833141295223
 20
-139.2707410676129
 10
86.03833141295223
 20
-139.2707410676129
 10
86.27569849188595
 20
-139.2707410676129
 10
86.27569849188595
 20
-139.2707410676129
 10
86.33426511513518
 20
-139.4695230771118
 10
86.47000187725403
 20
-139.4991508982849
 10
86.56956513677775
 20
-139.4991508982849
 10
86.71873777128907
 20
-139.4991508982849
 10
86.88169078774139
 20
-139.3995876387612
 10
86.88169078774139
 20
-139.1670436935069
 10
86.88169078774139
 20
-138.9110730989528
 10
86.68945445966445
 20
-138.8414821701508
 10
86.5606078885161
 20
-138.8414821701508
 10
86.52650144321213
 20
-138.8414821701508
 10
86.37526175140967
 20
-138.8414821701508
 10
86.28017711601676
 20
-138.9703287412991
 10
86.28017711601676
 20
-138.9703287412991
 10
86.09241941207065
 20
-138.9510362065817
 10
86.09241941207065
 20
-138.9510362065817
 10
86.09241941207065
 20
-138.9510362065817
 10
86.221265983219
 20
-138.1049207554043
 10
86.221265983219
 20
-138.1049207554043
 10
86.221265983219
 20
-138.1049207554043
 10
87.05325654290682
 20
-138.1049207554043
 10
87.05325654290682
 20
-138.1049207554043
 10
87.05325654290682
 20
-138.1049207554043
 10
87.05325654290682
 20
-138.2999131598695
 10
87.05325654290682
 20
-138.2999131598695
 10
87.05325654290682
 20
-138.2999131598695
 10
86.39558781477264
 20
-138.2999131598695
 10
86.39558781477264
 20
-138.2999131598695
 10
86.39558781477264
 20
-138.2999131598695
 10
86.32530786687354
 20
-138.7229708854582
 10
86.32530786687354
 20
-138.7229708854582
 10
86.39076468109329
 20
-138.6888644401542
 10
86.47895912551569
 20
-138.6485568229768
 10
86.60573863937287
 20
-138.6485568229768
 10
86.87686765406204
 20
-138.6485568229768
 10
87.1300821722279
 20
-138.8349364887288
 10
87.1300821722279
 20
-139.148095668338
 10
87.1300821722279
 20
-139.4653889625295
 10
86.89064803600304
 20
-139.699999965075
 10
86.56715356993807
 20
-139.699999965075
 97
        0
 97
        0
 75
     2
 76
     1
 98
        0
  0
ENDBLK
  5
68
330
65
100
AcDbEntity
  8
0
100
AcDbBlockEnd
  0
ENDSEC
  0
SECTION
  2
ENTITIES
  0
POLYLINE
  5
41
330
1F
100
AcDbEntity
  8
_U+30EC_U+30A4_U+30E4_U+30FC 1
 62
   179
420
  2234388
370
    25
100
AcDb2dPolyline
 66
     1
 10
0.0
 20
0.0
 30
0.0
  0
VERTEX
  5
42
330
41
100
AcDbEntity
  8
_U+30EC_U+30A4_U+30E4_U+30FC 1
 62
   179
420
  2234388
370
    25
100
AcDbVertex
100
AcDb2dVertex
 10
78.45893994279012
 20
-123.2944574691765
 30
0.0
  0
VERTEX
  5
43
330
41
100
AcDbEntity
  8
_U+30EC_U+30A4_U+30E4_U+30FC 1
 62
   179
420
  2234388
370
    25
100
AcDbVertex
100
AcDb2dVertex
 10
78.45893994279012
 20
-135.2944052439539
 30
0.0
  0
SEQEND
  5
44
330
41
100
AcDbEntity
  8
_U+30EC_U+30A4_U+30E4_U+30FC 1
 62
   179
420
  2234388
370
    25
  0
POLYLINE
  5
45
330
1F
100
AcDbEntity
  8
_U+30EC_U+30A4_U+30E4_U+30FC 1
 62
   179
420
  2234388
370
    25
100
AcDb2dPolyline
 66
     1
 10
0.0
 20
0.0
 30
0.0
  0
VERTEX
  5
46
330
45
100
AcDbEntity
  8
_U+30EC_U+30A4_U+30E4_U+30FC 1
 62
   179
420
  2234388
370
    25
100
AcDbVertex
100
AcDb2dVertex
 10
79.45973519503549
 20
-136.2945302437042
 30
0.0
  0
VERTEX
  5
47
330
45
100
AcDbEntity
  8
_U+30EC_U+30A4_U+30E4_U+30FC 1
 62
   179
420
  2234388
370
    25
100
AcDbVertex
100
AcDb2dVertex
 10
92.95934096174297
 20
-136.2945302437042
 30
0.0
  0
SEQEND
  5
48
330
45
100
AcDbEntity
  8
_U+30EC_U+30A4_U+30E4_U+30FC 1
 62
   179
420
  2234388
370
    25
  0
POLYLINE
  5
49
330
1F
100
AcDbEntity
  8
_U+30EC_U+30A4_U+30E4_U+30FC 1
 62
   179
420
  2234388
370
    25
100
AcDb2dPolyline
 66
     1
 10
0.0
 20
0.0
 30
0.0
  0
VERTEX
  5
4A
330
49
100
AcDbEntity
  8
_U+30EC_U+30A4_U+30E4_U+30FC 1
 62
   179
420
  2234388
370
    25
100
AcDbVertex
100
AcDb2dVertex
 10
79.45973519503549
 20
-122.2945088583154
 30
0.0
  0
VERTEX
  5
4B
330
49
100
AcDbEntity
  8
_U+30EC_U+30A4_U+30E4_U+30FC 1
 62
   179
420
  2234388
370
    25
100
AcDbVertex
100
AcDb2dVertex
 10
98.4594638769787
 20
-122.2945088583154
 30
0.0
  0
SEQEND
  5
4C
330
49
100
AcDbEntity
  8
_U+30EC_U+30A4_U+30E4_U+30FC 1
 62
   179
420
  2234388
370
    25
  0
POLYLINE
  5
4D
330
1F
100
AcDbEntity
  8
_U+30EC_U+30A4_U+30E4_U+30FC 1
 62
   179
420
  2234388
370
    25
100
AcDb2dPolyline
 66
     1
 10
0.0
 20
0.0
 30
0.0
  0
VERTEX
  5
4E
330
4D
100
AcDbEntity
  8
_U+30EC_U+30A4_U+30E4_U+30FC 1
 62
   179
420
  2234388
370
    25
100
AcDbVertex
100
AcDb2dVertex
 10
88.45902775566303
 20
-135.2944052439539
 30
0.0
  0
VERTEX
  5
4F
330
4D
100
AcDbEntity
  8
_U+30EC_U+30A4_U+30E4_U+30FC 1
 62
   179
420
  2234388
370
    25
100
AcDbVertex
100
AcDb2dVertex
 10
92.95934096174297
 20
-135.2944052439539
 30
0.0
  0
SEQEND
  5
50
330
4D
100
AcDbEntity
  8
_U+30EC_U+30A4_U+30E4_U+30FC 1
 62
   179
420
  2234388
370
    25
  0
SPLINE
  5
51
330
1F
100
AcDbEntity
  8
_U+30EC_U+30A4_U+30E4_U+30FC 1
 62
   179
420
  2234388
370
    25
100
AcDbSpline
210
0.0
220
0.0
230
1.0
 70
     8
 71
     3
 72
    11
 73
     7
 74
     0
 42
0.0000000001
 43
0.0000000001
 12
1.0
 22
0.0
 32
0.0
 13
1.0
 23
0.0
 33
0.0
 40
0.0
 40
0.0
 40
0.0
 40
0.0
 40
1.0
 40
1.0
 40
1.0
 40
2.0
 40
2.0
 40
2.0
 40
2.0
 10
92.95934096174297
 20
-136.2945302437042
 30
0.0
 10
93.23531901025774
 20
-136.2945302437042
 30
0.0
 10
93.45922706010091
 20
-136.0705869104269
 30
0.0
 10
93.45922706010091
 20
-135.7946441327182
 30
0.0
 10
93.45922706010091
 20
-135.5183485772318
 30
0.0
 10
93.23531901025774
 20
-135.2944052439539
 30
0.0
 10
92.95934096174297
 20
-135.2944052439539
 30
0.0
  0
SPLINE
  5
52
330
1F
100
AcDbEntity
  8
_U+30EC_U+30A4_U+30E4_U+30FC 1
 62
   179
420
  2234388
370
    25
100
AcDbSpline
210
0.0
220
0.0
230
1.0
 70
     8
 71
     3
 72
     8
 73
     4
 74
     0
 42
0.0000000001
 43
0.0000000001
 12
1.0
 22
0.0
 32
0.0
 13
1.0
 23
0.0
 33
0.0
 40
0.0
 40
0.0
 40
0.0
 40
0.0
 40
1.0
 40
1.0
 40
1.0
 40
1.0
 10
78.45893994279012
 20
-135.2944052439539
 30
0.0
 10
78.45893994279012
 20
-135.8463260771494
 30
0.0
 10
78.90714409802216
 20
-136.2945302437042
 30
0.0
 10
79.45906491727482
 20
-136.2945302437042
 30
0.0
  0
SPLINE
  5
53
330
1F
100
AcDbEntity
  8
_U+30EC_U+30A4_U+30E4_U+30FC 1
 62
   179
420
  2234388
370
    25
100
AcDbSpline
210
0.0
220
0.0
230
1.0
 70
     8
 71
     3
 72
     8
 73
     4
 74
     0
 42
0.0000000001
 43
0.0000000001
 12
1.0
 22
0.0
 32
0.0
 13
1.0
 23
0.0
 33
0.0
 40
0.0
 40
0.0
 40
0.0
 40
0.0
 40
1.0
 40
1.0
 40
1.0
 40
1.0
 10
79.45973519503549
 20
-122.2945088583154
 30
0.0
 10
78.90714409802216
 20
-122.2945088583154
 30
0.0
 10
78.45893994279012
 20
-122.7422191359811
 30
0.0
 10
78.45893994279012
 20
-123.2942810802876
 30
0.0
  0
INSERT
  5
55
330
1F
100
AcDbEntity
  8
_U+30EC_U+30A4_U+30E4_U+30FC 1
100
AcDbBlockReference
  2
block 2
 10
0.0
 20
0.0
 30
0.0
  0
INSERT
  5
5E
330
1F
100
AcDbEntity
  8
_U+30EC_U+30A4_U+30E4_U+30FC 1
100
AcDbBlockReference
  2
block 3
 10
0.0
 20
0.0
 30
0.0
  0
INSERT
  5
66
330
1F
100
AcDbEntity
  8
_U+30EC_U+30A4_U+30E4_U+30FC 1
100
AcDbBlockReference
  2
block 4
 10
0.0
 20
0.0
 30
0.0
  0
SPLINE
  5
6D
330
1F
100
AcDbEntity
  8
_U+30EC_U+30A4_U+30E4_U+30FC 1
 62
   179
420
  2234388
370
     9
100
AcDbSpline
210
0.0
220
0.0
230
1.0
 70
    11
 71
     3
 72
    17
 73
    13
 74
     0
 42
0.0000000001
 43
0.0000000001
 12
1.0
 22
0.0
 32
0.0
 13
1.0
 23
0.0
 33
0.0
 40
0.0
 40
0.0
 40
0.0
 40
0.0
 40
1.0
 40
1.0
 40
1.0
 40
2.0
 40
2.0
 40
2.0
 40
3.0
 40
3.0
 40
3.0
 40
4.0
 40
4.0
 40
4.0
 40
4.0
 10
93.55913608772146
 20
-140.2946069093707
 30
0.0
 10
93.55913608772146
 20
-140.2395030204957
 30
0.0
 10
93.51436622536087
 20
-140.1943827427294
 30
0.0
 10
93.45922706010091
 20
-140.1943827427294
 30
0.0
 10
93.40412317261784
 20
-140.1943827427294
 30
0.0
 10
93.35932039598309
 20
-140.2395030204957
 30
0.0
 10
93.35932039598309
 20
-140.2946069093707
 30
0.0
 10
93.35932039598309
 20
-140.3497460760237
 30
0.0
 10
93.40412317261784
 20
-140.3945488537905
 30
0.0
 10
93.45922706010091
 20
-140.3945488537905
 30
0.0
 10
93.51436622536087
 20
-140.3945488537905
 30
0.0
 10
93.55913608772146
 20
-140.3497460760237
 30
0.0
 10
93.55913608772146
 20
-140.2946069093707
 30
0.0
  0
SPLINE
  5
6E
330
1F
100
AcDbEntity
  8
_U+30EC_U+30A4_U+30E4_U+30FC 1
 62
   179
420
  2234388
370
     9
100
AcDbSpline
210
0.0
220
0.0
230
1.0
 70
    11
 71
     3
 72
    17
 73
    13
 74
     0
 42
0.0000000001
 43
0.0000000001
 12
1.0
 22
0.0
 32
0.0
 13
1.0
 23
0.0
 33
0.0
 40
0.0
 40
0.0
 40
0.0
 40
0.0
 40
1.0
 40
1.0
 40
1.0
 40
2.0
 40
2.0
 40
2.0
 40
3.0
 40
3.0
 40
3.0
 40
4.0
 40
4.0
 40
4.0
 40
4.0
 10
78.55919938467675
 20
-140.2946069093707
 30
0.0
 10
78.55919938467675
 20
-140.2395030204957
 30
0.0
 10
78.51474938581076
 20
-140.1943827427294
 30
0.0
 10
78.4592927205589
 20
-140.1943827427294
 30
0.0
 10
78.40450831373214
 20
-140.1943827427294
 30
0.0
 10
78.35938605644107
 20
-140.2395030204957
 30
0.0
 10
78.35938605644107
 20
-140.2946069093707
 30
0.0
 10
78.35938605644107
 20
-140.3497460760237
 30
0.0
 10
78.40450831373214
 20
-140.3945488537905
 30
0.0
 10
78.4592927205589
 20
-140.3945488537905
 30
0.0
 10
78.51474938581076
 20
-140.3945488537905
 30
0.0
 10
78.55919938467675
 20
-140.3497460760237
 30
0.0
 10
78.55919938467675
 20
-140.2946069093707
 30
0.0
  0
SPLINE
  5
6F
330
1F
100
AcDbEntity
  8
_U+30EC_U+30A4_U+30E4_U+30FC 1
 62
   179
420
  2234388
370
     9
100
AcDbSpline
210
0.0
220
0.0
230
1.0
 70
    11
 71
     3
 72
    17
 73
    13
 74
     0
 42
0.0000000001
 43
0.0000000001
 12
1.0
 22
0.0
 32
0.0
 13
1.0
 23
0.0
 33
0.0
 40
0.0
 40
0.0
 40
0.0
 40
0.0
 40
1.0
 40
1.0
 40
1.0
 40
2.0
 40
2.0
 40
2.0
 40
3.0
 40
3.0
 40
3.0
 40
4.0
 40
4.0
 40
4.0
 40
4.0
 10
78.55919938467675
 20
-118.2944321926486
 30
0.0
 10
78.55919938467675
 20
-118.2391166371069
 30
0.0
 10
78.51474938581076
 20
-118.194666637118
 30
0.0
 10
78.4592927205589
 20
-118.194666637118
 30
0.0
 10
78.40450831373214
 20
-118.194666637118
 30
0.0
 10
78.35938605644107
 20
-118.2391166371069
 30
0.0
 10
78.35938605644107
 20
-118.2944321926486
 30
0.0
 10
78.35938605644107
 20
-118.3498888593013
 30
0.0
 10
78.40450831373214
 20
-118.3946563592902
 30
0.0
 10
78.4592927205589
 20
-118.3946563592902
 30
0.0
 10
78.51474938581076
 20
-118.3946563592902
 30
0.0
 10
78.55919938467675
 20
-118.3498888593013
 30
0.0
 10
78.55919938467675
 20
-118.2944321926486
 30
0.0
  0
SPLINE
  5
70
330
1F
100
AcDbEntity
  8
_U+30EC_U+30A4_U+30E4_U+30FC 1
 62
   179
420
  2234388
370
     9
100
AcDbSpline
210
0.0
220
0.0
230
1.0
 70
    11
 71
     3
 72
    17
 73
    13
 74
     0
 42
0.0000000001
 43
0.0000000001
 12
1.0
 22
0.0
 32
0.0
 13
1.0
 23
0.0
 33
0.0
 40
0.0
 40
0.0
 40
0.0
 40
0.0
 40
1.0
 40
1.0
 40
1.0
 40
2.0
 40
2.0
 40
2.0
 40
3.0
 40
3.0
 40
3.0
 40
4.0
 40
4.0
 40
4.0
 40
4.0
 10
98.55968804108844
 20
-118.2944321926486
 30
0.0
 10
98.55968804108844
 20
-118.2391166371069
 30
0.0
 10
98.51421498669299
 20
-118.194666637118
 30
0.0
 10
98.4597813769706
 20
-118.194666637118
 30
0.0
 10
98.40397193394998
 20
-118.194666637118
 30
0.0
 10
98.35987471285276
 20
-118.2391166371069
 30
0.0
 10
98.35987471285276
 20
-118.2944321926486
 30
0.0
 10
98.35987471285276
 20
-118.3498888593013
 30
0.0
 10
98.40397193394998
 20
-118.3946563592902
 30
0.0
 10
98.4597813769706
 20
-118.3946563592902
 30
0.0
 10
98.51421498669299
 20
-118.3946563592902
 30
0.0
 10
98.55968804108844
 20
-118.3498888593013
 30
0.0
 10
98.55968804108844
 20
-118.2944321926486
 30
0.0
  0
SPLINE
  5
71
330
1F
100
AcDbEntity
  8
_U+30EC_U+30A4_U+30E4_U+30FC 1
 62
   179
420
  2234388
370
     9
100
AcDbSpline
210
0.0
220
0.0
230
1.0
 70
    11
 71
     3
 72
    17
 73
    13
 74
     0
 42
0.0000000001
 43
0.0000000001
 12
1.0
 22
0.0
 32
0.0
 13
1.0
 23
0.0
 33
0.0
 40
0.0
 40
0.0
 40
0.0
 40
0.0
 40
1.0
 40
1.0
 40
1.0
 40
2.0
 40
2.0
 40
2.0
 40
3.0
 40
3.0
 40
3.0
 40
4.0
 40
4.0
 40
4.0
 40
4.0
 10
102.5594471057127
 20
-122.2945088583154
 30
0.0
 10
102.5594471057127
 20
-122.2390521916624
 30
0.0
 10
102.5143268290861
 20
-122.194249413896
 30
0.0
 10
102.4598932193637
 20
-122.194249413896
 30
0.0
 10
102.4040837763431
 20
-122.194249413896
 30
0.0
 10
102.3596337774771
 20
-122.2390521916624
 30
0.0
 10
102.3596337774771
 20
-122.2945088583154
 30
0.0
 10
102.3596337774771
 20
-122.3494716360793
 30
0.0
 10
102.4040837763431
 20
-122.3942391360682
 30
0.0
 10
102.4598932193637
 20
-122.3942391360682
 30
0.0
 10
102.5143268290861
 20
-122.3942391360682
 30
0.0
 10
102.5594471057127
 20
-122.3494716360793
 30
0.0
 10
102.5594471057127
 20
-122.2945088583154
 30
0.0
  0
SPLINE
  5
72
330
1F
100
AcDbEntity
  8
_U+30EC_U+30A4_U+30E4_U+30FC 1
 62
   179
420
  2234388
370
     9
100
AcDbSpline
210
0.0
220
0.0
230
1.0
 70
    11
 71
     3
 72
    17
 73
    13
 74
     0
 42
0.0000000001
 43
0.0000000001
 12
1.0
 22
0.0
 32
0.0
 13
1.0
 23
0.0
 33
0.0
 40
0.0
 40
0.0
 40
0.0
 40
0.0
 40
1.0
 40
1.0
 40
1.0
 40
2.0
 40
2.0
 40
2.0
 40
3.0
 40
3.0
 40
3.0
 40
4.0
 40
4.0
 40
4.0
 40
4.0
 10
102.5594471057127
 20
-135.2944052439539
 30
0.0
 10
102.5594471057127
 20
-135.239301355079
 30
0.0
 10
102.5143268290861
 20
-135.1944985773122
 30
0.0
 10
102.4598932193637
 20
-135.1944985773122
 30
0.0
 10
102.4040837763431
 20
-135.1944985773122
 30
0.0
 10
102.3596337774771
 20
-135.239301355079
 30
0.0
 10
102.3596337774771
 20
-135.2944052439539
 30
0.0
 10
102.3596337774771
 20
-135.3495444106069
 30
0.0
 10
102.4040837763431
 20
-135.3943119105961
 30
0.0
 10
102.4598932193637
 20
-135.3943119105961
 30
0.0
 10
102.5143268290861
 20
-135.3943119105961
 30
0.0
 10
102.5594471057127
 20
-135.3495444106069
 30
0.0
 10
102.5594471057127
 20
-135.2944052439539
 30
0.0
  0
POLYLINE
  5
73
330
1F
100
AcDbEntity
  8
_U+30EC_U+30A4_U+30E4_U+30FC 1
 62
   179
420
  2234388
370
     9
100
AcDb2dPolyline
 66
     1
 10
0.0
 20
0.0
 30
0.0
  0
VERTEX
  5
74
330
73
100
AcDbEntity
  8
_U+30EC_U+30A4_U+30E4_U+30FC 1
 62
   179
420
  2234388
370
     9
100
AcDbVertex
100
AcDb2dVertex
 10
78.45893994279012
 20
-118.2944321926486
 30
0.0
  0
VERTEX
  5
75
330
73
100
AcDbEntity
  8
_U+30EC_U+30A4_U+30E4_U+30FC 1
 62
   179
420
  2234388
370
     9
100
AcDbVertex
100
AcDb2dVertex
 10
98.4594638769787
 20
-118.2944321926486
 30
0.0
  0
SEQEND
  5
76
330
73
100
AcDbEntity
  8
_U+30EC_U+30A4_U+30E4_U+30FC 1
 62
   179
420
  2234388
370
     9
  0
POLYLINE
  5
77
330
1F
100
AcDbEntity
  8
_U+30EC_U+30A4_U+30E4_U+30FC 1
 62
   179
420
  2234388
370
     9
100
AcDb2dPolyline
 66
     1
 10
0.0
 20
0.0
 30
0.0
  0
VERTEX
  5
78
330
77
100
AcDbEntity
  8
_U+30EC_U+30A4_U+30E4_U+30FC 1
 62
   179
420
  2234388
370
     9
100
AcDbVertex
100
AcDb2dVertex
 10
78.45893994279012
 20
-120.7543869142559
 30
0.0
  0
VERTEX
  5
79
330
77
100
AcDbEntity
  8
_U+30EC_U+30A4_U+30E4_U+30FC 1
 62
   179
420
  2234388
370
     9
100
AcDbVertex
100
AcDb2dVertex
 10
78.45893994279012
 20
-117.2943071928986
 30
0.0
  0
SEQEND
  5
7A
330
77
100
AcDbEntity
  8
_U+30EC_U+30A4_U+30E4_U+30FC 1
 62
   179
420
  2234388
370
     9
  0
POLYLINE
  5
7B
330
1F
100
AcDbEntity
  8
_U+30EC_U+30A4_U+30E4_U+30FC 1
 62
   179
420
  2234388
370
     9
100
AcDb2dPolyline
 66
     1
 10
0.0
 20
0.0
 30
0.0
  0
VERTEX
  5
7C
330
7B
100
AcDbEntity
  8
_U+30EC_U+30A4_U+30E4_U+30FC 1
 62
   179
420
  2234388
370
     9
100
AcDbVertex
100
AcDb2dVertex
 10
98.4597813769706
 20
-119.7544383033948
 30
0.0
  0
VERTEX
  5
7D
330
7B
100
AcDbEntity
  8
_U+30EC_U+30A4_U+30E4_U+30FC 1
 62
   179
420
  2234388
370
     9
100
AcDbVertex
100
AcDb2dVertex
 10
98.4597813769706
 20
-117.2944835817875
 30
0.0
  0
SEQEND
  5
7E
330
7B
100
AcDbEntity
  8
_U+30EC_U+30A4_U+30E4_U+30FC 1
 62
   179
420
  2234388
370
     9
  0
POLYLINE
  5
7F
330
1F
100
AcDbEntity
  8
_U+30EC_U+30A4_U+30E4_U+30FC 1
 62
   179
420
  2234388
370
     9
100
AcDb2dPolyline
 66
     1
 10
0.0
 20
0.0
 30
0.0
  0
VERTEX
  5
80
330
7F
100
AcDbEntity
  8
_U+30EC_U+30A4_U+30E4_U+30FC 1
 62
   179
420
  2234388
370
     9
100
AcDbVertex
100
AcDb2dVertex
 10
102.4595404415949
 20
-135.2944052439539
 30
0.0
  0
VERTEX
  5
81
330
7F
100
AcDbEntity
  8
_U+30EC_U+30A4_U+30E4_U+30FC 1
 62
   179
420
  2234388
370
     9
100
AcDbVertex
100
AcDb2dVertex
 10
102.4595404415949
 20
-122.2943324694265
 30
0.0
  0
SEQEND
  5
82
330
7F
100
AcDbEntity
  8
_U+30EC_U+30A4_U+30E4_U+30FC 1
 62
   179
420
  2234388
370
     9
  0
POLYLINE
  5
83
330
1F
100
AcDbEntity
  8
_U+30EC_U+30A4_U+30E4_U+30FC 1
 62
   179
420
  2234388
370
     9
100
AcDb2dPolyline
 66
     1
 10
0.0
 20
0.0
 30
0.0
  0
VERTEX
  5
84
330
83
100
AcDbEntity
  8
_U+30EC_U+30A4_U+30E4_U+30FC 1
 62
   179
420
  2234388
370
     9
100
AcDbVertex
100
AcDb2dVertex
 10
95.49941386501416
 20
-135.2944052439539
 30
0.0
  0
VERTEX
  5
85
330
83
100
AcDbEntity
  8
_U+30EC_U+30A4_U+30E4_U+30FC 1
 62
   179
420
  2234388
370
     9
100
AcDbVertex
100
AcDb2dVertex
 10
103.458959860542
 20
-135.2944052439539
 30
0.0
  0
SEQEND
  5
86
330
83
100
AcDbEntity
  8
_U+30EC_U+30A4_U+30E4_U+30FC 1
 62
   179
420
  2234388
370
     9
  0
POLYLINE
  5
87
330
1F
100
AcDbEntity
  8
_U+30EC_U+30A4_U+30E4_U+30FC 1
 62
   179
420
  2234388
370
     9
100
AcDb2dPolyline
 66
     1
 10
0.0
 20
0.0
 30
0.0
  0
VERTEX
  5
88
330
87
100
AcDbEntity
  8
_U+30EC_U+30A4_U+30E4_U+30FC 1
 62
   179
420
  2234388
370
     9
100
AcDbVertex
100
AcDb2dVertex
 10
100.9998518677235
 20
-122.2945088583154
 30
0.0
  0
VERTEX
  5
89
330
87
100
AcDbEntity
  8
_U+30EC_U+30A4_U+30E4_U+30FC 1
 62
   179
420
  2234388
370
     9
100
AcDbVertex
100
AcDb2dVertex
 10
103.4593126383108
 20
-122.2945088583154
 30
0.0
  0
SEQEND
  5
8A
330
87
100
AcDbEntity
  8
_U+30EC_U+30A4_U+30E4_U+30FC 1
 62
   179
420
  2234388
370
     9
  0
POLYLINE
  5
8B
330
1F
100
AcDbEntity
  8
_U+30EC_U+30A4_U+30E4_U+30FC 1
 62
   179
420
  2234388
370
     9
100
AcDb2dPolyline
 66
     1
 10
0.0
 20
0.0
 30
0.0
  0
VERTEX
  5
8C
330
8B
100
AcDbEntity
  8
_U+30EC_U+30A4_U+30E4_U+30FC 1
 62
   179
420
  2234388
370
     9
100
AcDbVertex
100
AcDb2dVertex
 10
78.45893994279012
 20
-140.2946069093707
 30
0.0
  0
VERTEX
  5
8D
330
8B
100
AcDbEntity
  8
_U+30EC_U+30A4_U+30E4_U+30FC 1
 62
   179
420
  2234388
370
     9
100
AcDbVertex
100
AcDb2dVertex
 10
93.45922706010091
 20
-140.2946069093707
 30
0.0
  0
SEQEND
  5
8E
330
8B
100
AcDbEntity
  8
_U+30EC_U+30A4_U+30E4_U+30FC 1
 62
   179
420
  2234388
370
     9
  0
POLYLINE
  5
8F
330
1F
100
AcDbEntity
  8
_U+30EC_U+30A4_U+30E4_U+30FC 1
 62
   179
420
  2234388
370
     9
100
AcDb2dPolyline
 66
     1
 10
0.0
 20
0.0
 30
0.0
  0
VERTEX
  5
90
330
8F
100
AcDbEntity
  8
_U+30EC_U+30A4_U+30E4_U+30FC 1
 62
   179
420
  2234388
370
     9
100
AcDbVertex
100
AcDb2dVertex
 10
78.45893994279012
 20
-137.8344757988748
 30
0.0
  0
VERTEX
  5
91
330
8F
100
AcDbEntity
  8
_U+30EC_U+30A4_U+30E4_U+30FC 1
 62
   179
420
  2234388
370
     9
100
AcDbVertex
100
AcDb2dVertex
 10
78.45893994279012
 20
-141.2943791313432
 30
0.0
  0
SEQEND
  5
92
330
8F
100
AcDbEntity
  8
_U+30EC_U+30A4_U+30E4_U+30FC 1
 62
   179
420
  2234388
370
     9
  0
POLYLINE
  5
93
330
1F
100
AcDbEntity
  8
_U+30EC_U+30A4_U+30E4_U+30FC 1
 62
   179
420
  2234388
370
     9
100
AcDb2dPolyline
 66
     1
 10
0.0
 20
0.0
 30
0.0
  0
VERTEX
  5
94
330
93
100
AcDbEntity
  8
_U+30EC_U+30A4_U+30E4_U+30FC 1
 62
   179
420
  2234388
370
     9
100
AcDbVertex
100
AcDb2dVertex
 10
93.45922706010091
 20
-138.3343619098607
 30
0.0
  0
VERTEX
  5
95
330
93
100
AcDbEntity
  8
_U+30EC_U+30A4_U+30E4_U+30FC 1
 62
   179
420
  2234388
370
     9
100
AcDbVertex
100
AcDb2dVertex
 10
93.45922706010091
 20
-141.2943791313432
 30
0.0
  0
SEQEND
  5
96
330
93
100
AcDbEntity
  8
_U+30EC_U+30A4_U+30E4_U+30FC 1
 62
   179
420
  2234388
370
     9
  0
ENDSEC
  0
SECTION
  2
OBJECTS
  0
DICTIONARY
  5
C
330
0
100
AcDbDictionary
281
     1
  3
ACAD_GROUP
350
D
  3
ACAD_LAYOUT
350
1A
  3
ACAD_MATERIAL
350
3B
  3
ACAD_MLEADERSTYLE
350
98
  3
ACAD_MLINESTYLE
350
17
  3
ACAD_PLOTSETTINGS
350
19
  3
ACAD_PLOTSTYLENAME
350
E
  3
ACAD_TABLESTYLE
350
97
  3
ACAD_VISUALSTYLE
350
2A
  0
SUN
  5
3F
330
29
100
AcDbSun
 90
        1
290
     0
 63
     7
421
 16777215
 40
1.0
291
     1
 91
  2455826
 92
 54000000
292
     0
 70
     2
 71
   256
280
     1
  0
DICTIONARY
  5
D
102
{ACAD_REACTORS
330
C
102
}
330
C
100
AcDbDictionary
281
     1
  0
DICTIONARY
  5
1A
102
{ACAD_REACTORS
330
C
102
}
330
C
100
AcDbDictionary
281
     1
  3
Layout1
350
1E
  3
Layout2
350
26
  3
Model
350
22
  0
DICTIONARY
  5
3B
102
{ACAD_REACTORS
330
C
102
}
330
C
100
AcDbDictionary
281
     1
  3
ByBlock
350
3D
  3
ByLayer
350
3C
  3
Global
350
3E
  0
DICTIONARY
  5
98
102
{ACAD_REACTORS
330
C
102
}
330
C
100
AcDbDictionary
281
     1
  0
DICTIONARY
  5
17
102
{ACAD_REACTORS
330
C
102
}
330
C
100
AcDbDictionary
281
     1
  3
Standard
350
18
  0
DICTIONARY
  5
19
102
{ACAD_REACTORS
330
C
102
}
330
C
100
AcDbDictionary
281
     1
  0
ACDBDICTIONARYWDFLT
  5
E
102
{ACAD_REACTORS
330
C
102
}
330
C
100
AcDbDictionary
281
     1
  3
Normal
350
F
100
AcDbDictionaryWithDefault
340
F
  0
DICTIONARY
  5
97
102
{ACAD_REACTORS
330
C
102
}
330
C
100
AcDbDictionary
281
     1
  0
DICTIONARY
  5
2A
102
{ACAD_REACTORS
330
C
102
}
330
C
100
AcDbDictionary
281
     1
  3
2dWireframe
350
2F
  3
3D Hidden
350
31
  3
3dWireframe
350
30
  3
Basic
350
32
  3
Brighten
350
36
  3
ColorChange
350
3A
  3
Conceptual
350
34
  3
Dim
350
35
  3
Facepattern
350
39
  3
Flat
350
2B
  3
FlatWithEdges
350
2C
  3
Gouraud
350
2D
  3
GouraudWithEdges
350
2E
  3
Linepattern
350
38
  3
Realistic
350
33
  3
Thicken
350
37
  0
LAYOUT
  5
1E
102
{ACAD_REACTORS
330
1A
102
}
330
1A
100
AcDbPlotSettings
  1

  2
none_device
  4

  6

 40
0.0
 41
0.0
 42
0.0
 43
0.0
 44
0.0
 45
0.0
 46
0.0
 47
0.0
 48
0.0
 49
0.0
140
0.0
141
0.0
142
1.0
143
1.0
 70
   688
 72
     0
 73
     0
 74
     5
  7

 75
    16
 76
     0
 77
     2
 78
   300
147
1.0
148
0.0
149
0.0
100
AcDbLayout
  1
Layout1
 70
     1
 71
     1
 10
0.0
 20
0.0
 11
12.0
 21
9.0
 12
0.0
 22
0.0
 32
0.0
 14
1.000000000000000E+20
 24
1.000000000000000E+20
 34
1.000000000000000E+20
 15
-1.000000000000000E+20
 25
-1.000000000000000E+20
 35
-1.000000000000000E+20
146
0.0
 13
0.0
 23
0.0
 33
0.0
 16
1.0
 26
0.0
 36
0.0
 17
0.0
 27
1.0
 37
0.0
 76
     0
330
1B
  0
LAYOUT
  5
26
102
{ACAD_REACTORS
330
1A
102
}
330
1A
100
AcDbPlotSettings
  1

  2
none_device
  4

  6

 40
0.0
 41
0.0
 42
0.0
 43
0.0
 44
0.0
 45
0.0
 46
0.0
 47
0.0
 48
0.0
 49
0.0
140
0.0
141
0.0
142
1.0
143
1.0
 70
   688
 72
     0
 73
     0
 74
     5
  7

 75
    16
 76
     0
 77
     2
 78
   300
147
1.0
148
0.0
149
0.0
100
AcDbLayout
  1
Layout2
 70
     1
 71
     2
 10
0.0
 20
0.0
 11
0.0
 21
0.0
 12
0.0
 22
0.0
 32
0.0
 14
0.0
 24
0.0
 34
0.0
 15
0.0
 25
0.0
 35
0.0
146
0.0
 13
0.0
 23
0.0
 33
0.0
 16
1.0
 26
0.0
 36
0.0
 17
0.0
 27
1.0
 37
0.0
 76
     0
330
23
  0
LAYOUT
  5
22
102
{ACAD_REACTORS
330
1A
102
}
330
1A
100
AcDbPlotSettings
  1

  2
none_device
  4

  6

 40
0.0
 41
0.0
 42
0.0
 43
0.0
 44
0.0
 45
0.0
 46
0.0
 47
0.0
 48
0.0
 49
0.0
140
0.0
141
0.0
142
1.0
143
1.0
 70
  1712
 72
     0
 73
     0
 74
     0
  7

 75
     0
 76
     0
 77
     2
 78
   300
147
1.0
148
0.0
149
0.0
100
AcDbLayout
  1
Model
 70
     1
 71
     0
 10
0.0
 20
0.0
 11
12.0
 21
9.0
 12
0.0
 22
0.0
 32
0.0
 14
1.000000000000000E+20
 24
1.000000000000000E+20
 34
1.000000000000000E+20
 15
-1.000000000000000E+20
 25
-1.000000000000000E+20
 35
-1.000000000000000E+20
146
0.0
 13
0.0
 23
0.0
 33
0.0
 16
1.0
 26
0.0
 36
0.0
 17
0.0
 27
1.0
 37
0.0
 76
     0
330
1F
331
29
  0
MATERIAL
  5
3D
102
{ACAD_REACTORS
330
3B
102
}
330
3B
100
AcDbMaterial
  1
ByBlock
 72
     1
 94
      127
  0
MATERIAL
  5
3C
102
{ACAD_REACTORS
330
3B
102
}
330
3B
100
AcDbMaterial
  1
ByLayer
 72
     1
 94
      127
  0
MATERIAL
  5
3E
102
{ACAD_REACTORS
330
3B
102
}
330
3B
100
AcDbMaterial
  1
Global
 72
     1
 94
      127
  0
MLINESTYLE
  5
18
102
{ACAD_REACTORS
330
17
102
}
330
17
100
AcDbMlineStyle
  2
Standard
 70
     0
  3

 62
   256
 51
90.0
 52
90.0
 71
     2
 49
0.5
 62
   256
  6
BYLAYER
 49
-0.5
 62
   256
  6
BYLAYER
  0
ACDBPLACEHOLDER
  5
F
102
{ACAD_REACTORS
330
E
102
}
330
E
  0
VISUALSTYLE
  5
2F
102
{ACAD_REACTORS
330
2A
102
}
330
2A
100
AcDbVisualStyle
  2
2dWireframe
 70
     4
177
     2
291
     0
 71
     0
176
     1
 72
     2
176
     1
 73
     0
176
     1
 90
        0
176
     1
 40
-0.6
176
     1
 41
-30.0
176
     1
 62
     5
 63
     7
421
 16777215
176
     1
 74
     1
176
     1
 91
        4
176
     1
 64
     7
176
     1
 65
   257
176
     1
 75
     1
176
     1
175
     1
176
     1
 42
1.0
176
     1
 92
        0
176
     1
 66
   257
176
     1
 43
1.0
176
     1
 76
     1
176
     1
 77
     6
176
     1
 78
     2
176
     1
 67
     7
176
     1
 79
     5
176
     1
170
     0
176
     1
171
     0
176
     1
290
     0
176
     1
 93
        1
176
     1
 44
0.0
176
     1
173
     0
176
     1
  0
VISUALSTYLE
  5
31
102
{ACAD_REACTORS
330
2A
102
}
330
2A
100
AcDbVisualStyle
  2
3D Hidden
 70
     6
177
     2
291
     0
 71
     1
176
     1
 72
     2
176
     1
 73
     2
176
     1
 90
        0
176
     1
 40
-0.6
176
     1
 41
-30.0
176
     1
 62
     5
 63
     7
421
 16777215
176
     1
 74
     2
176
     1
 91
        2
176
     1
 64
     7
176
     1
 65
   257
176
     1
 75
     2
176
     1
175
     1
176
     1
 42
40.0
176
     1
 92
        0
176
     1
 66
   257
176
     1
 43
1.0
176
     1
 76
     1
176
     1
 77
     6
176
     1
 78
     2
176
     1
 67
     7
176
     1
 79
     3
176
     1
170
     0
176
     1
171
     0
176
     1
290
     0
176
     1
 93
        1
176
     1
 44
0.0
176
     1
173
     0
176
     1
  0
VISUALSTYLE
  5
30
102
{ACAD_REACTORS
330
2A
102
}
330
2A
100
AcDbVisualStyle
  2
3dWireframe
 70
     5
177
     2
291
     0
 71
     0
176
     1
 72
     2
176
     1
 73
     0
176
     1
 90
        0
176
     1
 40
-0.6
176
     1
 41
-30.0
176
     1
 62
     5
 63
     7
421
 16777215
176
     1
 74
     1
176
     1
 91
        4
176
     1
 64
     7
176
     1
 65
   257
176
     1
 75
     1
176
     1
175
     1
176
     1
 42
1.0
176
     1
 92
        0
176
     1
 66
   257
176
     1
 43
1.0
176
     1
 76
     1
176
     1
 77
     6
176
     1
 78
     2
176
     1
 67
     7
176
     1
 79
     5
176
     1
170
     0
176
     1
171
     0
176
     1
290
     0
176
     1
 93
        1
176
     1
 44
0.0
176
     1
173
     0
176
     1
  0
VISUALSTYLE
  5
32
102
{ACAD_REACTORS
330
2A
102
}
330
2A
100
AcDbVisualStyle
  2
Basic
 70
     7
177
     2
291
     1
 71
     1
176
     1
 72
     0
176
     1
 73
     1
176
     1
 90
        0
176
     1
 40
-0.6
176
     1
 41
-30.0
176
     1
 62
     5
 63
     7
421
 16777215
176
     1
 74
     0
176
     1
 91
        4
176
     1
 64
     7
176
     1
 65
   257
176
     1
 75
     1
176
     1
175
     1
176
     1
 42
1.0
176
     1
 92
        8
176
     1
 66
     7
176
     1
 43
1.0
176
     1
 76
     1
176
     1
 77
     6
176
     1
 78
     2
176
     1
 67
     7
176
     1
 79
     5
176
     1
170
     0
176
     1
171
     0
176
     1
290
     0
176
     1
 93
        1
176
     1
 44
0.0
176
     1
173
     0
176
     1
  0
VISUALSTYLE
  5
36
102
{ACAD_REACTORS
330
2A
102
}
330
2A
100
AcDbVisualStyle
  2
Brighten
 70
    12
177
     2
291
     1
 71
     2
176
     1
 72
     2
176
     1
 73
     0
176
     1
 90
        0
176
     1
 40
-0.6
176
     1
 41
-30.0
176
     1
 62
     5
 63
     7
421
 16777215
176
     1
 74
     1
176
     1
 91
        4
176
     1
 64
     7
176
     1
 65
   257
176
     1
 75
     1
176
     1
175
     1
176
     1
 42
1.0
176
     1
 92
        8
176
     1
 66
     7
176
     1
 43
1.0
176
     1
 76
     1
176
     1
 77
     6
176
     1
 78
     2
176
     1
 67
     7
176
     1
 79
     5
176
     1
170
     0
176
     1
171
     0
176
     1
290
     0
176
     1
 93
        1
176
     1
 44
50.0
176
     1
173
     0
176
     1
  0
VISUALSTYLE
  5
3A
102
{ACAD_REACTORS
330
2A
102
}
330
2A
100
AcDbVisualStyle
  2
ColorChange
 70
    16
177
     2
291
     1
 71
     2
176
     1
 72
     2
176
     1
 73
     3
176
     1
 90
        0
176
     1
 40
-0.6
176
     1
 41
-30.0
176
     1
 62
     5
 63
     8
421
  8421504
176
     1
 74
     1
176
     1
 91
        4
176
     1
 64
     7
176
     1
 65
   257
176
     1
 75
     1
176
     1
175
     1
176
     1
 42
1.0
176
     1
 92
        8
176
     1
 66
     8
424
  8421504
176
     1
 43
1.0
176
     1
 76
     1
176
     1
 77
     6
176
     1
 78
     2
176
     1
 67
     7
176
     1
 79
     5
176
     1
170
     0
176
     1
171
     0
176
     1
290
     0
176
     1
 93
        1
176
     1
 44
0.0
176
     1
173
     0
176
     1
  0
VISUALSTYLE
  5
34
102
{ACAD_REACTORS
330
2A
102
}
330
2A
100
AcDbVisualStyle
  2
Conceptual
 70
     9
177
     2
291
     0
 71
     3
176
     1
 72
     2
176
     1
 73
     0
176
     1
 90
        0
176
     1
 40
-0.6
176
     1
 41
-30.0
176
     1
 62
     5
 63
     7
421
 16777215
176
     1
 74
     2
176
     1
 91
        2
176
     1
 64
     7
176
     1
 65
   257
176
     1
 75
     1
176
     1
175
     1
176
     1
 42
40.0
176
     1
 92
        8
176
     1
 66
     7
176
     1
 43
1.0
176
     1
 76
     1
176
     1
 77
     6
176
     1
 78
     2
176
     1
 67
     7
176
     1
 79
     3
176
     1
170
     0
176
     1
171
     0
176
     1
290
     0
176
     1
 93
        1
176
     1
 44
0.0
176
     1
173
     0
176
     1
  0
VISUALSTYLE
  5
35
102
{ACAD_REACTORS
330
2A
102
}
330
2A
100
AcDbVisualStyle
  2
Dim
 70
    11
177
     2
291
     1
 71
     2
176
     1
 72
     2
176
     1
 73
     0
176
     1
 90
        0
176
     1
 40
-0.6
176
     1
 41
-30.0
176
     1
 62
     5
 63
     7
421
 16777215
176
     1
 74
     1
176
     1
 91
        4
176
     1
 64
     7
176
     1
 65
   257
176
     1
 75
     1
176
     1
175
     1
176
     1
 42
1.0
176
     1
 92
        8
176
     1
 66
     7
176
     1
 43
1.0
176
     1
 76
     1
176
     1
 77
     6
176
     1
 78
     2
176
     1
 67
     7
176
     1
 79
     5
176
     1
170
     0
176
     1
171
     0
176
     1
290
     0
176
     1
 93
        1
176
     1
 44
-50.0
176
     1
173
     0
176
     1
  0
VISUALSTYLE
  5
39
102
{ACAD_REACTORS
330
2A
102
}
330
2A
100
AcDbVisualStyle
  2
Facepattern
 70
    15
177
     2
291
     1
 71
     2
176
     1
 72
     2
176
     1
 73
     0
176
     1
 90
        0
176
     1
 40
-0.6
176
     1
 41
-30.0
176
     1
 62
     5
 63
     7
421
 16777215
176
     1
 74
     1
176
     1
 91
        4
176
     1
 64
     7
176
     1
 65
   257
176
     1
 75
     1
176
     1
175
     1
176
     1
 42
1.0
176
     1
 92
        8
176
     1
 66
     7
176
     1
 43
1.0
176
     1
 76
     1
176
     1
 77
     6
176
     1
 78
     2
176
     1
 67
     7
176
     1
 79
     5
176
     1
170
     0
176
     1
171
     0
176
     1
290
     0
176
     1
 93
        1
176
     1
 44
0.0
176
     1
173
     0
176
     1
  0
VISUALSTYLE
  5
2B
102
{ACAD_REACTORS
330
2A
102
}
330
2A
100
AcDbVisualStyle
  2
Flat
 70
     0
177
     2
291
     1
 71
     2
176
     1
 72
     1
176
     1
 73
     1
176
     1
 90
        2
176
     1
 40
-0.6
176
     1
 41
30.0
176
     1
 62
     5
 63
     7
421
 16777215
176
     1
 74
     0
176
     1
 91
        4
176
     1
 64
     7
176
     1
 65
   257
176
     1
 75
     1
176
     1
175
     1
176
     1
 42
1.0
176
     1
 92
        8
176
     1
 66
     7
176
     1
 43
1.0
176
     1
 76
     1
176
     1
 77
     6
176
     1
 78
     2
176
     1
 67
     7
176
     1
 79
     5
176
     1
170
     0
176
     1
171
     0
176
     1
290
     0
176
     1
 93
       13
176
     1
 44
0.0
176
     1
173
     0
176
     1
  0
VISUALSTYLE
  5
2C
102
{ACAD_REACTORS
330
2A
102
}
330
2A
100
AcDbVisualStyle
  2
FlatWithEdges
 70
     1
177
     2
291
     1
 71
     2
176
     1
 72
     1
176
     1
 73
     1
176
     1
 90
        2
176
     1
 40
-0.6
176
     1
 41
30.0
176
     1
 62
     5
 63
     7
421
 16777215
176
     1
 74
     1
176
     1
 91
        4
176
     1
 64
     7
176
     1
 65
   257
176
     1
 75
     1
176
     1
175
     1
176
     1
 42
1.0
176
     1
 92
        0
176
     1
 66
   257
176
     1
 43
1.0
176
     1
 76
     1
176
     1
 77
     6
176
     1
 78
     2
176
     1
 67
     7
176
     1
 79
     5
176
     1
170
     0
176
     1
171
     0
176
     1
290
     0
176
     1
 93
       13
176
     1
 44
0.0
176
     1
173
     0
176
     1
  0
VISUALSTYLE
  5
2D
102
{ACAD_REACTORS
330
2A
102
}
330
2A
100
AcDbVisualStyle
  2
Gouraud
 70
     2
177
     2
291
     1
 71
     2
176
     1
 72
     2
176
     1
 73
     1
176
     1
 90
        2
176
     1
 40
-0.6
176
     1
 41
30.0
176
     1
 62
     5
 63
     7
421
 16777215
176
     1
 74
     0
176
     1
 91
        4
176
     1
 64
     7
176
     1
 65
   257
176
     1
 75
     1
176
     1
175
     1
176
     1
 42
1.0
176
     1
 92
        0
176
     1
 66
     7
176
     1
 43
1.0
176
     1
 76
     1
176
     1
 77
     6
176
     1
 78
     2
176
     1
 67
     7
176
     1
 79
     5
176
     1
170
     0
176
     1
171
     0
176
     1
290
     0
176
     1
 93
       13
176
     1
 44
0.0
176
     1
173
     0
176
     1
  0
VISUALSTYLE
  5
2E
102
{ACAD_REACTORS
330
2A
102
}
330
2A
100
AcDbVisualStyle
  2
GouraudWithEdges
 70
     3
177
     2
291
     1
 71
     2
176
     1
 72
     2
176
     1
 73
     1
176
     1
 90
        2
176
     1
 40
-0.6
176
     1
 41
30.0
176
     1
 62
     5
 63
     7
421
 16777215
176
     1
 74
     1
176
     1
 91
        4
176
     1
 64
     7
176
     1
 65
   257
176
     1
 75
     1
176
     1
175
     1
176
     1
 42
1.0
176
     1
 92
        0
176
     1
 66
   257
176
     1
 43
1.0
176
     1
 76
     1
176
     1
 77
     6
176
     1
 78
     2
176
     1
 67
     7
176
     1
 79
     5
176
     1
170
     0
176
     1
171
     0
176
     1
290
     0
176
     1
 93
       13
176
     1
 44
0.0
176
     1
173
     0
176
     1
  0
VISUALSTYLE
  5
38
102
{ACAD_REACTORS
330
2A
102
}
330
2A
100
AcDbVisualStyle
  2
Linepattern
 70
    14
177
     2
291
     1
 71
     2
176
     1
 72
     2
176
     1
 73
     0
176
     1
 90
        0
176
     1
 40
-0.6
176
     1
 41
-30.0
176
     1
 62
     5
 63
     7
421
 16777215
176
     1
 74
     1
176
     1
 91
        4
176
     1
 64
     7
176
     1
 65
   257
176
     1
 75
     7
176
     1
175
     7
176
     1
 42
1.0
176
     1
 92
        8
176
     1
 66
     7
176
     1
 43
1.0
176
     1
 76
     1
176
     1
 77
     6
176
     1
 78
     2
176
     1
 67
     7
176
     1
 79
     5
176
     1
170
     0
176
     1
171
     0
176
     1
290
     0
176
     1
 93
        1
176
     1
 44
0.0
176
     1
173
     0
176
     1
  0
VISUALSTYLE
  5
33
102
{ACAD_REACTORS
330
2A
102
}
330
2A
100
AcDbVisualStyle
  2
Realistic
 70
     8
177
     2
291
     0
 71
     2
176
     1
 72
     2
176
     1
 73
     0
176
     1
 90
        0
176
     1
 40
-0.6
176
     1
 41
-30.0
176
     1
 62
     5
 63
     7
421
 16777215
176
     1
 74
     1
176
     1
 91
        0
176
     1
 64
     7
176
     1
 65
   257
176
     1
 75
     1
176
     1
175
     1
176
     1
 42
1.0
176
     1
 92
        8
176
     1
 66
     8
424
  7895160
176
     1
 43
1.0
176
     1
 76
     1
176
     1
 77
     6
176
     1
 78
     2
176
     1
 67
     7
176
     1
 79
     5
176
     1
170
     0
176
     1
171
     0
176
     1
290
     0
176
     1
 93
       13
176
     1
 44
0.0
176
     1
173
     0
176
     1
  0
VISUALSTYLE
  5
37
102
{ACAD_REACTORS
330
2A
102
}
330
2A
100
AcDbVisualStyle
  2
Thicken
 70
    13
177
     2
291
     1
 71
     2
176
     1
 72
     2
176
     1
 73
     0
176
     1
 90
        0
176
     1
 40
-0.6
176
     1
 41
-30.0
176
     1
 62
     5
 63
     7
421
 16777215
176
     1
 74
     1
176
     1
 91
        4
176
     1
 64
     7
176
     1
 65
   257
176
     1
 75
     1
176
     1
175
     1
176
     1
 42
1.0
176
     1
 92
       12
176
     1
 66
     7
176
     1
 43
1.0
176
     1
 76
     1
176
     1
 77
     6
176
     1
 78
     2
176
     1
 67
     7
176
     1
 79
     5
176
     1
170
     0
176
     1
171
     0
176
     1
290
     0
176
     1
 93
        1
176
     1
 44
0.0
176
     1
173
     0
176
     1
  0
ENDSEC
  0
EOF
