  0
SECTION
  2
HEADER
  9
$ACADVER
  1
AC1024
  9
$ACADMAINTVER
 70
     6
  9
$DWGCODEPAGE
  3
UNDEFINED
  9
$INSBASE
 10
0.0
 20
0.0
 30
0.0
  9
$EXTMIN
 10
1.000000000000000E+20
 20
1.000000000000000E+20
 30
1.000000000000000E+20
  9
$EXTMAX
 10
-1.000000000000000E+20
 20
-1.000000000000000E+20
 30
-1.000000000000000E+20
  9
$LIMMIN
 10
0.0
 20
0.0
  9
$LIMMAX
 10
12.0
 20
9.0
  9
$ORTHOMODE
 70
     0
  9
$REGENMODE
 70
     1
  9
$FILLMODE
 70
     1
  9
$QTEXTMODE
 70
     0
  9
$MIRRTEXT
 70
     1
  9
$LTSCALE
 40
1.0
  9
$ATTMODE
 70
     1
  9
$TEXTSIZE
 40
0.2
  9
$TRACEWID
 40
0.05
  9
$TEXTSTYLE
  7
Standard
  9
$CLAYER
  8
0
  9
$CELTYPE
  6
ByLayer
  9
$CECOLOR
 62
   256
  9
$CELTSCALE
 40
1.0
  9
$DISPSILH
 70
     0
  9
$DIMSCALE
 40
1.0
  9
$DIMASZ
 40
0.18
  9
$DIMEXO
 40
0.0625
  9
$DIMDLI
 40
0.38
  9
$DIMRND
 40
0.0
  9
$DIMDLE
 40
0.0
  9
$DIMEXE
 40
0.18
  9
$DIMTP
 40
0.0
  9
$DIMTM
 40
0.0
  9
$DIMTXT
 40
0.18
  9
$DIMCEN
 40
0.09
  9
$DIMTSZ
 40
0.0
  9
$DIMTOL
 70
     0
  9
$DIMLIM
 70
     0
  9
$DIMTIH
 70
     1
  9
$DIMTOH
 70
     1
  9
$DIMSE1
 70
     0
  9
$DIMSE2
 70
     0
  9
$DIMTAD
 70
     0
  9
$DIMZIN
 70
     0
  9
$DIMBLK
  1

  9
$DIMASO
 70
     1
  9
$DIMSHO
 70
     1
  9
$DIMPOST
  1

  9
$DIMAPOST
  1

  9
$DIMALT
 70
     0
  9
$DIMALTD
 70
     2
  9
$DIMALTF
 40
25.4
  9
$DIMLFAC
 40
1.0
  9
$DIMTOFL
 70
     0
  9
$DIMTVP
 40
0.0
  9
$DIMTIX
 70
     0
  9
$DIMSOXD
 70
     0
  9
$DIMSAH
 70
     0
  9
$DIMBLK1
  1

  9
$DIMBLK2
  1

  9
$DIMSTYLE
  2
Standard
  9
$DIMCLRD
 70
     0
  9
$DIMCLRE
 70
     0
  9
$DIMCLRT
 70
     0
  9
$DIMTFAC
 40
1.0
  9
$DIMGAP
 40
0.09
  9
$DIMJUST
 70
     0
  9
$DIMSD1
 70
     0
  9
$DIMSD2
 70
     0
  9
$DIMTOLJ
 70
     1
  9
$DIMTZIN
 70
     0
  9
$DIMALTZ
 70
     0
  9
$DIMALTTZ
 70
     0
  9
$DIMUPT
 70
     0
  9
$DIMDEC
 70
     4
  9
$DIMTDEC
 70
     4
  9
$DIMALTU
 70
     2
  9
$DIMALTTD
 70
     2
  9
$DIMTXSTY
  7
Standard
  9
$DIMAUNIT
 70
     0
  9
$DIMADEC
 70
     0
  9
$DIMALTRND
 40
0.0
  9
$DIMAZIN
 70
     0
  9
$DIMDSEP
 70
    46
  9
$DIMATFIT
 70
     3
  9
$DIMFRAC
 70
     0
  9
$DIMLDRBLK
  1

  9
$DIMLUNIT
 70
     2
  9
$DIMLWD
 70
    -2
  9
$DIMLWE
 70
    -2
  9
$DIMTMOVE
 70
     0
  9
$DIMFXL
 40
1.0
  9
$DIMFXLON
 70
     0
  9
$DIMJOGANG
 40
0.7853981633974483
  9
$DIMTFILL
 70
     0
  9
$DIMTFILLCLR
 70
     0
  9
$DIMARCSYM
 70
     0
  9
$DIMLTYPE
  6

  9
$DIMLTEX1
  6

  9
$DIMLTEX2
  6

  9
$DIMTXTDIRECTION
 70
     0
  9
$LUNITS
 70
     2
  9
$LUPREC
 70
     4
  9
$SKETCHINC
 40
0.1
  9
$FILLETRAD
 40
0.5
  9
$AUNITS
 70
     0
  9
$AUPREC
 70
     0
  9
$MENU
  1
.
  9
$ELEVATION
 40
0.0
  9
$PELEVATION
 40
0.0
  9
$THICKNESS
 40
0.0
  9
$LIMCHECK
 70
     0
  9
$CHAMFERA
 40
0.5
  9
$CHAMFERB
 40
0.5
  9
$CHAMFERC
 40
1.0
  9
$CHAMFERD
 40
0.0
  9
$SKPOLY
 70
     0
  9
$TDCREATE
 40
2457917.624722222
  9
$TDUCREATE
 40
2457917.249722222
  9
$TDUPDATE
 40
2457917.624722222
  9
$TDUUPDATE
 40
2457917.249722222
  9
$TDINDWG
 40
0.0000000116
  9
$TDUSRTIMER
 40
0.0000000116
  9
$USRTIMER
 70
     1
  9
$ANGBASE
 50
0.0
  9
$ANGDIR
 70
     0
  9
$PDMODE
 70
     0
  9
$PDSIZE
 40
0.0
  9
$PLINEWID
 40
0.0
  9
$SPLFRAME
 70
     0
  9
$SPLINETYPE
 70
     6
  9
$SPLINESEGS
 70
     8
  9
$HANDSEED
  5
9A
  9
$SURFTAB1
 70
     6
  9
$SURFTAB2
 70
     6
  9
$SURFTYPE
 70
     6
  9
$SURFU
 70
     6
  9
$SURFV
 70
     6
  9
$UCSBASE
  2

  9
$UCSNAME
  2

  9
$UCSORG
 10
0.0
 20
0.0
 30
0.0
  9
$UCSXDIR
 10
1.0
 20
0.0
 30
0.0
  9
$UCSYDIR
 10
0.0
 20
1.0
 30
0.0
  9
$UCSORTHOREF
  2

  9
$UCSORTHOVIEW
 70
     0
  9
$UCSORGTOP
 10
0.0
 20
0.0
 30
0.0
  9
$UCSORGBOTTOM
 10
0.0
 20
0.0
 30
0.0
  9
$UCSORGLEFT
 10
0.0
 20
0.0
 30
0.0
  9
$UCSORGRIGHT
 10
0.0
 20
0.0
 30
0.0
  9
$UCSORGFRONT
 10
0.0
 20
0.0
 30
0.0
  9
$UCSORGBACK
 10
0.0
 20
0.0
 30
0.0
  9
$PUCSBASE
  2

  9
$PUCSNAME
  2

  9
$PUCSORG
 10
0.0
 20
0.0
 30
0.0
  9
$PUCSXDIR
 10
1.0
 20
0.0
 30
0.0
  9
$PUCSYDIR
 10
0.0
 20
1.0
 30
0.0
  9
$PUCSORTHOREF
  2

  9
$PUCSORTHOVIEW
 70
     0
  9
$PUCSORGTOP
 10
0.0
 20
0.0
 30
0.0
  9
$PUCSORGBOTTOM
 10
0.0
 20
0.0
 30
0.0
  9
$PUCSORGLEFT
 10
0.0
 20
0.0
 30
0.0
  9
$PUCSORGRIGHT
 10
0.0
 20
0.0
 30
0.0
  9
$PUCSORGFRONT
 10
0.0
 20
0.0
 30
0.0
  9
$PUCSORGBACK
 10
0.0
 20
0.0
 30
0.0
  9
$USERI1
 70
     0
  9
$USERI2
 70
     0
  9
$USERI3
 70
     0
  9
$USERI4
 70
     0
  9
$USERI5
 70
     0
  9
$USERR1
 40
0.0
  9
$USERR2
 40
0.0
  9
$USERR3
 40
0.0
  9
$USERR4
 40
0.0
  9
$USERR5
 40
0.0
  9
$WORLDVIEW
 70
     1
  9
$SHADEDGE
 70
     3
  9
$SHADEDIF
 70
    70
  9
$TILEMODE
 70
     1
  9
$MAXACTVP
 70
    64
  9
$PINSBASE
 10
0.0
 20
0.0
 30
0.0
  9
$PLIMCHECK
 70
     0
  9
$PEXTMIN
 10
1.000000000000000E+20
 20
1.000000000000000E+20
 30
1.000000000000000E+20
  9
$PEXTMAX
 10
-1.000000000000000E+20
 20
-1.000000000000000E+20
 30
-1.000000000000000E+20
  9
$PLIMMIN
 10
0.0
 20
0.0
  9
$PLIMMAX
 10
12.0
 20
9.0
  9
$UNITMODE
 70
     0
  9
$VISRETAIN
 70
     1
  9
$PLINEGEN
 70
     0
  9
$PSLTSCALE
 70
     1
  9
$TREEDEPTH
 70
  3020
  9
$CMLSTYLE
  2
Standard
  9
$CMLJUST
 70
     0
  9
$CMLSCALE
 40
1.0
  9
$PROXYGRAPHICS
 70
     1
  9
$MEASUREMENT
 70
     0
  9
$CELWEIGHT
370
    -1
  9
$ENDCAPS
280
     0
  9
$JOINSTYLE
280
     0
  9
$LWDISPLAY
290
     1
  9
$INSUNITS
 70
     1
  9
$HYPERLINKBASE
  1

  9
$STYLESHEET
  1

  9
$XEDIT
290
     1
  9
$CEPSNTYPE
380
     0
  9
$PSTYLEMODE
290
     1
  9
$FINGERPRINTGUID
  2
{BA92218D-F177-D79D-5AA7-DB5683893318}
  9
$VERSIONGUID
  2
{FAEB1C32-E019-11D5-929B-00C0DF256EC4}
  9
$EXTNAMES
290
     1
  9
$PSVPSCALE
 40
0.0
  9
$OLESTARTUP
290
     0
  9
$SORTENTS
280
   127
  9
$INDEXCTL
280
     0
  9
$HIDETEXT
280
     1
  9
$XCLIPFRAME
280
     2
  9
$HALOGAP
280
     0
  9
$OBSCOLOR
 70
   257
  9
$OBSLTYPE
280
     0
  9
$INTERSECTIONDISPLAY
280
     0
  9
$INTERSECTIONCOLOR
 70
   257
  9
$DIMASSOC
280
     2
  9
$PROJECTNAME
  1

  9
$CAMERADISPLAY
290
     0
  9
$LENSLENGTH
 40
50.0
  9
$CAMERAHEIGHT
 40
0.0
  9
$STEPSPERSEC
 40
2.0
  9
$STEPSIZE
 40
6.0
  9
$3DDWFPREC
 40
2.0
  9
$PSOLWIDTH
 40
0.25
  9
$PSOLHEIGHT
 40
4.0
  9
$LOFTANG1
 40
1.570796326794897
  9
$LOFTANG2
 40
1.570796326794897
  9
$LOFTMAG1
 40
0.0
  9
$LOFTMAG2
 40
0.0
  9
$LOFTPARAM
 70
     7
  9
$LOFTNORMALS
280
     1
  9
$LATITUDE
 40
37.795
  9
$LONGITUDE
 40
-122.394
  9
$NORTHDIRECTION
 40
0.0
  9
$TIMEZONE
 70
 -8000
  9
$LIGHTGLYPHDISPLAY
280
     1
  9
$TILEMODELIGHTSYNCH
280
     1
  9
$CMATERIAL
347
3C
  9
$SOLIDHIST
280
     1
  9
$SHOWHIST
280
     1
  9
$DWFFRAME
280
     2
  9
$DGNFRAME
280
     2
  9
$REALWORLDSCALE
290
     1
  9
$INTERFERECOLOR
 62
   256
  9
$CSHADOW
280
     0
  9
$SHADOWPLANELOCATION
 40
0.0
  0
ENDSEC
  0
SECTION
  2
CLASSES
  0
CLASS
  1
ACDBDICTIONARYWDFLT
  2
AcDbDictionaryWithDefault
  3
ObjectDBX Classes
 90
        0
 91
        4
280
     0
281
     0
  0
CLASS
  1
VISUALSTYLE
  2
AcDbVisualStyle
  3
ObjectDBX Classes
 90
     4095
 91
        4
280
     0
281
     0
  0
CLASS
  1
MATERIAL
  2
AcDbMaterial
  3
ObjectDBX Classes
 90
     1153
 91
        4
280
     0
281
     0
  0
CLASS
  1
SUN
  2
AcDbSun
  3
SCENEOE
 90
     1024
 91
        4
280
     0
281
     0
  0
ENDSEC
  0
SECTION
  2
TABLES
  0
TABLE
  2
VPORT
  5
8
330
0
100
AcDbSymbolTable
 70
     1
  0
VPORT
  5
29
330
8
100
AcDbSymbolTableRecord
100
AcDbViewportTableRecord
  2
*Active
 70
     0
 10
0.0
 20
0.0
 11
1.0
 21
1.0
 12
0.0
 22
0.0
 13
0.0
 23
0.0
 14
0.5
 24
0.5
 15
0.5
 25
0.5
 16
0.0
 26
0.0
 36
1.0
 17
91.00082462281999
 27
-128.4993055234307
 37
0.0
 40
256.9986110468615
 41
0.7081814508812795
 42
50.0
 43
0.0
 44
0.0
 50
0.0
 51
0.0
 71
     0
 72
   100
 73
     1
 74
     3
 75
     0
 76
     0
 77
     0
 78
     0
281
     0
 65
     1
110
0.0
120
0.0
130
0.0
111
1.0
121
0.0
131
0.0
112
0.0
122
1.0
132
0.0
 79
     0
146
0.0
 60
     3
 61
     5
292
     1
282
     1
141
0.0
142
0.0
 63
   250
361
3F
  0
ENDTAB
  0
TABLE
  2
LTYPE
  5
5
330
0
100
AcDbSymbolTable
 70
     1
  0
LTYPE
  5
14
330
5
100
AcDbSymbolTableRecord
100
AcDbLinetypeTableRecord
  2
ByBlock
 70
     0
  3

 72
    65
 73
     0
 40
0.0
  0
LTYPE
  5
15
330
5
100
AcDbSymbolTableRecord
100
AcDbLinetypeTableRecord
  2
ByLayer
 70
     0
  3

 72
    65
 73
     0
 40
0.0
  0
LTYPE
  5
16
330
5
100
AcDbSymbolTableRecord
100
AcDbLinetypeTableRecord
  2
Continuous
 70
     0
  3
Solid line
 72
    65
 73
     0
 40
0.0
  0
ENDTAB
  0
TABLE
  2
LAYER
  5
2
330
0
100
AcDbSymbolTable
 70
     2
  0
LAYER
  5
10
330
2
100
AcDbSymbolTableRecord
100
AcDbLayerTableRecord
  2
0
 70
     0
 62
     7
  6
Continuous
370
    -3
390
F
347
3E
  0
LAYER
  5
40
330
2
100
AcDbSymbolTableRecord
100
AcDbLayerTableRecord
  2
_U+30EC_U+30A4_U+30E4_U+30FC 1
 70
     0
 62
     7
  6
Continuous
370
    -3
390
F
347
3E
  0
ENDTAB
  0
TABLE
  2
STYLE
  5
3
330
0
100
AcDbSymbolTable
 70
     1
  0
STYLE
  5
11
330
3
100
AcDbSymbolTableRecord
100
AcDbTextStyleTableRecord
  2
Standard
 70
     0
 40
0.0
 41
1.0
 50
0.0
 71
     0
 42
0.2
  3
txt
  4

  0
ENDTAB
  0
TABLE
  2
VIEW
  5
6
330
0
100
AcDbSymbolTable
 70
     0
  0
ENDTAB
  0
TABLE
  2
UCS
  5
7
330
0
100
AcDbSymbolTable
 70
     0
  0
ENDTAB
  0
TABLE
  2
APPID
  5
9
330
0
100
AcDbSymbolTable
 70
     1
  0
APPID
  5
12
330
9
100
AcDbSymbolTableRecord
100
AcDbRegAppTableRecord
  2
ACAD
 70
     0
  0
ENDTAB
  0
TABLE
  2
DIMSTYLE
  5
A
330
0
100
AcDbSymbolTable
 70
     1
100
AcDbDimStyleTable
  0
DIMSTYLE
105
27
330
A
100
AcDbSymbolTableRecord
100
AcDbDimStyleTableRecord
  2
Standard
 70
     0
178
     0
340
11
  0
ENDTAB
  0
TABLE
  2
BLOCK_RECORD
  5
1
330
0
100
AcDbSymbolTable
 70
     4
  0
BLOCK_RECORD
  5
1F
330
1
100
AcDbSymbolTableRecord
100
AcDbBlockTableRecord
  2
*Model_Space
340
22
 70
     0
280
     1
281
     0
  0
BLOCK_RECORD
  5
1B
330
1
100
AcDbSymbolTableRecord
100
AcDbBlockTableRecord
  2
*Paper_Space
340
1E
 70
     0
280
     1
281
     0
  0
BLOCK_RECORD
  5
23
330
1
100
AcDbSymbolTableRecord
100
AcDbBlockTableRecord
  2
*Paper_Space0
340
26
 70
     0
280
     1
281
     0
  0
BLOCK_RECORD
  5
7E
330
1
100
AcDbSymbolTableRecord
100
AcDbBlockTableRecord
  2
block 2
340
0
102
{BLKREFS
331
7F
102
}
 70
     0
280
     1
281
     0
  0
BLOCK_RECORD
  5
86
330
1
100
AcDbSymbolTableRecord
100
AcDbBlockTableRecord
  2
block 3
340
0
102
{BLKREFS
331
87
102
}
 70
     0
280
     1
281
     0
  0
BLOCK_RECORD
  5
8F
330
1
100
AcDbSymbolTableRecord
100
AcDbBlockTableRecord
  2
block 4
340
0
102
{BLKREFS
331
90
102
}
 70
     0
280
     1
281
     0
  0
ENDTAB
  0
ENDSEC
  0
SECTION
  2
BLOCKS
  0
BLOCK
  5
20
330
1F
100
AcDbEntity
  8
0
100
AcDbBlockBegin
  2
*Model_Space
 70
     0
 10
0.0
 20
0.0
 30
0.0
  3
*Model_Space
  1

  0
ENDBLK
  5
21
330
1F
100
AcDbEntity
  8
0
100
AcDbBlockEnd
  0
BLOCK
  5
1C
330
1B
100
AcDbEntity
 67
     1
  8
0
100
AcDbBlockBegin
  2
*Paper_Space
 70
     0
 10
0.0
 20
0.0
 30
0.0
  3
*Paper_Space
  1

  0
ENDBLK
  5
1D
330
1B
100
AcDbEntity
 67
     1
  8
0
100
AcDbBlockEnd
  0
BLOCK
  5
24
330
23
100
AcDbEntity
  8
0
100
AcDbBlockBegin
  2
*Paper_Space0
 70
     0
 10
0.0
 20
0.0
 30
0.0
  3
*Paper_Space0
  1

  0
ENDBLK
  5
25
330
23
100
AcDbEntity
  8
0
100
AcDbBlockEnd
  0
BLOCK
  5
80
330
7E
100
AcDbEntity
  8
0
100
AcDbBlockBegin
  2
block 2
 70
     0
 10
0.0
 20
0.0
 30
0.0
  3
block 2
  1

  0
SPLINE
  5
82
330
7E
100
AcDbEntity
  8
_U+30EC_U+30A4_U+30E4_U+30FC 1
370
     0
100
AcDbSpline
210
0.0
220
0.0
230
1.0
 70
    11
 71
     3
 72
    26
 73
    22
 74
     0
 42
0.0000000001
 43
0.0000000001
 12
1.0
 22
0.0
 32
0.0
 13
1.0
 23
0.0
 33
0.0
 40
0.0
 40
0.0
 40
0.0
 40
0.0
 40
1.0
 40
1.0
 40
1.0
 40
2.0
 40
2.0
 40
2.0
 40
3.0
 40
3.0
 40
3.0
 40
4.0
 40
4.0
 40
4.0
 40
5.0
 40
5.0
 40
5.0
 40
6.0
 40
6.0
 40
6.0
 40
7.0
 40
7.0
 40
7.0
 40
7.0
 10
84.72264944713531
 20
-138.1634873786536
 30
0.0
 10
84.72264944713531
 20
-138.1634873786536
 30
0.0
 10
84.72264944713531
 20
-137.0589897660825
 30
0.0
 10
84.72264944713531
 20
-137.0589897660825
 30
0.0
 10
84.72264944713531
 20
-137.0589897660825
 30
0.0
 10
84.36987166944573
 20
-137.0589897660825
 30
0.0
 10
84.36987166944573
 20
-137.0589897660825
 30
0.0
 10
84.36987166944573
 20
-137.0589897660825
 30
0.0
 10
84.36987166944573
 20
-136.9111951697653
 30
0.0
 10
84.36987166944573
 20
-136.9111951697653
 30
0.0
 10
84.72488875920072
 20
-136.8963812591787
 30
0.0
 10
84.77467038896259
 20
-136.7334282427264
 30
0.0
 10
84.80636526742688
 20
-136.6193955821646
 30
0.0
 10
84.80636526742688
 20
-136.6193955821646
 30
0.0
 10
84.96225583813444
 20
-136.6193955821646
 30
0.0
 10
84.96225583813444
 20
-136.6193955821646
 30
0.0
 10
84.96225583813444
 20
-136.6193955821646
 30
0.0
 10
84.96225583813444
 20
-138.1634873786536
 30
0.0
 10
84.96225583813444
 20
-138.1634873786536
 30
0.0
 10
84.96225583813444
 20
-138.1634873786536
 30
0.0
 10
84.72264944713531
 20
-138.1634873786536
 30
0.0
 10
84.72264944713531
 20
-138.1634873786536
 30
0.0
  0
HATCH
  5
83
330
7E
100
AcDbEntity
  8
_U+30EC_U+30A4_U+30E4_U+30FC 1
 62
   179
420
  2234388
100
AcDbHatch
 10
0.0
 20
0.0
 30
0.0
210
0.0
220
0.0
230
1.0
  2
SOLID
 70
     1
 71
     0
 91
        1
 92
        1
 93
        1
 72
     4
 94
        3
 73
     0
 74
     1
 95
       26
 96
       22
 40
0.0
 40
0.0
 40
0.0
 40
0.0
 40
1.0
 40
1.0
 40
1.0
 40
2.0
 40
2.0
 40
2.0
 40
3.0
 40
3.0
 40
3.0
 40
4.0
 40
4.0
 40
4.0
 40
5.0
 40
5.0
 40
5.0
 40
6.0
 40
6.0
 40
6.0
 40
7.0
 40
7.0
 40
7.0
 40
7.0
 10
84.72264944713531
 20
-138.1634873786536
 10
84.72264944713531
 20
-138.1634873786536
 10
84.72264944713531
 20
-137.0589897660825
 10
84.72264944713531
 20
-137.0589897660825
 10
84.72264944713531
 20
-137.0589897660825
 10
84.36987166944573
 20
-137.0589897660825
 10
84.36987166944573
 20
-137.0589897660825
 10
84.36987166944573
 20
-137.0589897660825
 10
84.36987166944573
 20
-136.9111951697653
 10
84.36987166944573
 20
-136.9111951697653
 10
84.72488875920072
 20
-136.8963812591787
 10
84.77467038896259
 20
-136.7334282427264
 10
84.80636526742688
 20
-136.6193955821646
 10
84.80636526742688
 20
-136.6193955821646
 10
84.96225583813444
 20
-136.6193955821646
 10
84.96225583813444
 20
-136.6193955821646
 10
84.96225583813444
 20
-136.6193955821646
 10
84.96225583813444
 20
-138.1634873786536
 10
84.96225583813444
 20
-138.1634873786536
 10
84.96225583813444
 20
-138.1634873786536
 10
84.72264944713531
 20
-138.1634873786536
 10
84.72264944713531
 20
-138.1634873786536
 97
        0
 97
        0
 75
     2
 76
     1
 98
        0
  0
SPLINE
  5
84
330
7E
100
AcDbEntity
  8
_U+30EC_U+30A4_U+30E4_U+30FC 1
370
     0
100
AcDbSpline
210
0.0
220
0.0
230
1.0
 70
    11
 71
     3
 72
    53
 73
    49
 74
     0
 42
0.0000000001
 43
0.0000000001
 12
1.0
 22
0.0
 32
0.0
 13
1.0
 23
0.0
 33
0.0
 40
0.0
 40
0.0
 40
0.0
 40
0.0
 40
1.0
 40
1.0
 40
1.0
 40
2.0
 40
2.0
 40
2.0
 40
3.0
 40
3.0
 40
3.0
 40
4.0
 40
4.0
 40
4.0
 40
5.0
 40
5.0
 40
5.0
 40
6.0
 40
6.0
 40
6.0
 40
7.0
 40
7.0
 40
7.0
 40
8.0
 40
8.0
 40
8.0
 40
9.0
 40
9.0
 40
9.0
 40
10.0
 40
10.0
 40
10.0
 40
11.0
 40
11.0
 40
11.0
 40
12.0
 40
12.0
 40
12.0
 40
13.0
 40
13.0
 40
13.0
 40
14.0
 40
14.0
 40
14.0
 40
15.0
 40
15.0
 40
15.0
 40
16.0
 40
16.0
 40
16.0
 40
16.0
 10
86.01214868726433
 20
-138.2144747918353
 30
0.0
 10
85.92843286697276
 20
-138.2144747918353
 30
0.0
 10
85.81991235918738
 20
-138.197249314409
 30
0.0
 10
85.71139185140201
 20
-138.1338595574804
 30
0.0
 10
85.52604571429558
 20
-138.0236165019524
 30
0.0
 10
85.50330808409292
 20
-137.8927028735129
 30
0.0
 10
85.48298202072995
 20
-137.7848713848246
 30
0.0
 10
85.48298202072995
 20
-137.7848713848246
 30
0.0
 10
85.72034909966366
 20
-137.7848713848246
 30
0.0
 10
85.72034909966366
 20
-137.7848713848246
 30
0.0
 10
85.77926023246144
 20
-137.9836533943235
 30
0.0
 10
85.91482473980602
 20
-138.0132812154967
 30
0.0
 10
86.01438799932974
 20
-138.0132812154967
 30
0.0
 10
86.16356063384106
 20
-138.0132812154967
 30
0.0
 10
86.32634139551911
 20
-137.9140624655215
 30
0.0
 10
86.32634139551911
 20
-137.6811740107186
 30
0.0
 10
86.32634139551911
 20
-137.4252034161645
 30
0.0
 10
86.13410506744218
 20
-137.355267977814
 30
0.0
 10
86.00525849629383
 20
-137.355267977814
 30
0.0
 10
85.97132430576411
 20
-137.355267977814
 30
0.0
 10
85.81991235918738
 20
-137.355267977814
 30
0.0
 10
85.72499997856876
 20
-137.4844590585108
 30
0.0
 10
85.72499997856876
 20
-137.4844590585108
 30
0.0
 10
85.53724227462264
 20
-137.465511033342
 30
0.0
 10
85.53724227462264
 20
-137.465511033342
 30
0.0
 10
85.53724227462264
 20
-137.465511033342
 30
0.0
 10
85.66626110054524
 20
-136.6193955821646
 30
0.0
 10
85.66626110054524
 20
-136.6193955821646
 30
0.0
 10
85.66626110054524
 20
-136.6193955821646
 30
0.0
 10
86.49825166023308
 20
-136.6193955821646
 30
0.0
 10
86.49825166023308
 20
-136.6193955821646
 30
0.0
 10
86.49825166023308
 20
-136.6193955821646
 30
0.0
 10
86.49825166023308
 20
-136.8136989675327
 30
0.0
 10
86.49825166023308
 20
-136.8136989675327
 30
0.0
 10
86.49825166023308
 20
-136.8136989675327
 30
0.0
 10
85.84023842255036
 20
-136.8136989675327
 30
0.0
 10
85.84023842255036
 20
-136.8136989675327
 30
0.0
 10
85.84023842255036
 20
-136.8136989675327
 30
0.0
 10
85.77013072942553
 20
-137.2367566931214
 30
0.0
 10
85.77013072942553
 20
-137.2367566931214
 30
0.0
 10
85.83575979841953
 20
-137.2029947573659
 30
0.0
 10
85.92395424284193
 20
-137.163031649737
 30
0.0
 10
86.05056150192486
 20
-137.163031649737
 30
0.0
 10
86.32186277138828
 20
-137.163031649737
 30
0.0
 10
86.57507728955414
 20
-137.3490668059405
 30
0.0
 10
86.57507728955414
 20
-137.6618814760012
 30
0.0
 10
86.57507728955414
 20
-137.9795192797412
 30
0.0
 10
86.33529864378076
 20
-138.2144747918353
 30
0.0
 10
86.01214868726433
 20
-138.2144747918353
 30
0.0
  0
HATCH
  5
85
330
7E
100
AcDbEntity
  8
_U+30EC_U+30A4_U+30E4_U+30FC 1
 62
   179
420
  2234388
100
AcDbHatch
 10
0.0
 20
0.0
 30
0.0
210
0.0
220
0.0
230
1.0
  2
SOLID
 70
     1
 71
     0
 91
        1
 92
        1
 93
        1
 72
     4
 94
        3
 73
     0
 74
     1
 95
       53
 96
       49
 40
0.0
 40
0.0
 40
0.0
 40
0.0
 40
1.0
 40
1.0
 40
1.0
 40
2.0
 40
2.0
 40
2.0
 40
3.0
 40
3.0
 40
3.0
 40
4.0
 40
4.0
 40
4.0
 40
5.0
 40
5.0
 40
5.0
 40
6.0
 40
6.0
 40
6.0
 40
7.0
 40
7.0
 40
7.0
 40
8.0
 40
8.0
 40
8.0
 40
9.0
 40
9.0
 40
9.0
 40
10.0
 40
10.0
 40
10.0
 40
11.0
 40
11.0
 40
11.0
 40
12.0
 40
12.0
 40
12.0
 40
13.0
 40
13.0
 40
13.0
 40
14.0
 40
14.0
 40
14.0
 40
15.0
 40
15.0
 40
15.0
 40
16.0
 40
16.0
 40
16.0
 40
16.0
 10
86.01214868726433
 20
-138.2144747918353
 10
85.92843286697276
 20
-138.2144747918353
 10
85.81991235918738
 20
-138.197249314409
 10
85.71139185140201
 20
-138.1338595574804
 10
85.52604571429558
 20
-138.0236165019524
 10
85.50330808409292
 20
-137.8927028735129
 10
85.48298202072995
 20
-137.7848713848246
 10
85.48298202072995
 20
-137.7848713848246
 10
85.72034909966366
 20
-137.7848713848246
 10
85.72034909966366
 20
-137.7848713848246
 10
85.77926023246144
 20
-137.9836533943235
 10
85.91482473980602
 20
-138.0132812154967
 10
86.01438799932974
 20
-138.0132812154967
 10
86.16356063384106
 20
-138.0132812154967
 10
86.32634139551911
 20
-137.9140624655215
 10
86.32634139551911
 20
-137.6811740107186
 10
86.32634139551911
 20
-137.4252034161645
 10
86.13410506744218
 20
-137.355267977814
 10
86.00525849629383
 20
-137.355267977814
 10
85.97132430576411
 20
-137.355267977814
 10
85.81991235918738
 20
-137.355267977814
 10
85.72499997856876
 20
-137.4844590585108
 10
85.72499997856876
 20
-137.4844590585108
 10
85.53724227462264
 20
-137.465511033342
 10
85.53724227462264
 20
-137.465511033342
 10
85.53724227462264
 20
-137.465511033342
 10
85.66626110054524
 20
-136.6193955821646
 10
85.66626110054524
 20
-136.6193955821646
 10
85.66626110054524
 20
-136.6193955821646
 10
86.49825166023308
 20
-136.6193955821646
 10
86.49825166023308
 20
-136.6193955821646
 10
86.49825166023308
 20
-136.6193955821646
 10
86.49825166023308
 20
-136.8136989675327
 10
86.49825166023308
 20
-136.8136989675327
 10
86.49825166023308
 20
-136.8136989675327
 10
85.84023842255036
 20
-136.8136989675327
 10
85.84023842255036
 20
-136.8136989675327
 10
85.84023842255036
 20
-136.8136989675327
 10
85.77013072942553
 20
-137.2367566931214
 10
85.77013072942553
 20
-137.2367566931214
 10
85.83575979841953
 20
-137.2029947573659
 10
85.92395424284193
 20
-137.163031649737
 10
86.05056150192486
 20
-137.163031649737
 10
86.32186277138828
 20
-137.163031649737
 10
86.57507728955414
 20
-137.3490668059405
 10
86.57507728955414
 20
-137.6618814760012
 10
86.57507728955414
 20
-137.9795192797412
 10
86.33529864378076
 20
-138.2144747918353
 10
86.01214868726433
 20
-138.2144747918353
 97
        0
 97
        0
 75
     2
 76
     1
 98
        0
  0
ENDBLK
  5
81
330
7E
100
AcDbEntity
  8
0
100
AcDbBlockEnd
  0
BLOCK
  5
88
330
86
100
AcDbEntity
  8
0
100
AcDbBlockBegin
  2
block 3
 70
     0
 10
0.0
 20
0.0
 30
0.0
  3
block 3
  1

  0
SPLINE
  5
8A
330
86
100
AcDbEntity
  8
_U+30EC_U+30A4_U+30E4_U+30FC 1
370
     0
100
AcDbSpline
210
0.0
220
0.0
230
1.0
 70
    11
 71
     3
 72
    44
 73
    40
 74
     0
 42
0.0000000001
 43
0.0000000001
 12
1.0
 22
0.0
 32
0.0
 13
1.0
 23
0.0
 33
0.0
 40
0.0
 40
0.0
 40
0.0
 40
0.0
 40
1.0
 40
1.0
 40
1.0
 40
2.0
 40
2.0
 40
2.0
 40
3.0
 40
3.0
 40
3.0
 40
4.0
 40
4.0
 40
4.0
 40
5.0
 40
5.0
 40
5.0
 40
6.0
 40
6.0
 40
6.0
 40
7.0
 40
7.0
 40
7.0
 40
8.0
 40
8.0
 40
8.0
 40
9.0
 40
9.0
 40
9.0
 40
10.0
 40
10.0
 40
10.0
 40
11.0
 40
11.0
 40
11.0
 40
12.0
 40
12.0
 40
12.0
 40
13.0
 40
13.0
 40
13.0
 40
13.0
 10
87.87387828749334
 20
-118.5822536595905
 30
0.0
 10
87.64098983269045
 20
-118.7409003066863
 30
0.0
 10
87.54159882794099
 20
-118.8149698596192
 30
0.0
 10
87.48957788611372
 20
-118.9588025961284
 30
0.0
 10
87.48957788611372
 20
-118.9588025961284
 30
0.0
 10
88.32156844580156
 20
-118.9588025961284
 30
0.0
 10
88.32156844580156
 20
-118.9588025961284
 30
0.0
 10
88.32156844580156
 20
-118.9588025961284
 30
0.0
 10
88.32156844580156
 20
-119.163958032275
 30
0.0
 10
88.32156844580156
 20
-119.163958032275
 30
0.0
 10
88.32156844580156
 20
-119.163958032275
 30
0.0
 10
87.22275524078113
 20
-119.163958032275
 30
0.0
 10
87.22275524078113
 20
-119.163958032275
 30
0.0
 10
87.25668943131083
 20
-118.8063571209061
 30
0.0
 10
87.32679712443567
 20
-118.7281534533909
 30
0.0
 10
87.73831378014876
 20
-118.4298081843682
 30
0.0
 10
88.01185436167759
 20
-118.2310261748693
 30
0.0
 10
88.08196205480243
 20
-118.1633300485842
 30
0.0
 10
88.08196205480243
 20
-118.0258707387227
 30
0.0
 10
88.08196205480243
 20
-117.9073594540301
 30
0.0
 10
88.0049641707071
 20
-117.7761013160421
 30
0.0
 10
87.79481334610685
 20
-117.7761013160421
 30
0.0
 10
87.51679414044719
 20
-117.7761013160421
 30
0.0
 10
87.50766463741128
 20
-118.0067504587796
 30
0.0
 10
87.50318601328046
 20
-118.123194686181
 30
0.0
 10
87.50318601328046
 20
-118.123194686181
 30
0.0
 10
87.26357962228133
 20
-118.123194686181
 30
0.0
 10
87.26357962228133
 20
-118.123194686181
 30
0.0
 10
87.27253687054298
 20
-117.9962429175496
 30
0.0
 10
87.2839056856443
 20
-117.8841050595047
 30
0.0
 10
87.36968856322703
 20
-117.7655937748121
 30
0.0
 10
87.48733857404831
 20
-117.6048800704252
 30
0.0
 10
87.68629283832149
 20
-117.5709458798955
 30
0.0
 10
87.81066078533901
 20
-117.5709458798955
 30
0.0
 10
88.10676674229623
 20
-117.5709458798955
 30
0.0
 10
88.3282863819978
 20
-117.7550862335821
 30
0.0
 10
88.3282863819978
 20
-118.0279377960139
 30
0.0
 10
88.3282863819978
 20
-118.2563476266859
 30
0.0
 10
88.20409068975454
 20
-118.3559108862096
 30
0.0
 10
87.87387828749334
 20
-118.5822536595905
 30
0.0
  0
HATCH
  5
8B
330
86
100
AcDbEntity
  8
_U+30EC_U+30A4_U+30E4_U+30FC 1
 62
   179
420
  2234388
100
AcDbHatch
 10
0.0
 20
0.0
 30
0.0
210
0.0
220
0.0
230
1.0
  2
SOLID
 70
     1
 71
     0
 91
        1
 92
        1
 93
        1
 72
     4
 94
        3
 73
     0
 74
     1
 95
       44
 96
       40
 40
0.0
 40
0.0
 40
0.0
 40
0.0
 40
1.0
 40
1.0
 40
1.0
 40
2.0
 40
2.0
 40
2.0
 40
3.0
 40
3.0
 40
3.0
 40
4.0
 40
4.0
 40
4.0
 40
5.0
 40
5.0
 40
5.0
 40
6.0
 40
6.0
 40
6.0
 40
7.0
 40
7.0
 40
7.0
 40
8.0
 40
8.0
 40
8.0
 40
9.0
 40
9.0
 40
9.0
 40
10.0
 40
10.0
 40
10.0
 40
11.0
 40
11.0
 40
11.0
 40
12.0
 40
12.0
 40
12.0
 40
13.0
 40
13.0
 40
13.0
 40
13.0
 10
87.87387828749334
 20
-118.5822536595905
 10
87.64098983269045
 20
-118.7409003066863
 10
87.54159882794099
 20
-118.8149698596192
 10
87.48957788611372
 20
-118.9588025961284
 10
87.48957788611372
 20
-118.9588025961284
 10
88.32156844580156
 20
-118.9588025961284
 10
88.32156844580156
 20
-118.9588025961284
 10
88.32156844580156
 20
-118.9588025961284
 10
88.32156844580156
 20
-119.163958032275
 10
88.32156844580156
 20
-119.163958032275
 10
88.32156844580156
 20
-119.163958032275
 10
87.22275524078113
 20
-119.163958032275
 10
87.22275524078113
 20
-119.163958032275
 10
87.25668943131083
 20
-118.8063571209061
 10
87.32679712443567
 20
-118.7281534533909
 10
87.73831378014876
 20
-118.4298081843682
 10
88.01185436167759
 20
-118.2310261748693
 10
88.08196205480243
 20
-118.1633300485842
 10
88.08196205480243
 20
-118.0258707387227
 10
88.08196205480243
 20
-117.9073594540301
 10
88.0049641707071
 20
-117.7761013160421
 10
87.79481334610685
 20
-117.7761013160421
 10
87.51679414044719
 20
-117.7761013160421
 10
87.50766463741128
 20
-118.0067504587796
 10
87.50318601328046
 20
-118.123194686181
 10
87.50318601328046
 20
-118.123194686181
 10
87.26357962228133
 20
-118.123194686181
 10
87.26357962228133
 20
-118.123194686181
 10
87.27253687054298
 20
-117.9962429175496
 10
87.2839056856443
 20
-117.8841050595047
 10
87.36968856322703
 20
-117.7655937748121
 10
87.48733857404831
 20
-117.6048800704252
 10
87.68629283832149
 20
-117.5709458798955
 10
87.81066078533901
 20
-117.5709458798955
 10
88.10676674229623
 20
-117.5709458798955
 10
88.3282863819978
 20
-117.7550862335821
 10
88.3282863819978
 20
-118.0279377960139
 10
88.3282863819978
 20
-118.2563476266859
 10
88.20409068975454
 20
-118.3559108862096
 10
87.87387828749334
 20
-118.5822536595905
 97
        0
 97
        0
 75
     2
 76
     1
 98
        0
  0
SPLINE
  5
8C
330
86
100
AcDbEntity
  8
_U+30EC_U+30A4_U+30E4_U+30FC 1
370
     0
100
AcDbSpline
210
0.0
220
0.0
230
1.0
 70
    11
 71
     3
 72
    29
 73
    25
 74
     0
 42
0.0000000001
 43
0.0000000001
 12
1.0
 22
0.0
 32
0.0
 13
1.0
 23
0.0
 33
0.0
 40
0.0
 40
0.0
 40
0.0
 40
0.0
 40
1.0
 40
1.0
 40
1.0
 40
2.0
 40
2.0
 40
2.0
 40
3.0
 40
3.0
 40
3.0
 40
4.0
 40
4.0
 40
4.0
 40
5.0
 40
5.0
 40
5.0
 40
6.0
 40
6.0
 40
6.0
 40
7.0
 40
7.0
 40
7.0
 40
8.0
 40
8.0
 40
8.0
 40
8.0
 10
89.45724417251417
 20
-118.9861911052361
 30
0.0
 10
89.34200572853256
 20
-119.1956529107393
 30
0.0
 10
89.15665959142612
 20
-119.2147731906824
 30
0.0
 10
89.0322916444086
 20
-119.2147731906824
 30
0.0
 10
88.86038137969463
 20
-119.2147731906824
 30
0.0
 10
88.7089694331179
 20
-119.1682644016315
 30
0.0
 10
88.60716686152877
 20
-118.9861911052361
 30
0.0
 10
88.49640704167798
 20
-118.7917154650937
 30
0.0
 10
88.47608097831501
 20
-118.5546928957086
 30
0.0
 10
88.47608097831501
 20
-118.3917398792562
 30
0.0
 10
88.47608097831501
 20
-118.2479071427471
 30
0.0
 10
88.49416772961257
 20
-117.9962429175496
 30
0.0
 10
88.60716686152877
 20
-117.7972886532764
 30
0.0
 10
88.72257756028463
 20
-117.5942002744209
 30
0.0
 10
88.89431557022434
 20
-117.5709458798955
 30
0.0
 10
89.0322916444086
 20
-117.5709458798955
 30
0.0
 10
89.20179034228289
 20
-117.5709458798955
 30
0.0
 10
89.35561385569929
 20
-117.6153876116552
 30
0.0
 10
89.45724417251417
 20
-117.7972886532764
 30
0.0
 10
89.56352536823412
 20
-117.9898694909018
 30
0.0
 10
89.58833005572792
 20
-118.2182793215739
 30
0.0
 10
89.58833005572792
 20
-118.3917398792562
 30
0.0
 10
89.58833005572792
 20
-118.5631333796474
 30
0.0
 10
89.56576468029954
 20
-118.7937825223849
 30
0.0
 10
89.45724417251417
 20
-118.9861911052361
 30
0.0
  0
SPLINE
  5
8D
330
86
100
AcDbEntity
  8
_U+30EC_U+30A4_U+30E4_U+30FC 1
370
     0
100
AcDbSpline
210
0.0
220
0.0
230
1.0
 70
    11
 71
     3
 72
    17
 73
    13
 74
     0
 42
0.0000000001
 43
0.0000000001
 12
1.0
 22
0.0
 32
0.0
 13
1.0
 23
0.0
 33
0.0
 40
0.0
 40
0.0
 40
0.0
 40
0.0
 40
1.0
 40
1.0
 40
1.0
 40
2.0
 40
2.0
 40
2.0
 40
3.0
 40
3.0
 40
3.0
 40
4.0
 40
4.0
 40
4.0
 40
4.0
 10
89.0322916444086
 20
-117.7635267175209
 30
0.0
 10
88.76546899907599
 20
-117.7635267175209
 30
0.0
 10
88.71568736931414
 20
-118.0468858211827
 30
0.0
 10
88.71568736931414
 20
-118.3917398792562
 30
0.0
 10
88.71568736931414
 20
-118.7112724855132
 30
0.0
 10
88.75410018397467
 20
-119.0201252957658
 30
0.0
 10
89.0322916444086
 20
-119.0201252957658
 30
0.0
 10
89.29670272290153
 20
-119.0201252957658
 30
0.0
 10
89.3487236647288
 20
-118.7386609946209
 30
0.0
 10
89.3487236647288
 20
-118.3917398792562
 30
0.0
 10
89.3487236647288
 20
-118.0723795277736
 30
0.0
 10
89.30807153800285
 20
-117.7635267175209
 30
0.0
 10
89.0322916444086
 20
-117.7635267175209
 30
0.0
  0
HATCH
  5
8E
330
86
100
AcDbEntity
  8
_U+30EC_U+30A4_U+30E4_U+30FC 1
 62
   179
420
  2234388
100
AcDbHatch
 10
0.0
 20
0.0
 30
0.0
210
0.0
220
0.0
230
1.0
  2
SOLID
 70
     1
 71
     0
 91
        2
 92
        1
 93
        1
 72
     4
 94
        3
 73
     0
 74
     1
 95
       29
 96
       25
 40
0.0
 40
0.0
 40
0.0
 40
0.0
 40
1.0
 40
1.0
 40
1.0
 40
2.0
 40
2.0
 40
2.0
 40
3.0
 40
3.0
 40
3.0
 40
4.0
 40
4.0
 40
4.0
 40
5.0
 40
5.0
 40
5.0
 40
6.0
 40
6.0
 40
6.0
 40
7.0
 40
7.0
 40
7.0
 40
8.0
 40
8.0
 40
8.0
 40
8.0
 10
89.45724417251417
 20
-118.9861911052361
 10
89.34200572853256
 20
-119.1956529107393
 10
89.15665959142612
 20
-119.2147731906824
 10
89.0322916444086
 20
-119.2147731906824
 10
88.86038137969463
 20
-119.2147731906824
 10
88.7089694331179
 20
-119.1682644016315
 10
88.60716686152877
 20
-118.9861911052361
 10
88.49640704167798
 20
-118.7917154650937
 10
88.47608097831501
 20
-118.5546928957086
 10
88.47608097831501
 20
-118.3917398792562
 10
88.47608097831501
 20
-118.2479071427471
 10
88.49416772961257
 20
-117.9962429175496
 10
88.60716686152877
 20
-117.7972886532764
 10
88.72257756028463
 20
-117.5942002744209
 10
88.89431557022434
 20
-117.5709458798955
 10
89.0322916444086
 20
-117.5709458798955
 10
89.20179034228289
 20
-117.5709458798955
 10
89.35561385569929
 20
-117.6153876116552
 10
89.45724417251417
 20
-117.7972886532764
 10
89.56352536823412
 20
-117.9898694909018
 10
89.58833005572792
 20
-118.2182793215739
 10
89.58833005572792
 20
-118.3917398792562
 10
89.58833005572792
 20
-118.5631333796474
 10
89.56576468029954
 20
-118.7937825223849
 10
89.45724417251417
 20
-118.9861911052361
 97
        0
 97
        0
 92
        1
 93
        1
 72
     4
 94
        3
 73
     0
 74
     1
 95
       17
 96
       13
 40
0.0
 40
0.0
 40
0.0
 40
0.0
 40
1.0
 40
1.0
 40
1.0
 40
2.0
 40
2.0
 40
2.0
 40
3.0
 40
3.0
 40
3.0
 40
4.0
 40
4.0
 40
4.0
 40
4.0
 10
89.0322916444086
 20
-117.7635267175209
 10
88.76546899907599
 20
-117.7635267175209
 10
88.71568736931414
 20
-118.0468858211827
 10
88.71568736931414
 20
-118.3917398792562
 10
88.71568736931414
 20
-118.7112724855132
 10
88.75410018397467
 20
-119.0201252957658
 10
89.0322916444086
 20
-119.0201252957658
 10
89.29670272290153
 20
-119.0201252957658
 10
89.3487236647288
 20
-118.7386609946209
 10
89.3487236647288
 20
-118.3917398792562
 10
89.3487236647288
 20
-118.0723795277736
 10
89.30807153800285
 20
-117.7635267175209
 10
89.0322916444086
 20
-117.7635267175209
 97
        0
 97
        0
 75
     2
 76
     1
 98
        0
  0
ENDBLK
  5
89
330
86
100
AcDbEntity
  8
0
100
AcDbBlockEnd
  0
BLOCK
  5
91
330
8F
100
AcDbEntity
  8
0
100
AcDbBlockBegin
  2
block 4
 70
     0
 10
0.0
 20
0.0
 30
0.0
  3
block 4
  1

  0
SPLINE
  5
93
330
8F
100
AcDbEntity
  8
_U+30EC_U+30A4_U+30E4_U+30FC 1
370
     0
100
AcDbSpline
210
0.0
220
0.0
230
1.0
 70
    11
 71
     3
 72
    26
 73
    22
 74
     0
 42
0.0000000001
 43
0.0000000001
 12
1.0
 22
0.0
 32
0.0
 13
1.0
 23
0.0
 33
0.0
 40
0.0
 40
0.0
 40
0.0
 40
0.0
 40
1.0
 40
1.0
 40
1.0
 40
2.0
 40
2.0
 40
2.0
 40
3.0
 40
3.0
 40
3.0
 40
4.0
 40
4.0
 40
4.0
 40
5.0
 40
5.0
 40
5.0
 40
6.0
 40
6.0
 40
6.0
 40
7.0
 40
7.0
 40
7.0
 40
7.0
 10
101.7584743669215
 20
-129.4908040040856
 30
0.0
 10
101.7584743669215
 20
-129.4908040040856
 30
0.0
 10
100.6539767543504
 20
-129.4908040040856
 30
0.0
 10
100.6539767543504
 20
-129.4908040040856
 30
0.0
 10
100.6539767543504
 20
-129.4908040040856
 30
0.0
 10
100.6539767543504
 20
-129.8435817817752
 30
0.0
 10
100.6539767543504
 20
-129.8435817817752
 30
0.0
 10
100.6539767543504
 20
-129.8435817817752
 30
0.0
 10
100.5058376484847
 20
-129.8435817817752
 30
0.0
 10
100.5058376484847
 20
-129.8435817817752
 30
0.0
 10
100.4913682474466
 20
-129.4887369467945
 30
0.0
 10
100.3280707214458
 20
-129.4387830622584
 30
0.0
 10
100.214038060884
 20
-129.4070881837941
 30
0.0
 10
100.214038060884
 20
-129.4070881837941
 30
0.0
 10
100.214038060884
 20
-129.2510253583123
 30
0.0
 10
100.214038060884
 20
-129.2510253583123
 30
0.0
 10
100.214038060884
 20
-129.2510253583123
 30
0.0
 10
101.7584743669215
 20
-129.2510253583123
 30
0.0
 10
101.7584743669215
 20
-129.2510253583123
 30
0.0
 10
101.7584743669215
 20
-129.2510253583123
 30
0.0
 10
101.7584743669215
 20
-129.4908040040856
 30
0.0
 10
101.7584743669215
 20
-129.4908040040856
 30
0.0
  0
HATCH
  5
94
330
8F
100
AcDbEntity
  8
_U+30EC_U+30A4_U+30E4_U+30FC 1
 62
   179
420
  2234388
100
AcDbHatch
 10
0.0
 20
0.0
 30
0.0
210
0.0
220
0.0
230
1.0
  2
SOLID
 70
     1
 71
     0
 91
        1
 92
        1
 93
        1
 72
     4
 94
        3
 73
     0
 74
     1
 95
       26
 96
       22
 40
0.0
 40
0.0
 40
0.0
 40
0.0
 40
1.0
 40
1.0
 40
1.0
 40
2.0
 40
2.0
 40
2.0
 40
3.0
 40
3.0
 40
3.0
 40
4.0
 40
4.0
 40
4.0
 40
5.0
 40
5.0
 40
5.0
 40
6.0
 40
6.0
 40
6.0
 40
7.0
 40
7.0
 40
7.0
 40
7.0
 10
101.7584743669215
 20
-129.4908040040856
 10
101.7584743669215
 20
-129.4908040040856
 10
100.6539767543504
 20
-129.4908040040856
 10
100.6539767543504
 20
-129.4908040040856
 10
100.6539767543504
 20
-129.4908040040856
 10
100.6539767543504
 20
-129.8435817817752
 10
100.6539767543504
 20
-129.8435817817752
 10
100.6539767543504
 20
-129.8435817817752
 10
100.5058376484847
 20
-129.8435817817752
 10
100.5058376484847
 20
-129.8435817817752
 10
100.4913682474466
 20
-129.4887369467945
 10
100.3280707214458
 20
-129.4387830622584
 10
100.214038060884
 20
-129.4070881837941
 10
100.214038060884
 20
-129.4070881837941
 10
100.214038060884
 20
-129.2510253583123
 10
100.214038060884
 20
-129.2510253583123
 10
100.214038060884
 20
-129.2510253583123
 10
101.7584743669215
 20
-129.2510253583123
 10
101.7584743669215
 20
-129.2510253583123
 10
101.7584743669215
 20
-129.2510253583123
 10
101.7584743669215
 20
-129.4908040040856
 10
101.7584743669215
 20
-129.4908040040856
 97
        0
 97
        0
 75
     2
 76
     1
 98
        0
  0
SPLINE
  5
95
330
8F
100
AcDbEntity
  8
_U+30EC_U+30A4_U+30E4_U+30FC 1
370
     0
100
AcDbSpline
210
0.0
220
0.0
230
1.0
 70
    11
 71
     3
 72
    29
 73
    25
 74
     0
 42
0.0000000001
 43
0.0000000001
 12
1.0
 22
0.0
 32
0.0
 13
1.0
 23
0.0
 33
0.0
 40
0.0
 40
0.0
 40
0.0
 40
0.0
 40
1.0
 40
1.0
 40
1.0
 40
2.0
 40
2.0
 40
2.0
 40
3.0
 40
3.0
 40
3.0
 40
4.0
 40
4.0
 40
4.0
 40
5.0
 40
5.0
 40
5.0
 40
6.0
 40
6.0
 40
6.0
 40
7.0
 40
7.0
 40
7.0
 40
8.0
 40
8.0
 40
8.0
 40
8.0
 10
101.5807074398826
 20
-127.7560261724881
 30
0.0
 10
101.7901692453858
 20
-127.8712646164697
 30
0.0
 10
101.8091172705547
 20
-128.0566107535761
 30
0.0
 10
101.8091172705547
 20
-128.1809787005936
 30
0.0
 10
101.8091172705547
 20
-128.3528889653076
 30
0.0
 10
101.7626084815038
 20
-128.5043009118843
 30
0.0
 10
101.5807074398826
 20
-128.6061034834735
 30
0.0
 10
101.3857150354175
 20
-128.7168633033243
 30
0.0
 10
101.1490369755808
 20
-128.7371893666872
 30
0.0
 10
100.9860839591285
 20
-128.7371893666872
 30
0.0
 10
100.842078967845
 20
-128.7371893666872
 30
0.0
 10
100.5905869974218
 20
-128.7191026153897
 30
0.0
 10
100.3914604783744
 20
-128.6061034834735
 30
0.0
 10
100.1885443542931
 20
-128.4906927847176
 30
0.0
 10
100.165462214542
 20
-128.3189547747779
 30
0.0
 10
100.165462214542
 20
-128.1809787005936
 30
0.0
 10
100.165462214542
 20
-128.0114800027194
 30
0.0
 10
100.2095594367532
 20
-127.857656489303
 30
0.0
 10
100.3914604783744
 20
-127.7560261724881
 30
0.0
 10
100.5843858255484
 20
-127.6497449767681
 30
0.0
 10
100.8124511466719
 20
-127.6249402892743
 30
0.0
 10
100.9860839591285
 20
-127.6249402892743
 30
0.0
 10
101.1576497142939
 20
-127.6249402892743
 30
0.0
 10
101.3881266022571
 20
-127.6475056647027
 30
0.0
 10
101.5807074398826
 20
-127.7560261724881
 30
0.0
  0
SPLINE
  5
96
330
8F
100
AcDbEntity
  8
_U+30EC_U+30A4_U+30E4_U+30FC 1
370
     0
100
AcDbSpline
210
0.0
220
0.0
230
1.0
 70
    11
 71
     3
 72
    17
 73
    13
 74
     0
 42
0.0000000001
 43
0.0000000001
 12
1.0
 22
0.0
 32
0.0
 13
1.0
 23
0.0
 33
0.0
 40
0.0
 40
0.0
 40
0.0
 40
0.0
 40
1.0
 40
1.0
 40
1.0
 40
2.0
 40
2.0
 40
2.0
 40
3.0
 40
3.0
 40
3.0
 40
4.0
 40
4.0
 40
4.0
 40
4.0
 10
100.3576985426189
 20
-128.1809787005936
 30
0.0
 10
100.3576985426189
 20
-128.4478013459263
 30
0.0
 10
100.6415744106035
 20
-128.4975829756881
 30
0.0
 10
100.9860839591285
 20
-128.4975829756881
 30
0.0
 10
101.3057888201597
 20
-128.4975829756881
 30
0.0
 10
101.6144693756381
 20
-128.4591701610276
 30
0.0
 10
101.6144693756381
 20
-128.1809787005936
 30
0.0
 10
101.6144693756381
 20
-127.9165676221007
 30
0.0
 10
101.3330050744931
 20
-127.8645466802734
 30
0.0
 10
100.9860839591285
 20
-127.8645466802734
 30
0.0
 10
100.6667236076458
 20
-127.8645466802734
 30
0.0
 10
100.3576985426189
 20
-127.9051988069994
 30
0.0
 10
100.3576985426189
 20
-128.1809787005936
 30
0.0
  0
HATCH
  5
97
330
8F
100
AcDbEntity
  8
_U+30EC_U+30A4_U+30E4_U+30FC 1
 62
   179
420
  2234388
100
AcDbHatch
 10
0.0
 20
0.0
 30
0.0
210
0.0
220
0.0
230
1.0
  2
SOLID
 70
     1
 71
     0
 91
        2
 92
        1
 93
        1
 72
     4
 94
        3
 73
     0
 74
     1
 95
       29
 96
       25
 40
0.0
 40
0.0
 40
0.0
 40
0.0
 40
1.0
 40
1.0
 40
1.0
 40
2.0
 40
2.0
 40
2.0
 40
3.0
 40
3.0
 40
3.0
 40
4.0
 40
4.0
 40
4.0
 40
5.0
 40
5.0
 40
5.0
 40
6.0
 40
6.0
 40
6.0
 40
7.0
 40
7.0
 40
7.0
 40
8.0
 40
8.0
 40
8.0
 40
8.0
 10
101.5807074398826
 20
-127.7560261724881
 10
101.7901692453858
 20
-127.8712646164697
 10
101.8091172705547
 20
-128.0566107535761
 10
101.8091172705547
 20
-128.1809787005936
 10
101.8091172705547
 20
-128.3528889653076
 10
101.7626084815038
 20
-128.5043009118843
 10
101.5807074398826
 20
-128.6061034834735
 10
101.3857150354175
 20
-128.7168633033243
 10
101.1490369755808
 20
-128.7371893666872
 10
100.9860839591285
 20
-128.7371893666872
 10
100.842078967845
 20
-128.7371893666872
 10
100.5905869974218
 20
-128.7191026153897
 10
100.3914604783744
 20
-128.6061034834735
 10
100.1885443542931
 20
-128.4906927847176
 10
100.165462214542
 20
-128.3189547747779
 10
100.165462214542
 20
-128.1809787005936
 10
100.165462214542
 20
-128.0114800027194
 10
100.2095594367532
 20
-127.857656489303
 10
100.3914604783744
 20
-127.7560261724881
 10
100.5843858255484
 20
-127.6497449767681
 10
100.8124511466719
 20
-127.6249402892743
 10
100.9860839591285
 20
-127.6249402892743
 10
101.1576497142939
 20
-127.6249402892743
 10
101.3881266022571
 20
-127.6475056647027
 10
101.5807074398826
 20
-127.7560261724881
 97
        0
 97
        0
 92
        1
 93
        1
 72
     4
 94
        3
 73
     0
 74
     1
 95
       17
 96
       13
 40
0.0
 40
0.0
 40
0.0
 40
0.0
 40
1.0
 40
1.0
 40
1.0
 40
2.0
 40
2.0
 40
2.0
 40
3.0
 40
3.0
 40
3.0
 40
4.0
 40
4.0
 40
4.0
 40
4.0
 10
100.3576985426189
 20
-128.1809787005936
 10
100.3576985426189
 20
-128.4478013459263
 10
100.6415744106035
 20
-128.4975829756881
 10
100.9860839591285
 20
-128.4975829756881
 10
101.3057888201597
 20
-128.4975829756881
 10
101.6144693756381
 20
-128.4591701610276
 10
101.6144693756381
 20
-128.1809787005936
 10
101.6144693756381
 20
-127.9165676221007
 10
101.3330050744931
 20
-127.8645466802734
 10
100.9860839591285
 20
-127.8645466802734
 10
100.6667236076458
 20
-127.8645466802734
 10
100.3576985426189
 20
-127.9051988069994
 10
100.3576985426189
 20
-128.1809787005936
 97
        0
 97
        0
 75
     2
 76
     1
 98
        0
  0
ENDBLK
  5
92
330
8F
100
AcDbEntity
  8
0
100
AcDbBlockEnd
  0
ENDSEC
  0
SECTION
  2
ENTITIES
  0
POLYLINE
  5
41
330
1F
100
AcDbEntity
  8
_U+30EC_U+30A4_U+30E4_U+30FC 1
 62
   179
420
  2234388
370
    25
100
AcDb2dPolyline
 66
     1
 10
0.0
 20
0.0
 30
0.0
  0
VERTEX
  5
42
330
41
100
AcDbEntity
  8
_U+30EC_U+30A4_U+30E4_U+30FC 1
 62
   179
420
  2234388
370
    25
100
AcDbVertex
100
AcDb2dVertex
 10
78.40415553595437
 20
-124.8084033021311
 30
0.0
  0
VERTEX
  5
43
330
41
100
AcDbEntity
  8
_U+30EC_U+30A4_U+30E4_U+30FC 1
 62
   179
420
  2234388
370
    25
100
AcDbVertex
100
AcDb2dVertex
 10
78.40415553595437
 20
-133.8081877443259
 30
0.0
  0
SEQEND
  5
44
330
41
100
AcDbEntity
  8
_U+30EC_U+30A4_U+30E4_U+30FC 1
 62
   179
420
  2234388
370
    25
  0
POLYLINE
  5
45
330
1F
100
AcDbEntity
  8
_U+30EC_U+30A4_U+30E4_U+30FC 1
 62
   179
420
  2234388
370
    25
100
AcDb2dPolyline
 66
     1
 10
0.0
 20
0.0
 30
0.0
  0
VERTEX
  5
46
330
45
100
AcDbEntity
  8
_U+30EC_U+30A4_U+30E4_U+30FC 1
 62
   179
420
  2234388
370
    25
100
AcDbVertex
100
AcDb2dVertex
 10
79.40428053570436
 20
-134.8086655218533
 30
0.0
  0
VERTEX
  5
47
330
45
100
AcDbEntity
  8
_U+30EC_U+30A4_U+30E4_U+30FC 1
 62
   179
420
  2234388
370
    25
100
AcDbVertex
100
AcDb2dVertex
 10
92.90458985202868
 20
-134.8086655218533
 30
0.0
  0
SEQEND
  5
48
330
45
100
AcDbEntity
  8
_U+30EC_U+30A4_U+30E4_U+30FC 1
 62
   179
420
  2234388
370
    25
  0
POLYLINE
  5
49
330
1F
100
AcDbEntity
  8
_U+30EC_U+30A4_U+30E4_U+30FC 1
 62
   179
420
  2234388
370
    25
100
AcDb2dPolyline
 66
     1
 10
0.0
 20
0.0
 30
0.0
  0
VERTEX
  5
4A
330
49
100
AcDbEntity
  8
_U+30EC_U+30A4_U+30E4_U+30FC 1
 62
   179
420
  2234388
370
    25
100
AcDbVertex
100
AcDb2dVertex
 10
79.40428053570436
 20
-123.80845469127
 30
0.0
  0
VERTEX
  5
4B
330
49
100
AcDbEntity
  8
_U+30EC_U+30A4_U+30E4_U+30FC 1
 62
   179
420
  2234388
370
    25
100
AcDbVertex
100
AcDb2dVertex
 10
98.40432471171874
 20
-123.80845469127
 30
0.0
  0
SEQEND
  5
4C
330
49
100
AcDbEntity
  8
_U+30EC_U+30A4_U+30E4_U+30FC 1
 62
   179
420
  2234388
370
    25
  0
POLYLINE
  5
4D
330
1F
100
AcDbEntity
  8
_U+30EC_U+30A4_U+30E4_U+30FC 1
 62
   179
420
  2234388
370
    25
100
AcDb2dPolyline
 66
     1
 10
0.0
 20
0.0
 30
0.0
  0
VERTEX
  5
4E
330
4D
100
AcDbEntity
  8
_U+30EC_U+30A4_U+30E4_U+30FC 1
 62
   179
420
  2234388
370
    25
100
AcDbVertex
100
AcDb2dVertex
 10
88.46248274313405
 20
-133.8081877443259
 30
0.0
  0
VERTEX
  5
4F
330
4D
100
AcDbEntity
  8
_U+30EC_U+30A4_U+30E4_U+30FC 1
 62
   179
420
  2234388
370
    25
100
AcDbVertex
100
AcDb2dVertex
 10
92.96244540610822
 20
-133.8081877443259
 30
0.0
  0
SEQEND
  5
50
330
4D
100
AcDbEntity
  8
_U+30EC_U+30A4_U+30E4_U+30FC 1
 62
   179
420
  2234388
370
    25
  0
SPLINE
  5
51
330
1F
100
AcDbEntity
  8
_U+30EC_U+30A4_U+30E4_U+30FC 1
 62
   179
420
  2234388
370
    25
100
AcDbSpline
210
0.0
220
0.0
230
1.0
 70
     8
 71
     3
 72
    11
 73
     7
 74
     0
 42
0.0000000001
 43
0.0000000001
 12
1.0
 22
0.0
 32
0.0
 13
1.0
 23
0.0
 33
0.0
 40
0.0
 40
0.0
 40
0.0
 40
0.0
 40
1.0
 40
1.0
 40
1.0
 40
2.0
 40
2.0
 40
2.0
 40
2.0
 10
92.96244540610822
 20
-134.8086655218533
 30
0.0
 10
93.23874095461488
 20
-134.8086655218533
 30
0.0
 10
93.46268428223495
 20
-134.5847221885761
 30
0.0
 10
93.46268428223495
 20
-134.3084266330896
 30
0.0
 10
93.46268428223495
 20
-134.0321310776032
 30
0.0
 10
93.23874095461488
 20
-133.8081877443259
 30
0.0
 10
92.96244540610822
 20
-133.8081877443259
 30
0.0
  0
SPLINE
  5
52
330
1F
100
AcDbEntity
  8
_U+30EC_U+30A4_U+30E4_U+30FC 1
 62
   179
420
  2234388
370
    25
100
AcDbSpline
210
0.0
220
0.0
230
1.0
 70
     8
 71
     3
 72
     8
 73
     4
 74
     0
 42
0.0000000001
 43
0.0000000001
 12
1.0
 22
0.0
 32
0.0
 13
1.0
 23
0.0
 33
0.0
 40
0.0
 40
0.0
 40
0.0
 40
0.0
 40
1.0
 40
1.0
 40
1.0
 40
1.0
 10
78.40415553595437
 20
-133.8081877443259
 30
0.0
 10
78.40415553595437
 20
-134.3607788552988
 30
0.0
 10
78.85221659942347
 20
-134.8086655218533
 30
0.0
 10
79.40428053570436
 20
-134.8086655218533
 30
0.0
  0
SPLINE
  5
53
330
1F
100
AcDbEntity
  8
_U+30EC_U+30A4_U+30E4_U+30FC 1
 62
   179
420
  2234388
370
    25
100
AcDbSpline
210
0.0
220
0.0
230
1.0
 70
     8
 71
     3
 72
     8
 73
     4
 74
     0
 42
0.0000000001
 43
0.0000000001
 12
1.0
 22
0.0
 32
0.0
 13
1.0
 23
0.0
 33
0.0
 40
0.0
 40
0.0
 40
0.0
 40
0.0
 40
1.0
 40
1.0
 40
1.0
 40
1.0
 10
79.40428053570436
 20
-123.80845469127
 30
0.0
 10
78.85221659942347
 20
-123.80845469127
 30
0.0
 10
78.40415553595437
 20
-124.256164968936
 30
0.0
 10
78.40415553595437
 20
-124.8082269132422
 30
0.0
  0
SPLINE
  5
54
330
1F
100
AcDbEntity
  8
_U+30EC_U+30A4_U+30E4_U+30FC 1
 62
   179
420
  2234388
370
     9
100
AcDbSpline
210
0.0
220
0.0
230
1.0
 70
    11
 71
     3
 72
    17
 73
    13
 74
     0
 42
0.0000000001
 43
0.0000000001
 12
1.0
 22
0.0
 32
0.0
 13
1.0
 23
0.0
 33
0.0
 40
0.0
 40
0.0
 40
0.0
 40
0.0
 40
1.0
 40
1.0
 40
1.0
 40
2.0
 40
2.0
 40
2.0
 40
3.0
 40
3.0
 40
3.0
 40
4.0
 40
4.0
 40
4.0
 40
4.0
 10
93.40412317261784
 20
-138.8084246875202
 30
0.0
 10
93.40412317261784
 20
-138.7532855208671
 30
0.0
 10
93.35932039598309
 20
-138.7085180208786
 30
0.0
 10
93.30421650850002
 20
-138.7085180208786
 30
0.0
 10
93.24907734324006
 20
-138.7085180208786
 30
0.0
 10
93.20430984438218
 20
-138.7532855208671
 30
0.0
 10
93.20430984438218
 20
-138.8084246875202
 30
0.0
 10
93.20430984438218
 20
-138.8635285763951
 30
0.0
 10
93.24907734324006
 20
-138.9083313541618
 30
0.0
 10
93.30421650850002
 20
-138.9083313541618
 30
0.0
 10
93.35932039598309
 20
-138.9083313541618
 30
0.0
 10
93.40412317261784
 20
-138.8635285763951
 30
0.0
 10
93.40412317261784
 20
-138.8084246875202
 30
0.0
  0
SPLINE
  5
55
330
1F
100
AcDbEntity
  8
_U+30EC_U+30A4_U+30E4_U+30FC 1
 62
   179
420
  2234388
370
     9
100
AcDbSpline
210
0.0
220
0.0
230
1.0
 70
    11
 71
     3
 72
    17
 73
    13
 74
     0
 42
0.0000000001
 43
0.0000000001
 12
1.0
 22
0.0
 32
0.0
 13
1.0
 23
0.0
 33
0.0
 40
0.0
 40
0.0
 40
0.0
 40
0.0
 40
1.0
 40
1.0
 40
1.0
 40
2.0
 40
2.0
 40
2.0
 40
3.0
 40
3.0
 40
3.0
 40
4.0
 40
4.0
 40
4.0
 40
4.0
 10
78.50409549719367
 20
-138.8084246875202
 30
0.0
 10
78.50409549719367
 20
-138.7532855208671
 30
0.0
 10
78.4592927205589
 20
-138.7085180208786
 30
0.0
 10
78.40415553595437
 20
-138.7085180208786
 30
0.0
 10
78.34922605670027
 20
-138.7085180208786
 30
0.0
 10
78.3044232800655
 20
-138.7532855208671
 30
0.0
 10
78.3044232800655
 20
-138.8084246875202
 30
0.0
 10
78.3044232800655
 20
-138.8635285763951
 30
0.0
 10
78.34922605670027
 20
-138.9083313541618
 30
0.0
 10
78.40415553595437
 20
-138.9083313541618
 30
0.0
 10
78.4592927205589
 20
-138.9083313541618
 30
0.0
 10
78.50409549719367
 20
-138.8635285763951
 30
0.0
 10
78.50409549719367
 20
-138.8084246875202
 30
0.0
  0
SPLINE
  5
56
330
1F
100
AcDbEntity
  8
_U+30EC_U+30A4_U+30E4_U+30FC 1
 62
   179
420
  2234388
370
     9
100
AcDbSpline
210
0.0
220
0.0
230
1.0
 70
    11
 71
     3
 72
    17
 73
    13
 74
     0
 42
0.0000000001
 43
0.0000000001
 12
1.0
 22
0.0
 32
0.0
 13
1.0
 23
0.0
 33
0.0
 40
0.0
 40
0.0
 40
0.0
 40
0.0
 40
1.0
 40
1.0
 40
1.0
 40
2.0
 40
2.0
 40
2.0
 40
3.0
 40
3.0
 40
3.0
 40
4.0
 40
4.0
 40
4.0
 40
4.0
 10
78.50409549719367
 20
-119.8083780256035
 30
0.0
 10
78.50409549719367
 20
-119.7534152478393
 30
0.0
 10
78.4592927205589
 20
-119.7084713589619
 30
0.0
 10
78.40415553595437
 20
-119.7084713589619
 30
0.0
 10
78.34922605670027
 20
-119.7084713589619
 30
0.0
 10
78.3044232800655
 20
-119.7534152478393
 30
0.0
 10
78.3044232800655
 20
-119.8083780256035
 30
0.0
 10
78.3044232800655
 20
-119.8638346922562
 30
0.0
 10
78.34922605670027
 20
-119.9086021922451
 30
0.0
 10
78.40415553595437
 20
-119.9086021922451
 30
0.0
 10
78.4592927205589
 20
-119.9086021922451
 30
0.0
 10
78.50409549719367
 20
-119.8638346922562
 30
0.0
 10
78.50409549719367
 20
-119.8083780256035
 30
0.0
  0
SPLINE
  5
57
330
1F
100
AcDbEntity
  8
_U+30EC_U+30A4_U+30E4_U+30FC 1
 62
   179
420
  2234388
370
     9
100
AcDbSpline
210
0.0
220
0.0
230
1.0
 70
    11
 71
     3
 72
    17
 73
    13
 74
     0
 42
0.0000000001
 43
0.0000000001
 12
1.0
 22
0.0
 32
0.0
 13
1.0
 23
0.0
 33
0.0
 40
0.0
 40
0.0
 40
0.0
 40
0.0
 40
1.0
 40
1.0
 40
1.0
 40
2.0
 40
2.0
 40
2.0
 40
3.0
 40
3.0
 40
3.0
 40
4.0
 40
4.0
 40
4.0
 40
4.0
 10
98.50423137583658
 20
-119.8083780256035
 30
0.0
 10
98.50423137583658
 20
-119.7534152478393
 30
0.0
 10
98.4594638769787
 20
-119.7084713589619
 30
0.0
 10
98.40432471171874
 20
-119.7084713589619
 30
0.0
 10
98.34922082423567
 20
-119.7084713589619
 30
0.0
 10
98.3044180476009
 20
-119.7534152478393
 30
0.0
 10
98.3044180476009
 20
-119.8083780256035
 30
0.0
 10
98.3044180476009
 20
-119.8638346922562
 30
0.0
 10
98.34922082423567
 20
-119.9086021922451
 30
0.0
 10
98.40432471171874
 20
-119.9086021922451
 30
0.0
 10
98.4594638769787
 20
-119.9086021922451
 30
0.0
 10
98.50423137583658
 20
-119.8638346922562
 30
0.0
 10
98.50423137583658
 20
-119.8083780256035
 30
0.0
  0
SPLINE
  5
58
330
1F
100
AcDbEntity
  8
_U+30EC_U+30A4_U+30E4_U+30FC 1
 62
   179
420
  2234388
370
     9
100
AcDbSpline
210
0.0
220
0.0
230
1.0
 70
    11
 71
     3
 72
    17
 73
    13
 74
     0
 42
0.0000000001
 43
0.0000000001
 12
1.0
 22
0.0
 32
0.0
 13
1.0
 23
0.0
 33
0.0
 40
0.0
 40
0.0
 40
0.0
 40
0.0
 40
1.0
 40
1.0
 40
1.0
 40
2.0
 40
2.0
 40
2.0
 40
3.0
 40
3.0
 40
3.0
 40
4.0
 40
4.0
 40
4.0
 40
4.0
 10
102.5046959959984
 20
-123.80845469127
 30
0.0
 10
102.5046959959984
 20
-123.7529980246173
 30
0.0
 10
102.4598932193637
 20
-123.7081952468506
 30
0.0
 10
102.4047893318806
 20
-123.7081952468506
 30
0.0
 10
102.3489471966349
 20
-123.7081952468506
 30
0.0
 10
102.3041771122252
 20
-123.7529980246173
 30
0.0
 10
102.3041771122252
 20
-123.80845469127
 30
0.0
 10
102.3041771122252
 20
-123.8634174690342
 30
0.0
 10
102.3489471966349
 20
-123.908361357912
 30
0.0
 10
102.4047893318806
 20
-123.908361357912
 30
0.0
 10
102.4598932193637
 20
-123.908361357912
 30
0.0
 10
102.5046959959984
 20
-123.8634174690342
 30
0.0
 10
102.5046959959984
 20
-123.80845469127
 30
0.0
  0
SPLINE
  5
59
330
1F
100
AcDbEntity
  8
_U+30EC_U+30A4_U+30E4_U+30FC 1
 62
   179
420
  2234388
370
     9
100
AcDbSpline
210
0.0
220
0.0
230
1.0
 70
    11
 71
     3
 72
    17
 73
    13
 74
     0
 42
0.0000000001
 43
0.0000000001
 12
1.0
 22
0.0
 32
0.0
 13
1.0
 23
0.0
 33
0.0
 40
0.0
 40
0.0
 40
0.0
 40
0.0
 40
1.0
 40
1.0
 40
1.0
 40
2.0
 40
2.0
 40
2.0
 40
3.0
 40
3.0
 40
3.0
 40
4.0
 40
4.0
 40
4.0
 40
4.0
 10
102.5046959959984
 20
-133.8081877443259
 30
0.0
 10
102.5046959959984
 20
-133.7530838554503
 30
0.0
 10
102.4598932193637
 20
-133.7082810776843
 30
0.0
 10
102.4047893318806
 20
-133.7082810776843
 30
0.0
 10
102.3489471966349
 20
-133.7082810776843
 30
0.0
 10
102.3041771122252
 20
-133.7530838554503
 30
0.0
 10
102.3041771122252
 20
-133.8081877443259
 30
0.0
 10
102.3041771122252
 20
-133.8633269109783
 30
0.0
 10
102.3489471966349
 20
-133.9080944109675
 30
0.0
 10
102.4047893318806
 20
-133.9080944109675
 30
0.0
 10
102.4598932193637
 20
-133.9080944109675
 30
0.0
 10
102.5046959959984
 20
-133.8633269109783
 30
0.0
 10
102.5046959959984
 20
-133.8081877443259
 30
0.0
  0
POLYLINE
  5
5A
330
1F
100
AcDbEntity
  8
_U+30EC_U+30A4_U+30E4_U+30FC 1
 62
   179
420
  2234388
370
     9
100
AcDb2dPolyline
 66
     1
 10
0.0
 20
0.0
 30
0.0
  0
VERTEX
  5
5B
330
5A
100
AcDbEntity
  8
_U+30EC_U+30A4_U+30E4_U+30FC 1
 62
   179
420
  2234388
370
     9
100
AcDbVertex
100
AcDb2dVertex
 10
78.40415553595437
 20
-138.8084246875202
 30
0.0
  0
VERTEX
  5
5C
330
5A
100
AcDbEntity
  8
_U+30EC_U+30A4_U+30E4_U+30FC 1
 62
   179
420
  2234388
370
     9
100
AcDbVertex
100
AcDb2dVertex
 10
93.40412317261784
 20
-138.8084246875202
 30
0.0
  0
SEQEND
  5
5D
330
5A
100
AcDbEntity
  8
_U+30EC_U+30A4_U+30E4_U+30FC 1
 62
   179
420
  2234388
370
     9
  0
POLYLINE
  5
5E
330
1F
100
AcDbEntity
  8
_U+30EC_U+30A4_U+30E4_U+30FC 1
 62
   179
420
  2234388
370
     9
100
AcDb2dPolyline
 66
     1
 10
0.0
 20
0.0
 30
0.0
  0
VERTEX
  5
5F
330
5E
100
AcDbEntity
  8
_U+30EC_U+30A4_U+30E4_U+30FC 1
 62
   179
420
  2234388
370
     9
100
AcDbVertex
100
AcDb2dVertex
 10
78.40415553595437
 20
-136.348611077024
 30
0.0
  0
VERTEX
  5
60
330
5E
100
AcDbEntity
  8
_U+30EC_U+30A4_U+30E4_U+30FC 1
 62
   179
420
  2234388
370
     9
100
AcDbVertex
100
AcDb2dVertex
 10
78.40415553595437
 20
-139.8081616317146
 30
0.0
  0
SEQEND
  5
61
330
5E
100
AcDbEntity
  8
_U+30EC_U+30A4_U+30E4_U+30FC 1
 62
   179
420
  2234388
370
     9
  0
POLYLINE
  5
62
330
1F
100
AcDbEntity
  8
_U+30EC_U+30A4_U+30E4_U+30FC 1
 62
   179
420
  2234388
370
     9
100
AcDb2dPolyline
 66
     1
 10
0.0
 20
0.0
 30
0.0
  0
VERTEX
  5
63
330
62
100
AcDbEntity
  8
_U+30EC_U+30A4_U+30E4_U+30FC 1
 62
   179
420
  2234388
370
     9
100
AcDbVertex
100
AcDb2dVertex
 10
93.30421650850002
 20
-136.8481444102322
 30
0.0
  0
VERTEX
  5
64
330
62
100
AcDbEntity
  8
_U+30EC_U+30A4_U+30E4_U+30FC 1
 62
   179
420
  2234388
370
     9
100
AcDbVertex
100
AcDb2dVertex
 10
93.30421650850002
 20
-139.8081616317146
 30
0.0
  0
SEQEND
  5
65
330
62
100
AcDbEntity
  8
_U+30EC_U+30A4_U+30E4_U+30FC 1
 62
   179
420
  2234388
370
     9
  0
POLYLINE
  5
66
330
1F
100
AcDbEntity
  8
_U+30EC_U+30A4_U+30E4_U+30FC 1
 62
   179
420
  2234388
370
     9
100
AcDb2dPolyline
 66
     1
 10
0.0
 20
0.0
 30
0.0
  0
VERTEX
  5
67
330
66
100
AcDbEntity
  8
_U+30EC_U+30A4_U+30E4_U+30FC 1
 62
   179
420
  2234388
370
     9
100
AcDbVertex
100
AcDb2dVertex
 10
78.40415553595437
 20
-119.8083780256035
 30
0.0
  0
VERTEX
  5
68
330
66
100
AcDbEntity
  8
_U+30EC_U+30A4_U+30E4_U+30FC 1
 62
   179
420
  2234388
370
     9
100
AcDbVertex
100
AcDb2dVertex
 10
98.40432471171874
 20
-119.8083780256035
 30
0.0
  0
SEQEND
  5
69
330
66
100
AcDbEntity
  8
_U+30EC_U+30A4_U+30E4_U+30FC 1
 62
   179
420
  2234388
370
     9
  0
POLYLINE
  5
6A
330
1F
100
AcDbEntity
  8
_U+30EC_U+30A4_U+30E4_U+30FC 1
 62
   179
420
  2234388
370
     9
100
AcDb2dPolyline
 66
     1
 10
0.0
 20
0.0
 30
0.0
  0
VERTEX
  5
6B
330
6A
100
AcDbEntity
  8
_U+30EC_U+30A4_U+30E4_U+30FC 1
 62
   179
420
  2234388
370
     9
100
AcDbVertex
100
AcDb2dVertex
 10
78.40415553595437
 20
-122.2683327472108
 30
0.0
  0
VERTEX
  5
6C
330
6A
100
AcDbEntity
  8
_U+30EC_U+30A4_U+30E4_U+30FC 1
 62
   179
420
  2234388
370
     9
100
AcDbVertex
100
AcDb2dVertex
 10
78.40415553595437
 20
-118.8082530258535
 30
0.0
  0
SEQEND
  5
6D
330
6A
100
AcDbEntity
  8
_U+30EC_U+30A4_U+30E4_U+30FC 1
 62
   179
420
  2234388
370
     9
  0
POLYLINE
  5
6E
330
1F
100
AcDbEntity
  8
_U+30EC_U+30A4_U+30E4_U+30FC 1
 62
   179
420
  2234388
370
     9
100
AcDb2dPolyline
 66
     1
 10
0.0
 20
0.0
 30
0.0
  0
VERTEX
  5
6F
330
6E
100
AcDbEntity
  8
_U+30EC_U+30A4_U+30E4_U+30FC 1
 62
   179
420
  2234388
370
     9
100
AcDbVertex
100
AcDb2dVertex
 10
98.40432471171874
 20
-121.2683841363497
 30
0.0
  0
VERTEX
  5
70
330
6E
100
AcDbEntity
  8
_U+30EC_U+30A4_U+30E4_U+30FC 1
 62
   179
420
  2234388
370
     9
100
AcDbVertex
100
AcDb2dVertex
 10
98.40432471171874
 20
-118.8086058036313
 30
0.0
  0
SEQEND
  5
71
330
6E
100
AcDbEntity
  8
_U+30EC_U+30A4_U+30E4_U+30FC 1
 62
   179
420
  2234388
370
     9
  0
POLYLINE
  5
72
330
1F
100
AcDbEntity
  8
_U+30EC_U+30A4_U+30E4_U+30FC 1
 62
   179
420
  2234388
370
     9
100
AcDb2dPolyline
 66
     1
 10
0.0
 20
0.0
 30
0.0
  0
VERTEX
  5
73
330
72
100
AcDbEntity
  8
_U+30EC_U+30A4_U+30E4_U+30FC 1
 62
   179
420
  2234388
370
     9
100
AcDbVertex
100
AcDb2dVertex
 10
102.4047893318806
 20
-133.8081877443259
 30
0.0
  0
VERTEX
  5
74
330
72
100
AcDbEntity
  8
_U+30EC_U+30A4_U+30E4_U+30FC 1
 62
   179
420
  2234388
370
     9
100
AcDbVertex
100
AcDb2dVertex
 10
102.4047893318806
 20
-123.8086310801589
 30
0.0
  0
SEQEND
  5
75
330
72
100
AcDbEntity
  8
_U+30EC_U+30A4_U+30E4_U+30FC 1
 62
   179
420
  2234388
370
     9
  0
POLYLINE
  5
76
330
1F
100
AcDbEntity
  8
_U+30EC_U+30A4_U+30E4_U+30FC 1
 62
   179
420
  2234388
370
     9
100
AcDb2dPolyline
 66
     1
 10
0.0
 20
0.0
 30
0.0
  0
VERTEX
  5
77
330
76
100
AcDbEntity
  8
_U+30EC_U+30A4_U+30E4_U+30FC 1
 62
   179
420
  2234388
370
     9
100
AcDbVertex
100
AcDb2dVertex
 10
94.44418259052817
 20
-133.8081877443259
 30
0.0
  0
VERTEX
  5
78
330
76
100
AcDbEntity
  8
_U+30EC_U+30A4_U+30E4_U+30FC 1
 62
   179
420
  2234388
370
     9
100
AcDbVertex
100
AcDb2dVertex
 10
103.4045262508196
 20
-133.8081877443259
 30
0.0
  0
SEQEND
  5
79
330
76
100
AcDbEntity
  8
_U+30EC_U+30A4_U+30E4_U+30FC 1
 62
   179
420
  2234388
370
     9
  0
POLYLINE
  5
7A
330
1F
100
AcDbEntity
  8
_U+30EC_U+30A4_U+30E4_U+30FC 1
 62
   179
420
  2234388
370
     9
100
AcDb2dPolyline
 66
     1
 10
0.0
 20
0.0
 30
0.0
  0
VERTEX
  5
7B
330
7A
100
AcDbEntity
  8
_U+30EC_U+30A4_U+30E4_U+30FC 1
 62
   179
420
  2234388
370
     9
100
AcDbVertex
100
AcDb2dVertex
 10
100.9447479802405
 20
-123.80845469127
 30
0.0
  0
VERTEX
  5
7C
330
7A
100
AcDbEntity
  8
_U+30EC_U+30A4_U+30E4_U+30FC 1
 62
   179
420
  2234388
370
     9
100
AcDbVertex
100
AcDb2dVertex
 10
103.4045262508196
 20
-123.80845469127
 30
0.0
  0
SEQEND
  5
7D
330
7A
100
AcDbEntity
  8
_U+30EC_U+30A4_U+30E4_U+30FC 1
 62
   179
420
  2234388
370
     9
  0
INSERT
  5
7F
330
1F
100
AcDbEntity
  8
_U+30EC_U+30A4_U+30E4_U+30FC 1
100
AcDbBlockReference
  2
block 2
 10
0.0
 20
0.0
 30
0.0
  0
INSERT
  5
87
330
1F
100
AcDbEntity
  8
_U+30EC_U+30A4_U+30E4_U+30FC 1
100
AcDbBlockReference
  2
block 3
 10
0.0
 20
0.0
 30
0.0
  0
INSERT
  5
90
330
1F
100
AcDbEntity
  8
_U+30EC_U+30A4_U+30E4_U+30FC 1
100
AcDbBlockReference
  2
block 4
 10
0.0
 20
0.0
 30
0.0
  0
ENDSEC
  0
SECTION
  2
OBJECTS
  0
DICTIONARY
  5
C
330
0
100
AcDbDictionary
281
     1
  3
ACAD_GROUP
350
D
  3
ACAD_LAYOUT
350
1A
  3
ACAD_MATERIAL
350
3B
  3
ACAD_MLEADERSTYLE
350
99
  3
ACAD_MLINESTYLE
350
17
  3
ACAD_PLOTSETTINGS
350
19
  3
ACAD_PLOTSTYLENAME
350
E
  3
ACAD_TABLESTYLE
350
98
  3
ACAD_VISUALSTYLE
350
2A
  0
SUN
  5
3F
330
29
100
AcDbSun
 90
        1
290
     0
 63
     7
421
 16777215
 40
1.0
291
     1
 91
  2455826
 92
 54000000
292
     0
 70
     2
 71
   256
280
     1
  0
DICTIONARY
  5
D
102
{ACAD_REACTORS
330
C
102
}
330
C
100
AcDbDictionary
281
     1
  0
DICTIONARY
  5
1A
102
{ACAD_REACTORS
330
C
102
}
330
C
100
AcDbDictionary
281
     1
  3
Layout1
350
1E
  3
Layout2
350
26
  3
Model
350
22
  0
DICTIONARY
  5
3B
102
{ACAD_REACTORS
330
C
102
}
330
C
100
AcDbDictionary
281
     1
  3
ByBlock
350
3D
  3
ByLayer
350
3C
  3
Global
350
3E
  0
DICTIONARY
  5
99
102
{ACAD_REACTORS
330
C
102
}
330
C
100
AcDbDictionary
281
     1
  0
DICTIONARY
  5
17
102
{ACAD_REACTORS
330
C
102
}
330
C
100
AcDbDictionary
281
     1
  3
Standard
350
18
  0
DICTIONARY
  5
19
102
{ACAD_REACTORS
330
C
102
}
330
C
100
AcDbDictionary
281
     1
  0
ACDBDICTIONARYWDFLT
  5
E
102
{ACAD_REACTORS
330
C
102
}
330
C
100
AcDbDictionary
281
     1
  3
Normal
350
F
100
AcDbDictionaryWithDefault
340
F
  0
DICTIONARY
  5
98
102
{ACAD_REACTORS
330
C
102
}
330
C
100
AcDbDictionary
281
     1
  0
DICTIONARY
  5
2A
102
{ACAD_REACTORS
330
C
102
}
330
C
100
AcDbDictionary
281
     1
  3
2dWireframe
350
2F
  3
3D Hidden
350
31
  3
3dWireframe
350
30
  3
Basic
350
32
  3
Brighten
350
36
  3
ColorChange
350
3A
  3
Conceptual
350
34
  3
Dim
350
35
  3
Facepattern
350
39
  3
Flat
350
2B
  3
FlatWithEdges
350
2C
  3
Gouraud
350
2D
  3
GouraudWithEdges
350
2E
  3
Linepattern
350
38
  3
Realistic
350
33
  3
Thicken
350
37
  0
LAYOUT
  5
1E
102
{ACAD_REACTORS
330
1A
102
}
330
1A
100
AcDbPlotSettings
  1

  2
none_device
  4

  6

 40
0.0
 41
0.0
 42
0.0
 43
0.0
 44
0.0
 45
0.0
 46
0.0
 47
0.0
 48
0.0
 49
0.0
140
0.0
141
0.0
142
1.0
143
1.0
 70
   688
 72
     0
 73
     0
 74
     5
  7

 75
    16
 76
     0
 77
     2
 78
   300
147
1.0
148
0.0
149
0.0
100
AcDbLayout
  1
Layout1
 70
     1
 71
     1
 10
0.0
 20
0.0
 11
12.0
 21
9.0
 12
0.0
 22
0.0
 32
0.0
 14
1.000000000000000E+20
 24
1.000000000000000E+20
 34
1.000000000000000E+20
 15
-1.000000000000000E+20
 25
-1.000000000000000E+20
 35
-1.000000000000000E+20
146
0.0
 13
0.0
 23
0.0
 33
0.0
 16
1.0
 26
0.0
 36
0.0
 17
0.0
 27
1.0
 37
0.0
 76
     0
330
1B
  0
LAYOUT
  5
26
102
{ACAD_REACTORS
330
1A
102
}
330
1A
100
AcDbPlotSettings
  1

  2
none_device
  4

  6

 40
0.0
 41
0.0
 42
0.0
 43
0.0
 44
0.0
 45
0.0
 46
0.0
 47
0.0
 48
0.0
 49
0.0
140
0.0
141
0.0
142
1.0
143
1.0
 70
   688
 72
     0
 73
     0
 74
     5
  7

 75
    16
 76
     0
 77
     2
 78
   300
147
1.0
148
0.0
149
0.0
100
AcDbLayout
  1
Layout2
 70
     1
 71
     2
 10
0.0
 20
0.0
 11
0.0
 21
0.0
 12
0.0
 22
0.0
 32
0.0
 14
0.0
 24
0.0
 34
0.0
 15
0.0
 25
0.0
 35
0.0
146
0.0
 13
0.0
 23
0.0
 33
0.0
 16
1.0
 26
0.0
 36
0.0
 17
0.0
 27
1.0
 37
0.0
 76
     0
330
23
  0
LAYOUT
  5
22
102
{ACAD_REACTORS
330
1A
102
}
330
1A
100
AcDbPlotSettings
  1

  2
none_device
  4

  6

 40
0.0
 41
0.0
 42
0.0
 43
0.0
 44
0.0
 45
0.0
 46
0.0
 47
0.0
 48
0.0
 49
0.0
140
0.0
141
0.0
142
1.0
143
1.0
 70
  1712
 72
     0
 73
     0
 74
     0
  7

 75
     0
 76
     0
 77
     2
 78
   300
147
1.0
148
0.0
149
0.0
100
AcDbLayout
  1
Model
 70
     1
 71
     0
 10
0.0
 20
0.0
 11
12.0
 21
9.0
 12
0.0
 22
0.0
 32
0.0
 14
1.000000000000000E+20
 24
1.000000000000000E+20
 34
1.000000000000000E+20
 15
-1.000000000000000E+20
 25
-1.000000000000000E+20
 35
-1.000000000000000E+20
146
0.0
 13
0.0
 23
0.0
 33
0.0
 16
1.0
 26
0.0
 36
0.0
 17
0.0
 27
1.0
 37
0.0
 76
     0
330
1F
331
29
  0
MATERIAL
  5
3D
102
{ACAD_REACTORS
330
3B
102
}
330
3B
100
AcDbMaterial
  1
ByBlock
 72
     1
 94
      127
  0
MATERIAL
  5
3C
102
{ACAD_REACTORS
330
3B
102
}
330
3B
100
AcDbMaterial
  1
ByLayer
 72
     1
 94
      127
  0
MATERIAL
  5
3E
102
{ACAD_REACTORS
330
3B
102
}
330
3B
100
AcDbMaterial
  1
Global
 72
     1
 94
      127
  0
MLINESTYLE
  5
18
102
{ACAD_REACTORS
330
17
102
}
330
17
100
AcDbMlineStyle
  2
Standard
 70
     0
  3

 62
   256
 51
90.0
 52
90.0
 71
     2
 49
0.5
 62
   256
  6
BYLAYER
 49
-0.5
 62
   256
  6
BYLAYER
  0
ACDBPLACEHOLDER
  5
F
102
{ACAD_REACTORS
330
E
102
}
330
E
  0
VISUALSTYLE
  5
2F
102
{ACAD_REACTORS
330
2A
102
}
330
2A
100
AcDbVisualStyle
  2
2dWireframe
 70
     4
177
     2
291
     0
 71
     0
176
     1
 72
     2
176
     1
 73
     0
176
     1
 90
        0
176
     1
 40
-0.6
176
     1
 41
-30.0
176
     1
 62
     5
 63
     7
421
 16777215
176
     1
 74
     1
176
     1
 91
        4
176
     1
 64
     7
176
     1
 65
   257
176
     1
 75
     1
176
     1
175
     1
176
     1
 42
1.0
176
     1
 92
        0
176
     1
 66
   257
176
     1
 43
1.0
176
     1
 76
     1
176
     1
 77
     6
176
     1
 78
     2
176
     1
 67
     7
176
     1
 79
     5
176
     1
170
     0
176
     1
171
     0
176
     1
290
     0
176
     1
 93
        1
176
     1
 44
0.0
176
     1
173
     0
176
     1
  0
VISUALSTYLE
  5
31
102
{ACAD_REACTORS
330
2A
102
}
330
2A
100
AcDbVisualStyle
  2
3D Hidden
 70
     6
177
     2
291
     0
 71
     1
176
     1
 72
     2
176
     1
 73
     2
176
     1
 90
        0
176
     1
 40
-0.6
176
     1
 41
-30.0
176
     1
 62
     5
 63
     7
421
 16777215
176
     1
 74
     2
176
     1
 91
        2
176
     1
 64
     7
176
     1
 65
   257
176
     1
 75
     2
176
     1
175
     1
176
     1
 42
40.0
176
     1
 92
        0
176
     1
 66
   257
176
     1
 43
1.0
176
     1
 76
     1
176
     1
 77
     6
176
     1
 78
     2
176
     1
 67
     7
176
     1
 79
     3
176
     1
170
     0
176
     1
171
     0
176
     1
290
     0
176
     1
 93
        1
176
     1
 44
0.0
176
     1
173
     0
176
     1
  0
VISUALSTYLE
  5
30
102
{ACAD_REACTORS
330
2A
102
}
330
2A
100
AcDbVisualStyle
  2
3dWireframe
 70
     5
177
     2
291
     0
 71
     0
176
     1
 72
     2
176
     1
 73
     0
176
     1
 90
        0
176
     1
 40
-0.6
176
     1
 41
-30.0
176
     1
 62
     5
 63
     7
421
 16777215
176
     1
 74
     1
176
     1
 91
        4
176
     1
 64
     7
176
     1
 65
   257
176
     1
 75
     1
176
     1
175
     1
176
     1
 42
1.0
176
     1
 92
        0
176
     1
 66
   257
176
     1
 43
1.0
176
     1
 76
     1
176
     1
 77
     6
176
     1
 78
     2
176
     1
 67
     7
176
     1
 79
     5
176
     1
170
     0
176
     1
171
     0
176
     1
290
     0
176
     1
 93
        1
176
     1
 44
0.0
176
     1
173
     0
176
     1
  0
VISUALSTYLE
  5
32
102
{ACAD_REACTORS
330
2A
102
}
330
2A
100
AcDbVisualStyle
  2
Basic
 70
     7
177
     2
291
     1
 71
     1
176
     1
 72
     0
176
     1
 73
     1
176
     1
 90
        0
176
     1
 40
-0.6
176
     1
 41
-30.0
176
     1
 62
     5
 63
     7
421
 16777215
176
     1
 74
     0
176
     1
 91
        4
176
     1
 64
     7
176
     1
 65
   257
176
     1
 75
     1
176
     1
175
     1
176
     1
 42
1.0
176
     1
 92
        8
176
     1
 66
     7
176
     1
 43
1.0
176
     1
 76
     1
176
     1
 77
     6
176
     1
 78
     2
176
     1
 67
     7
176
     1
 79
     5
176
     1
170
     0
176
     1
171
     0
176
     1
290
     0
176
     1
 93
        1
176
     1
 44
0.0
176
     1
173
     0
176
     1
  0
VISUALSTYLE
  5
36
102
{ACAD_REACTORS
330
2A
102
}
330
2A
100
AcDbVisualStyle
  2
Brighten
 70
    12
177
     2
291
     1
 71
     2
176
     1
 72
     2
176
     1
 73
     0
176
     1
 90
        0
176
     1
 40
-0.6
176
     1
 41
-30.0
176
     1
 62
     5
 63
     7
421
 16777215
176
     1
 74
     1
176
     1
 91
        4
176
     1
 64
     7
176
     1
 65
   257
176
     1
 75
     1
176
     1
175
     1
176
     1
 42
1.0
176
     1
 92
        8
176
     1
 66
     7
176
     1
 43
1.0
176
     1
 76
     1
176
     1
 77
     6
176
     1
 78
     2
176
     1
 67
     7
176
     1
 79
     5
176
     1
170
     0
176
     1
171
     0
176
     1
290
     0
176
     1
 93
        1
176
     1
 44
50.0
176
     1
173
     0
176
     1
  0
VISUALSTYLE
  5
3A
102
{ACAD_REACTORS
330
2A
102
}
330
2A
100
AcDbVisualStyle
  2
ColorChange
 70
    16
177
     2
291
     1
 71
     2
176
     1
 72
     2
176
     1
 73
     3
176
     1
 90
        0
176
     1
 40
-0.6
176
     1
 41
-30.0
176
     1
 62
     5
 63
     8
421
  8421504
176
     1
 74
     1
176
     1
 91
        4
176
     1
 64
     7
176
     1
 65
   257
176
     1
 75
     1
176
     1
175
     1
176
     1
 42
1.0
176
     1
 92
        8
176
     1
 66
     8
424
  8421504
176
     1
 43
1.0
176
     1
 76
     1
176
     1
 77
     6
176
     1
 78
     2
176
     1
 67
     7
176
     1
 79
     5
176
     1
170
     0
176
     1
171
     0
176
     1
290
     0
176
     1
 93
        1
176
     1
 44
0.0
176
     1
173
     0
176
     1
  0
VISUALSTYLE
  5
34
102
{ACAD_REACTORS
330
2A
102
}
330
2A
100
AcDbVisualStyle
  2
Conceptual
 70
     9
177
     2
291
     0
 71
     3
176
     1
 72
     2
176
     1
 73
     0
176
     1
 90
        0
176
     1
 40
-0.6
176
     1
 41
-30.0
176
     1
 62
     5
 63
     7
421
 16777215
176
     1
 74
     2
176
     1
 91
        2
176
     1
 64
     7
176
     1
 65
   257
176
     1
 75
     1
176
     1
175
     1
176
     1
 42
40.0
176
     1
 92
        8
176
     1
 66
     7
176
     1
 43
1.0
176
     1
 76
     1
176
     1
 77
     6
176
     1
 78
     2
176
     1
 67
     7
176
     1
 79
     3
176
     1
170
     0
176
     1
171
     0
176
     1
290
     0
176
     1
 93
        1
176
     1
 44
0.0
176
     1
173
     0
176
     1
  0
VISUALSTYLE
  5
35
102
{ACAD_REACTORS
330
2A
102
}
330
2A
100
AcDbVisualStyle
  2
Dim
 70
    11
177
     2
291
     1
 71
     2
176
     1
 72
     2
176
     1
 73
     0
176
     1
 90
        0
176
     1
 40
-0.6
176
     1
 41
-30.0
176
     1
 62
     5
 63
     7
421
 16777215
176
     1
 74
     1
176
     1
 91
        4
176
     1
 64
     7
176
     1
 65
   257
176
     1
 75
     1
176
     1
175
     1
176
     1
 42
1.0
176
     1
 92
        8
176
     1
 66
     7
176
     1
 43
1.0
176
     1
 76
     1
176
     1
 77
     6
176
     1
 78
     2
176
     1
 67
     7
176
     1
 79
     5
176
     1
170
     0
176
     1
171
     0
176
     1
290
     0
176
     1
 93
        1
176
     1
 44
-50.0
176
     1
173
     0
176
     1
  0
VISUALSTYLE
  5
39
102
{ACAD_REACTORS
330
2A
102
}
330
2A
100
AcDbVisualStyle
  2
Facepattern
 70
    15
177
     2
291
     1
 71
     2
176
     1
 72
     2
176
     1
 73
     0
176
     1
 90
        0
176
     1
 40
-0.6
176
     1
 41
-30.0
176
     1
 62
     5
 63
     7
421
 16777215
176
     1
 74
     1
176
     1
 91
        4
176
     1
 64
     7
176
     1
 65
   257
176
     1
 75
     1
176
     1
175
     1
176
     1
 42
1.0
176
     1
 92
        8
176
     1
 66
     7
176
     1
 43
1.0
176
     1
 76
     1
176
     1
 77
     6
176
     1
 78
     2
176
     1
 67
     7
176
     1
 79
     5
176
     1
170
     0
176
     1
171
     0
176
     1
290
     0
176
     1
 93
        1
176
     1
 44
0.0
176
     1
173
     0
176
     1
  0
VISUALSTYLE
  5
2B
102
{ACAD_REACTORS
330
2A
102
}
330
2A
100
AcDbVisualStyle
  2
Flat
 70
     0
177
     2
291
     1
 71
     2
176
     1
 72
     1
176
     1
 73
     1
176
     1
 90
        2
176
     1
 40
-0.6
176
     1
 41
30.0
176
     1
 62
     5
 63
     7
421
 16777215
176
     1
 74
     0
176
     1
 91
        4
176
     1
 64
     7
176
     1
 65
   257
176
     1
 75
     1
176
     1
175
     1
176
     1
 42
1.0
176
     1
 92
        8
176
     1
 66
     7
176
     1
 43
1.0
176
     1
 76
     1
176
     1
 77
     6
176
     1
 78
     2
176
     1
 67
     7
176
     1
 79
     5
176
     1
170
     0
176
     1
171
     0
176
     1
290
     0
176
     1
 93
       13
176
     1
 44
0.0
176
     1
173
     0
176
     1
  0
VISUALSTYLE
  5
2C
102
{ACAD_REACTORS
330
2A
102
}
330
2A
100
AcDbVisualStyle
  2
FlatWithEdges
 70
     1
177
     2
291
     1
 71
     2
176
     1
 72
     1
176
     1
 73
     1
176
     1
 90
        2
176
     1
 40
-0.6
176
     1
 41
30.0
176
     1
 62
     5
 63
     7
421
 16777215
176
     1
 74
     1
176
     1
 91
        4
176
     1
 64
     7
176
     1
 65
   257
176
     1
 75
     1
176
     1
175
     1
176
     1
 42
1.0
176
     1
 92
        0
176
     1
 66
   257
176
     1
 43
1.0
176
     1
 76
     1
176
     1
 77
     6
176
     1
 78
     2
176
     1
 67
     7
176
     1
 79
     5
176
     1
170
     0
176
     1
171
     0
176
     1
290
     0
176
     1
 93
       13
176
     1
 44
0.0
176
     1
173
     0
176
     1
  0
VISUALSTYLE
  5
2D
102
{ACAD_REACTORS
330
2A
102
}
330
2A
100
AcDbVisualStyle
  2
Gouraud
 70
     2
177
     2
291
     1
 71
     2
176
     1
 72
     2
176
     1
 73
     1
176
     1
 90
        2
176
     1
 40
-0.6
176
     1
 41
30.0
176
     1
 62
     5
 63
     7
421
 16777215
176
     1
 74
     0
176
     1
 91
        4
176
     1
 64
     7
176
     1
 65
   257
176
     1
 75
     1
176
     1
175
     1
176
     1
 42
1.0
176
     1
 92
        0
176
     1
 66
     7
176
     1
 43
1.0
176
     1
 76
     1
176
     1
 77
     6
176
     1
 78
     2
176
     1
 67
     7
176
     1
 79
     5
176
     1
170
     0
176
     1
171
     0
176
     1
290
     0
176
     1
 93
       13
176
     1
 44
0.0
176
     1
173
     0
176
     1
  0
VISUALSTYLE
  5
2E
102
{ACAD_REACTORS
330
2A
102
}
330
2A
100
AcDbVisualStyle
  2
GouraudWithEdges
 70
     3
177
     2
291
     1
 71
     2
176
     1
 72
     2
176
     1
 73
     1
176
     1
 90
        2
176
     1
 40
-0.6
176
     1
 41
30.0
176
     1
 62
     5
 63
     7
421
 16777215
176
     1
 74
     1
176
     1
 91
        4
176
     1
 64
     7
176
     1
 65
   257
176
     1
 75
     1
176
     1
175
     1
176
     1
 42
1.0
176
     1
 92
        0
176
     1
 66
   257
176
     1
 43
1.0
176
     1
 76
     1
176
     1
 77
     6
176
     1
 78
     2
176
     1
 67
     7
176
     1
 79
     5
176
     1
170
     0
176
     1
171
     0
176
     1
290
     0
176
     1
 93
       13
176
     1
 44
0.0
176
     1
173
     0
176
     1
  0
VISUALSTYLE
  5
38
102
{ACAD_REACTORS
330
2A
102
}
330
2A
100
AcDbVisualStyle
  2
Linepattern
 70
    14
177
     2
291
     1
 71
     2
176
     1
 72
     2
176
     1
 73
     0
176
     1
 90
        0
176
     1
 40
-0.6
176
     1
 41
-30.0
176
     1
 62
     5
 63
     7
421
 16777215
176
     1
 74
     1
176
     1
 91
        4
176
     1
 64
     7
176
     1
 65
   257
176
     1
 75
     7
176
     1
175
     7
176
     1
 42
1.0
176
     1
 92
        8
176
     1
 66
     7
176
     1
 43
1.0
176
     1
 76
     1
176
     1
 77
     6
176
     1
 78
     2
176
     1
 67
     7
176
     1
 79
     5
176
     1
170
     0
176
     1
171
     0
176
     1
290
     0
176
     1
 93
        1
176
     1
 44
0.0
176
     1
173
     0
176
     1
  0
VISUALSTYLE
  5
33
102
{ACAD_REACTORS
330
2A
102
}
330
2A
100
AcDbVisualStyle
  2
Realistic
 70
     8
177
     2
291
     0
 71
     2
176
     1
 72
     2
176
     1
 73
     0
176
     1
 90
        0
176
     1
 40
-0.6
176
     1
 41
-30.0
176
     1
 62
     5
 63
     7
421
 16777215
176
     1
 74
     1
176
     1
 91
        0
176
     1
 64
     7
176
     1
 65
   257
176
     1
 75
     1
176
     1
175
     1
176
     1
 42
1.0
176
     1
 92
        8
176
     1
 66
     8
424
  7895160
176
     1
 43
1.0
176
     1
 76
     1
176
     1
 77
     6
176
     1
 78
     2
176
     1
 67
     7
176
     1
 79
     5
176
     1
170
     0
176
     1
171
     0
176
     1
290
     0
176
     1
 93
       13
176
     1
 44
0.0
176
     1
173
     0
176
     1
  0
VISUALSTYLE
  5
37
102
{ACAD_REACTORS
330
2A
102
}
330
2A
100
AcDbVisualStyle
  2
Thicken
 70
    13
177
     2
291
     1
 71
     2
176
     1
 72
     2
176
     1
 73
     0
176
     1
 90
        0
176
     1
 40
-0.6
176
     1
 41
-30.0
176
     1
 62
     5
 63
     7
421
 16777215
176
     1
 74
     1
176
     1
 91
        4
176
     1
 64
     7
176
     1
 65
   257
176
     1
 75
     1
176
     1
175
     1
176
     1
 42
1.0
176
     1
 92
       12
176
     1
 66
     7
176
     1
 43
1.0
176
     1
 76
     1
176
     1
 77
     6
176
     1
 78
     2
176
     1
 67
     7
176
     1
 79
     5
176
     1
170
     0
176
     1
171
     0
176
     1
290
     0
176
     1
 93
        1
176
     1
 44
0.0
176
     1
173
     0
176
     1
  0
ENDSEC
  0
EOF
