  0
SECTION
  2
HEADER
  9
$ACADVER
  1
AC1024
  9
$ACADMAINTVER
 70
     6
  9
$DWGCODEPAGE
  3
UNDEFINED
  9
$INSBASE
 10
0.0
 20
0.0
 30
0.0
  9
$EXTMIN
 10
1.000000000000000E+20
 20
1.000000000000000E+20
 30
1.000000000000000E+20
  9
$EXTMAX
 10
-1.000000000000000E+20
 20
-1.000000000000000E+20
 30
-1.000000000000000E+20
  9
$LIMMIN
 10
0.0
 20
0.0
  9
$LIMMAX
 10
12.0
 20
9.0
  9
$ORTHOMODE
 70
     0
  9
$REGENMODE
 70
     1
  9
$FILLMODE
 70
     1
  9
$QTEXTMODE
 70
     0
  9
$MIRRTEXT
 70
     1
  9
$LTSCALE
 40
1.0
  9
$ATTMODE
 70
     1
  9
$TEXTSIZE
 40
0.2
  9
$TRACEWID
 40
0.05
  9
$TEXTSTYLE
  7
Standard
  9
$CLAYER
  8
0
  9
$CELTYPE
  6
ByLayer
  9
$CECOLOR
 62
   256
  9
$CELTSCALE
 40
1.0
  9
$DISPSILH
 70
     0
  9
$DIMSCALE
 40
1.0
  9
$DIMASZ
 40
0.18
  9
$DIMEXO
 40
0.0625
  9
$DIMDLI
 40
0.38
  9
$DIMRND
 40
0.0
  9
$DIMDLE
 40
0.0
  9
$DIMEXE
 40
0.18
  9
$DIMTP
 40
0.0
  9
$DIMTM
 40
0.0
  9
$DIMTXT
 40
0.18
  9
$DIMCEN
 40
0.09
  9
$DIMTSZ
 40
0.0
  9
$DIMTOL
 70
     0
  9
$DIMLIM
 70
     0
  9
$DIMTIH
 70
     1
  9
$DIMTOH
 70
     1
  9
$DIMSE1
 70
     0
  9
$DIMSE2
 70
     0
  9
$DIMTAD
 70
     0
  9
$DIMZIN
 70
     0
  9
$DIMBLK
  1

  9
$DIMASO
 70
     1
  9
$DIMSHO
 70
     1
  9
$DIMPOST
  1

  9
$DIMAPOST
  1

  9
$DIMALT
 70
     0
  9
$DIMALTD
 70
     2
  9
$DIMALTF
 40
25.4
  9
$DIMLFAC
 40
1.0
  9
$DIMTOFL
 70
     0
  9
$DIMTVP
 40
0.0
  9
$DIMTIX
 70
     0
  9
$DIMSOXD
 70
     0
  9
$DIMSAH
 70
     0
  9
$DIMBLK1
  1

  9
$DIMBLK2
  1

  9
$DIMSTYLE
  2
Standard
  9
$DIMCLRD
 70
     0
  9
$DIMCLRE
 70
     0
  9
$DIMCLRT
 70
     0
  9
$DIMTFAC
 40
1.0
  9
$DIMGAP
 40
0.09
  9
$DIMJUST
 70
     0
  9
$DIMSD1
 70
     0
  9
$DIMSD2
 70
     0
  9
$DIMTOLJ
 70
     1
  9
$DIMTZIN
 70
     0
  9
$DIMALTZ
 70
     0
  9
$DIMALTTZ
 70
     0
  9
$DIMUPT
 70
     0
  9
$DIMDEC
 70
     4
  9
$DIMTDEC
 70
     4
  9
$DIMALTU
 70
     2
  9
$DIMALTTD
 70
     2
  9
$DIMTXSTY
  7
Standard
  9
$DIMAUNIT
 70
     0
  9
$DIMADEC
 70
     0
  9
$DIMALTRND
 40
0.0
  9
$DIMAZIN
 70
     0
  9
$DIMDSEP
 70
    46
  9
$DIMATFIT
 70
     3
  9
$DIMFRAC
 70
     0
  9
$DIMLDRBLK
  1

  9
$DIMLUNIT
 70
     2
  9
$DIMLWD
 70
    -2
  9
$DIMLWE
 70
    -2
  9
$DIMTMOVE
 70
     0
  9
$DIMFXL
 40
1.0
  9
$DIMFXLON
 70
     0
  9
$DIMJOGANG
 40
0.7853981633974483
  9
$DIMTFILL
 70
     0
  9
$DIMTFILLCLR
 70
     0
  9
$DIMARCSYM
 70
     0
  9
$DIMLTYPE
  6

  9
$DIMLTEX1
  6

  9
$DIMLTEX2
  6

  9
$DIMTXTDIRECTION
 70
     0
  9
$LUNITS
 70
     2
  9
$LUPREC
 70
     4
  9
$SKETCHINC
 40
0.1
  9
$FILLETRAD
 40
0.5
  9
$AUNITS
 70
     0
  9
$AUPREC
 70
     0
  9
$MENU
  1
.
  9
$ELEVATION
 40
0.0
  9
$PELEVATION
 40
0.0
  9
$THICKNESS
 40
0.0
  9
$LIMCHECK
 70
     0
  9
$CHAMFERA
 40
0.5
  9
$CHAMFERB
 40
0.5
  9
$CHAMFERC
 40
1.0
  9
$CHAMFERD
 40
0.0
  9
$SKPOLY
 70
     0
  9
$TDCREATE
 40
2457917.624675914
  9
$TDUCREATE
 40
2457917.249675926
  9
$TDUPDATE
 40
2457917.624675914
  9
$TDUUPDATE
 40
2457917.249675926
  9
$TDINDWG
 40
0.0000000116
  9
$TDUSRTIMER
 40
0.0000000116
  9
$USRTIMER
 70
     1
  9
$ANGBASE
 50
0.0
  9
$ANGDIR
 70
     0
  9
$PDMODE
 70
     0
  9
$PDSIZE
 40
0.0
  9
$PLINEWID
 40
0.0
  9
$SPLFRAME
 70
     0
  9
$SPLINETYPE
 70
     6
  9
$SPLINESEGS
 70
     8
  9
$HANDSEED
  5
A3
  9
$SURFTAB1
 70
     6
  9
$SURFTAB2
 70
     6
  9
$SURFTYPE
 70
     6
  9
$SURFU
 70
     6
  9
$SURFV
 70
     6
  9
$UCSBASE
  2

  9
$UCSNAME
  2

  9
$UCSORG
 10
0.0
 20
0.0
 30
0.0
  9
$UCSXDIR
 10
1.0
 20
0.0
 30
0.0
  9
$UCSYDIR
 10
0.0
 20
1.0
 30
0.0
  9
$UCSORTHOREF
  2

  9
$UCSORTHOVIEW
 70
     0
  9
$UCSORGTOP
 10
0.0
 20
0.0
 30
0.0
  9
$UCSORGBOTTOM
 10
0.0
 20
0.0
 30
0.0
  9
$UCSORGLEFT
 10
0.0
 20
0.0
 30
0.0
  9
$UCSORGRIGHT
 10
0.0
 20
0.0
 30
0.0
  9
$UCSORGFRONT
 10
0.0
 20
0.0
 30
0.0
  9
$UCSORGBACK
 10
0.0
 20
0.0
 30
0.0
  9
$PUCSBASE
  2

  9
$PUCSNAME
  2

  9
$PUCSORG
 10
0.0
 20
0.0
 30
0.0
  9
$PUCSXDIR
 10
1.0
 20
0.0
 30
0.0
  9
$PUCSYDIR
 10
0.0
 20
1.0
 30
0.0
  9
$PUCSORTHOREF
  2

  9
$PUCSORTHOVIEW
 70
     0
  9
$PUCSORGTOP
 10
0.0
 20
0.0
 30
0.0
  9
$PUCSORGBOTTOM
 10
0.0
 20
0.0
 30
0.0
  9
$PUCSORGLEFT
 10
0.0
 20
0.0
 30
0.0
  9
$PUCSORGRIGHT
 10
0.0
 20
0.0
 30
0.0
  9
$PUCSORGFRONT
 10
0.0
 20
0.0
 30
0.0
  9
$PUCSORGBACK
 10
0.0
 20
0.0
 30
0.0
  9
$USERI1
 70
     0
  9
$USERI2
 70
     0
  9
$USERI3
 70
     0
  9
$USERI4
 70
     0
  9
$USERI5
 70
     0
  9
$USERR1
 40
0.0
  9
$USERR2
 40
0.0
  9
$USERR3
 40
0.0
  9
$USERR4
 40
0.0
  9
$USERR5
 40
0.0
  9
$WORLDVIEW
 70
     1
  9
$SHADEDGE
 70
     3
  9
$SHADEDIF
 70
    70
  9
$TILEMODE
 70
     1
  9
$MAXACTVP
 70
    64
  9
$PINSBASE
 10
0.0
 20
0.0
 30
0.0
  9
$PLIMCHECK
 70
     0
  9
$PEXTMIN
 10
1.000000000000000E+20
 20
1.000000000000000E+20
 30
1.000000000000000E+20
  9
$PEXTMAX
 10
-1.000000000000000E+20
 20
-1.000000000000000E+20
 30
-1.000000000000000E+20
  9
$PLIMMIN
 10
0.0
 20
0.0
  9
$PLIMMAX
 10
12.0
 20
9.0
  9
$UNITMODE
 70
     0
  9
$VISRETAIN
 70
     1
  9
$PLINEGEN
 70
     0
  9
$PSLTSCALE
 70
     1
  9
$TREEDEPTH
 70
  3020
  9
$CMLSTYLE
  2
Standard
  9
$CMLJUST
 70
     0
  9
$CMLSCALE
 40
1.0
  9
$PROXYGRAPHICS
 70
     1
  9
$MEASUREMENT
 70
     0
  9
$CELWEIGHT
370
    -1
  9
$ENDCAPS
280
     0
  9
$JOINSTYLE
280
     0
  9
$LWDISPLAY
290
     1
  9
$INSUNITS
 70
     1
  9
$HYPERLINKBASE
  1

  9
$STYLESHEET
  1

  9
$XEDIT
290
     1
  9
$CEPSNTYPE
380
     0
  9
$PSTYLEMODE
290
     1
  9
$FINGERPRINTGUID
  2
{CD13C16C-9E9A-B775-8FEB-8A0D638432B2}
  9
$VERSIONGUID
  2
{FAEB1C32-E019-11D5-929B-00C0DF256EC4}
  9
$EXTNAMES
290
     1
  9
$PSVPSCALE
 40
0.0
  9
$OLESTARTUP
290
     0
  9
$SORTENTS
280
   127
  9
$INDEXCTL
280
     0
  9
$HIDETEXT
280
     1
  9
$XCLIPFRAME
280
     2
  9
$HALOGAP
280
     0
  9
$OBSCOLOR
 70
   257
  9
$OBSLTYPE
280
     0
  9
$INTERSECTIONDISPLAY
280
     0
  9
$INTERSECTIONCOLOR
 70
   257
  9
$DIMASSOC
280
     2
  9
$PROJECTNAME
  1

  9
$CAMERADISPLAY
290
     0
  9
$LENSLENGTH
 40
50.0
  9
$CAMERAHEIGHT
 40
0.0
  9
$STEPSPERSEC
 40
2.0
  9
$STEPSIZE
 40
6.0
  9
$3DDWFPREC
 40
2.0
  9
$PSOLWIDTH
 40
0.25
  9
$PSOLHEIGHT
 40
4.0
  9
$LOFTANG1
 40
1.570796326794897
  9
$LOFTANG2
 40
1.570796326794897
  9
$LOFTMAG1
 40
0.0
  9
$LOFTMAG2
 40
0.0
  9
$LOFTPARAM
 70
     7
  9
$LOFTNORMALS
280
     1
  9
$LATITUDE
 40
37.795
  9
$LONGITUDE
 40
-122.394
  9
$NORTHDIRECTION
 40
0.0
  9
$TIMEZONE
 70
 -8000
  9
$LIGHTGLYPHDISPLAY
280
     1
  9
$TILEMODELIGHTSYNCH
280
     1
  9
$CMATERIAL
347
3C
  9
$SOLIDHIST
280
     1
  9
$SHOWHIST
280
     1
  9
$DWFFRAME
280
     2
  9
$DGNFRAME
280
     2
  9
$REALWORLDSCALE
290
     1
  9
$INTERFERECOLOR
 62
   256
  9
$CSHADOW
280
     0
  9
$SHADOWPLANELOCATION
 40
0.0
  0
ENDSEC
  0
SECTION
  2
CLASSES
  0
CLASS
  1
ACDBDICTIONARYWDFLT
  2
AcDbDictionaryWithDefault
  3
ObjectDBX Classes
 90
        0
 91
        4
280
     0
281
     0
  0
CLASS
  1
VISUALSTYLE
  2
AcDbVisualStyle
  3
ObjectDBX Classes
 90
     4095
 91
        4
280
     0
281
     0
  0
CLASS
  1
MATERIAL
  2
AcDbMaterial
  3
ObjectDBX Classes
 90
     1153
 91
        4
280
     0
281
     0
  0
CLASS
  1
SUN
  2
AcDbSun
  3
SCENEOE
 90
     1024
 91
        4
280
     0
281
     0
  0
ENDSEC
  0
SECTION
  2
TABLES
  0
TABLE
  2
VPORT
  5
8
330
0
100
AcDbSymbolTable
 70
     1
  0
VPORT
  5
29
330
8
100
AcDbSymbolTableRecord
100
AcDbViewportTableRecord
  2
*Active
 70
     0
 10
0.0
 20
0.0
 11
1.0
 21
1.0
 12
0.0
 22
0.0
 13
0.0
 23
0.0
 14
0.5
 24
0.5
 15
0.5
 25
0.5
 16
0.0
 26
0.0
 36
1.0
 17
91.00082462281999
 27
-128.4993055234307
 37
0.0
 40
256.9986110468615
 41
0.7081814508812795
 42
50.0
 43
0.0
 44
0.0
 50
0.0
 51
0.0
 71
     0
 72
   100
 73
     1
 74
     3
 75
     0
 76
     0
 77
     0
 78
     0
281
     0
 65
     1
110
0.0
120
0.0
130
0.0
111
1.0
121
0.0
131
0.0
112
0.0
122
1.0
132
0.0
 79
     0
146
0.0
 60
     3
 61
     5
292
     1
282
     1
141
0.0
142
0.0
 63
   250
361
3F
  0
ENDTAB
  0
TABLE
  2
LTYPE
  5
5
330
0
100
AcDbSymbolTable
 70
     1
  0
LTYPE
  5
14
330
5
100
AcDbSymbolTableRecord
100
AcDbLinetypeTableRecord
  2
ByBlock
 70
     0
  3

 72
    65
 73
     0
 40
0.0
  0
LTYPE
  5
15
330
5
100
AcDbSymbolTableRecord
100
AcDbLinetypeTableRecord
  2
ByLayer
 70
     0
  3

 72
    65
 73
     0
 40
0.0
  0
LTYPE
  5
16
330
5
100
AcDbSymbolTableRecord
100
AcDbLinetypeTableRecord
  2
Continuous
 70
     0
  3
Solid line
 72
    65
 73
     0
 40
0.0
  0
ENDTAB
  0
TABLE
  2
LAYER
  5
2
330
0
100
AcDbSymbolTable
 70
     2
  0
LAYER
  5
10
330
2
100
AcDbSymbolTableRecord
100
AcDbLayerTableRecord
  2
0
 70
     0
 62
     7
  6
Continuous
370
    -3
390
F
347
3E
  0
LAYER
  5
40
330
2
100
AcDbSymbolTableRecord
100
AcDbLayerTableRecord
  2
_U+30EC_U+30A4_U+30E4_U+30FC 1
 70
     0
 62
     7
  6
Continuous
370
    -3
390
F
347
3E
  0
ENDTAB
  0
TABLE
  2
STYLE
  5
3
330
0
100
AcDbSymbolTable
 70
     1
  0
STYLE
  5
11
330
3
100
AcDbSymbolTableRecord
100
AcDbTextStyleTableRecord
  2
Standard
 70
     0
 40
0.0
 41
1.0
 50
0.0
 71
     0
 42
0.2
  3
txt
  4

  0
ENDTAB
  0
TABLE
  2
VIEW
  5
6
330
0
100
AcDbSymbolTable
 70
     0
  0
ENDTAB
  0
TABLE
  2
UCS
  5
7
330
0
100
AcDbSymbolTable
 70
     0
  0
ENDTAB
  0
TABLE
  2
APPID
  5
9
330
0
100
AcDbSymbolTable
 70
     1
  0
APPID
  5
12
330
9
100
AcDbSymbolTableRecord
100
AcDbRegAppTableRecord
  2
ACAD
 70
     0
  0
ENDTAB
  0
TABLE
  2
DIMSTYLE
  5
A
330
0
100
AcDbSymbolTable
 70
     1
100
AcDbDimStyleTable
  0
DIMSTYLE
105
27
330
A
100
AcDbSymbolTableRecord
100
AcDbDimStyleTableRecord
  2
Standard
 70
     0
178
     0
340
11
  0
ENDTAB
  0
TABLE
  2
BLOCK_RECORD
  5
1
330
0
100
AcDbSymbolTable
 70
     4
  0
BLOCK_RECORD
  5
1F
330
1
100
AcDbSymbolTableRecord
100
AcDbBlockTableRecord
  2
*Model_Space
340
22
 70
     0
280
     1
281
     0
  0
BLOCK_RECORD
  5
1B
330
1
100
AcDbSymbolTableRecord
100
AcDbBlockTableRecord
  2
*Paper_Space
340
1E
 70
     0
280
     1
281
     0
  0
BLOCK_RECORD
  5
23
330
1
100
AcDbSymbolTableRecord
100
AcDbBlockTableRecord
  2
*Paper_Space0
340
26
 70
     0
280
     1
281
     0
  0
BLOCK_RECORD
  5
7E
330
1
100
AcDbSymbolTableRecord
100
AcDbBlockTableRecord
  2
block 2
340
0
102
{BLKREFS
331
7F
102
}
 70
     0
280
     1
281
     0
  0
BLOCK_RECORD
  5
88
330
1
100
AcDbSymbolTableRecord
100
AcDbBlockTableRecord
  2
block 3
340
0
102
{BLKREFS
331
89
102
}
 70
     0
280
     1
281
     0
  0
BLOCK_RECORD
  5
90
330
1
100
AcDbSymbolTableRecord
100
AcDbBlockTableRecord
  2
block 4
340
0
102
{BLKREFS
331
91
102
}
 70
     0
280
     1
281
     0
  0
ENDTAB
  0
ENDSEC
  0
SECTION
  2
BLOCKS
  0
BLOCK
  5
20
330
1F
100
AcDbEntity
  8
0
100
AcDbBlockBegin
  2
*Model_Space
 70
     0
 10
0.0
 20
0.0
 30
0.0
  3
*Model_Space
  1

  0
ENDBLK
  5
21
330
1F
100
AcDbEntity
  8
0
100
AcDbBlockEnd
  0
BLOCK
  5
1C
330
1B
100
AcDbEntity
 67
     1
  8
0
100
AcDbBlockBegin
  2
*Paper_Space
 70
     0
 10
0.0
 20
0.0
 30
0.0
  3
*Paper_Space
  1

  0
ENDBLK
  5
1D
330
1B
100
AcDbEntity
 67
     1
  8
0
100
AcDbBlockEnd
  0
BLOCK
  5
24
330
23
100
AcDbEntity
  8
0
100
AcDbBlockBegin
  2
*Paper_Space0
 70
     0
 10
0.0
 20
0.0
 30
0.0
  3
*Paper_Space0
  1

  0
ENDBLK
  5
25
330
23
100
AcDbEntity
  8
0
100
AcDbBlockEnd
  0
BLOCK
  5
80
330
7E
100
AcDbEntity
  8
0
100
AcDbBlockBegin
  2
block 2
 70
     0
 10
0.0
 20
0.0
 30
0.0
  3
block 2
  1

  0
SPLINE
  5
82
330
7E
100
AcDbEntity
  8
_U+30EC_U+30A4_U+30E4_U+30FC 1
370
     0
100
AcDbSpline
210
0.0
220
0.0
230
1.0
 70
    11
 71
     3
 72
    26
 73
    22
 74
     0
 42
0.0000000001
 43
0.0000000001
 12
1.0
 22
0.0
 32
0.0
 13
1.0
 23
0.0
 33
0.0
 40
0.0
 40
0.0
 40
0.0
 40
0.0
 40
1.0
 40
1.0
 40
1.0
 40
2.0
 40
2.0
 40
2.0
 40
3.0
 40
3.0
 40
3.0
 40
4.0
 40
4.0
 40
4.0
 40
5.0
 40
5.0
 40
5.0
 40
6.0
 40
6.0
 40
6.0
 40
7.0
 40
7.0
 40
7.0
 40
7.0
 10
87.48337671424026
 20
-121.2652940235031
 30
0.0
 10
87.48337671424026
 20
-121.2652940235031
 30
0.0
 10
87.48337671424026
 20
-120.1609686657063
 30
0.0
 10
87.48337671424026
 20
-120.1609686657063
 30
0.0
 10
87.48337671424026
 20
-120.1609686657063
 30
0.0
 10
87.13059893655068
 20
-120.1609686657063
 30
0.0
 10
87.13059893655068
 20
-120.1609686657063
 30
0.0
 10
87.13059893655068
 20
-120.1609686657063
 30
0.0
 10
87.13059893655068
 20
-120.0130018146148
 30
0.0
 10
87.13059893655068
 20
-120.0130018146148
 30
0.0
 10
87.48561602630568
 20
-119.9981879040282
 30
0.0
 10
87.53539765606754
 20
-119.8352348875759
 30
0.0
 10
87.56709253453184
 20
-119.7210299722399
 30
0.0
 10
87.56709253453184
 20
-119.7210299722399
 30
0.0
 10
87.7229831052394
 20
-119.7210299722399
 30
0.0
 10
87.7229831052394
 20
-119.7210299722399
 30
0.0
 10
87.7229831052394
 20
-119.7210299722399
 30
0.0
 10
87.7229831052394
 20
-121.2652940235031
 30
0.0
 10
87.7229831052394
 20
-121.2652940235031
 30
0.0
 10
87.7229831052394
 20
-121.2652940235031
 30
0.0
 10
87.48337671424026
 20
-121.2652940235031
 30
0.0
 10
87.48337671424026
 20
-121.2652940235031
 30
0.0
  0
HATCH
  5
83
330
7E
100
AcDbEntity
  8
_U+30EC_U+30A4_U+30E4_U+30FC 1
 62
   179
420
  2234388
100
AcDbHatch
 10
0.0
 20
0.0
 30
0.0
210
0.0
220
0.0
230
1.0
  2
SOLID
 70
     1
 71
     0
 91
        1
 92
        1
 93
        1
 72
     4
 94
        3
 73
     0
 74
     1
 95
       26
 96
       22
 40
0.0
 40
0.0
 40
0.0
 40
0.0
 40
1.0
 40
1.0
 40
1.0
 40
2.0
 40
2.0
 40
2.0
 40
3.0
 40
3.0
 40
3.0
 40
4.0
 40
4.0
 40
4.0
 40
5.0
 40
5.0
 40
5.0
 40
6.0
 40
6.0
 40
6.0
 40
7.0
 40
7.0
 40
7.0
 40
7.0
 10
87.48337671424026
 20
-121.2652940235031
 10
87.48337671424026
 20
-121.2652940235031
 10
87.48337671424026
 20
-120.1609686657063
 10
87.48337671424026
 20
-120.1609686657063
 10
87.48337671424026
 20
-120.1609686657063
 10
87.13059893655068
 20
-120.1609686657063
 10
87.13059893655068
 20
-120.1609686657063
 10
87.13059893655068
 20
-120.1609686657063
 10
87.13059893655068
 20
-120.0130018146148
 10
87.13059893655068
 20
-120.0130018146148
 10
87.48561602630568
 20
-119.9981879040282
 10
87.53539765606754
 20
-119.8352348875759
 10
87.56709253453184
 20
-119.7210299722399
 10
87.56709253453184
 20
-119.7210299722399
 10
87.7229831052394
 20
-119.7210299722399
 10
87.7229831052394
 20
-119.7210299722399
 10
87.7229831052394
 20
-119.7210299722399
 10
87.7229831052394
 20
-121.2652940235031
 10
87.7229831052394
 20
-121.2652940235031
 10
87.7229831052394
 20
-121.2652940235031
 10
87.48337671424026
 20
-121.2652940235031
 10
87.48337671424026
 20
-121.2652940235031
 97
        0
 97
        0
 75
     2
 76
     1
 98
        0
  0
SPLINE
  5
84
330
7E
100
AcDbEntity
  8
_U+30EC_U+30A4_U+30E4_U+30FC 1
370
     0
100
AcDbSpline
210
0.0
220
0.0
230
1.0
 70
    11
 71
     3
 72
    29
 73
    25
 74
     0
 42
0.0000000001
 43
0.0000000001
 12
1.0
 22
0.0
 32
0.0
 13
1.0
 23
0.0
 33
0.0
 40
0.0
 40
0.0
 40
0.0
 40
0.0
 40
1.0
 40
1.0
 40
1.0
 40
2.0
 40
2.0
 40
2.0
 40
3.0
 40
3.0
 40
3.0
 40
4.0
 40
4.0
 40
4.0
 40
5.0
 40
5.0
 40
5.0
 40
6.0
 40
6.0
 40
6.0
 40
7.0
 40
7.0
 40
7.0
 40
8.0
 40
8.0
 40
8.0
 40
8.0
 10
88.79285750818373
 20
-121.3161091819106
 30
0.0
 10
88.50794811155357
 20
-121.3161091819106
 30
0.0
 10
88.23681909686441
 20
-121.1784776172748
 30
0.0
 10
88.23681909686441
 20
-120.829489444619
 30
0.0
 10
88.23681909686441
 20
-120.573518850065
 30
0.0
 10
88.38840329821541
 20
-120.4782619598978
 30
0.0
 10
88.50140243013159
 20
-120.4169392602603
 30
0.0
 10
88.36807723485244
 20
-120.3576836179141
 30
0.0
 10
88.286428471852
 20
-120.243478702578
 30
0.0
 10
88.286428471852
 20
-120.0827649981911
 30
0.0
 10
88.286428471852
 20
-119.8076741236939
 30
0.0
 10
88.49899086329192
 20
-119.6722818711236
 30
0.0
 10
88.79285750818373
 20
-119.6722818711236
 30
0.0
 10
89.09602591088571
 20
-119.6722818711236
 30
0.0
 10
89.29928654451545
 20
-119.8161146076328
 30
0.0
 10
89.29928654451545
 20
-120.0827649981911
 30
0.0
 10
89.29928654451545
 20
-120.243478702578
 30
0.0
 10
89.21591523377242
 20
-120.3576836179141
 30
0.0
 10
89.08224552894472
 20
-120.4169392602603
 30
0.0
 10
89.17733016433762
 20
-120.4677544186678
 30
0.0
 10
89.34682886221191
 20
-120.5630113088349
 30
0.0
 10
89.34682886221191
 20
-120.8253553300367
 30
0.0
 10
89.34682886221191
 20
-121.1996649545091
 30
0.0
 10
89.04848359318927
 20
-121.3161091819106
 30
0.0
 10
88.79285750818373
 20
-121.3161091819106
 30
0.0
  0
SPLINE
  5
85
330
7E
100
AcDbEntity
  8
_U+30EC_U+30A4_U+30E4_U+30FC 1
370
     0
100
AcDbSpline
210
0.0
220
0.0
230
1.0
 70
    11
 71
     3
 72
    17
 73
    13
 74
     0
 42
0.0000000001
 43
0.0000000001
 12
1.0
 22
0.0
 32
0.0
 13
1.0
 23
0.0
 33
0.0
 40
0.0
 40
0.0
 40
0.0
 40
0.0
 40
1.0
 40
1.0
 40
1.0
 40
2.0
 40
2.0
 40
2.0
 40
3.0
 40
3.0
 40
3.0
 40
4.0
 40
4.0
 40
4.0
 40
4.0
 10
88.79285750818373
 20
-120.5249430037229
 30
0.0
 10
88.63920624954159
 20
-120.5249430037229
 30
0.0
 10
88.4765977426378
 20
-120.611587155177
 30
0.0
 10
88.4765977426378
 20
-120.8146755340324
 30
0.0
 10
88.4765977426378
 20
-121.0198309701791
 30
0.0
 10
88.61198999520812
 20
-121.1214612869939
 30
0.0
 10
88.79285750818373
 20
-121.1214612869939
 30
0.0
 10
88.99198402723117
 20
-121.1214612869939
 30
0.0
 10
89.10946178327819
 20
-120.998815887719
 30
0.0
 10
89.10946178327819
 20
-120.8210489606802
 30
0.0
 10
89.10946178327819
 20
-120.5988403018816
 30
0.0
 10
88.93548446127308
 20
-120.5249430037229
 30
0.0
 10
88.79285750818373
 20
-120.5249430037229
 30
0.0
  0
SPLINE
  5
86
330
7E
100
AcDbEntity
  8
_U+30EC_U+30A4_U+30E4_U+30FC 1
370
     0
100
AcDbSpline
210
0.0
220
0.0
230
1.0
 70
    11
 71
     3
 72
    17
 73
    13
 74
     0
 42
0.0000000001
 43
0.0000000001
 12
1.0
 22
0.0
 32
0.0
 13
1.0
 23
0.0
 33
0.0
 40
0.0
 40
0.0
 40
0.0
 40
0.0
 40
1.0
 40
1.0
 40
1.0
 40
2.0
 40
2.0
 40
2.0
 40
3.0
 40
3.0
 40
3.0
 40
4.0
 40
4.0
 40
4.0
 40
4.0
 10
88.79285750818373
 20
-119.8648627087491
 30
0.0
 10
88.61681312888747
 20
-119.8648627087491
 30
0.0
 10
88.52620711762539
 20
-119.959947344142
 30
0.0
 10
88.52620711762539
 20
-120.0953395967123
 30
0.0
 10
88.52620711762539
 20
-120.2181572507614
 30
0.0
 10
88.60303274694647
 20
-120.336668535454
 30
0.0
 10
88.79285750818373
 20
-120.336668535454
 30
0.0
 10
88.98302677896953
 20
-120.336668535454
 30
0.0
 10
89.0598524082906
 20
-120.2181572507614
 30
0.0
 10
89.0598524082906
 20
-120.0953395967123
 30
0.0
 10
89.0598524082906
 20
-119.959947344142
 30
0.0
 10
88.96717933973737
 20
-119.8648627087491
 30
0.0
 10
88.79285750818373
 20
-119.8648627087491
 30
0.0
  0
HATCH
  5
87
330
7E
100
AcDbEntity
  8
_U+30EC_U+30A4_U+30E4_U+30FC 1
 62
   179
420
  2234388
100
AcDbHatch
 10
0.0
 20
0.0
 30
0.0
210
0.0
220
0.0
230
1.0
  2
SOLID
 70
     1
 71
     0
 91
        3
 92
        1
 93
        1
 72
     4
 94
        3
 73
     0
 74
     1
 95
       29
 96
       25
 40
0.0
 40
0.0
 40
0.0
 40
0.0
 40
1.0
 40
1.0
 40
1.0
 40
2.0
 40
2.0
 40
2.0
 40
3.0
 40
3.0
 40
3.0
 40
4.0
 40
4.0
 40
4.0
 40
5.0
 40
5.0
 40
5.0
 40
6.0
 40
6.0
 40
6.0
 40
7.0
 40
7.0
 40
7.0
 40
8.0
 40
8.0
 40
8.0
 40
8.0
 10
88.79285750818373
 20
-121.3161091819106
 10
88.50794811155357
 20
-121.3161091819106
 10
88.23681909686441
 20
-121.1784776172748
 10
88.23681909686441
 20
-120.829489444619
 10
88.23681909686441
 20
-120.573518850065
 10
88.38840329821541
 20
-120.4782619598978
 10
88.50140243013159
 20
-120.4169392602603
 10
88.36807723485244
 20
-120.3576836179141
 10
88.286428471852
 20
-120.243478702578
 10
88.286428471852
 20
-120.0827649981911
 10
88.286428471852
 20
-119.8076741236939
 10
88.49899086329192
 20
-119.6722818711236
 10
88.79285750818373
 20
-119.6722818711236
 10
89.09602591088571
 20
-119.6722818711236
 10
89.29928654451545
 20
-119.8161146076328
 10
89.29928654451545
 20
-120.0827649981911
 10
89.29928654451545
 20
-120.243478702578
 10
89.21591523377242
 20
-120.3576836179141
 10
89.08224552894472
 20
-120.4169392602603
 10
89.17733016433762
 20
-120.4677544186678
 10
89.34682886221191
 20
-120.5630113088349
 10
89.34682886221191
 20
-120.8253553300367
 10
89.34682886221191
 20
-121.1996649545091
 10
89.04848359318927
 20
-121.3161091819106
 10
88.79285750818373
 20
-121.3161091819106
 97
        0
 97
        0
 92
        1
 93
        1
 72
     4
 94
        3
 73
     0
 74
     1
 95
       17
 96
       13
 40
0.0
 40
0.0
 40
0.0
 40
0.0
 40
1.0
 40
1.0
 40
1.0
 40
2.0
 40
2.0
 40
2.0
 40
3.0
 40
3.0
 40
3.0
 40
4.0
 40
4.0
 40
4.0
 40
4.0
 10
88.79285750818373
 20
-120.5249430037229
 10
88.63920624954159
 20
-120.5249430037229
 10
88.4765977426378
 20
-120.611587155177
 10
88.4765977426378
 20
-120.8146755340324
 10
88.4765977426378
 20
-121.0198309701791
 10
88.61198999520812
 20
-121.1214612869939
 10
88.79285750818373
 20
-121.1214612869939
 10
88.99198402723117
 20
-121.1214612869939
 10
89.10946178327819
 20
-120.998815887719
 10
89.10946178327819
 20
-120.8210489606802
 10
89.10946178327819
 20
-120.5988403018816
 10
88.93548446127308
 20
-120.5249430037229
 10
88.79285750818373
 20
-120.5249430037229
 97
        0
 97
        0
 92
        1
 93
        1
 72
     4
 94
        3
 73
     0
 74
     1
 95
       17
 96
       13
 40
0.0
 40
0.0
 40
0.0
 40
0.0
 40
1.0
 40
1.0
 40
1.0
 40
2.0
 40
2.0
 40
2.0
 40
3.0
 40
3.0
 40
3.0
 40
4.0
 40
4.0
 40
4.0
 40
4.0
 10
88.79285750818373
 20
-119.8648627087491
 10
88.61681312888747
 20
-119.8648627087491
 10
88.52620711762539
 20
-119.959947344142
 10
88.52620711762539
 20
-120.0953395967123
 10
88.52620711762539
 20
-120.2181572507614
 10
88.60303274694647
 20
-120.336668535454
 10
88.79285750818373
 20
-120.336668535454
 10
88.98302677896953
 20
-120.336668535454
 10
89.0598524082906
 20
-120.2181572507614
 10
89.0598524082906
 20
-120.0953395967123
 10
89.0598524082906
 20
-119.959947344142
 10
88.96717933973737
 20
-119.8648627087491
 10
88.79285750818373
 20
-119.8648627087491
 97
        0
 97
        0
 75
     2
 76
     1
 98
        0
  0
ENDBLK
  5
81
330
7E
100
AcDbEntity
  8
0
100
AcDbBlockEnd
  0
BLOCK
  5
8A
330
88
100
AcDbEntity
  8
0
100
AcDbBlockBegin
  2
block 3
 70
     0
 10
0.0
 20
0.0
 30
0.0
  3
block 3
  1

  0
SPLINE
  5
8C
330
88
100
AcDbEntity
  8
_U+30EC_U+30A4_U+30E4_U+30FC 1
370
     0
100
AcDbSpline
210
0.0
220
0.0
230
1.0
 70
    11
 71
     3
 72
    26
 73
    22
 74
     0
 42
0.0000000001
 43
0.0000000001
 12
1.0
 22
0.0
 32
0.0
 13
1.0
 23
0.0
 33
0.0
 40
0.0
 40
0.0
 40
0.0
 40
0.0
 40
1.0
 40
1.0
 40
1.0
 40
2.0
 40
2.0
 40
2.0
 40
3.0
 40
3.0
 40
3.0
 40
4.0
 40
4.0
 40
4.0
 40
5.0
 40
5.0
 40
5.0
 40
6.0
 40
6.0
 40
6.0
 40
7.0
 40
7.0
 40
7.0
 40
7.0
 10
84.98344317536872
 20
-136.7654676307392
 30
0.0
 10
84.98344317536872
 20
-136.7654676307392
 30
0.0
 10
84.98344317536872
 20
-135.6613145277166
 30
0.0
 10
84.98344317536872
 20
-135.6613145277166
 30
0.0
 10
84.98344317536872
 20
-135.6613145277166
 30
0.0
 10
84.63066539767914
 20
-135.6613145277166
 30
0.0
 10
84.63066539767914
 20
-135.6613145277166
 30
0.0
 10
84.63066539767914
 20
-135.6613145277166
 30
0.0
 10
84.63066539767914
 20
-135.5131754218509
 30
0.0
 10
84.63066539767914
 20
-135.5131754218509
 30
0.0
 10
84.98568248743413
 20
-135.4983615112643
 30
0.0
 10
85.035464117196
 20
-135.335408494812
 30
0.0
 10
85.06698674088604
 20
-135.2210313247017
 30
0.0
 10
85.06698674088604
 20
-135.2210313247017
 30
0.0
 10
85.22304956636785
 20
-135.2210313247017
 30
0.0
 10
85.22304956636785
 20
-135.2210313247017
 30
0.0
 10
85.22304956636785
 20
-135.2210313247017
 30
0.0
 10
85.22304956636785
 20
-136.7654676307392
 30
0.0
 10
85.22304956636785
 20
-136.7654676307392
 30
0.0
 10
85.22304956636785
 20
-136.7654676307392
 30
0.0
 10
84.98344317536872
 20
-136.7654676307392
 30
0.0
 10
84.98344317536872
 20
-136.7654676307392
 30
0.0
  0
HATCH
  5
8D
330
88
100
AcDbEntity
  8
_U+30EC_U+30A4_U+30E4_U+30FC 1
 62
   179
420
  2234388
100
AcDbHatch
 10
0.0
 20
0.0
 30
0.0
210
0.0
220
0.0
230
1.0
  2
SOLID
 70
     1
 71
     0
 91
        1
 92
        1
 93
        1
 72
     4
 94
        3
 73
     0
 74
     1
 95
       26
 96
       22
 40
0.0
 40
0.0
 40
0.0
 40
0.0
 40
1.0
 40
1.0
 40
1.0
 40
2.0
 40
2.0
 40
2.0
 40
3.0
 40
3.0
 40
3.0
 40
4.0
 40
4.0
 40
4.0
 40
5.0
 40
5.0
 40
5.0
 40
6.0
 40
6.0
 40
6.0
 40
7.0
 40
7.0
 40
7.0
 40
7.0
 10
84.98344317536872
 20
-136.7654676307392
 10
84.98344317536872
 20
-136.7654676307392
 10
84.98344317536872
 20
-135.6613145277166
 10
84.98344317536872
 20
-135.6613145277166
 10
84.98344317536872
 20
-135.6613145277166
 10
84.63066539767914
 20
-135.6613145277166
 10
84.63066539767914
 20
-135.6613145277166
 10
84.63066539767914
 20
-135.6613145277166
 10
84.63066539767914
 20
-135.5131754218509
 10
84.63066539767914
 20
-135.5131754218509
 10
84.98568248743413
 20
-135.4983615112643
 10
85.035464117196
 20
-135.335408494812
 10
85.06698674088604
 20
-135.2210313247017
 10
85.06698674088604
 20
-135.2210313247017
 10
85.22304956636785
 20
-135.2210313247017
 10
85.22304956636785
 20
-135.2210313247017
 10
85.22304956636785
 20
-135.2210313247017
 10
85.22304956636785
 20
-136.7654676307392
 10
85.22304956636785
 20
-136.7654676307392
 10
85.22304956636785
 20
-136.7654676307392
 10
84.98344317536872
 20
-136.7654676307392
 10
84.98344317536872
 20
-136.7654676307392
 97
        0
 97
        0
 75
     2
 76
     1
 98
        0
  0
SPLINE
  5
8E
330
88
100
AcDbEntity
  8
_U+30EC_U+30A4_U+30E4_U+30FC 1
370
     0
100
AcDbSpline
210
0.0
220
0.0
230
1.0
 70
    11
 71
     3
 72
    62
 73
    58
 74
     0
 42
0.0000000001
 43
0.0000000001
 12
1.0
 22
0.0
 32
0.0
 13
1.0
 23
0.0
 33
0.0
 40
0.0
 40
0.0
 40
0.0
 40
0.0
 40
1.0
 40
1.0
 40
1.0
 40
2.0
 40
2.0
 40
2.0
 40
3.0
 40
3.0
 40
3.0
 40
4.0
 40
4.0
 40
4.0
 40
5.0
 40
5.0
 40
5.0
 40
6.0
 40
6.0
 40
6.0
 40
7.0
 40
7.0
 40
7.0
 40
8.0
 40
8.0
 40
8.0
 40
9.0
 40
9.0
 40
9.0
 40
10.0
 40
10.0
 40
10.0
 40
11.0
 40
11.0
 40
11.0
 40
12.0
 40
12.0
 40
12.0
 40
13.0
 40
13.0
 40
13.0
 40
14.0
 40
14.0
 40
14.0
 40
15.0
 40
15.0
 40
15.0
 40
16.0
 40
16.0
 40
16.0
 40
17.0
 40
17.0
 40
17.0
 40
18.0
 40
18.0
 40
18.0
 40
19.0
 40
19.0
 40
19.0
 40
19.0
 10
86.2841389758248
 20
-136.8161105343724
 30
0.0
 10
86.18250865900993
 20
-136.8161105343724
 30
0.0
 10
85.94962020420704
 20
-136.7950954519123
 30
0.0
 10
85.81612275415361
 20
-136.6090602957088
 30
0.0
 10
85.73705781276713
 20
-136.4967501828897
 30
0.0
 10
85.73257918863631
 20
-136.3975314329145
 30
0.0
 10
85.72810056450548
 20
-136.3127820839774
 30
0.0
 10
85.72810056450548
 20
-136.3127820839774
 30
0.0
 10
85.96305607659951
 20
-136.3127820839774
 30
0.0
 10
85.96305607659951
 20
-136.3127820839774
 30
0.0
 10
85.9654676434392
 20
-136.3868516369103
 30
0.0
 10
85.97666420376625
 20
-136.6214626394558
 30
0.0
 10
86.27966035169398
 20
-136.6214626394558
 30
0.0
 10
86.42659367413988
 20
-136.6214626394558
 30
0.0
 10
86.58937443581794
 20
-136.5518717106537
 30
0.0
 10
86.58937443581794
 20
-136.3234618799816
 30
0.0
 10
86.58937443581794
 20
-136.2070176525802
 30
0.0
 10
86.54872230909199
 20
-136.1584418062382
 30
0.0
 10
86.51478811856228
 20
-136.1267469277739
 30
0.0
 10
86.4357231771758
 20
-136.052677374841
 30
0.0
 10
86.31135523015827
 20
-136.0399305215456
 30
0.0
 10
86.25244409736051
 20
-136.0399305215456
 30
0.0
 10
86.23211803399754
 20
-136.0399305215456
 30
0.0
 10
86.19370521933699
 20
-136.0419975788367
 30
0.0
 10
86.16442190771237
 20
-136.046131693419
 30
0.0
 10
86.16442190771237
 20
-136.046131693419
 30
0.0
 10
86.16442190771237
 20
-135.8514837985024
 30
0.0
 10
86.16442190771237
 20
-135.8514837985024
 30
0.0
 10
86.20507403443833
 20
-135.8580294799244
 30
0.0
 10
86.2502047852951
 20
-135.8600965372155
 30
0.0
 10
86.25709497626559
 20
-135.8600965372155
 30
0.0
 10
86.32720266939043
 20
-135.8600965372155
 30
0.0
 10
86.53959280605608
 20
-135.838736945207
 30
0.0
 10
86.53959280605608
 20
-135.6020588853703
 30
0.0
 10
86.53959280605608
 20
-135.4242919583314
 30
0.0
 10
86.39954967458067
 20
-135.3691704305674
 30
0.0
 10
86.28189966375939
 20
-135.3691704305674
 30
0.0
 10
85.99922957919465
 20
-135.3691704305674
 30
0.0
 10
85.990272330933
 20
-135.6020588853703
 30
0.0
 10
85.98579370680217
 20
-135.6737168714635
 30
0.0
 10
85.98579370680217
 20
-135.6737168714635
 30
0.0
 10
85.76875269123143
 20
-135.6737168714635
 30
0.0
 10
85.76875269123143
 20
-135.6737168714635
 30
0.0
 10
85.77770993949308
 20
-135.5490044148975
 30
0.0
 10
85.80716550589196
 20
-135.1724554783597
 30
0.0
 10
86.29550779092612
 20
-135.1724554783597
 30
0.0
 10
86.53511418192525
 20
-135.1724554783597
 30
0.0
 10
86.79280732422194
 20
-135.2995795017654
 30
0.0
 10
86.79280732422194
 20
-135.5955132039483
 30
0.0
 10
86.79280732422194
 20
-135.7818928697004
 30
0.0
 10
86.69117700740708
 20
-135.8642306517978
 30
0.0
 10
86.58489581168712
 20
-135.9255533514353
 30
0.0
 10
86.65035262590686
 20
-135.9531141153173
 30
0.0
 10
86.84482826604922
 20
-136.0333848401236
 30
0.0
 10
86.84482826604922
 20
-136.3107150266862
 30
0.0
 10
86.84482826604922
 20
-136.6490234033377
 30
0.0
 10
86.5804171875563
 20
-136.8161105343724
 30
0.0
 10
86.2841389758248
 20
-136.8161105343724
 30
0.0
  0
HATCH
  5
8F
330
88
100
AcDbEntity
  8
_U+30EC_U+30A4_U+30E4_U+30FC 1
 62
   179
420
  2234388
100
AcDbHatch
 10
0.0
 20
0.0
 30
0.0
210
0.0
220
0.0
230
1.0
  2
SOLID
 70
     1
 71
     0
 91
        1
 92
        1
 93
        1
 72
     4
 94
        3
 73
     0
 74
     1
 95
       62
 96
       58
 40
0.0
 40
0.0
 40
0.0
 40
0.0
 40
1.0
 40
1.0
 40
1.0
 40
2.0
 40
2.0
 40
2.0
 40
3.0
 40
3.0
 40
3.0
 40
4.0
 40
4.0
 40
4.0
 40
5.0
 40
5.0
 40
5.0
 40
6.0
 40
6.0
 40
6.0
 40
7.0
 40
7.0
 40
7.0
 40
8.0
 40
8.0
 40
8.0
 40
9.0
 40
9.0
 40
9.0
 40
10.0
 40
10.0
 40
10.0
 40
11.0
 40
11.0
 40
11.0
 40
12.0
 40
12.0
 40
12.0
 40
13.0
 40
13.0
 40
13.0
 40
14.0
 40
14.0
 40
14.0
 40
15.0
 40
15.0
 40
15.0
 40
16.0
 40
16.0
 40
16.0
 40
17.0
 40
17.0
 40
17.0
 40
18.0
 40
18.0
 40
18.0
 40
19.0
 40
19.0
 40
19.0
 40
19.0
 10
86.2841389758248
 20
-136.8161105343724
 10
86.18250865900993
 20
-136.8161105343724
 10
85.94962020420704
 20
-136.7950954519123
 10
85.81612275415361
 20
-136.6090602957088
 10
85.73705781276713
 20
-136.4967501828897
 10
85.73257918863631
 20
-136.3975314329145
 10
85.72810056450548
 20
-136.3127820839774
 10
85.72810056450548
 20
-136.3127820839774
 10
85.96305607659951
 20
-136.3127820839774
 10
85.96305607659951
 20
-136.3127820839774
 10
85.9654676434392
 20
-136.3868516369103
 10
85.97666420376625
 20
-136.6214626394558
 10
86.27966035169398
 20
-136.6214626394558
 10
86.42659367413988
 20
-136.6214626394558
 10
86.58937443581794
 20
-136.5518717106537
 10
86.58937443581794
 20
-136.3234618799816
 10
86.58937443581794
 20
-136.2070176525802
 10
86.54872230909199
 20
-136.1584418062382
 10
86.51478811856228
 20
-136.1267469277739
 10
86.4357231771758
 20
-136.052677374841
 10
86.31135523015827
 20
-136.0399305215456
 10
86.25244409736051
 20
-136.0399305215456
 10
86.23211803399754
 20
-136.0399305215456
 10
86.19370521933699
 20
-136.0419975788367
 10
86.16442190771237
 20
-136.046131693419
 10
86.16442190771237
 20
-136.046131693419
 10
86.16442190771237
 20
-135.8514837985024
 10
86.16442190771237
 20
-135.8514837985024
 10
86.20507403443833
 20
-135.8580294799244
 10
86.2502047852951
 20
-135.8600965372155
 10
86.25709497626559
 20
-135.8600965372155
 10
86.32720266939043
 20
-135.8600965372155
 10
86.53959280605608
 20
-135.838736945207
 10
86.53959280605608
 20
-135.6020588853703
 10
86.53959280605608
 20
-135.4242919583314
 10
86.39954967458067
 20
-135.3691704305674
 10
86.28189966375939
 20
-135.3691704305674
 10
85.99922957919465
 20
-135.3691704305674
 10
85.990272330933
 20
-135.6020588853703
 10
85.98579370680217
 20
-135.6737168714635
 10
85.98579370680217
 20
-135.6737168714635
 10
85.76875269123143
 20
-135.6737168714635
 10
85.76875269123143
 20
-135.6737168714635
 10
85.77770993949308
 20
-135.5490044148975
 10
85.80716550589196
 20
-135.1724554783597
 10
86.29550779092612
 20
-135.1724554783597
 10
86.53511418192525
 20
-135.1724554783597
 10
86.79280732422194
 20
-135.2995795017654
 10
86.79280732422194
 20
-135.5955132039483
 10
86.79280732422194
 20
-135.7818928697004
 10
86.69117700740708
 20
-135.8642306517978
 10
86.58489581168712
 20
-135.9255533514353
 10
86.65035262590686
 20
-135.9531141153173
 10
86.84482826604922
 20
-136.0333848401236
 10
86.84482826604922
 20
-136.3107150266862
 10
86.84482826604922
 20
-136.6490234033377
 10
86.5804171875563
 20
-136.8161105343724
 10
86.2841389758248
 20
-136.8161105343724
 97
        0
 97
        0
 75
     2
 76
     1
 98
        0
  0
ENDBLK
  5
8B
330
88
100
AcDbEntity
  8
0
100
AcDbBlockEnd
  0
BLOCK
  5
92
330
90
100
AcDbEntity
  8
0
100
AcDbBlockBegin
  2
block 4
 70
     0
 10
0.0
 20
0.0
 30
0.0
  3
block 4
  1

  0
SPLINE
  5
94
330
90
100
AcDbEntity
  8
_U+30EC_U+30A4_U+30E4_U+30FC 1
370
     0
100
AcDbSpline
210
0.0
220
0.0
230
1.0
 70
    11
 71
     3
 72
    32
 73
    28
 74
     0
 42
0.0000000001
 43
0.0000000001
 12
1.0
 22
0.0
 32
0.0
 13
1.0
 23
0.0
 33
0.0
 40
0.0
 40
0.0
 40
0.0
 40
0.0
 40
1.0
 40
1.0
 40
1.0
 40
2.0
 40
2.0
 40
2.0
 40
3.0
 40
3.0
 40
3.0
 40
4.0
 40
4.0
 40
4.0
 40
5.0
 40
5.0
 40
5.0
 40
6.0
 40
6.0
 40
6.0
 40
7.0
 40
7.0
 40
7.0
 40
8.0
 40
8.0
 40
8.0
 40
9.0
 40
9.0
 40
9.0
 40
9.0
 10
100.5692274054133
 20
-130.0792263129663
 30
0.0
 10
100.5692274054133
 20
-130.6311306097033
 30
0.0
 10
100.0152560513851
 20
-130.640087857965
 30
0.0
 10
99.80131562175106
 20
-130.640087857965
 30
0.0
 10
99.57083873378785
 20
-130.640087857965
 30
0.0
 10
98.92350529210941
 20
-130.619761794602
 30
0.0
 10
98.92350529210941
 20
-130.0385741862404
 30
0.0
 10
98.92350529210941
 20
-129.8532280491339
 30
0.0
 10
98.99344073045998
 20
-129.5910562827064
 30
0.0
 10
99.32554793523806
 20
-129.5504041559805
 30
0.0
 10
99.32554793523806
 20
-129.5504041559805
 30
0.0
 10
99.32554793523806
 20
-129.7788139866525
 30
0.0
 10
99.32554793523806
 20
-129.7788139866525
 30
0.0
 10
99.26835935018292
 20
-129.7898382922053
 30
0.0
 10
99.12022024431717
 20
-129.8239447375093
 30
0.0
 10
99.12022024431717
 20
-130.04098575308
 30
0.0
 10
99.12022024431717
 20
-130.3531114040437
 30
0.0
 10
99.44819333451295
 20
-130.3958305880608
 30
0.0
 10
99.65317651588532
 20
-130.4096109700018
 30
0.0
 10
99.57497284837015
 20
-130.310047710478
 30
0.0
 10
99.51571720602385
 20
-130.2377007052878
 30
0.0
 10
99.51571720602385
 20
-130.0433973199197
 30
0.0
 10
99.51571720602385
 20
-129.8511609918428
 30
0.0
 10
99.6238932042607
 20
-129.5276665257778
 30
0.0
 10
100.0300699619716
 20
-129.5276665257778
 30
0.0
 10
100.3494303134543
 20
-129.5276665257778
 30
0.0
 10
100.5692274054133
 20
-129.7402289172177
 30
0.0
 10
100.5692274054133
 20
-130.0792263129663
 30
0.0
  0
SPLINE
  5
95
330
90
100
AcDbEntity
  8
_U+30EC_U+30A4_U+30E4_U+30FC 1
370
     0
100
AcDbSpline
210
0.0
220
0.0
230
1.0
 70
    11
 71
     3
 72
    17
 73
    13
 74
     0
 42
0.0000000001
 43
0.0000000001
 12
1.0
 22
0.0
 32
0.0
 13
1.0
 23
0.0
 33
0.0
 40
0.0
 40
0.0
 40
0.0
 40
0.0
 40
1.0
 40
1.0
 40
1.0
 40
2.0
 40
2.0
 40
2.0
 40
3.0
 40
3.0
 40
3.0
 40
4.0
 40
4.0
 40
4.0
 40
4.0
 10
99.71036510094046
 20
-130.061311816443
 30
0.0
 10
99.71036510094046
 20
-130.3417425889423
 30
0.0
 10
99.9218939637348
 20
-130.3823947156683
 30
0.0
 10
100.0383381911362
 20
-130.3823947156683
 30
0.0
 10
100.214038060884
 20
-130.3823947156683
 30
0.0
 10
100.3769910773363
 20
-130.2807643988534
 30
0.0
 10
100.3769910773363
 20
-130.0840494466457
 30
0.0
 10
100.3769910773363
 20
-129.9552028754973
 30
0.0
 10
100.31773543499
 20
-129.7674451715512
 30
0.0
 10
100.0321370192628
 20
-129.7674451715512
 30
0.0
 10
99.80786130317304
 20
-129.7674451715512
 30
0.0
 10
99.71036510094046
 20
-129.9166178060625
 30
0.0
 10
99.71036510094046
 20
-130.061311816443
 30
0.0
  0
HATCH
  5
96
330
90
100
AcDbEntity
  8
_U+30EC_U+30A4_U+30E4_U+30FC 1
 62
   179
420
  2234388
100
AcDbHatch
 10
0.0
 20
0.0
 30
0.0
210
0.0
220
0.0
230
1.0
  2
SOLID
 70
     1
 71
     0
 91
        2
 92
        1
 93
        1
 72
     4
 94
        3
 73
     0
 74
     1
 95
       32
 96
       28
 40
0.0
 40
0.0
 40
0.0
 40
0.0
 40
1.0
 40
1.0
 40
1.0
 40
2.0
 40
2.0
 40
2.0
 40
3.0
 40
3.0
 40
3.0
 40
4.0
 40
4.0
 40
4.0
 40
5.0
 40
5.0
 40
5.0
 40
6.0
 40
6.0
 40
6.0
 40
7.0
 40
7.0
 40
7.0
 40
8.0
 40
8.0
 40
8.0
 40
9.0
 40
9.0
 40
9.0
 40
9.0
 10
100.5692274054133
 20
-130.0792263129663
 10
100.5692274054133
 20
-130.6311306097033
 10
100.0152560513851
 20
-130.640087857965
 10
99.80131562175106
 20
-130.640087857965
 10
99.57083873378785
 20
-130.640087857965
 10
98.92350529210941
 20
-130.619761794602
 10
98.92350529210941
 20
-130.0385741862404
 10
98.92350529210941
 20
-129.8532280491339
 10
98.99344073045998
 20
-129.5910562827064
 10
99.32554793523806
 20
-129.5504041559805
 10
99.32554793523806
 20
-129.5504041559805
 10
99.32554793523806
 20
-129.7788139866525
 10
99.32554793523806
 20
-129.7788139866525
 10
99.26835935018292
 20
-129.7898382922053
 10
99.12022024431717
 20
-129.8239447375093
 10
99.12022024431717
 20
-130.04098575308
 10
99.12022024431717
 20
-130.3531114040437
 10
99.44819333451295
 20
-130.3958305880608
 10
99.65317651588532
 20
-130.4096109700018
 10
99.57497284837015
 20
-130.310047710478
 10
99.51571720602385
 20
-130.2377007052878
 10
99.51571720602385
 20
-130.0433973199197
 10
99.51571720602385
 20
-129.8511609918428
 10
99.6238932042607
 20
-129.5276665257778
 10
100.0300699619716
 20
-129.5276665257778
 10
100.3494303134543
 20
-129.5276665257778
 10
100.5692274054133
 20
-129.7402289172177
 10
100.5692274054133
 20
-130.0792263129663
 97
        0
 97
        0
 92
        1
 93
        1
 72
     4
 94
        3
 73
     0
 74
     1
 95
       17
 96
       13
 40
0.0
 40
0.0
 40
0.0
 40
0.0
 40
1.0
 40
1.0
 40
1.0
 40
2.0
 40
2.0
 40
2.0
 40
3.0
 40
3.0
 40
3.0
 40
4.0
 40
4.0
 40
4.0
 40
4.0
 10
99.71036510094046
 20
-130.061311816443
 10
99.71036510094046
 20
-130.3417425889423
 10
99.9218939637348
 20
-130.3823947156683
 10
100.0383381911362
 20
-130.3823947156683
 10
100.214038060884
 20
-130.3823947156683
 10
100.3769910773363
 20
-130.2807643988534
 10
100.3769910773363
 20
-130.0840494466457
 10
100.3769910773363
 20
-129.9552028754973
 10
100.31773543499
 20
-129.7674451715512
 10
100.0321370192628
 20
-129.7674451715512
 10
99.80786130317304
 20
-129.7674451715512
 10
99.71036510094046
 20
-129.9166178060625
 10
99.71036510094046
 20
-130.061311816443
 97
        0
 97
        0
 75
     2
 76
     1
 98
        0
  0
POLYLINE
  5
97
330
90
100
AcDbEntity
  8
_U+30EC_U+30A4_U+30E4_U+30FC 1
370
     0
100
AcDb2dPolyline
 66
     1
 10
0.0
 20
0.0
 30
0.0
  0
VERTEX
  5
98
330
97
100
AcDbEntity
  8
_U+30EC_U+30A4_U+30E4_U+30FC 1
370
     0
100
AcDbVertex
100
AcDb2dVertex
 10
100.5185845017801
 20
-129.2965006187175
 30
0.0
  0
VERTEX
  5
99
330
97
100
AcDbEntity
  8
_U+30EC_U+30A4_U+30E4_U+30FC 1
370
     0
100
AcDbVertex
100
AcDb2dVertex
 10
100.2667480218083
 20
-129.2965006187175
 30
0.0
  0
VERTEX
  5
9A
330
97
100
AcDbEntity
  8
_U+30EC_U+30A4_U+30E4_U+30FC 1
370
     0
100
AcDbVertex
100
AcDb2dVertex
 10
100.2667480218083
 20
-129.0274386613195
 30
0.0
  0
VERTEX
  5
9B
330
97
100
AcDbEntity
  8
_U+30EC_U+30A4_U+30E4_U+30FC 1
370
     0
100
AcDbVertex
100
AcDb2dVertex
 10
100.5185845017801
 20
-129.0274386613195
 30
0.0
  0
VERTEX
  5
9C
330
97
100
AcDbEntity
  8
_U+30EC_U+30A4_U+30E4_U+30FC 1
370
     0
100
AcDbVertex
100
AcDb2dVertex
 10
100.5185845017801
 20
-129.2965006187175
 30
0.0
  0
SEQEND
  5
9D
330
97
100
AcDbEntity
  8
_U+30EC_U+30A4_U+30E4_U+30FC 1
370
     0
  0
HATCH
  5
9E
330
90
100
AcDbEntity
  8
_U+30EC_U+30A4_U+30E4_U+30FC 1
 62
   179
420
  2234388
100
AcDbHatch
 10
0.0
 20
0.0
 30
0.0
210
0.0
220
0.0
230
1.0
  2
SOLID
 70
     1
 71
     0
 91
        1
 92
        1
 93
        4
 72
     1
 10
100.5185845017801
 20
-129.2965006187175
 11
100.2667480218083
 21
-129.2965006187175
 72
     1
 10
100.2667480218083
 20
-129.2965006187175
 11
100.2667480218083
 21
-129.0274386613195
 72
     1
 10
100.2667480218083
 20
-129.0274386613195
 11
100.5185845017801
 21
-129.0274386613195
 72
     1
 10
100.5185845017801
 20
-129.0274386613195
 11
100.5185845017801
 21
-129.2965006187175
 97
        0
 75
     2
 76
     1
 98
        0
  0
SPLINE
  5
9F
330
90
100
AcDbEntity
  8
_U+30EC_U+30A4_U+30E4_U+30FC 1
370
     0
100
AcDbSpline
210
0.0
220
0.0
230
1.0
 70
    11
 71
     3
 72
    53
 73
    49
 74
     0
 42
0.0000000001
 43
0.0000000001
 12
1.0
 22
0.0
 32
0.0
 13
1.0
 23
0.0
 33
0.0
 40
0.0
 40
0.0
 40
0.0
 40
0.0
 40
1.0
 40
1.0
 40
1.0
 40
2.0
 40
2.0
 40
2.0
 40
3.0
 40
3.0
 40
3.0
 40
4.0
 40
4.0
 40
4.0
 40
5.0
 40
5.0
 40
5.0
 40
6.0
 40
6.0
 40
6.0
 40
7.0
 40
7.0
 40
7.0
 40
8.0
 40
8.0
 40
8.0
 40
9.0
 40
9.0
 40
9.0
 40
10.0
 40
10.0
 40
10.0
 40
11.0
 40
11.0
 40
11.0
 40
12.0
 40
12.0
 40
12.0
 40
13.0
 40
13.0
 40
13.0
 40
14.0
 40
14.0
 40
14.0
 40
15.0
 40
15.0
 40
15.0
 40
16.0
 40
16.0
 40
16.0
 40
16.0
 10
100.5692274054133
 20
-128.2605604063029
 30
0.0
 10
100.5692274054133
 20
-128.3442762265945
 30
0.0
 10
100.5523464375355
 20
-128.4524522248313
 30
0.0
 10
100.4889566806069
 20
-128.5613172421652
 30
0.0
 10
100.3790581346275
 20
-128.7466633792717
 30
0.0
 10
100.2477999966394
 20
-128.7690564999258
 30
0.0
 10
100.1399685079511
 20
-128.7893825632888
 30
0.0
 10
100.1399685079511
 20
-128.7893825632888
 30
0.0
 10
100.1399685079511
 20
-128.5520154843551
 30
0.0
 10
100.1399685079511
 20
-128.5520154843551
 30
0.0
 10
100.33875051745
 20
-128.4934488611058
 30
0.0
 10
100.3683783386232
 20
-128.357712098987
 30
0.0
 10
100.3683783386232
 20
-128.2581488394632
 30
0.0
 10
100.3683783386232
 20
-128.1089762049519
 30
0.0
 10
100.2688150790995
 20
-127.9460231884996
 30
0.0
 10
100.0362711338451
 20
-127.9460231884996
 30
0.0
 10
99.78030053929103
 20
-127.9460231884996
 30
0.0
 10
99.71036510094046
 20
-128.1382595165765
 30
0.0
 10
99.71036510094046
 20
-128.2671060877249
 30
0.0
 10
99.71036510094046
 20
-128.3012125330289
 30
0.0
 10
99.71036510094046
 20
-128.4524522248313
 30
0.0
 10
99.83955618163733
 20
-128.5475368602242
 30
0.0
 10
99.83955618163733
 20
-128.5475368602242
 30
0.0
 10
99.82060815646847
 20
-128.7352945641703
 30
0.0
 10
99.82060815646847
 20
-128.7352945641703
 30
0.0
 10
99.82060815646847
 20
-128.7352945641703
 30
0.0
 10
98.97414819574257
 20
-128.606447993022
 30
0.0
 10
98.97414819574257
 20
-128.606447993022
 30
0.0
 10
98.97414819574257
 20
-128.606447993022
 30
0.0
 10
98.97414819574257
 20
-127.7744574333342
 30
0.0
 10
98.97414819574257
 20
-127.7744574333342
 30
0.0
 10
98.97414819574257
 20
-127.7744574333342
 30
0.0
 10
99.1687960906592
 20
-127.7744574333342
 30
0.0
 10
99.1687960906592
 20
-127.7744574333342
 30
0.0
 10
99.1687960906592
 20
-127.7744574333342
 30
0.0
 10
99.1687960906592
 20
-128.4321261614684
 30
0.0
 10
99.1687960906592
 20
-128.4321261614684
 30
0.0
 10
99.1687960906592
 20
-128.4321261614684
 30
0.0
 10
99.59185381624788
 20
-128.5024061093675
 30
0.0
 10
99.59185381624788
 20
-128.5024061093675
 30
0.0
 10
99.55809188049243
 20
-128.4369492951477
 30
0.0
 10
99.51778426331501
 20
-128.3487548507253
 30
0.0
 10
99.51778426331501
 20
-128.2219753368681
 30
0.0
 10
99.51778426331501
 20
-127.950846322179
 30
0.0
 10
99.70416392906702
 20
-127.6976318040131
 30
0.0
 10
100.0173231086762
 20
-127.6976318040131
 30
0.0
 10
100.3346164028677
 20
-127.6976318040131
 30
0.0
 10
100.5692274054133
 20
-127.937065940238
 30
0.0
 10
100.5692274054133
 20
-128.2605604063029
 30
0.0
  0
HATCH
  5
A0
330
90
100
AcDbEntity
  8
_U+30EC_U+30A4_U+30E4_U+30FC 1
 62
   179
420
  2234388
100
AcDbHatch
 10
0.0
 20
0.0
 30
0.0
210
0.0
220
0.0
230
1.0
  2
SOLID
 70
     1
 71
     0
 91
        1
 92
        1
 93
        1
 72
     4
 94
        3
 73
     0
 74
     1
 95
       53
 96
       49
 40
0.0
 40
0.0
 40
0.0
 40
0.0
 40
1.0
 40
1.0
 40
1.0
 40
2.0
 40
2.0
 40
2.0
 40
3.0
 40
3.0
 40
3.0
 40
4.0
 40
4.0
 40
4.0
 40
5.0
 40
5.0
 40
5.0
 40
6.0
 40
6.0
 40
6.0
 40
7.0
 40
7.0
 40
7.0
 40
8.0
 40
8.0
 40
8.0
 40
9.0
 40
9.0
 40
9.0
 40
10.0
 40
10.0
 40
10.0
 40
11.0
 40
11.0
 40
11.0
 40
12.0
 40
12.0
 40
12.0
 40
13.0
 40
13.0
 40
13.0
 40
14.0
 40
14.0
 40
14.0
 40
15.0
 40
15.0
 40
15.0
 40
16.0
 40
16.0
 40
16.0
 40
16.0
 10
100.5692274054133
 20
-128.2605604063029
 10
100.5692274054133
 20
-128.3442762265945
 10
100.5523464375355
 20
-128.4524522248313
 10
100.4889566806069
 20
-128.5613172421652
 10
100.3790581346275
 20
-128.7466633792717
 10
100.2477999966394
 20
-128.7690564999258
 10
100.1399685079511
 20
-128.7893825632888
 10
100.1399685079511
 20
-128.7893825632888
 10
100.1399685079511
 20
-128.5520154843551
 10
100.1399685079511
 20
-128.5520154843551
 10
100.33875051745
 20
-128.4934488611058
 10
100.3683783386232
 20
-128.357712098987
 10
100.3683783386232
 20
-128.2581488394632
 10
100.3683783386232
 20
-128.1089762049519
 10
100.2688150790995
 20
-127.9460231884996
 10
100.0362711338451
 20
-127.9460231884996
 10
99.78030053929103
 20
-127.9460231884996
 10
99.71036510094046
 20
-128.1382595165765
 10
99.71036510094046
 20
-128.2671060877249
 10
99.71036510094046
 20
-128.3012125330289
 10
99.71036510094046
 20
-128.4524522248313
 10
99.83955618163733
 20
-128.5475368602242
 10
99.83955618163733
 20
-128.5475368602242
 10
99.82060815646847
 20
-128.7352945641703
 10
99.82060815646847
 20
-128.7352945641703
 10
99.82060815646847
 20
-128.7352945641703
 10
98.97414819574257
 20
-128.606447993022
 10
98.97414819574257
 20
-128.606447993022
 10
98.97414819574257
 20
-128.606447993022
 10
98.97414819574257
 20
-127.7744574333342
 10
98.97414819574257
 20
-127.7744574333342
 10
98.97414819574257
 20
-127.7744574333342
 10
99.1687960906592
 20
-127.7744574333342
 10
99.1687960906592
 20
-127.7744574333342
 10
99.1687960906592
 20
-127.7744574333342
 10
99.1687960906592
 20
-128.4321261614684
 10
99.1687960906592
 20
-128.4321261614684
 10
99.1687960906592
 20
-128.4321261614684
 10
99.59185381624788
 20
-128.5024061093675
 10
99.59185381624788
 20
-128.5024061093675
 10
99.55809188049243
 20
-128.4369492951477
 10
99.51778426331501
 20
-128.3487548507253
 10
99.51778426331501
 20
-128.2219753368681
 10
99.51778426331501
 20
-127.950846322179
 10
99.70416392906702
 20
-127.6976318040131
 10
100.0173231086762
 20
-127.6976318040131
 10
100.3346164028677
 20
-127.6976318040131
 10
100.5692274054133
 20
-127.937065940238
 10
100.5692274054133
 20
-128.2605604063029
 97
        0
 97
        0
 75
     2
 76
     1
 98
        0
  0
ENDBLK
  5
93
330
90
100
AcDbEntity
  8
0
100
AcDbBlockEnd
  0
ENDSEC
  0
SECTION
  2
ENTITIES
  0
POLYLINE
  5
41
330
1F
100
AcDbEntity
  8
_U+30EC_U+30A4_U+30E4_U+30FC 1
 62
   179
420
  2234388
370
    25
100
AcDb2dPolyline
 66
     1
 10
0.0
 20
0.0
 30
0.0
  0
VERTEX
  5
42
330
41
100
AcDbEntity
  8
_U+30EC_U+30A4_U+30E4_U+30FC 1
 62
   179
420
  2234388
370
    25
100
AcDbVertex
100
AcDb2dVertex
 10
79.16449548034547
 20
-126.9106060793836
 30
0.0
  0
VERTEX
  5
43
330
41
100
AcDbEntity
  8
_U+30EC_U+30A4_U+30E4_U+30FC 1
 62
   179
420
  2234388
370
    25
100
AcDbVertex
100
AcDb2dVertex
 10
79.16449548034547
 20
-132.4105174668975
 30
0.0
  0
SEQEND
  5
44
330
41
100
AcDbEntity
  8
_U+30EC_U+30A4_U+30E4_U+30FC 1
 62
   179
420
  2234388
370
    25
  0
POLYLINE
  5
45
330
1F
100
AcDbEntity
  8
_U+30EC_U+30A4_U+30E4_U+30FC 1
 62
   179
420
  2234388
370
    25
100
AcDb2dPolyline
 66
     1
 10
0.0
 20
0.0
 30
0.0
  0
VERTEX
  5
46
330
45
100
AcDbEntity
  8
_U+30EC_U+30A4_U+30E4_U+30FC 1
 62
   179
420
  2234388
370
    25
100
AcDbVertex
100
AcDb2dVertex
 10
80.16462045483014
 20
-133.4106424666471
 30
0.0
  0
VERTEX
  5
47
330
45
100
AcDbEntity
  8
_U+30EC_U+30A4_U+30E4_U+30FC 1
 62
   179
420
  2234388
370
    25
100
AcDbVertex
100
AcDb2dVertex
 10
91.6646818281058
 20
-133.4106424666471
 30
0.0
  0
SEQEND
  5
48
330
45
100
AcDbEntity
  8
_U+30EC_U+30A4_U+30E4_U+30FC 1
 62
   179
420
  2234388
370
    25
  0
POLYLINE
  5
49
330
1F
100
AcDbEntity
  8
_U+30EC_U+30A4_U+30E4_U+30FC 1
 62
   179
420
  2234388
370
    25
100
AcDb2dPolyline
 66
     1
 10
0.0
 20
0.0
 30
0.0
  0
VERTEX
  5
4A
330
49
100
AcDbEntity
  8
_U+30EC_U+30A4_U+30E4_U+30FC 1
 62
   179
420
  2234388
370
    25
100
AcDbVertex
100
AcDb2dVertex
 10
80.16462045483014
 20
-125.9106574685222
 30
0.0
  0
VERTEX
  5
4B
330
49
100
AcDbEntity
  8
_U+30EC_U+30A4_U+30E4_U+30FC 1
 62
   179
420
  2234388
370
    25
100
AcDbVertex
100
AcDb2dVertex
 10
97.16445196557275
 20
-125.9106574685222
 30
0.0
  0
SEQEND
  5
4C
330
49
100
AcDbEntity
  8
_U+30EC_U+30A4_U+30E4_U+30FC 1
 62
   179
420
  2234388
370
    25
  0
POLYLINE
  5
4D
330
1F
100
AcDbEntity
  8
_U+30EC_U+30A4_U+30E4_U+30FC 1
 62
   179
420
  2234388
370
    25
100
AcDb2dPolyline
 66
     1
 10
0.0
 20
0.0
 30
0.0
  0
VERTEX
  5
4E
330
4D
100
AcDbEntity
  8
_U+30EC_U+30A4_U+30E4_U+30FC 1
 62
   179
420
  2234388
370
    25
100
AcDbVertex
100
AcDb2dVertex
 10
87.16471916513164
 20
-132.4105174668975
 30
0.0
  0
VERTEX
  5
4F
330
4D
100
AcDbEntity
  8
_U+30EC_U+30A4_U+30E4_U+30FC 1
 62
   179
420
  2234388
370
    25
100
AcDbVertex
100
AcDb2dVertex
 10
91.6646818281058
 20
-132.4105174668975
 30
0.0
  0
SEQEND
  5
50
330
4D
100
AcDbEntity
  8
_U+30EC_U+30A4_U+30E4_U+30FC 1
 62
   179
420
  2234388
370
    25
  0
SPLINE
  5
51
330
1F
100
AcDbEntity
  8
_U+30EC_U+30A4_U+30E4_U+30FC 1
 62
   179
420
  2234388
370
    25
100
AcDbSpline
210
0.0
220
0.0
230
1.0
 70
     8
 71
     3
 72
    11
 73
     7
 74
     0
 42
0.0000000001
 43
0.0000000001
 12
1.0
 22
0.0
 32
0.0
 13
1.0
 23
0.0
 33
0.0
 40
0.0
 40
0.0
 40
0.0
 40
0.0
 40
1.0
 40
1.0
 40
1.0
 40
2.0
 40
2.0
 40
2.0
 40
2.0
 10
91.6646818281058
 20
-133.4106424666471
 30
0.0
 10
91.9406245988437
 20
-133.4106424666471
 30
0.0
 10
92.16456792646376
 20
-133.1866991333698
 30
0.0
 10
92.16456792646376
 20
-132.9107563556612
 30
0.0
 10
92.16456792646376
 20
-132.6344608001747
 30
0.0
 10
91.9406245988437
 20
-132.4105174668975
 30
0.0
 10
91.6646818281058
 20
-132.4105174668975
 30
0.0
  0
SPLINE
  5
52
330
1F
100
AcDbEntity
  8
_U+30EC_U+30A4_U+30E4_U+30FC 1
 62
   179
420
  2234388
370
    25
100
AcDbSpline
210
0.0
220
0.0
230
1.0
 70
     8
 71
     3
 72
     8
 73
     4
 74
     0
 42
0.0000000001
 43
0.0000000001
 12
1.0
 22
0.0
 32
0.0
 13
1.0
 23
0.0
 33
0.0
 40
0.0
 40
0.0
 40
0.0
 40
0.0
 40
1.0
 40
1.0
 40
1.0
 40
1.0
 10
79.16449548034547
 20
-132.4105174668975
 30
0.0
 10
79.16449548034547
 20
-132.9627558000926
 30
0.0
 10
79.61238213558559
 20
-133.4106424666471
 30
0.0
 10
80.16462045483014
 20
-133.4106424666471
 30
0.0
  0
SPLINE
  5
53
330
1F
100
AcDbEntity
  8
_U+30EC_U+30A4_U+30E4_U+30FC 1
 62
   179
420
  2234388
370
    25
100
AcDbSpline
210
0.0
220
0.0
230
1.0
 70
     8
 71
     3
 72
     8
 73
     4
 74
     0
 42
0.0000000001
 43
0.0000000001
 12
1.0
 22
0.0
 32
0.0
 13
1.0
 23
0.0
 33
0.0
 40
0.0
 40
0.0
 40
0.0
 40
0.0
 40
1.0
 40
1.0
 40
1.0
 40
1.0
 10
80.16462045483014
 20
-125.9106574685222
 30
0.0
 10
79.61238213558559
 20
-125.9106574685222
 30
0.0
 10
79.16449548034547
 20
-126.3583677461882
 30
0.0
 10
79.16449548034547
 20
-126.9106060793836
 30
0.0
  0
SPLINE
  5
54
330
1F
100
AcDbEntity
  8
_U+30EC_U+30A4_U+30E4_U+30FC 1
 62
   179
420
  2234388
370
     9
100
AcDbSpline
210
0.0
220
0.0
230
1.0
 70
    11
 71
     3
 72
    17
 73
    13
 74
     0
 42
0.0000000001
 43
0.0000000001
 12
1.0
 22
0.0
 32
0.0
 13
1.0
 23
0.0
 33
0.0
 40
0.0
 40
0.0
 40
0.0
 40
0.0
 40
1.0
 40
1.0
 40
1.0
 40
2.0
 40
2.0
 40
2.0
 40
3.0
 40
3.0
 40
3.0
 40
4.0
 40
4.0
 40
4.0
 40
4.0
 10
92.2644745905816
 20
-137.4107191323143
 30
0.0
 10
92.2644745905816
 20
-137.3552624656609
 30
0.0
 10
92.2197070917237
 20
-137.3104949656724
 30
0.0
 10
92.16456792646376
 20
-137.3104949656724
 30
0.0
 10
92.10946403898069
 20
-137.3104949656724
 30
0.0
 10
92.06466126234592
 20
-137.3552624656609
 30
0.0
 10
92.06466126234592
 20
-137.4107191323143
 30
0.0
 10
92.06466126234592
 20
-137.4658582989667
 30
0.0
 10
92.10946403898069
 20
-137.5106257989559
 30
0.0
 10
92.16456792646376
 20
-137.5106257989559
 30
0.0
 10
92.2197070917237
 20
-137.5106257989559
 30
0.0
 10
92.2644745905816
 20
-137.4658582989667
 30
0.0
 10
92.2644745905816
 20
-137.4107191323143
 30
0.0
  0
SPLINE
  5
55
330
1F
100
AcDbEntity
  8
_U+30EC_U+30A4_U+30E4_U+30FC 1
 62
   179
420
  2234388
370
     9
100
AcDbSpline
210
0.0
220
0.0
230
1.0
 70
    11
 71
     3
 72
    17
 73
    13
 74
     0
 42
0.0000000001
 43
0.0000000001
 12
1.0
 22
0.0
 32
0.0
 13
1.0
 23
0.0
 33
0.0
 40
0.0
 40
0.0
 40
0.0
 40
0.0
 40
1.0
 40
1.0
 40
1.0
 40
2.0
 40
2.0
 40
2.0
 40
3.0
 40
3.0
 40
3.0
 40
4.0
 40
4.0
 40
4.0
 40
4.0
 10
79.26440214446329
 20
-137.4107191323143
 30
0.0
 10
79.26440214446329
 20
-137.3552624656609
 30
0.0
 10
79.21963464560541
 20
-137.3104949656724
 30
0.0
 10
79.16449548034547
 20
-137.3104949656724
 30
0.0
 10
79.1093915928624
 20
-137.3104949656724
 30
0.0
 10
79.06458881622763
 20
-137.3552624656609
 30
0.0
 10
79.06458881622763
 20
-137.4107191323143
 30
0.0
 10
79.06458881622763
 20
-137.4658582989667
 30
0.0
 10
79.1093915928624
 20
-137.5106257989559
 30
0.0
 10
79.16449548034547
 20
-137.5106257989559
 30
0.0
 10
79.21963464560541
 20
-137.5106257989559
 30
0.0
 10
79.26440214446329
 20
-137.4658582989667
 30
0.0
 10
79.26440214446329
 20
-137.4107191323143
 30
0.0
  0
SPLINE
  5
56
330
1F
100
AcDbEntity
  8
_U+30EC_U+30A4_U+30E4_U+30FC 1
 62
   179
420
  2234388
370
     9
100
AcDbSpline
210
0.0
220
0.0
230
1.0
 70
    11
 71
     3
 72
    17
 73
    13
 74
     0
 42
0.0000000001
 43
0.0000000001
 12
1.0
 22
0.0
 32
0.0
 13
1.0
 23
0.0
 33
0.0
 40
0.0
 40
0.0
 40
0.0
 40
0.0
 40
1.0
 40
1.0
 40
1.0
 40
2.0
 40
2.0
 40
2.0
 40
3.0
 40
3.0
 40
3.0
 40
4.0
 40
4.0
 40
4.0
 40
4.0
 10
79.26440214446329
 20
-121.9105455250779
 30
0.0
 10
79.26440214446329
 20
-121.8554416362029
 30
0.0
 10
79.21963464560541
 20
-121.8106388584362
 30
0.0
 10
79.16449548034547
 20
-121.8106388584362
 30
0.0
 10
79.1093915928624
 20
-121.8106388584362
 30
0.0
 10
79.06458881622763
 20
-121.8554416362029
 30
0.0
 10
79.06458881622763
 20
-121.9105455250779
 30
0.0
 10
79.06458881622763
 20
-121.9658610806195
 30
0.0
 10
79.1093915928624
 20
-122.0106285806084
 30
0.0
 10
79.16449548034547
 20
-122.0106285806084
 30
0.0
 10
79.21963464560541
 20
-122.0106285806084
 30
0.0
 10
79.26440214446329
 20
-121.9658610806195
 30
0.0
 10
79.26440214446329
 20
-121.9105455250779
 30
0.0
  0
SPLINE
  5
57
330
1F
100
AcDbEntity
  8
_U+30EC_U+30A4_U+30E4_U+30FC 1
 62
   179
420
  2234388
370
     9
100
AcDbSpline
210
0.0
220
0.0
230
1.0
 70
    11
 71
     3
 72
    17
 73
    13
 74
     0
 42
0.0000000001
 43
0.0000000001
 12
1.0
 22
0.0
 32
0.0
 13
1.0
 23
0.0
 33
0.0
 40
0.0
 40
0.0
 40
0.0
 40
0.0
 40
1.0
 40
1.0
 40
1.0
 40
2.0
 40
2.0
 40
2.0
 40
3.0
 40
3.0
 40
3.0
 40
4.0
 40
4.0
 40
4.0
 40
4.0
 10
97.2646761296825
 20
-121.9105455250779
 30
0.0
 10
97.2646761296825
 20
-121.8554416362029
 30
0.0
 10
97.2199110868064
 20
-121.8106388584362
 30
0.0
 10
97.16445196557275
 20
-121.8106388584362
 30
0.0
 10
97.10931280031281
 20
-121.8106388584362
 30
0.0
 10
97.06454530145493
 20
-121.8554416362029
 30
0.0
 10
97.06454530145493
 20
-121.9105455250779
 30
0.0
 10
97.06454530145493
 20
-121.9658610806195
 30
0.0
 10
97.10931280031281
 20
-122.0106285806084
 30
0.0
 10
97.16445196557275
 20
-122.0106285806084
 30
0.0
 10
97.2199110868064
 20
-122.0106285806084
 30
0.0
 10
97.2646761296825
 20
-121.9658610806195
 30
0.0
 10
97.2646761296825
 20
-121.9105455250779
 30
0.0
  0
SPLINE
  5
58
330
1F
100
AcDbEntity
  8
_U+30EC_U+30A4_U+30E4_U+30FC 1
 62
   179
420
  2234388
370
     9
100
AcDbSpline
210
0.0
220
0.0
230
1.0
 70
    11
 71
     3
 72
    17
 73
    13
 74
     0
 42
0.0000000001
 43
0.0000000001
 12
1.0
 22
0.0
 32
0.0
 13
1.0
 23
0.0
 33
0.0
 40
0.0
 40
0.0
 40
0.0
 40
0.0
 40
1.0
 40
1.0
 40
1.0
 40
2.0
 40
2.0
 40
2.0
 40
3.0
 40
3.0
 40
3.0
 40
4.0
 40
4.0
 40
4.0
 40
4.0
 10
101.2644351943068
 20
-125.9106574685222
 30
0.0
 10
101.2644351943068
 20
-125.8553771907584
 30
0.0
 10
101.2196676954489
 20
-125.8105744129917
 30
0.0
 10
101.164528530189
 20
-125.8105744129917
 30
0.0
 10
101.1094246427059
 20
-125.8105744129917
 30
0.0
 10
101.0646218660711
 20
-125.8553771907584
 30
0.0
 10
101.0646218660711
 20
-125.9106574685222
 30
0.0
 10
101.0646218660711
 20
-125.9657966351753
 30
0.0
 10
101.1094246427059
 20
-126.0105641351641
 30
0.0
 10
101.164528530189
 20
-126.0105641351641
 30
0.0
 10
101.2196676954489
 20
-126.0105641351641
 30
0.0
 10
101.2644351943068
 20
-125.9657966351753
 30
0.0
 10
101.2644351943068
 20
-125.9106574685222
 30
0.0
  0
SPLINE
  5
59
330
1F
100
AcDbEntity
  8
_U+30EC_U+30A4_U+30E4_U+30FC 1
 62
   179
420
  2234388
370
     9
100
AcDbSpline
210
0.0
220
0.0
230
1.0
 70
    11
 71
     3
 72
    17
 73
    13
 74
     0
 42
0.0000000001
 43
0.0000000001
 12
1.0
 22
0.0
 32
0.0
 13
1.0
 23
0.0
 33
0.0
 40
0.0
 40
0.0
 40
0.0
 40
0.0
 40
1.0
 40
1.0
 40
1.0
 40
2.0
 40
2.0
 40
2.0
 40
3.0
 40
3.0
 40
3.0
 40
4.0
 40
4.0
 40
4.0
 40
4.0
 10
101.2644351943068
 20
-132.4105174668975
 30
0.0
 10
101.2644351943068
 20
-132.3554135780225
 30
0.0
 10
101.2196676954489
 20
-132.3106108002558
 30
0.0
 10
101.164528530189
 20
-132.3106108002558
 30
0.0
 10
101.1094246427059
 20
-132.3106108002558
 30
0.0
 10
101.0646218660711
 20
-132.3554135780225
 30
0.0
 10
101.0646218660711
 20
-132.4105174668975
 30
0.0
 10
101.0646218660711
 20
-132.4656566335505
 30
0.0
 10
101.1094246427059
 20
-132.5104241335391
 30
0.0
 10
101.164528530189
 20
-132.5104241335391
 30
0.0
 10
101.2196676954489
 20
-132.5104241335391
 30
0.0
 10
101.2644351943068
 20
-132.4656566335505
 30
0.0
 10
101.2644351943068
 20
-132.4105174668975
 30
0.0
  0
POLYLINE
  5
5A
330
1F
100
AcDbEntity
  8
_U+30EC_U+30A4_U+30E4_U+30FC 1
 62
   179
420
  2234388
370
     9
100
AcDb2dPolyline
 66
     1
 10
0.0
 20
0.0
 30
0.0
  0
VERTEX
  5
5B
330
5A
100
AcDbEntity
  8
_U+30EC_U+30A4_U+30E4_U+30FC 1
 62
   179
420
  2234388
370
     9
100
AcDbVertex
100
AcDb2dVertex
 10
79.16449548034547
 20
-121.9105455250779
 30
0.0
  0
VERTEX
  5
5C
330
5A
100
AcDbEntity
  8
_U+30EC_U+30A4_U+30E4_U+30FC 1
 62
   179
420
  2234388
370
     9
100
AcDbVertex
100
AcDb2dVertex
 10
97.16445196557275
 20
-121.9105455250779
 30
0.0
  0
SEQEND
  5
5D
330
5A
100
AcDbEntity
  8
_U+30EC_U+30A4_U+30E4_U+30FC 1
 62
   179
420
  2234388
370
     9
  0
POLYLINE
  5
5E
330
1F
100
AcDbEntity
  8
_U+30EC_U+30A4_U+30E4_U+30FC 1
 62
   179
420
  2234388
370
     9
100
AcDb2dPolyline
 66
     1
 10
0.0
 20
0.0
 30
0.0
  0
VERTEX
  5
5F
330
5E
100
AcDbEntity
  8
_U+30EC_U+30A4_U+30E4_U+30FC 1
 62
   179
420
  2234388
370
     9
100
AcDbVertex
100
AcDb2dVertex
 10
79.16449548034547
 20
-124.370535524463
 30
0.0
  0
VERTEX
  5
60
330
5E
100
AcDbEntity
  8
_U+30EC_U+30A4_U+30E4_U+30FC 1
 62
   179
420
  2234388
370
     9
100
AcDbVertex
100
AcDb2dVertex
 10
79.16449548034547
 20
-120.9106321919946
 30
0.0
  0
SEQEND
  5
61
330
5E
100
AcDbEntity
  8
_U+30EC_U+30A4_U+30E4_U+30FC 1
 62
   179
420
  2234388
370
     9
  0
POLYLINE
  5
62
330
1F
100
AcDbEntity
  8
_U+30EC_U+30A4_U+30E4_U+30FC 1
 62
   179
420
  2234388
370
     9
100
AcDb2dPolyline
 66
     1
 10
0.0
 20
0.0
 30
0.0
  0
VERTEX
  5
63
330
62
100
AcDbEntity
  8
_U+30EC_U+30A4_U+30E4_U+30FC 1
 62
   179
420
  2234388
370
     9
100
AcDbVertex
100
AcDb2dVertex
 10
97.16445196557275
 20
-123.3705869136019
 30
0.0
  0
VERTEX
  5
64
330
62
100
AcDbEntity
  8
_U+30EC_U+30A4_U+30E4_U+30FC 1
 62
   179
420
  2234388
370
     9
100
AcDbVertex
100
AcDb2dVertex
 10
97.16445196557275
 20
-120.9106321919946
 30
0.0
  0
SEQEND
  5
65
330
62
100
AcDbEntity
  8
_U+30EC_U+30A4_U+30E4_U+30FC 1
 62
   179
420
  2234388
370
     9
  0
POLYLINE
  5
66
330
1F
100
AcDbEntity
  8
_U+30EC_U+30A4_U+30E4_U+30FC 1
 62
   179
420
  2234388
370
     9
100
AcDb2dPolyline
 66
     1
 10
0.0
 20
0.0
 30
0.0
  0
VERTEX
  5
67
330
66
100
AcDbEntity
  8
_U+30EC_U+30A4_U+30E4_U+30FC 1
 62
   179
420
  2234388
370
     9
100
AcDbVertex
100
AcDb2dVertex
 10
79.16449548034547
 20
-137.4107191323143
 30
0.0
  0
VERTEX
  5
68
330
66
100
AcDbEntity
  8
_U+30EC_U+30A4_U+30E4_U+30FC 1
 62
   179
420
  2234388
370
     9
100
AcDbVertex
100
AcDb2dVertex
 10
92.16456792646376
 20
-137.4107191323143
 30
0.0
  0
SEQEND
  5
69
330
66
100
AcDbEntity
  8
_U+30EC_U+30A4_U+30E4_U+30FC 1
 62
   179
420
  2234388
370
     9
  0
POLYLINE
  5
6A
330
1F
100
AcDbEntity
  8
_U+30EC_U+30A4_U+30E4_U+30FC 1
 62
   179
420
  2234388
370
     9
100
AcDb2dPolyline
 66
     1
 10
0.0
 20
0.0
 30
0.0
  0
VERTEX
  5
6B
330
6A
100
AcDbEntity
  8
_U+30EC_U+30A4_U+30E4_U+30FC 1
 62
   179
420
  2234388
370
     9
100
AcDbVertex
100
AcDb2dVertex
 10
79.16449548034547
 20
-134.9505880218178
 30
0.0
  0
VERTEX
  5
6C
330
6A
100
AcDbEntity
  8
_U+30EC_U+30A4_U+30E4_U+30FC 1
 62
   179
420
  2234388
370
     9
100
AcDbVertex
100
AcDb2dVertex
 10
79.16449548034547
 20
-138.4104913542861
 30
0.0
  0
SEQEND
  5
6D
330
6A
100
AcDbEntity
  8
_U+30EC_U+30A4_U+30E4_U+30FC 1
 62
   179
420
  2234388
370
     9
  0
POLYLINE
  5
6E
330
1F
100
AcDbEntity
  8
_U+30EC_U+30A4_U+30E4_U+30FC 1
 62
   179
420
  2234388
370
     9
100
AcDb2dPolyline
 66
     1
 10
0.0
 20
0.0
 30
0.0
  0
VERTEX
  5
6F
330
6E
100
AcDbEntity
  8
_U+30EC_U+30A4_U+30E4_U+30FC 1
 62
   179
420
  2234388
370
     9
100
AcDbVertex
100
AcDb2dVertex
 10
92.16456792646376
 20
-135.4504741328043
 30
0.0
  0
VERTEX
  5
70
330
6E
100
AcDbEntity
  8
_U+30EC_U+30A4_U+30E4_U+30FC 1
 62
   179
420
  2234388
370
     9
100
AcDbVertex
100
AcDb2dVertex
 10
92.16456792646376
 20
-138.4104913542861
 30
0.0
  0
SEQEND
  5
71
330
6E
100
AcDbEntity
  8
_U+30EC_U+30A4_U+30E4_U+30FC 1
 62
   179
420
  2234388
370
     9
  0
POLYLINE
  5
72
330
1F
100
AcDbEntity
  8
_U+30EC_U+30A4_U+30E4_U+30FC 1
 62
   179
420
  2234388
370
     9
100
AcDb2dPolyline
 66
     1
 10
0.0
 20
0.0
 30
0.0
  0
VERTEX
  5
73
330
72
100
AcDbEntity
  8
_U+30EC_U+30A4_U+30E4_U+30FC 1
 62
   179
420
  2234388
370
     9
100
AcDbVertex
100
AcDb2dVertex
 10
101.164528530189
 20
-132.4105174668975
 30
0.0
  0
VERTEX
  5
74
330
72
100
AcDbEntity
  8
_U+30EC_U+30A4_U+30E4_U+30FC 1
 62
   179
420
  2234388
370
     9
100
AcDbVertex
100
AcDb2dVertex
 10
101.164528530189
 20
-125.9106574685222
 30
0.0
  0
SEQEND
  5
75
330
72
100
AcDbEntity
  8
_U+30EC_U+30A4_U+30E4_U+30FC 1
 62
   179
420
  2234388
370
     9
  0
POLYLINE
  5
76
330
1F
100
AcDbEntity
  8
_U+30EC_U+30A4_U+30E4_U+30FC 1
 62
   179
420
  2234388
370
     9
100
AcDb2dPolyline
 66
     1
 10
0.0
 20
0.0
 30
0.0
  0
VERTEX
  5
77
330
76
100
AcDbEntity
  8
_U+30EC_U+30A4_U+30E4_U+30FC 1
 62
   179
420
  2234388
370
     9
100
AcDbVertex
100
AcDb2dVertex
 10
94.20475231885877
 20
-132.4105174668975
 30
0.0
  0
VERTEX
  5
78
330
76
100
AcDbEntity
  8
_U+30EC_U+30A4_U+30E4_U+30FC 1
 62
   179
420
  2234388
370
     9
100
AcDbVertex
100
AcDb2dVertex
 10
102.1646535046737
 20
-132.4105174668975
 30
0.0
  0
SEQEND
  5
79
330
76
100
AcDbEntity
  8
_U+30EC_U+30A4_U+30E4_U+30FC 1
 62
   179
420
  2234388
370
     9
  0
POLYLINE
  5
7A
330
1F
100
AcDbEntity
  8
_U+30EC_U+30A4_U+30E4_U+30FC 1
 62
   179
420
  2234388
370
     9
100
AcDb2dPolyline
 66
     1
 10
0.0
 20
0.0
 30
0.0
  0
VERTEX
  5
7B
330
7A
100
AcDbEntity
  8
_U+30EC_U+30A4_U+30E4_U+30FC 1
 62
   179
420
  2234388
370
     9
100
AcDbVertex
100
AcDb2dVertex
 10
99.70452497507402
 20
-125.9106574685222
 30
0.0
  0
VERTEX
  5
7C
330
7A
100
AcDbEntity
  8
_U+30EC_U+30A4_U+30E4_U+30FC 1
 62
   179
420
  2234388
370
     9
100
AcDbVertex
100
AcDb2dVertex
 10
102.1646535046737
 20
-125.9106574685222
 30
0.0
  0
SEQEND
  5
7D
330
7A
100
AcDbEntity
  8
_U+30EC_U+30A4_U+30E4_U+30FC 1
 62
   179
420
  2234388
370
     9
  0
INSERT
  5
7F
330
1F
100
AcDbEntity
  8
_U+30EC_U+30A4_U+30E4_U+30FC 1
100
AcDbBlockReference
  2
block 2
 10
0.0
 20
0.0
 30
0.0
  0
INSERT
  5
89
330
1F
100
AcDbEntity
  8
_U+30EC_U+30A4_U+30E4_U+30FC 1
100
AcDbBlockReference
  2
block 3
 10
0.0
 20
0.0
 30
0.0
  0
INSERT
  5
91
330
1F
100
AcDbEntity
  8
_U+30EC_U+30A4_U+30E4_U+30FC 1
100
AcDbBlockReference
  2
block 4
 10
0.0
 20
0.0
 30
0.0
  0
ENDSEC
  0
SECTION
  2
OBJECTS
  0
DICTIONARY
  5
C
330
0
100
AcDbDictionary
281
     1
  3
ACAD_GROUP
350
D
  3
ACAD_LAYOUT
350
1A
  3
ACAD_MATERIAL
350
3B
  3
ACAD_MLEADERSTYLE
350
A2
  3
ACAD_MLINESTYLE
350
17
  3
ACAD_PLOTSETTINGS
350
19
  3
ACAD_PLOTSTYLENAME
350
E
  3
ACAD_TABLESTYLE
350
A1
  3
ACAD_VISUALSTYLE
350
2A
  0
SUN
  5
3F
330
29
100
AcDbSun
 90
        1
290
     0
 63
     7
421
 16777215
 40
1.0
291
     1
 91
  2455826
 92
 54000000
292
     0
 70
     2
 71
   256
280
     1
  0
DICTIONARY
  5
D
102
{ACAD_REACTORS
330
C
102
}
330
C
100
AcDbDictionary
281
     1
  0
DICTIONARY
  5
1A
102
{ACAD_REACTORS
330
C
102
}
330
C
100
AcDbDictionary
281
     1
  3
Layout1
350
1E
  3
Layout2
350
26
  3
Model
350
22
  0
DICTIONARY
  5
3B
102
{ACAD_REACTORS
330
C
102
}
330
C
100
AcDbDictionary
281
     1
  3
ByBlock
350
3D
  3
ByLayer
350
3C
  3
Global
350
3E
  0
DICTIONARY
  5
A2
102
{ACAD_REACTORS
330
C
102
}
330
C
100
AcDbDictionary
281
     1
  0
DICTIONARY
  5
17
102
{ACAD_REACTORS
330
C
102
}
330
C
100
AcDbDictionary
281
     1
  3
Standard
350
18
  0
DICTIONARY
  5
19
102
{ACAD_REACTORS
330
C
102
}
330
C
100
AcDbDictionary
281
     1
  0
ACDBDICTIONARYWDFLT
  5
E
102
{ACAD_REACTORS
330
C
102
}
330
C
100
AcDbDictionary
281
     1
  3
Normal
350
F
100
AcDbDictionaryWithDefault
340
F
  0
DICTIONARY
  5
A1
102
{ACAD_REACTORS
330
C
102
}
330
C
100
AcDbDictionary
281
     1
  0
DICTIONARY
  5
2A
102
{ACAD_REACTORS
330
C
102
}
330
C
100
AcDbDictionary
281
     1
  3
2dWireframe
350
2F
  3
3D Hidden
350
31
  3
3dWireframe
350
30
  3
Basic
350
32
  3
Brighten
350
36
  3
ColorChange
350
3A
  3
Conceptual
350
34
  3
Dim
350
35
  3
Facepattern
350
39
  3
Flat
350
2B
  3
FlatWithEdges
350
2C
  3
Gouraud
350
2D
  3
GouraudWithEdges
350
2E
  3
Linepattern
350
38
  3
Realistic
350
33
  3
Thicken
350
37
  0
LAYOUT
  5
1E
102
{ACAD_REACTORS
330
1A
102
}
330
1A
100
AcDbPlotSettings
  1

  2
none_device
  4

  6

 40
0.0
 41
0.0
 42
0.0
 43
0.0
 44
0.0
 45
0.0
 46
0.0
 47
0.0
 48
0.0
 49
0.0
140
0.0
141
0.0
142
1.0
143
1.0
 70
   688
 72
     0
 73
     0
 74
     5
  7

 75
    16
 76
     0
 77
     2
 78
   300
147
1.0
148
0.0
149
0.0
100
AcDbLayout
  1
Layout1
 70
     1
 71
     1
 10
0.0
 20
0.0
 11
12.0
 21
9.0
 12
0.0
 22
0.0
 32
0.0
 14
1.000000000000000E+20
 24
1.000000000000000E+20
 34
1.000000000000000E+20
 15
-1.000000000000000E+20
 25
-1.000000000000000E+20
 35
-1.000000000000000E+20
146
0.0
 13
0.0
 23
0.0
 33
0.0
 16
1.0
 26
0.0
 36
0.0
 17
0.0
 27
1.0
 37
0.0
 76
     0
330
1B
  0
LAYOUT
  5
26
102
{ACAD_REACTORS
330
1A
102
}
330
1A
100
AcDbPlotSettings
  1

  2
none_device
  4

  6

 40
0.0
 41
0.0
 42
0.0
 43
0.0
 44
0.0
 45
0.0
 46
0.0
 47
0.0
 48
0.0
 49
0.0
140
0.0
141
0.0
142
1.0
143
1.0
 70
   688
 72
     0
 73
     0
 74
     5
  7

 75
    16
 76
     0
 77
     2
 78
   300
147
1.0
148
0.0
149
0.0
100
AcDbLayout
  1
Layout2
 70
     1
 71
     2
 10
0.0
 20
0.0
 11
0.0
 21
0.0
 12
0.0
 22
0.0
 32
0.0
 14
0.0
 24
0.0
 34
0.0
 15
0.0
 25
0.0
 35
0.0
146
0.0
 13
0.0
 23
0.0
 33
0.0
 16
1.0
 26
0.0
 36
0.0
 17
0.0
 27
1.0
 37
0.0
 76
     0
330
23
  0
LAYOUT
  5
22
102
{ACAD_REACTORS
330
1A
102
}
330
1A
100
AcDbPlotSettings
  1

  2
none_device
  4

  6

 40
0.0
 41
0.0
 42
0.0
 43
0.0
 44
0.0
 45
0.0
 46
0.0
 47
0.0
 48
0.0
 49
0.0
140
0.0
141
0.0
142
1.0
143
1.0
 70
  1712
 72
     0
 73
     0
 74
     0
  7

 75
     0
 76
     0
 77
     2
 78
   300
147
1.0
148
0.0
149
0.0
100
AcDbLayout
  1
Model
 70
     1
 71
     0
 10
0.0
 20
0.0
 11
12.0
 21
9.0
 12
0.0
 22
0.0
 32
0.0
 14
1.000000000000000E+20
 24
1.000000000000000E+20
 34
1.000000000000000E+20
 15
-1.000000000000000E+20
 25
-1.000000000000000E+20
 35
-1.000000000000000E+20
146
0.0
 13
0.0
 23
0.0
 33
0.0
 16
1.0
 26
0.0
 36
0.0
 17
0.0
 27
1.0
 37
0.0
 76
     0
330
1F
331
29
  0
MATERIAL
  5
3D
102
{ACAD_REACTORS
330
3B
102
}
330
3B
100
AcDbMaterial
  1
ByBlock
 72
     1
 94
      127
  0
MATERIAL
  5
3C
102
{ACAD_REACTORS
330
3B
102
}
330
3B
100
AcDbMaterial
  1
ByLayer
 72
     1
 94
      127
  0
MATERIAL
  5
3E
102
{ACAD_REACTORS
330
3B
102
}
330
3B
100
AcDbMaterial
  1
Global
 72
     1
 94
      127
  0
MLINESTYLE
  5
18
102
{ACAD_REACTORS
330
17
102
}
330
17
100
AcDbMlineStyle
  2
Standard
 70
     0
  3

 62
   256
 51
90.0
 52
90.0
 71
     2
 49
0.5
 62
   256
  6
BYLAYER
 49
-0.5
 62
   256
  6
BYLAYER
  0
ACDBPLACEHOLDER
  5
F
102
{ACAD_REACTORS
330
E
102
}
330
E
  0
VISUALSTYLE
  5
2F
102
{ACAD_REACTORS
330
2A
102
}
330
2A
100
AcDbVisualStyle
  2
2dWireframe
 70
     4
177
     2
291
     0
 71
     0
176
     1
 72
     2
176
     1
 73
     0
176
     1
 90
        0
176
     1
 40
-0.6
176
     1
 41
-30.0
176
     1
 62
     5
 63
     7
421
 16777215
176
     1
 74
     1
176
     1
 91
        4
176
     1
 64
     7
176
     1
 65
   257
176
     1
 75
     1
176
     1
175
     1
176
     1
 42
1.0
176
     1
 92
        0
176
     1
 66
   257
176
     1
 43
1.0
176
     1
 76
     1
176
     1
 77
     6
176
     1
 78
     2
176
     1
 67
     7
176
     1
 79
     5
176
     1
170
     0
176
     1
171
     0
176
     1
290
     0
176
     1
 93
        1
176
     1
 44
0.0
176
     1
173
     0
176
     1
  0
VISUALSTYLE
  5
31
102
{ACAD_REACTORS
330
2A
102
}
330
2A
100
AcDbVisualStyle
  2
3D Hidden
 70
     6
177
     2
291
     0
 71
     1
176
     1
 72
     2
176
     1
 73
     2
176
     1
 90
        0
176
     1
 40
-0.6
176
     1
 41
-30.0
176
     1
 62
     5
 63
     7
421
 16777215
176
     1
 74
     2
176
     1
 91
        2
176
     1
 64
     7
176
     1
 65
   257
176
     1
 75
     2
176
     1
175
     1
176
     1
 42
40.0
176
     1
 92
        0
176
     1
 66
   257
176
     1
 43
1.0
176
     1
 76
     1
176
     1
 77
     6
176
     1
 78
     2
176
     1
 67
     7
176
     1
 79
     3
176
     1
170
     0
176
     1
171
     0
176
     1
290
     0
176
     1
 93
        1
176
     1
 44
0.0
176
     1
173
     0
176
     1
  0
VISUALSTYLE
  5
30
102
{ACAD_REACTORS
330
2A
102
}
330
2A
100
AcDbVisualStyle
  2
3dWireframe
 70
     5
177
     2
291
     0
 71
     0
176
     1
 72
     2
176
     1
 73
     0
176
     1
 90
        0
176
     1
 40
-0.6
176
     1
 41
-30.0
176
     1
 62
     5
 63
     7
421
 16777215
176
     1
 74
     1
176
     1
 91
        4
176
     1
 64
     7
176
     1
 65
   257
176
     1
 75
     1
176
     1
175
     1
176
     1
 42
1.0
176
     1
 92
        0
176
     1
 66
   257
176
     1
 43
1.0
176
     1
 76
     1
176
     1
 77
     6
176
     1
 78
     2
176
     1
 67
     7
176
     1
 79
     5
176
     1
170
     0
176
     1
171
     0
176
     1
290
     0
176
     1
 93
        1
176
     1
 44
0.0
176
     1
173
     0
176
     1
  0
VISUALSTYLE
  5
32
102
{ACAD_REACTORS
330
2A
102
}
330
2A
100
AcDbVisualStyle
  2
Basic
 70
     7
177
     2
291
     1
 71
     1
176
     1
 72
     0
176
     1
 73
     1
176
     1
 90
        0
176
     1
 40
-0.6
176
     1
 41
-30.0
176
     1
 62
     5
 63
     7
421
 16777215
176
     1
 74
     0
176
     1
 91
        4
176
     1
 64
     7
176
     1
 65
   257
176
     1
 75
     1
176
     1
175
     1
176
     1
 42
1.0
176
     1
 92
        8
176
     1
 66
     7
176
     1
 43
1.0
176
     1
 76
     1
176
     1
 77
     6
176
     1
 78
     2
176
     1
 67
     7
176
     1
 79
     5
176
     1
170
     0
176
     1
171
     0
176
     1
290
     0
176
     1
 93
        1
176
     1
 44
0.0
176
     1
173
     0
176
     1
  0
VISUALSTYLE
  5
36
102
{ACAD_REACTORS
330
2A
102
}
330
2A
100
AcDbVisualStyle
  2
Brighten
 70
    12
177
     2
291
     1
 71
     2
176
     1
 72
     2
176
     1
 73
     0
176
     1
 90
        0
176
     1
 40
-0.6
176
     1
 41
-30.0
176
     1
 62
     5
 63
     7
421
 16777215
176
     1
 74
     1
176
     1
 91
        4
176
     1
 64
     7
176
     1
 65
   257
176
     1
 75
     1
176
     1
175
     1
176
     1
 42
1.0
176
     1
 92
        8
176
     1
 66
     7
176
     1
 43
1.0
176
     1
 76
     1
176
     1
 77
     6
176
     1
 78
     2
176
     1
 67
     7
176
     1
 79
     5
176
     1
170
     0
176
     1
171
     0
176
     1
290
     0
176
     1
 93
        1
176
     1
 44
50.0
176
     1
173
     0
176
     1
  0
VISUALSTYLE
  5
3A
102
{ACAD_REACTORS
330
2A
102
}
330
2A
100
AcDbVisualStyle
  2
ColorChange
 70
    16
177
     2
291
     1
 71
     2
176
     1
 72
     2
176
     1
 73
     3
176
     1
 90
        0
176
     1
 40
-0.6
176
     1
 41
-30.0
176
     1
 62
     5
 63
     8
421
  8421504
176
     1
 74
     1
176
     1
 91
        4
176
     1
 64
     7
176
     1
 65
   257
176
     1
 75
     1
176
     1
175
     1
176
     1
 42
1.0
176
     1
 92
        8
176
     1
 66
     8
424
  8421504
176
     1
 43
1.0
176
     1
 76
     1
176
     1
 77
     6
176
     1
 78
     2
176
     1
 67
     7
176
     1
 79
     5
176
     1
170
     0
176
     1
171
     0
176
     1
290
     0
176
     1
 93
        1
176
     1
 44
0.0
176
     1
173
     0
176
     1
  0
VISUALSTYLE
  5
34
102
{ACAD_REACTORS
330
2A
102
}
330
2A
100
AcDbVisualStyle
  2
Conceptual
 70
     9
177
     2
291
     0
 71
     3
176
     1
 72
     2
176
     1
 73
     0
176
     1
 90
        0
176
     1
 40
-0.6
176
     1
 41
-30.0
176
     1
 62
     5
 63
     7
421
 16777215
176
     1
 74
     2
176
     1
 91
        2
176
     1
 64
     7
176
     1
 65
   257
176
     1
 75
     1
176
     1
175
     1
176
     1
 42
40.0
176
     1
 92
        8
176
     1
 66
     7
176
     1
 43
1.0
176
     1
 76
     1
176
     1
 77
     6
176
     1
 78
     2
176
     1
 67
     7
176
     1
 79
     3
176
     1
170
     0
176
     1
171
     0
176
     1
290
     0
176
     1
 93
        1
176
     1
 44
0.0
176
     1
173
     0
176
     1
  0
VISUALSTYLE
  5
35
102
{ACAD_REACTORS
330
2A
102
}
330
2A
100
AcDbVisualStyle
  2
Dim
 70
    11
177
     2
291
     1
 71
     2
176
     1
 72
     2
176
     1
 73
     0
176
     1
 90
        0
176
     1
 40
-0.6
176
     1
 41
-30.0
176
     1
 62
     5
 63
     7
421
 16777215
176
     1
 74
     1
176
     1
 91
        4
176
     1
 64
     7
176
     1
 65
   257
176
     1
 75
     1
176
     1
175
     1
176
     1
 42
1.0
176
     1
 92
        8
176
     1
 66
     7
176
     1
 43
1.0
176
     1
 76
     1
176
     1
 77
     6
176
     1
 78
     2
176
     1
 67
     7
176
     1
 79
     5
176
     1
170
     0
176
     1
171
     0
176
     1
290
     0
176
     1
 93
        1
176
     1
 44
-50.0
176
     1
173
     0
176
     1
  0
VISUALSTYLE
  5
39
102
{ACAD_REACTORS
330
2A
102
}
330
2A
100
AcDbVisualStyle
  2
Facepattern
 70
    15
177
     2
291
     1
 71
     2
176
     1
 72
     2
176
     1
 73
     0
176
     1
 90
        0
176
     1
 40
-0.6
176
     1
 41
-30.0
176
     1
 62
     5
 63
     7
421
 16777215
176
     1
 74
     1
176
     1
 91
        4
176
     1
 64
     7
176
     1
 65
   257
176
     1
 75
     1
176
     1
175
     1
176
     1
 42
1.0
176
     1
 92
        8
176
     1
 66
     7
176
     1
 43
1.0
176
     1
 76
     1
176
     1
 77
     6
176
     1
 78
     2
176
     1
 67
     7
176
     1
 79
     5
176
     1
170
     0
176
     1
171
     0
176
     1
290
     0
176
     1
 93
        1
176
     1
 44
0.0
176
     1
173
     0
176
     1
  0
VISUALSTYLE
  5
2B
102
{ACAD_REACTORS
330
2A
102
}
330
2A
100
AcDbVisualStyle
  2
Flat
 70
     0
177
     2
291
     1
 71
     2
176
     1
 72
     1
176
     1
 73
     1
176
     1
 90
        2
176
     1
 40
-0.6
176
     1
 41
30.0
176
     1
 62
     5
 63
     7
421
 16777215
176
     1
 74
     0
176
     1
 91
        4
176
     1
 64
     7
176
     1
 65
   257
176
     1
 75
     1
176
     1
175
     1
176
     1
 42
1.0
176
     1
 92
        8
176
     1
 66
     7
176
     1
 43
1.0
176
     1
 76
     1
176
     1
 77
     6
176
     1
 78
     2
176
     1
 67
     7
176
     1
 79
     5
176
     1
170
     0
176
     1
171
     0
176
     1
290
     0
176
     1
 93
       13
176
     1
 44
0.0
176
     1
173
     0
176
     1
  0
VISUALSTYLE
  5
2C
102
{ACAD_REACTORS
330
2A
102
}
330
2A
100
AcDbVisualStyle
  2
FlatWithEdges
 70
     1
177
     2
291
     1
 71
     2
176
     1
 72
     1
176
     1
 73
     1
176
     1
 90
        2
176
     1
 40
-0.6
176
     1
 41
30.0
176
     1
 62
     5
 63
     7
421
 16777215
176
     1
 74
     1
176
     1
 91
        4
176
     1
 64
     7
176
     1
 65
   257
176
     1
 75
     1
176
     1
175
     1
176
     1
 42
1.0
176
     1
 92
        0
176
     1
 66
   257
176
     1
 43
1.0
176
     1
 76
     1
176
     1
 77
     6
176
     1
 78
     2
176
     1
 67
     7
176
     1
 79
     5
176
     1
170
     0
176
     1
171
     0
176
     1
290
     0
176
     1
 93
       13
176
     1
 44
0.0
176
     1
173
     0
176
     1
  0
VISUALSTYLE
  5
2D
102
{ACAD_REACTORS
330
2A
102
}
330
2A
100
AcDbVisualStyle
  2
Gouraud
 70
     2
177
     2
291
     1
 71
     2
176
     1
 72
     2
176
     1
 73
     1
176
     1
 90
        2
176
     1
 40
-0.6
176
     1
 41
30.0
176
     1
 62
     5
 63
     7
421
 16777215
176
     1
 74
     0
176
     1
 91
        4
176
     1
 64
     7
176
     1
 65
   257
176
     1
 75
     1
176
     1
175
     1
176
     1
 42
1.0
176
     1
 92
        0
176
     1
 66
     7
176
     1
 43
1.0
176
     1
 76
     1
176
     1
 77
     6
176
     1
 78
     2
176
     1
 67
     7
176
     1
 79
     5
176
     1
170
     0
176
     1
171
     0
176
     1
290
     0
176
     1
 93
       13
176
     1
 44
0.0
176
     1
173
     0
176
     1
  0
VISUALSTYLE
  5
2E
102
{ACAD_REACTORS
330
2A
102
}
330
2A
100
AcDbVisualStyle
  2
GouraudWithEdges
 70
     3
177
     2
291
     1
 71
     2
176
     1
 72
     2
176
     1
 73
     1
176
     1
 90
        2
176
     1
 40
-0.6
176
     1
 41
30.0
176
     1
 62
     5
 63
     7
421
 16777215
176
     1
 74
     1
176
     1
 91
        4
176
     1
 64
     7
176
     1
 65
   257
176
     1
 75
     1
176
     1
175
     1
176
     1
 42
1.0
176
     1
 92
        0
176
     1
 66
   257
176
     1
 43
1.0
176
     1
 76
     1
176
     1
 77
     6
176
     1
 78
     2
176
     1
 67
     7
176
     1
 79
     5
176
     1
170
     0
176
     1
171
     0
176
     1
290
     0
176
     1
 93
       13
176
     1
 44
0.0
176
     1
173
     0
176
     1
  0
VISUALSTYLE
  5
38
102
{ACAD_REACTORS
330
2A
102
}
330
2A
100
AcDbVisualStyle
  2
Linepattern
 70
    14
177
     2
291
     1
 71
     2
176
     1
 72
     2
176
     1
 73
     0
176
     1
 90
        0
176
     1
 40
-0.6
176
     1
 41
-30.0
176
     1
 62
     5
 63
     7
421
 16777215
176
     1
 74
     1
176
     1
 91
        4
176
     1
 64
     7
176
     1
 65
   257
176
     1
 75
     7
176
     1
175
     7
176
     1
 42
1.0
176
     1
 92
        8
176
     1
 66
     7
176
     1
 43
1.0
176
     1
 76
     1
176
     1
 77
     6
176
     1
 78
     2
176
     1
 67
     7
176
     1
 79
     5
176
     1
170
     0
176
     1
171
     0
176
     1
290
     0
176
     1
 93
        1
176
     1
 44
0.0
176
     1
173
     0
176
     1
  0
VISUALSTYLE
  5
33
102
{ACAD_REACTORS
330
2A
102
}
330
2A
100
AcDbVisualStyle
  2
Realistic
 70
     8
177
     2
291
     0
 71
     2
176
     1
 72
     2
176
     1
 73
     0
176
     1
 90
        0
176
     1
 40
-0.6
176
     1
 41
-30.0
176
     1
 62
     5
 63
     7
421
 16777215
176
     1
 74
     1
176
     1
 91
        0
176
     1
 64
     7
176
     1
 65
   257
176
     1
 75
     1
176
     1
175
     1
176
     1
 42
1.0
176
     1
 92
        8
176
     1
 66
     8
424
  7895160
176
     1
 43
1.0
176
     1
 76
     1
176
     1
 77
     6
176
     1
 78
     2
176
     1
 67
     7
176
     1
 79
     5
176
     1
170
     0
176
     1
171
     0
176
     1
290
     0
176
     1
 93
       13
176
     1
 44
0.0
176
     1
173
     0
176
     1
  0
VISUALSTYLE
  5
37
102
{ACAD_REACTORS
330
2A
102
}
330
2A
100
AcDbVisualStyle
  2
Thicken
 70
    13
177
     2
291
     1
 71
     2
176
     1
 72
     2
176
     1
 73
     0
176
     1
 90
        0
176
     1
 40
-0.6
176
     1
 41
-30.0
176
     1
 62
     5
 63
     7
421
 16777215
176
     1
 74
     1
176
     1
 91
        4
176
     1
 64
     7
176
     1
 65
   257
176
     1
 75
     1
176
     1
175
     1
176
     1
 42
1.0
176
     1
 92
       12
176
     1
 66
     7
176
     1
 43
1.0
176
     1
 76
     1
176
     1
 77
     6
176
     1
 78
     2
176
     1
 67
     7
176
     1
 79
     5
176
     1
170
     0
176
     1
171
     0
176
     1
290
     0
176
     1
 93
        1
176
     1
 44
0.0
176
     1
173
     0
176
     1
  0
ENDSEC
  0
EOF
