  0
SECTION
  2
HEADER
  9
$ACADVER
  1
AC1024
  9
$ACADMAINTVER
 70
     6
  9
$DWGCODEPAGE
  3
UNDEFINED
  9
$INSBASE
 10
0.0
 20
0.0
 30
0.0
  9
$EXTMIN
 10
1.000000000000000E+20
 20
1.000000000000000E+20
 30
1.000000000000000E+20
  9
$EXTMAX
 10
-1.000000000000000E+20
 20
-1.000000000000000E+20
 30
-1.000000000000000E+20
  9
$LIMMIN
 10
0.0
 20
0.0
  9
$LIMMAX
 10
12.0
 20
9.0
  9
$ORTHOMODE
 70
     0
  9
$REGENMODE
 70
     1
  9
$FILLMODE
 70
     1
  9
$QTEXTMODE
 70
     0
  9
$MIRRTEXT
 70
     1
  9
$LTSCALE
 40
1.0
  9
$ATTMODE
 70
     1
  9
$TEXTSIZE
 40
0.2
  9
$TRACEWID
 40
0.05
  9
$TEXTSTYLE
  7
Standard
  9
$CLAYER
  8
0
  9
$CELTYPE
  6
ByLayer
  9
$CECOLOR
 62
   256
  9
$CELTSCALE
 40
1.0
  9
$DISPSILH
 70
     0
  9
$DIMSCALE
 40
1.0
  9
$DIMASZ
 40
0.18
  9
$DIMEXO
 40
0.0625
  9
$DIMDLI
 40
0.38
  9
$DIMRND
 40
0.0
  9
$DIMDLE
 40
0.0
  9
$DIMEXE
 40
0.18
  9
$DIMTP
 40
0.0
  9
$DIMTM
 40
0.0
  9
$DIMTXT
 40
0.18
  9
$DIMCEN
 40
0.09
  9
$DIMTSZ
 40
0.0
  9
$DIMTOL
 70
     0
  9
$DIMLIM
 70
     0
  9
$DIMTIH
 70
     1
  9
$DIMTOH
 70
     1
  9
$DIMSE1
 70
     0
  9
$DIMSE2
 70
     0
  9
$DIMTAD
 70
     0
  9
$DIMZIN
 70
     0
  9
$DIMBLK
  1

  9
$DIMASO
 70
     1
  9
$DIMSHO
 70
     1
  9
$DIMPOST
  1

  9
$DIMAPOST
  1

  9
$DIMALT
 70
     0
  9
$DIMALTD
 70
     2
  9
$DIMALTF
 40
25.4
  9
$DIMLFAC
 40
1.0
  9
$DIMTOFL
 70
     0
  9
$DIMTVP
 40
0.0
  9
$DIMTIX
 70
     0
  9
$DIMSOXD
 70
     0
  9
$DIMSAH
 70
     0
  9
$DIMBLK1
  1

  9
$DIMBLK2
  1

  9
$DIMSTYLE
  2
Standard
  9
$DIMCLRD
 70
     0
  9
$DIMCLRE
 70
     0
  9
$DIMCLRT
 70
     0
  9
$DIMTFAC
 40
1.0
  9
$DIMGAP
 40
0.09
  9
$DIMJUST
 70
     0
  9
$DIMSD1
 70
     0
  9
$DIMSD2
 70
     0
  9
$DIMTOLJ
 70
     1
  9
$DIMTZIN
 70
     0
  9
$DIMALTZ
 70
     0
  9
$DIMALTTZ
 70
     0
  9
$DIMUPT
 70
     0
  9
$DIMDEC
 70
     4
  9
$DIMTDEC
 70
     4
  9
$DIMALTU
 70
     2
  9
$DIMALTTD
 70
     2
  9
$DIMTXSTY
  7
Standard
  9
$DIMAUNIT
 70
     0
  9
$DIMADEC
 70
     0
  9
$DIMALTRND
 40
0.0
  9
$DIMAZIN
 70
     0
  9
$DIMDSEP
 70
    46
  9
$DIMATFIT
 70
     3
  9
$DIMFRAC
 70
     0
  9
$DIMLDRBLK
  1

  9
$DIMLUNIT
 70
     2
  9
$DIMLWD
 70
    -2
  9
$DIMLWE
 70
    -2
  9
$DIMTMOVE
 70
     0
  9
$DIMFXL
 40
1.0
  9
$DIMFXLON
 70
     0
  9
$DIMJOGANG
 40
0.7853981633974483
  9
$DIMTFILL
 70
     0
  9
$DIMTFILLCLR
 70
     0
  9
$DIMARCSYM
 70
     0
  9
$DIMLTYPE
  6

  9
$DIMLTEX1
  6

  9
$DIMLTEX2
  6

  9
$DIMTXTDIRECTION
 70
     0
  9
$LUNITS
 70
     2
  9
$LUPREC
 70
     4
  9
$SKETCHINC
 40
0.1
  9
$FILLETRAD
 40
0.5
  9
$AUNITS
 70
     0
  9
$AUPREC
 70
     0
  9
$MENU
  1
.
  9
$ELEVATION
 40
0.0
  9
$PELEVATION
 40
0.0
  9
$THICKNESS
 40
0.0
  9
$LIMCHECK
 70
     0
  9
$CHAMFERA
 40
0.5
  9
$CHAMFERB
 40
0.5
  9
$CHAMFERC
 40
1.0
  9
$CHAMFERD
 40
0.0
  9
$SKPOLY
 70
     0
  9
$TDCREATE
 40
2457917.62466434
  9
$TDUCREATE
 40
2457917.249664352
  9
$TDUPDATE
 40
2457917.62466434
  9
$TDUUPDATE
 40
2457917.249664352
  9
$TDINDWG
 40
0.0000000116
  9
$TDUSRTIMER
 40
0.0000000116
  9
$USRTIMER
 70
     1
  9
$ANGBASE
 50
0.0
  9
$ANGDIR
 70
     0
  9
$PDMODE
 70
     0
  9
$PDSIZE
 40
0.0
  9
$PLINEWID
 40
0.0
  9
$SPLFRAME
 70
     0
  9
$SPLINETYPE
 70
     6
  9
$SPLINESEGS
 70
     8
  9
$HANDSEED
  5
A2
  9
$SURFTAB1
 70
     6
  9
$SURFTAB2
 70
     6
  9
$SURFTYPE
 70
     6
  9
$SURFU
 70
     6
  9
$SURFV
 70
     6
  9
$UCSBASE
  2

  9
$UCSNAME
  2

  9
$UCSORG
 10
0.0
 20
0.0
 30
0.0
  9
$UCSXDIR
 10
1.0
 20
0.0
 30
0.0
  9
$UCSYDIR
 10
0.0
 20
1.0
 30
0.0
  9
$UCSORTHOREF
  2

  9
$UCSORTHOVIEW
 70
     0
  9
$UCSORGTOP
 10
0.0
 20
0.0
 30
0.0
  9
$UCSORGBOTTOM
 10
0.0
 20
0.0
 30
0.0
  9
$UCSORGLEFT
 10
0.0
 20
0.0
 30
0.0
  9
$UCSORGRIGHT
 10
0.0
 20
0.0
 30
0.0
  9
$UCSORGFRONT
 10
0.0
 20
0.0
 30
0.0
  9
$UCSORGBACK
 10
0.0
 20
0.0
 30
0.0
  9
$PUCSBASE
  2

  9
$PUCSNAME
  2

  9
$PUCSORG
 10
0.0
 20
0.0
 30
0.0
  9
$PUCSXDIR
 10
1.0
 20
0.0
 30
0.0
  9
$PUCSYDIR
 10
0.0
 20
1.0
 30
0.0
  9
$PUCSORTHOREF
  2

  9
$PUCSORTHOVIEW
 70
     0
  9
$PUCSORGTOP
 10
0.0
 20
0.0
 30
0.0
  9
$PUCSORGBOTTOM
 10
0.0
 20
0.0
 30
0.0
  9
$PUCSORGLEFT
 10
0.0
 20
0.0
 30
0.0
  9
$PUCSORGRIGHT
 10
0.0
 20
0.0
 30
0.0
  9
$PUCSORGFRONT
 10
0.0
 20
0.0
 30
0.0
  9
$PUCSORGBACK
 10
0.0
 20
0.0
 30
0.0
  9
$USERI1
 70
     0
  9
$USERI2
 70
     0
  9
$USERI3
 70
     0
  9
$USERI4
 70
     0
  9
$USERI5
 70
     0
  9
$USERR1
 40
0.0
  9
$USERR2
 40
0.0
  9
$USERR3
 40
0.0
  9
$USERR4
 40
0.0
  9
$USERR5
 40
0.0
  9
$WORLDVIEW
 70
     1
  9
$SHADEDGE
 70
     3
  9
$SHADEDIF
 70
    70
  9
$TILEMODE
 70
     1
  9
$MAXACTVP
 70
    64
  9
$PINSBASE
 10
0.0
 20
0.0
 30
0.0
  9
$PLIMCHECK
 70
     0
  9
$PEXTMIN
 10
1.000000000000000E+20
 20
1.000000000000000E+20
 30
1.000000000000000E+20
  9
$PEXTMAX
 10
-1.000000000000000E+20
 20
-1.000000000000000E+20
 30
-1.000000000000000E+20
  9
$PLIMMIN
 10
0.0
 20
0.0
  9
$PLIMMAX
 10
12.0
 20
9.0
  9
$UNITMODE
 70
     0
  9
$VISRETAIN
 70
     1
  9
$PLINEGEN
 70
     0
  9
$PSLTSCALE
 70
     1
  9
$TREEDEPTH
 70
  3020
  9
$CMLSTYLE
  2
Standard
  9
$CMLJUST
 70
     0
  9
$CMLSCALE
 40
1.0
  9
$PROXYGRAPHICS
 70
     1
  9
$MEASUREMENT
 70
     0
  9
$CELWEIGHT
370
    -1
  9
$ENDCAPS
280
     0
  9
$JOINSTYLE
280
     0
  9
$LWDISPLAY
290
     1
  9
$INSUNITS
 70
     1
  9
$HYPERLINKBASE
  1

  9
$STYLESHEET
  1

  9
$XEDIT
290
     1
  9
$CEPSNTYPE
380
     0
  9
$PSTYLEMODE
290
     1
  9
$FINGERPRINTGUID
  2
{B0A69C2D-89B7-1313-DA83-9844791178DA}
  9
$VERSIONGUID
  2
{FAEB1C32-E019-11D5-929B-00C0DF256EC4}
  9
$EXTNAMES
290
     1
  9
$PSVPSCALE
 40
0.0
  9
$OLESTARTUP
290
     0
  9
$SORTENTS
280
   127
  9
$INDEXCTL
280
     0
  9
$HIDETEXT
280
     1
  9
$XCLIPFRAME
280
     2
  9
$HALOGAP
280
     0
  9
$OBSCOLOR
 70
   257
  9
$OBSLTYPE
280
     0
  9
$INTERSECTIONDISPLAY
280
     0
  9
$INTERSECTIONCOLOR
 70
   257
  9
$DIMASSOC
280
     2
  9
$PROJECTNAME
  1

  9
$CAMERADISPLAY
290
     0
  9
$LENSLENGTH
 40
50.0
  9
$CAMERAHEIGHT
 40
0.0
  9
$STEPSPERSEC
 40
2.0
  9
$STEPSIZE
 40
6.0
  9
$3DDWFPREC
 40
2.0
  9
$PSOLWIDTH
 40
0.25
  9
$PSOLHEIGHT
 40
4.0
  9
$LOFTANG1
 40
1.570796326794897
  9
$LOFTANG2
 40
1.570796326794897
  9
$LOFTMAG1
 40
0.0
  9
$LOFTMAG2
 40
0.0
  9
$LOFTPARAM
 70
     7
  9
$LOFTNORMALS
280
     1
  9
$LATITUDE
 40
37.795
  9
$LONGITUDE
 40
-122.394
  9
$NORTHDIRECTION
 40
0.0
  9
$TIMEZONE
 70
 -8000
  9
$LIGHTGLYPHDISPLAY
280
     1
  9
$TILEMODELIGHTSYNCH
280
     1
  9
$CMATERIAL
347
3C
  9
$SOLIDHIST
280
     1
  9
$SHOWHIST
280
     1
  9
$DWFFRAME
280
     2
  9
$DGNFRAME
280
     2
  9
$REALWORLDSCALE
290
     1
  9
$INTERFERECOLOR
 62
   256
  9
$CSHADOW
280
     0
  9
$SHADOWPLANELOCATION
 40
0.0
  0
ENDSEC
  0
SECTION
  2
CLASSES
  0
CLASS
  1
ACDBDICTIONARYWDFLT
  2
AcDbDictionaryWithDefault
  3
ObjectDBX Classes
 90
        0
 91
        4
280
     0
281
     0
  0
CLASS
  1
VISUALSTYLE
  2
AcDbVisualStyle
  3
ObjectDBX Classes
 90
     4095
 91
        4
280
     0
281
     0
  0
CLASS
  1
MATERIAL
  2
AcDbMaterial
  3
ObjectDBX Classes
 90
     1153
 91
        4
280
     0
281
     0
  0
CLASS
  1
SUN
  2
AcDbSun
  3
SCENEOE
 90
     1024
 91
        4
280
     0
281
     0
  0
ENDSEC
  0
SECTION
  2
TABLES
  0
TABLE
  2
VPORT
  5
8
330
0
100
AcDbSymbolTable
 70
     1
  0
VPORT
  5
29
330
8
100
AcDbSymbolTableRecord
100
AcDbViewportTableRecord
  2
*Active
 70
     0
 10
0.0
 20
0.0
 11
1.0
 21
1.0
 12
0.0
 22
0.0
 13
0.0
 23
0.0
 14
0.5
 24
0.5
 15
0.5
 25
0.5
 16
0.0
 26
0.0
 36
1.0
 17
91.00082462281999
 27
-128.4993055234307
 37
0.0
 40
256.9986110468615
 41
0.7081814508812795
 42
50.0
 43
0.0
 44
0.0
 50
0.0
 51
0.0
 71
     0
 72
   100
 73
     1
 74
     3
 75
     0
 76
     0
 77
     0
 78
     0
281
     0
 65
     1
110
0.0
120
0.0
130
0.0
111
1.0
121
0.0
131
0.0
112
0.0
122
1.0
132
0.0
 79
     0
146
0.0
 60
     3
 61
     5
292
     1
282
     1
141
0.0
142
0.0
 63
   250
361
3F
  0
ENDTAB
  0
TABLE
  2
LTYPE
  5
5
330
0
100
AcDbSymbolTable
 70
     1
  0
LTYPE
  5
14
330
5
100
AcDbSymbolTableRecord
100
AcDbLinetypeTableRecord
  2
ByBlock
 70
     0
  3

 72
    65
 73
     0
 40
0.0
  0
LTYPE
  5
15
330
5
100
AcDbSymbolTableRecord
100
AcDbLinetypeTableRecord
  2
ByLayer
 70
     0
  3

 72
    65
 73
     0
 40
0.0
  0
LTYPE
  5
16
330
5
100
AcDbSymbolTableRecord
100
AcDbLinetypeTableRecord
  2
Continuous
 70
     0
  3
Solid line
 72
    65
 73
     0
 40
0.0
  0
ENDTAB
  0
TABLE
  2
LAYER
  5
2
330
0
100
AcDbSymbolTable
 70
     2
  0
LAYER
  5
10
330
2
100
AcDbSymbolTableRecord
100
AcDbLayerTableRecord
  2
0
 70
     0
 62
     7
  6
Continuous
370
    -3
390
F
347
3E
  0
LAYER
  5
40
330
2
100
AcDbSymbolTableRecord
100
AcDbLayerTableRecord
  2
_U+30EC_U+30A4_U+30E4_U+30FC 1
 70
     0
 62
     7
  6
Continuous
370
    -3
390
F
347
3E
  0
ENDTAB
  0
TABLE
  2
STYLE
  5
3
330
0
100
AcDbSymbolTable
 70
     1
  0
STYLE
  5
11
330
3
100
AcDbSymbolTableRecord
100
AcDbTextStyleTableRecord
  2
Standard
 70
     0
 40
0.0
 41
1.0
 50
0.0
 71
     0
 42
0.2
  3
txt
  4

  0
ENDTAB
  0
TABLE
  2
VIEW
  5
6
330
0
100
AcDbSymbolTable
 70
     0
  0
ENDTAB
  0
TABLE
  2
UCS
  5
7
330
0
100
AcDbSymbolTable
 70
     0
  0
ENDTAB
  0
TABLE
  2
APPID
  5
9
330
0
100
AcDbSymbolTable
 70
     1
  0
APPID
  5
12
330
9
100
AcDbSymbolTableRecord
100
AcDbRegAppTableRecord
  2
ACAD
 70
     0
  0
ENDTAB
  0
TABLE
  2
DIMSTYLE
  5
A
330
0
100
AcDbSymbolTable
 70
     1
100
AcDbDimStyleTable
  0
DIMSTYLE
105
27
330
A
100
AcDbSymbolTableRecord
100
AcDbDimStyleTableRecord
  2
Standard
 70
     0
178
     0
340
11
  0
ENDTAB
  0
TABLE
  2
BLOCK_RECORD
  5
1
330
0
100
AcDbSymbolTable
 70
     4
  0
BLOCK_RECORD
  5
1F
330
1
100
AcDbSymbolTableRecord
100
AcDbBlockTableRecord
  2
*Model_Space
340
22
 70
     0
280
     1
281
     0
  0
BLOCK_RECORD
  5
1B
330
1
100
AcDbSymbolTableRecord
100
AcDbBlockTableRecord
  2
*Paper_Space
340
1E
 70
     0
280
     1
281
     0
  0
BLOCK_RECORD
  5
23
330
1
100
AcDbSymbolTableRecord
100
AcDbBlockTableRecord
  2
*Paper_Space0
340
26
 70
     0
280
     1
281
     0
  0
BLOCK_RECORD
  5
54
330
1
100
AcDbSymbolTableRecord
100
AcDbBlockTableRecord
  2
block 2
340
0
102
{BLKREFS
331
55
102
}
 70
     0
280
     1
281
     0
  0
BLOCK_RECORD
  5
5E
330
1
100
AcDbSymbolTableRecord
100
AcDbBlockTableRecord
  2
block 3
340
0
102
{BLKREFS
331
5F
102
}
 70
     0
280
     1
281
     0
  0
BLOCK_RECORD
  5
66
330
1
100
AcDbSymbolTableRecord
100
AcDbBlockTableRecord
  2
block 4
340
0
102
{BLKREFS
331
67
102
}
 70
     0
280
     1
281
     0
  0
ENDTAB
  0
ENDSEC
  0
SECTION
  2
BLOCKS
  0
BLOCK
  5
20
330
1F
100
AcDbEntity
  8
0
100
AcDbBlockBegin
  2
*Model_Space
 70
     0
 10
0.0
 20
0.0
 30
0.0
  3
*Model_Space
  1

  0
ENDBLK
  5
21
330
1F
100
AcDbEntity
  8
0
100
AcDbBlockEnd
  0
BLOCK
  5
1C
330
1B
100
AcDbEntity
 67
     1
  8
0
100
AcDbBlockBegin
  2
*Paper_Space
 70
     0
 10
0.0
 20
0.0
 30
0.0
  3
*Paper_Space
  1

  0
ENDBLK
  5
1D
330
1B
100
AcDbEntity
 67
     1
  8
0
100
AcDbBlockEnd
  0
BLOCK
  5
24
330
23
100
AcDbEntity
  8
0
100
AcDbBlockBegin
  2
*Paper_Space0
 70
     0
 10
0.0
 20
0.0
 30
0.0
  3
*Paper_Space0
  1

  0
ENDBLK
  5
25
330
23
100
AcDbEntity
  8
0
100
AcDbBlockEnd
  0
BLOCK
  5
56
330
54
100
AcDbEntity
  8
0
100
AcDbBlockBegin
  2
block 2
 70
     0
 10
0.0
 20
0.0
 30
0.0
  3
block 2
  1

  0
SPLINE
  5
58
330
54
100
AcDbEntity
  8
_U+30EC_U+30A4_U+30E4_U+30FC 1
370
     0
100
AcDbSpline
210
0.0
220
0.0
230
1.0
 70
    11
 71
     3
 72
    26
 73
    22
 74
     0
 42
0.0000000001
 43
0.0000000001
 12
1.0
 22
0.0
 32
0.0
 13
1.0
 23
0.0
 33
0.0
 40
0.0
 40
0.0
 40
0.0
 40
0.0
 40
1.0
 40
1.0
 40
1.0
 40
2.0
 40
2.0
 40
2.0
 40
3.0
 40
3.0
 40
3.0
 40
4.0
 40
4.0
 40
4.0
 40
5.0
 40
5.0
 40
5.0
 40
6.0
 40
6.0
 40
6.0
 40
7.0
 40
7.0
 40
7.0
 40
7.0
 10
87.42911646034759
 20
-121.9126274651816
 30
0.0
 10
87.42911646034759
 20
-121.9126274651816
 30
0.0
 10
87.42911646034759
 20
-120.8083021073847
 30
0.0
 10
87.42911646034759
 20
-120.8083021073847
 30
0.0
 10
87.42911646034759
 20
-120.8083021073847
 30
0.0
 10
87.076338682658
 20
-120.8083021073847
 30
0.0
 10
87.076338682658
 20
-120.8083021073847
 30
0.0
 10
87.076338682658
 20
-120.8083021073847
 30
0.0
 10
87.076338682658
 20
-120.6603352562933
 30
0.0
 10
87.076338682658
 20
-120.6603352562933
 30
0.0
 10
87.431355772413
 20
-120.6455213457067
 30
0.0
 10
87.48113740217485
 20
-120.4825683292544
 30
0.0
 10
87.51283228063916
 20
-120.3683634139183
 30
0.0
 10
87.51283228063916
 20
-120.3683634139183
 30
0.0
 10
87.66872285134671
 20
-120.3683634139183
 30
0.0
 10
87.66872285134671
 20
-120.3683634139183
 30
0.0
 10
87.66872285134671
 20
-120.3683634139183
 30
0.0
 10
87.66872285134671
 20
-121.9126274651816
 30
0.0
 10
87.66872285134671
 20
-121.9126274651816
 30
0.0
 10
87.66872285134671
 20
-121.9126274651816
 30
0.0
 10
87.42911646034759
 20
-121.9126274651816
 30
0.0
 10
87.42911646034759
 20
-121.9126274651816
 30
0.0
  0
HATCH
  5
59
330
54
100
AcDbEntity
  8
_U+30EC_U+30A4_U+30E4_U+30FC 1
 62
   179
420
  2234388
100
AcDbHatch
 10
0.0
 20
0.0
 30
0.0
210
0.0
220
0.0
230
1.0
  2
SOLID
 70
     1
 71
     0
 91
        1
 92
        1
 93
        1
 72
     4
 94
        3
 73
     0
 74
     1
 95
       26
 96
       22
 40
0.0
 40
0.0
 40
0.0
 40
0.0
 40
1.0
 40
1.0
 40
1.0
 40
2.0
 40
2.0
 40
2.0
 40
3.0
 40
3.0
 40
3.0
 40
4.0
 40
4.0
 40
4.0
 40
5.0
 40
5.0
 40
5.0
 40
6.0
 40
6.0
 40
6.0
 40
7.0
 40
7.0
 40
7.0
 40
7.0
 10
87.42911646034759
 20
-121.9126274651816
 10
87.42911646034759
 20
-121.9126274651816
 10
87.42911646034759
 20
-120.8083021073847
 10
87.42911646034759
 20
-120.8083021073847
 10
87.42911646034759
 20
-120.8083021073847
 10
87.076338682658
 20
-120.8083021073847
 10
87.076338682658
 20
-120.8083021073847
 10
87.076338682658
 20
-120.8083021073847
 10
87.076338682658
 20
-120.6603352562933
 10
87.076338682658
 20
-120.6603352562933
 10
87.431355772413
 20
-120.6455213457067
 10
87.48113740217485
 20
-120.4825683292544
 10
87.51283228063916
 20
-120.3683634139183
 10
87.51283228063916
 20
-120.3683634139183
 10
87.66872285134671
 20
-120.3683634139183
 10
87.66872285134671
 20
-120.3683634139183
 10
87.66872285134671
 20
-120.3683634139183
 10
87.66872285134671
 20
-121.9126274651816
 10
87.66872285134671
 20
-121.9126274651816
 10
87.66872285134671
 20
-121.9126274651816
 10
87.42911646034759
 20
-121.9126274651816
 10
87.42911646034759
 20
-121.9126274651816
 97
        0
 97
        0
 75
     2
 76
     1
 98
        0
  0
SPLINE
  5
5A
330
54
100
AcDbEntity
  8
_U+30EC_U+30A4_U+30E4_U+30FC 1
370
     0
100
AcDbSpline
210
0.0
220
0.0
230
1.0
 70
    11
 71
     3
 72
    29
 73
    25
 74
     0
 42
0.0000000001
 43
0.0000000001
 12
1.0
 22
0.0
 32
0.0
 13
1.0
 23
0.0
 33
0.0
 40
0.0
 40
0.0
 40
0.0
 40
0.0
 40
1.0
 40
1.0
 40
1.0
 40
2.0
 40
2.0
 40
2.0
 40
3.0
 40
3.0
 40
3.0
 40
4.0
 40
4.0
 40
4.0
 40
5.0
 40
5.0
 40
5.0
 40
6.0
 40
6.0
 40
6.0
 40
7.0
 40
7.0
 40
7.0
 40
8.0
 40
8.0
 40
8.0
 40
8.0
 10
88.73859725429105
 20
-121.963442623589
 30
0.0
 10
88.45368785766088
 20
-121.963442623589
 30
0.0
 10
88.18255884297173
 20
-121.8258110589533
 30
0.0
 10
88.18255884297173
 20
-121.4768228862975
 30
0.0
 10
88.18255884297173
 20
-121.2208522917434
 30
0.0
 10
88.33414304432272
 20
-121.1255954015762
 30
0.0
 10
88.44714217623891
 20
-121.0642727019388
 30
0.0
 10
88.31381698095974
 20
-121.0050170595925
 30
0.0
 10
88.23216821795933
 20
-120.8908121442565
 30
0.0
 10
88.23216821795933
 20
-120.7300984398696
 30
0.0
 10
88.23216821795933
 20
-120.4550075653724
 30
0.0
 10
88.44473060939924
 20
-120.319615312802
 30
0.0
 10
88.73859725429105
 20
-120.319615312802
 30
0.0
 10
89.04176565699304
 20
-120.319615312802
 30
0.0
 10
89.24502629062277
 20
-120.4634480493112
 30
0.0
 10
89.24502629062277
 20
-120.7300984398696
 30
0.0
 10
89.24502629062277
 20
-120.8908121442565
 30
0.0
 10
89.16165497987973
 20
-121.0050170595925
 30
0.0
 10
89.02798527505203
 20
-121.0642727019388
 30
0.0
 10
89.12306991044493
 20
-121.1150878603462
 30
0.0
 10
89.29256860831923
 20
-121.2103447505134
 30
0.0
 10
89.29256860831923
 20
-121.4726887717152
 30
0.0
 10
89.29256860831923
 20
-121.8469983961876
 30
0.0
 10
88.99422333929658
 20
-121.963442623589
 30
0.0
 10
88.73859725429105
 20
-121.963442623589
 30
0.0
  0
SPLINE
  5
5B
330
54
100
AcDbEntity
  8
_U+30EC_U+30A4_U+30E4_U+30FC 1
370
     0
100
AcDbSpline
210
0.0
220
0.0
230
1.0
 70
    11
 71
     3
 72
    17
 73
    13
 74
     0
 42
0.0000000001
 43
0.0000000001
 12
1.0
 22
0.0
 32
0.0
 13
1.0
 23
0.0
 33
0.0
 40
0.0
 40
0.0
 40
0.0
 40
0.0
 40
1.0
 40
1.0
 40
1.0
 40
2.0
 40
2.0
 40
2.0
 40
3.0
 40
3.0
 40
3.0
 40
4.0
 40
4.0
 40
4.0
 40
4.0
 10
88.73859725429105
 20
-121.1722764454014
 30
0.0
 10
88.58494599564891
 20
-121.1722764454014
 30
0.0
 10
88.42233748874511
 20
-121.2589205968554
 30
0.0
 10
88.42233748874511
 20
-121.4620089757109
 30
0.0
 10
88.42233748874511
 20
-121.6671644118575
 30
0.0
 10
88.55772974131543
 20
-121.7687947286724
 30
0.0
 10
88.73859725429105
 20
-121.7687947286724
 30
0.0
 10
88.93772377333849
 20
-121.7687947286724
 30
0.0
 10
89.05520152938551
 20
-121.6461493293975
 30
0.0
 10
89.05520152938551
 20
-121.4683824023586
 30
0.0
 10
89.05520152938551
 20
-121.24617374356
 30
0.0
 10
88.8812242073804
 20
-121.1722764454014
 30
0.0
 10
88.73859725429105
 20
-121.1722764454014
 30
0.0
  0
SPLINE
  5
5C
330
54
100
AcDbEntity
  8
_U+30EC_U+30A4_U+30E4_U+30FC 1
370
     0
100
AcDbSpline
210
0.0
220
0.0
230
1.0
 70
    11
 71
     3
 72
    17
 73
    13
 74
     0
 42
0.0000000001
 43
0.0000000001
 12
1.0
 22
0.0
 32
0.0
 13
1.0
 23
0.0
 33
0.0
 40
0.0
 40
0.0
 40
0.0
 40
0.0
 40
1.0
 40
1.0
 40
1.0
 40
2.0
 40
2.0
 40
2.0
 40
3.0
 40
3.0
 40
3.0
 40
4.0
 40
4.0
 40
4.0
 40
4.0
 10
88.73859725429105
 20
-120.5121961504275
 30
0.0
 10
88.56255287499478
 20
-120.5121961504275
 30
0.0
 10
88.47194686373271
 20
-120.6072807858204
 30
0.0
 10
88.47194686373271
 20
-120.7426730383907
 30
0.0
 10
88.47194686373271
 20
-120.8654906924399
 30
0.0
 10
88.54877249305379
 20
-120.9840019771325
 30
0.0
 10
88.73859725429105
 20
-120.9840019771325
 30
0.0
 10
88.92876652507684
 20
-120.9840019771325
 30
0.0
 10
89.00559215439792
 20
-120.8654906924399
 30
0.0
 10
89.00559215439792
 20
-120.7426730383907
 30
0.0
 10
89.00559215439792
 20
-120.6072807858204
 30
0.0
 10
88.91291908584469
 20
-120.5121961504275
 30
0.0
 10
88.73859725429105
 20
-120.5121961504275
 30
0.0
  0
HATCH
  5
5D
330
54
100
AcDbEntity
  8
_U+30EC_U+30A4_U+30E4_U+30FC 1
 62
   179
420
  2234388
100
AcDbHatch
 10
0.0
 20
0.0
 30
0.0
210
0.0
220
0.0
230
1.0
  2
SOLID
 70
     1
 71
     0
 91
        3
 92
        1
 93
        1
 72
     4
 94
        3
 73
     0
 74
     1
 95
       29
 96
       25
 40
0.0
 40
0.0
 40
0.0
 40
0.0
 40
1.0
 40
1.0
 40
1.0
 40
2.0
 40
2.0
 40
2.0
 40
3.0
 40
3.0
 40
3.0
 40
4.0
 40
4.0
 40
4.0
 40
5.0
 40
5.0
 40
5.0
 40
6.0
 40
6.0
 40
6.0
 40
7.0
 40
7.0
 40
7.0
 40
8.0
 40
8.0
 40
8.0
 40
8.0
 10
88.73859725429105
 20
-121.963442623589
 10
88.45368785766088
 20
-121.963442623589
 10
88.18255884297173
 20
-121.8258110589533
 10
88.18255884297173
 20
-121.4768228862975
 10
88.18255884297173
 20
-121.2208522917434
 10
88.33414304432272
 20
-121.1255954015762
 10
88.44714217623891
 20
-121.0642727019388
 10
88.31381698095974
 20
-121.0050170595925
 10
88.23216821795933
 20
-120.8908121442565
 10
88.23216821795933
 20
-120.7300984398696
 10
88.23216821795933
 20
-120.4550075653724
 10
88.44473060939924
 20
-120.319615312802
 10
88.73859725429105
 20
-120.319615312802
 10
89.04176565699304
 20
-120.319615312802
 10
89.24502629062277
 20
-120.4634480493112
 10
89.24502629062277
 20
-120.7300984398696
 10
89.24502629062277
 20
-120.8908121442565
 10
89.16165497987973
 20
-121.0050170595925
 10
89.02798527505203
 20
-121.0642727019388
 10
89.12306991044493
 20
-121.1150878603462
 10
89.29256860831923
 20
-121.2103447505134
 10
89.29256860831923
 20
-121.4726887717152
 10
89.29256860831923
 20
-121.8469983961876
 10
88.99422333929658
 20
-121.963442623589
 10
88.73859725429105
 20
-121.963442623589
 97
        0
 97
        0
 92
        1
 93
        1
 72
     4
 94
        3
 73
     0
 74
     1
 95
       17
 96
       13
 40
0.0
 40
0.0
 40
0.0
 40
0.0
 40
1.0
 40
1.0
 40
1.0
 40
2.0
 40
2.0
 40
2.0
 40
3.0
 40
3.0
 40
3.0
 40
4.0
 40
4.0
 40
4.0
 40
4.0
 10
88.73859725429105
 20
-121.1722764454014
 10
88.58494599564891
 20
-121.1722764454014
 10
88.42233748874511
 20
-121.2589205968554
 10
88.42233748874511
 20
-121.4620089757109
 10
88.42233748874511
 20
-121.6671644118575
 10
88.55772974131543
 20
-121.7687947286724
 10
88.73859725429105
 20
-121.7687947286724
 10
88.93772377333849
 20
-121.7687947286724
 10
89.05520152938551
 20
-121.6461493293975
 10
89.05520152938551
 20
-121.4683824023586
 10
89.05520152938551
 20
-121.24617374356
 10
88.8812242073804
 20
-121.1722764454014
 10
88.73859725429105
 20
-121.1722764454014
 97
        0
 97
        0
 92
        1
 93
        1
 72
     4
 94
        3
 73
     0
 74
     1
 95
       17
 96
       13
 40
0.0
 40
0.0
 40
0.0
 40
0.0
 40
1.0
 40
1.0
 40
1.0
 40
2.0
 40
2.0
 40
2.0
 40
3.0
 40
3.0
 40
3.0
 40
4.0
 40
4.0
 40
4.0
 40
4.0
 10
88.73859725429105
 20
-120.5121961504275
 10
88.56255287499478
 20
-120.5121961504275
 10
88.47194686373271
 20
-120.6072807858204
 10
88.47194686373271
 20
-120.7426730383907
 10
88.47194686373271
 20
-120.8654906924399
 10
88.54877249305379
 20
-120.9840019771325
 10
88.73859725429105
 20
-120.9840019771325
 10
88.92876652507684
 20
-120.9840019771325
 10
89.00559215439792
 20
-120.8654906924399
 10
89.00559215439792
 20
-120.7426730383907
 10
89.00559215439792
 20
-120.6072807858204
 10
88.91291908584469
 20
-120.5121961504275
 10
88.73859725429105
 20
-120.5121961504275
 97
        0
 97
        0
 75
     2
 76
     1
 98
        0
  0
ENDBLK
  5
57
330
54
100
AcDbEntity
  8
0
100
AcDbBlockEnd
  0
BLOCK
  5
60
330
5E
100
AcDbEntity
  8
0
100
AcDbBlockBegin
  2
block 3
 70
     0
 10
0.0
 20
0.0
 30
0.0
  3
block 3
  1

  0
SPLINE
  5
62
330
5E
100
AcDbEntity
  8
_U+30EC_U+30A4_U+30E4_U+30FC 1
370
     0
100
AcDbSpline
210
0.0
220
0.0
230
1.0
 70
    11
 71
     3
 72
    26
 73
    22
 74
     0
 42
0.0000000001
 43
0.0000000001
 12
1.0
 22
0.0
 32
0.0
 13
1.0
 23
0.0
 33
0.0
 40
0.0
 40
0.0
 40
0.0
 40
0.0
 40
1.0
 40
1.0
 40
1.0
 40
2.0
 40
2.0
 40
2.0
 40
3.0
 40
3.0
 40
3.0
 40
4.0
 40
4.0
 40
4.0
 40
5.0
 40
5.0
 40
5.0
 40
6.0
 40
6.0
 40
6.0
 40
7.0
 40
7.0
 40
7.0
 40
7.0
 10
84.92918292147604
 20
-136.4126898530496
 30
0.0
 10
84.92918292147604
 20
-136.4126898530496
 30
0.0
 10
84.92918292147604
 20
-135.308536750027
 30
0.0
 10
84.92918292147604
 20
-135.308536750027
 30
0.0
 10
84.92918292147604
 20
-135.308536750027
 30
0.0
 10
84.57640514378646
 20
-135.308536750027
 30
0.0
 10
84.57640514378646
 20
-135.308536750027
 30
0.0
 10
84.57640514378646
 20
-135.308536750027
 30
0.0
 10
84.57640514378646
 20
-135.1603976441613
 30
0.0
 10
84.57640514378646
 20
-135.1603976441613
 30
0.0
 10
84.93142223354145
 20
-135.1455837335747
 30
0.0
 10
84.98120386330332
 20
-134.9826307171224
 30
0.0
 10
85.01272648699334
 20
-134.8682535470121
 30
0.0
 10
85.01272648699334
 20
-134.8682535470121
 30
0.0
 10
85.16878931247517
 20
-134.8682535470121
 30
0.0
 10
85.16878931247517
 20
-134.8682535470121
 30
0.0
 10
85.16878931247517
 20
-134.8682535470121
 30
0.0
 10
85.16878931247517
 20
-136.4126898530496
 30
0.0
 10
85.16878931247517
 20
-136.4126898530496
 30
0.0
 10
85.16878931247517
 20
-136.4126898530496
 30
0.0
 10
84.92918292147604
 20
-136.4126898530496
 30
0.0
 10
84.92918292147604
 20
-136.4126898530496
 30
0.0
  0
HATCH
  5
63
330
5E
100
AcDbEntity
  8
_U+30EC_U+30A4_U+30E4_U+30FC 1
 62
   179
420
  2234388
100
AcDbHatch
 10
0.0
 20
0.0
 30
0.0
210
0.0
220
0.0
230
1.0
  2
SOLID
 70
     1
 71
     0
 91
        1
 92
        1
 93
        1
 72
     4
 94
        3
 73
     0
 74
     1
 95
       26
 96
       22
 40
0.0
 40
0.0
 40
0.0
 40
0.0
 40
1.0
 40
1.0
 40
1.0
 40
2.0
 40
2.0
 40
2.0
 40
3.0
 40
3.0
 40
3.0
 40
4.0
 40
4.0
 40
4.0
 40
5.0
 40
5.0
 40
5.0
 40
6.0
 40
6.0
 40
6.0
 40
7.0
 40
7.0
 40
7.0
 40
7.0
 10
84.92918292147604
 20
-136.4126898530496
 10
84.92918292147604
 20
-136.4126898530496
 10
84.92918292147604
 20
-135.308536750027
 10
84.92918292147604
 20
-135.308536750027
 10
84.92918292147604
 20
-135.308536750027
 10
84.57640514378646
 20
-135.308536750027
 10
84.57640514378646
 20
-135.308536750027
 10
84.57640514378646
 20
-135.308536750027
 10
84.57640514378646
 20
-135.1603976441613
 10
84.57640514378646
 20
-135.1603976441613
 10
84.93142223354145
 20
-135.1455837335747
 10
84.98120386330332
 20
-134.9826307171224
 10
85.01272648699334
 20
-134.8682535470121
 10
85.01272648699334
 20
-134.8682535470121
 10
85.16878931247517
 20
-134.8682535470121
 10
85.16878931247517
 20
-134.8682535470121
 10
85.16878931247517
 20
-134.8682535470121
 10
85.16878931247517
 20
-136.4126898530496
 10
85.16878931247517
 20
-136.4126898530496
 10
85.16878931247517
 20
-136.4126898530496
 10
84.92918292147604
 20
-136.4126898530496
 10
84.92918292147604
 20
-136.4126898530496
 97
        0
 97
        0
 75
     2
 76
     1
 98
        0
  0
SPLINE
  5
64
330
5E
100
AcDbEntity
  8
_U+30EC_U+30A4_U+30E4_U+30FC 1
370
     0
100
AcDbSpline
210
0.0
220
0.0
230
1.0
 70
    11
 71
     3
 72
    62
 73
    58
 74
     0
 42
0.0000000001
 43
0.0000000001
 12
1.0
 22
0.0
 32
0.0
 13
1.0
 23
0.0
 33
0.0
 40
0.0
 40
0.0
 40
0.0
 40
0.0
 40
1.0
 40
1.0
 40
1.0
 40
2.0
 40
2.0
 40
2.0
 40
3.0
 40
3.0
 40
3.0
 40
4.0
 40
4.0
 40
4.0
 40
5.0
 40
5.0
 40
5.0
 40
6.0
 40
6.0
 40
6.0
 40
7.0
 40
7.0
 40
7.0
 40
8.0
 40
8.0
 40
8.0
 40
9.0
 40
9.0
 40
9.0
 40
10.0
 40
10.0
 40
10.0
 40
11.0
 40
11.0
 40
11.0
 40
12.0
 40
12.0
 40
12.0
 40
13.0
 40
13.0
 40
13.0
 40
14.0
 40
14.0
 40
14.0
 40
15.0
 40
15.0
 40
15.0
 40
16.0
 40
16.0
 40
16.0
 40
17.0
 40
17.0
 40
17.0
 40
18.0
 40
18.0
 40
18.0
 40
19.0
 40
19.0
 40
19.0
 40
19.0
 10
86.22987872193212
 20
-136.4633327566828
 30
0.0
 10
86.12824840511725
 20
-136.4633327566828
 30
0.0
 10
85.89535995031436
 20
-136.4423176742227
 30
0.0
 10
85.76186250026093
 20
-136.2562825180193
 30
0.0
 10
85.68279755887444
 20
-136.1439724052001
 30
0.0
 10
85.67831893474361
 20
-136.0447536552249
 30
0.0
 10
85.67384031061279
 20
-135.9600043062878
 30
0.0
 10
85.67384031061279
 20
-135.9600043062878
 30
0.0
 10
85.90879582270684
 20
-135.9600043062878
 30
0.0
 10
85.90879582270684
 20
-135.9600043062878
 30
0.0
 10
85.9112073895465
 20
-136.0340738592207
 30
0.0
 10
85.92240394987357
 20
-136.2686848617662
 30
0.0
 10
86.2254000978013
 20
-136.2686848617662
 30
0.0
 10
86.3723334202472
 20
-136.2686848617662
 30
0.0
 10
86.53511418192525
 20
-136.1990939329641
 30
0.0
 10
86.53511418192525
 20
-135.9706841022921
 30
0.0
 10
86.53511418192525
 20
-135.8542398748906
 30
0.0
 10
86.4944620551993
 20
-135.8056640285486
 30
0.0
 10
86.4605278646696
 20
-135.7739691500843
 30
0.0
 10
86.38146292328311
 20
-135.6998995971514
 30
0.0
 10
86.25709497626559
 20
-135.687152743856
 30
0.0
 10
86.19818384346782
 20
-135.687152743856
 30
0.0
 10
86.17785778010484
 20
-135.687152743856
 30
0.0
 10
86.13944496544431
 20
-135.6892198011471
 30
0.0
 10
86.11016165381969
 20
-135.6933539157294
 30
0.0
 10
86.11016165381969
 20
-135.6933539157294
 30
0.0
 10
86.11016165381969
 20
-135.4987060208128
 30
0.0
 10
86.11016165381969
 20
-135.4987060208128
 30
0.0
 10
86.15081378054563
 20
-135.5052517022348
 30
0.0
 10
86.1959445314024
 20
-135.507318759526
 30
0.0
 10
86.20283472237291
 20
-135.507318759526
 30
0.0
 10
86.27294241549774
 20
-135.507318759526
 30
0.0
 10
86.4853325521634
 20
-135.4859591675174
 30
0.0
 10
86.4853325521634
 20
-135.2492811076807
 30
0.0
 10
86.4853325521634
 20
-135.0715141806419
 30
0.0
 10
86.34528942068799
 20
-135.0163926528778
 30
0.0
 10
86.22763940986671
 20
-135.0163926528778
 30
0.0
 10
85.94496932530195
 20
-135.0163926528778
 30
0.0
 10
85.9360120770403
 20
-135.2492811076807
 30
0.0
 10
85.93153345290948
 20
-135.3209390937739
 30
0.0
 10
85.93153345290948
 20
-135.3209390937739
 30
0.0
 10
85.71449243733875
 20
-135.3209390937739
 30
0.0
 10
85.71449243733875
 20
-135.3209390937739
 30
0.0
 10
85.72344968560039
 20
-135.1962266372079
 30
0.0
 10
85.75290525199928
 20
-134.8196777006701
 30
0.0
 10
86.24124753703344
 20
-134.8196777006701
 30
0.0
 10
86.48085392803257
 20
-134.8196777006701
 30
0.0
 10
86.73854707032926
 20
-134.9468017240758
 30
0.0
 10
86.73854707032926
 20
-135.2427354262588
 30
0.0
 10
86.73854707032926
 20
-135.4291150920108
 30
0.0
 10
86.63691675351438
 20
-135.5114528741082
 30
0.0
 10
86.53063555779443
 20
-135.5727755737457
 30
0.0
 10
86.59609237201417
 20
-135.6003363376277
 30
0.0
 10
86.79056801215653
 20
-135.680607062434
 30
0.0
 10
86.79056801215653
 20
-135.9579372489966
 30
0.0
 10
86.79056801215653
 20
-136.2962456256482
 30
0.0
 10
86.5261569336636
 20
-136.4633327566828
 30
0.0
 10
86.22987872193212
 20
-136.4633327566828
 30
0.0
  0
HATCH
  5
65
330
5E
100
AcDbEntity
  8
_U+30EC_U+30A4_U+30E4_U+30FC 1
 62
   179
420
  2234388
100
AcDbHatch
 10
0.0
 20
0.0
 30
0.0
210
0.0
220
0.0
230
1.0
  2
SOLID
 70
     1
 71
     0
 91
        1
 92
        1
 93
        1
 72
     4
 94
        3
 73
     0
 74
     1
 95
       62
 96
       58
 40
0.0
 40
0.0
 40
0.0
 40
0.0
 40
1.0
 40
1.0
 40
1.0
 40
2.0
 40
2.0
 40
2.0
 40
3.0
 40
3.0
 40
3.0
 40
4.0
 40
4.0
 40
4.0
 40
5.0
 40
5.0
 40
5.0
 40
6.0
 40
6.0
 40
6.0
 40
7.0
 40
7.0
 40
7.0
 40
8.0
 40
8.0
 40
8.0
 40
9.0
 40
9.0
 40
9.0
 40
10.0
 40
10.0
 40
10.0
 40
11.0
 40
11.0
 40
11.0
 40
12.0
 40
12.0
 40
12.0
 40
13.0
 40
13.0
 40
13.0
 40
14.0
 40
14.0
 40
14.0
 40
15.0
 40
15.0
 40
15.0
 40
16.0
 40
16.0
 40
16.0
 40
17.0
 40
17.0
 40
17.0
 40
18.0
 40
18.0
 40
18.0
 40
19.0
 40
19.0
 40
19.0
 40
19.0
 10
86.22987872193212
 20
-136.4633327566828
 10
86.12824840511725
 20
-136.4633327566828
 10
85.89535995031436
 20
-136.4423176742227
 10
85.76186250026093
 20
-136.2562825180193
 10
85.68279755887444
 20
-136.1439724052001
 10
85.67831893474361
 20
-136.0447536552249
 10
85.67384031061279
 20
-135.9600043062878
 10
85.67384031061279
 20
-135.9600043062878
 10
85.90879582270684
 20
-135.9600043062878
 10
85.90879582270684
 20
-135.9600043062878
 10
85.9112073895465
 20
-136.0340738592207
 10
85.92240394987357
 20
-136.2686848617662
 10
86.2254000978013
 20
-136.2686848617662
 10
86.3723334202472
 20
-136.2686848617662
 10
86.53511418192525
 20
-136.1990939329641
 10
86.53511418192525
 20
-135.9706841022921
 10
86.53511418192525
 20
-135.8542398748906
 10
86.4944620551993
 20
-135.8056640285486
 10
86.4605278646696
 20
-135.7739691500843
 10
86.38146292328311
 20
-135.6998995971514
 10
86.25709497626559
 20
-135.687152743856
 10
86.19818384346782
 20
-135.687152743856
 10
86.17785778010484
 20
-135.687152743856
 10
86.13944496544431
 20
-135.6892198011471
 10
86.11016165381969
 20
-135.6933539157294
 10
86.11016165381969
 20
-135.6933539157294
 10
86.11016165381969
 20
-135.4987060208128
 10
86.11016165381969
 20
-135.4987060208128
 10
86.15081378054563
 20
-135.5052517022348
 10
86.1959445314024
 20
-135.507318759526
 10
86.20283472237291
 20
-135.507318759526
 10
86.27294241549774
 20
-135.507318759526
 10
86.4853325521634
 20
-135.4859591675174
 10
86.4853325521634
 20
-135.2492811076807
 10
86.4853325521634
 20
-135.0715141806419
 10
86.34528942068799
 20
-135.0163926528778
 10
86.22763940986671
 20
-135.0163926528778
 10
85.94496932530195
 20
-135.0163926528778
 10
85.9360120770403
 20
-135.2492811076807
 10
85.93153345290948
 20
-135.3209390937739
 10
85.93153345290948
 20
-135.3209390937739
 10
85.71449243733875
 20
-135.3209390937739
 10
85.71449243733875
 20
-135.3209390937739
 10
85.72344968560039
 20
-135.1962266372079
 10
85.75290525199928
 20
-134.8196777006701
 10
86.24124753703344
 20
-134.8196777006701
 10
86.48085392803257
 20
-134.8196777006701
 10
86.73854707032926
 20
-134.9468017240758
 10
86.73854707032926
 20
-135.2427354262588
 10
86.73854707032926
 20
-135.4291150920108
 10
86.63691675351438
 20
-135.5114528741082
 10
86.53063555779443
 20
-135.5727755737457
 10
86.59609237201417
 20
-135.6003363376277
 10
86.79056801215653
 20
-135.680607062434
 10
86.79056801215653
 20
-135.9579372489966
 10
86.79056801215653
 20
-136.2962456256482
 10
86.5261569336636
 20
-136.4633327566828
 10
86.22987872193212
 20
-136.4633327566828
 97
        0
 97
        0
 75
     2
 76
     1
 98
        0
  0
ENDBLK
  5
61
330
5E
100
AcDbEntity
  8
0
100
AcDbBlockEnd
  0
BLOCK
  5
68
330
66
100
AcDbEntity
  8
0
100
AcDbBlockBegin
  2
block 4
 70
     0
 10
0.0
 20
0.0
 30
0.0
  3
block 4
  1

  0
SPLINE
  5
6A
330
66
100
AcDbEntity
  8
_U+30EC_U+30A4_U+30E4_U+30FC 1
370
     0
100
AcDbSpline
210
0.0
220
0.0
230
1.0
 70
    11
 71
     3
 72
    53
 73
    49
 74
     0
 42
0.0000000001
 43
0.0000000001
 12
1.0
 22
0.0
 32
0.0
 13
1.0
 23
0.0
 33
0.0
 40
0.0
 40
0.0
 40
0.0
 40
0.0
 40
1.0
 40
1.0
 40
1.0
 40
2.0
 40
2.0
 40
2.0
 40
3.0
 40
3.0
 40
3.0
 40
4.0
 40
4.0
 40
4.0
 40
5.0
 40
5.0
 40
5.0
 40
6.0
 40
6.0
 40
6.0
 40
7.0
 40
7.0
 40
7.0
 40
8.0
 40
8.0
 40
8.0
 40
9.0
 40
9.0
 40
9.0
 40
10.0
 40
10.0
 40
10.0
 40
11.0
 40
11.0
 40
11.0
 40
12.0
 40
12.0
 40
12.0
 40
13.0
 40
13.0
 40
13.0
 40
14.0
 40
14.0
 40
14.0
 40
15.0
 40
15.0
 40
15.0
 40
16.0
 40
16.0
 40
16.0
 40
16.0
 10
100.5151394062948
 20
-130.2514810872288
 30
0.0
 10
100.5151394062948
 20
-130.3348523979718
 30
0.0
 10
100.4982584384171
 20
-130.4437174153057
 30
0.0
 10
100.4348686814885
 20
-130.5518934135426
 30
0.0
 10
100.324970135509
 20
-130.7375840601975
 30
0.0
 10
100.193711997521
 20
-130.7599771808517
 30
0.0
 10
100.0858805088327
 20
-130.7803032442147
 30
0.0
 10
100.0858805088327
 20
-130.7803032442147
 30
0.0
 10
100.0858805088327
 20
-130.5429361652809
 30
0.0
 10
100.0858805088327
 20
-130.5429361652809
 30
0.0
 10
100.2846625183316
 20
-130.4843695420317
 30
0.0
 10
100.3142903395048
 20
-130.3486327799129
 30
0.0
 10
100.3142903395048
 20
-130.2490695203891
 30
0.0
 10
100.3142903395048
 20
-130.0998968858778
 30
0.0
 10
100.214727079981
 20
-129.937288378974
 30
0.0
 10
99.98218313472668
 20
-129.937288378974
 30
0.0
 10
99.72621254017263
 20
-129.937288378974
 30
0.0
 10
99.65627710182204
 20
-130.1291801975024
 30
0.0
 10
99.65627710182204
 20
-130.2580267686508
 30
0.0
 10
99.65627710182204
 20
-130.2921332139547
 30
0.0
 10
99.65627710182204
 20
-130.4437174153057
 30
0.0
 10
99.78546818251891
 20
-130.5384575411501
 30
0.0
 10
99.78546818251891
 20
-130.5384575411501
 30
0.0
 10
99.76652015735004
 20
-130.7262152450962
 30
0.0
 10
99.76652015735004
 20
-130.7262152450962
 30
0.0
 10
99.76652015735004
 20
-130.7262152450962
 30
0.0
 10
98.92006019662415
 20
-130.5973686739479
 30
0.0
 10
98.92006019662415
 20
-130.5973686739479
 30
0.0
 10
98.92006019662415
 20
-130.5973686739479
 30
0.0
 10
98.92006019662415
 20
-129.76537811426
 30
0.0
 10
98.92006019662415
 20
-129.76537811426
 30
0.0
 10
98.92006019662415
 20
-129.76537811426
 30
0.0
 10
99.11470809154078
 20
-129.76537811426
 30
0.0
 10
99.11470809154078
 20
-129.76537811426
 30
0.0
 10
99.11470809154078
 20
-129.76537811426
 30
0.0
 10
99.11470809154078
 20
-130.4230468423943
 30
0.0
 10
99.11470809154078
 20
-130.4230468423943
 30
0.0
 10
99.11470809154078
 20
-130.4230468423943
 30
0.0
 10
99.53776581712945
 20
-130.4933267902933
 30
0.0
 10
99.53776581712945
 20
-130.4933267902933
 30
0.0
 10
99.504003881374
 20
-130.4278699760736
 30
0.0
 10
99.46369626419659
 20
-130.3396755316512
 30
0.0
 10
99.46369626419659
 20
-130.212896017794
 30
0.0
 10
99.46369626419659
 20
-129.9417670031048
 30
0.0
 10
99.6500759299486
 20
-129.688552484939
 30
0.0
 10
99.9632351095578
 20
-129.688552484939
 30
0.0
 10
100.2805284037493
 20
-129.688552484939
 30
0.0
 10
100.5151394062948
 20
-129.9279866211639
 30
0.0
 10
100.5151394062948
 20
-130.2514810872288
 30
0.0
  0
HATCH
  5
6B
330
66
100
AcDbEntity
  8
_U+30EC_U+30A4_U+30E4_U+30FC 1
 62
   179
420
  2234388
100
AcDbHatch
 10
0.0
 20
0.0
 30
0.0
210
0.0
220
0.0
230
1.0
  2
SOLID
 70
     1
 71
     0
 91
        1
 92
        1
 93
        1
 72
     4
 94
        3
 73
     0
 74
     1
 95
       53
 96
       49
 40
0.0
 40
0.0
 40
0.0
 40
0.0
 40
1.0
 40
1.0
 40
1.0
 40
2.0
 40
2.0
 40
2.0
 40
3.0
 40
3.0
 40
3.0
 40
4.0
 40
4.0
 40
4.0
 40
5.0
 40
5.0
 40
5.0
 40
6.0
 40
6.0
 40
6.0
 40
7.0
 40
7.0
 40
7.0
 40
8.0
 40
8.0
 40
8.0
 40
9.0
 40
9.0
 40
9.0
 40
10.0
 40
10.0
 40
10.0
 40
11.0
 40
11.0
 40
11.0
 40
12.0
 40
12.0
 40
12.0
 40
13.0
 40
13.0
 40
13.0
 40
14.0
 40
14.0
 40
14.0
 40
15.0
 40
15.0
 40
15.0
 40
16.0
 40
16.0
 40
16.0
 40
16.0
 10
100.5151394062948
 20
-130.2514810872288
 10
100.5151394062948
 20
-130.3348523979718
 10
100.4982584384171
 20
-130.4437174153057
 10
100.4348686814885
 20
-130.5518934135426
 10
100.324970135509
 20
-130.7375840601975
 10
100.193711997521
 20
-130.7599771808517
 10
100.0858805088327
 20
-130.7803032442147
 10
100.0858805088327
 20
-130.7803032442147
 10
100.0858805088327
 20
-130.5429361652809
 10
100.0858805088327
 20
-130.5429361652809
 10
100.2846625183316
 20
-130.4843695420317
 10
100.3142903395048
 20
-130.3486327799129
 10
100.3142903395048
 20
-130.2490695203891
 10
100.3142903395048
 20
-130.0998968858778
 10
100.214727079981
 20
-129.937288378974
 10
99.98218313472668
 20
-129.937288378974
 10
99.72621254017263
 20
-129.937288378974
 10
99.65627710182204
 20
-130.1291801975024
 10
99.65627710182204
 20
-130.2580267686508
 10
99.65627710182204
 20
-130.2921332139547
 10
99.65627710182204
 20
-130.4437174153057
 10
99.78546818251891
 20
-130.5384575411501
 10
99.78546818251891
 20
-130.5384575411501
 10
99.76652015735004
 20
-130.7262152450962
 10
99.76652015735004
 20
-130.7262152450962
 10
99.76652015735004
 20
-130.7262152450962
 10
98.92006019662415
 20
-130.5973686739479
 10
98.92006019662415
 20
-130.5973686739479
 10
98.92006019662415
 20
-130.5973686739479
 10
98.92006019662415
 20
-129.76537811426
 10
98.92006019662415
 20
-129.76537811426
 10
98.92006019662415
 20
-129.76537811426
 10
99.11470809154078
 20
-129.76537811426
 10
99.11470809154078
 20
-129.76537811426
 10
99.11470809154078
 20
-129.76537811426
 10
99.11470809154078
 20
-130.4230468423943
 10
99.11470809154078
 20
-130.4230468423943
 10
99.11470809154078
 20
-130.4230468423943
 10
99.53776581712945
 20
-130.4933267902933
 10
99.53776581712945
 20
-130.4933267902933
 10
99.504003881374
 20
-130.4278699760736
 10
99.46369626419659
 20
-130.3396755316512
 10
99.46369626419659
 20
-130.212896017794
 10
99.46369626419659
 20
-129.9417670031048
 10
99.6500759299486
 20
-129.688552484939
 10
99.9632351095578
 20
-129.688552484939
 10
100.2805284037493
 20
-129.688552484939
 10
100.5151394062948
 20
-129.9279866211639
 10
100.5151394062948
 20
-130.2514810872288
 97
        0
 97
        0
 75
     2
 76
     1
 98
        0
  0
POLYLINE
  5
6C
330
66
100
AcDbEntity
  8
_U+30EC_U+30A4_U+30E4_U+30FC 1
370
     0
100
AcDb2dPolyline
 66
     1
 10
0.0
 20
0.0
 30
0.0
  0
VERTEX
  5
6D
330
6C
100
AcDbEntity
  8
_U+30EC_U+30A4_U+30E4_U+30FC 1
370
     0
100
AcDbVertex
100
AcDb2dVertex
 10
100.4644965026617
 20
-129.4436061959377
 30
0.0
  0
VERTEX
  5
6E
330
6C
100
AcDbEntity
  8
_U+30EC_U+30A4_U+30E4_U+30FC 1
370
     0
100
AcDbVertex
100
AcDb2dVertex
 10
100.2126600226899
 20
-129.4436061959377
 30
0.0
  0
VERTEX
  5
6F
330
6C
100
AcDbEntity
  8
_U+30EC_U+30A4_U+30E4_U+30FC 1
370
     0
100
AcDbVertex
100
AcDb2dVertex
 10
100.2126600226899
 20
-129.1745442385397
 30
0.0
  0
VERTEX
  5
70
330
6C
100
AcDbEntity
  8
_U+30EC_U+30A4_U+30E4_U+30FC 1
370
     0
100
AcDbVertex
100
AcDb2dVertex
 10
100.4644965026617
 20
-129.1745442385397
 30
0.0
  0
VERTEX
  5
71
330
6C
100
AcDbEntity
  8
_U+30EC_U+30A4_U+30E4_U+30FC 1
370
     0
100
AcDbVertex
100
AcDb2dVertex
 10
100.4644965026617
 20
-129.4436061959377
 30
0.0
  0
SEQEND
  5
72
330
6C
100
AcDbEntity
  8
_U+30EC_U+30A4_U+30E4_U+30FC 1
370
     0
  0
HATCH
  5
73
330
66
100
AcDbEntity
  8
_U+30EC_U+30A4_U+30E4_U+30FC 1
 62
   179
420
  2234388
100
AcDbHatch
 10
0.0
 20
0.0
 30
0.0
210
0.0
220
0.0
230
1.0
  2
SOLID
 70
     1
 71
     0
 91
        1
 92
        1
 93
        4
 72
     1
 10
100.4644965026617
 20
-129.4436061959377
 11
100.2126600226899
 21
-129.4436061959377
 72
     1
 10
100.2126600226899
 20
-129.4436061959377
 11
100.2126600226899
 21
-129.1745442385397
 72
     1
 10
100.2126600226899
 20
-129.1745442385397
 11
100.4644965026617
 21
-129.1745442385397
 72
     1
 10
100.4644965026617
 20
-129.1745442385397
 11
100.4644965026617
 21
-129.4436061959377
 97
        0
 75
     2
 76
     1
 98
        0
  0
SPLINE
  5
74
330
66
100
AcDbEntity
  8
_U+30EC_U+30A4_U+30E4_U+30FC 1
370
     0
100
AcDbSpline
210
0.0
220
0.0
230
1.0
 70
    11
 71
     3
 72
    53
 73
    49
 74
     0
 42
0.0000000001
 43
0.0000000001
 12
1.0
 22
0.0
 32
0.0
 13
1.0
 23
0.0
 33
0.0
 40
0.0
 40
0.0
 40
0.0
 40
0.0
 40
1.0
 40
1.0
 40
1.0
 40
2.0
 40
2.0
 40
2.0
 40
3.0
 40
3.0
 40
3.0
 40
4.0
 40
4.0
 40
4.0
 40
5.0
 40
5.0
 40
5.0
 40
6.0
 40
6.0
 40
6.0
 40
7.0
 40
7.0
 40
7.0
 40
8.0
 40
8.0
 40
8.0
 40
9.0
 40
9.0
 40
9.0
 40
10.0
 40
10.0
 40
10.0
 40
11.0
 40
11.0
 40
11.0
 40
12.0
 40
12.0
 40
12.0
 40
13.0
 40
13.0
 40
13.0
 40
14.0
 40
14.0
 40
14.0
 40
15.0
 40
15.0
 40
15.0
 40
16.0
 40
16.0
 40
16.0
 40
16.0
 10
100.5151394062948
 20
-128.4076659835231
 30
0.0
 10
100.5151394062948
 20
-128.4910372942661
 30
0.0
 10
100.4982584384171
 20
-128.5999023116
 30
0.0
 10
100.4348686814885
 20
-128.7080783098369
 30
0.0
 10
100.324970135509
 20
-128.8937689564918
 30
0.0
 10
100.193711997521
 20
-128.916162077146
 30
0.0
 10
100.0858805088327
 20
-128.9364881405089
 30
0.0
 10
100.0858805088327
 20
-128.9364881405089
 30
0.0
 10
100.0858805088327
 20
-128.6991210615752
 30
0.0
 10
100.0858805088327
 20
-128.6991210615752
 30
0.0
 10
100.2846625183316
 20
-128.640554438326
 30
0.0
 10
100.3142903395048
 20
-128.5048176762071
 30
0.0
 10
100.3142903395048
 20
-128.4052544166834
 30
0.0
 10
100.3142903395048
 20
-128.2560817821721
 30
0.0
 10
100.214727079981
 20
-128.0934732752683
 30
0.0
 10
99.98218313472668
 20
-128.0934732752683
 30
0.0
 10
99.72621254017263
 20
-128.0934732752683
 30
0.0
 10
99.65627710182204
 20
-128.2853650937967
 30
0.0
 10
99.65627710182204
 20
-128.4142116649451
 30
0.0
 10
99.65627710182204
 20
-128.448318110249
 30
0.0
 10
99.65627710182204
 20
-128.5999023116
 30
0.0
 10
99.78546818251891
 20
-128.6946424374444
 30
0.0
 10
99.78546818251891
 20
-128.6946424374444
 30
0.0
 10
99.76652015735004
 20
-128.8824001413905
 30
0.0
 10
99.76652015735004
 20
-128.8824001413905
 30
0.0
 10
99.76652015735004
 20
-128.8824001413905
 30
0.0
 10
98.92006019662415
 20
-128.7535535702422
 30
0.0
 10
98.92006019662415
 20
-128.7535535702422
 30
0.0
 10
98.92006019662415
 20
-128.7535535702422
 30
0.0
 10
98.92006019662415
 20
-127.9215630105543
 30
0.0
 10
98.92006019662415
 20
-127.9215630105543
 30
0.0
 10
98.92006019662415
 20
-127.9215630105543
 30
0.0
 10
99.11470809154078
 20
-127.9215630105543
 30
0.0
 10
99.11470809154078
 20
-127.9215630105543
 30
0.0
 10
99.11470809154078
 20
-127.9215630105543
 30
0.0
 10
99.11470809154078
 20
-128.5792317386885
 30
0.0
 10
99.11470809154078
 20
-128.5792317386885
 30
0.0
 10
99.11470809154078
 20
-128.5792317386885
 30
0.0
 10
99.53776581712945
 20
-128.6495116865876
 30
0.0
 10
99.53776581712945
 20
-128.6495116865876
 30
0.0
 10
99.504003881374
 20
-128.5840548723679
 30
0.0
 10
99.46369626419659
 20
-128.4958604279455
 30
0.0
 10
99.46369626419659
 20
-128.3690809140883
 30
0.0
 10
99.46369626419659
 20
-128.0979518993991
 30
0.0
 10
99.6500759299486
 20
-127.8447373812333
 30
0.0
 10
99.9632351095578
 20
-127.8447373812333
 30
0.0
 10
100.2805284037493
 20
-127.8447373812333
 30
0.0
 10
100.5151394062948
 20
-128.0841715174581
 30
0.0
 10
100.5151394062948
 20
-128.4076659835231
 30
0.0
  0
HATCH
  5
75
330
66
100
AcDbEntity
  8
_U+30EC_U+30A4_U+30E4_U+30FC 1
 62
   179
420
  2234388
100
AcDbHatch
 10
0.0
 20
0.0
 30
0.0
210
0.0
220
0.0
230
1.0
  2
SOLID
 70
     1
 71
     0
 91
        1
 92
        1
 93
        1
 72
     4
 94
        3
 73
     0
 74
     1
 95
       53
 96
       49
 40
0.0
 40
0.0
 40
0.0
 40
0.0
 40
1.0
 40
1.0
 40
1.0
 40
2.0
 40
2.0
 40
2.0
 40
3.0
 40
3.0
 40
3.0
 40
4.0
 40
4.0
 40
4.0
 40
5.0
 40
5.0
 40
5.0
 40
6.0
 40
6.0
 40
6.0
 40
7.0
 40
7.0
 40
7.0
 40
8.0
 40
8.0
 40
8.0
 40
9.0
 40
9.0
 40
9.0
 40
10.0
 40
10.0
 40
10.0
 40
11.0
 40
11.0
 40
11.0
 40
12.0
 40
12.0
 40
12.0
 40
13.0
 40
13.0
 40
13.0
 40
14.0
 40
14.0
 40
14.0
 40
15.0
 40
15.0
 40
15.0
 40
16.0
 40
16.0
 40
16.0
 40
16.0
 10
100.5151394062948
 20
-128.4076659835231
 10
100.5151394062948
 20
-128.4910372942661
 10
100.4982584384171
 20
-128.5999023116
 10
100.4348686814885
 20
-128.7080783098369
 10
100.324970135509
 20
-128.8937689564918
 10
100.193711997521
 20
-128.916162077146
 10
100.0858805088327
 20
-128.9364881405089
 10
100.0858805088327
 20
-128.9364881405089
 10
100.0858805088327
 20
-128.6991210615752
 10
100.0858805088327
 20
-128.6991210615752
 10
100.2846625183316
 20
-128.640554438326
 10
100.3142903395048
 20
-128.5048176762071
 10
100.3142903395048
 20
-128.4052544166834
 10
100.3142903395048
 20
-128.2560817821721
 10
100.214727079981
 20
-128.0934732752683
 10
99.98218313472668
 20
-128.0934732752683
 10
99.72621254017263
 20
-128.0934732752683
 10
99.65627710182204
 20
-128.2853650937967
 10
99.65627710182204
 20
-128.4142116649451
 10
99.65627710182204
 20
-128.448318110249
 10
99.65627710182204
 20
-128.5999023116
 10
99.78546818251891
 20
-128.6946424374444
 10
99.78546818251891
 20
-128.6946424374444
 10
99.76652015735004
 20
-128.8824001413905
 10
99.76652015735004
 20
-128.8824001413905
 10
99.76652015735004
 20
-128.8824001413905
 10
98.92006019662415
 20
-128.7535535702422
 10
98.92006019662415
 20
-128.7535535702422
 10
98.92006019662415
 20
-128.7535535702422
 10
98.92006019662415
 20
-127.9215630105543
 10
98.92006019662415
 20
-127.9215630105543
 10
98.92006019662415
 20
-127.9215630105543
 10
99.11470809154078
 20
-127.9215630105543
 10
99.11470809154078
 20
-127.9215630105543
 10
99.11470809154078
 20
-127.9215630105543
 10
99.11470809154078
 20
-128.5792317386885
 10
99.11470809154078
 20
-128.5792317386885
 10
99.11470809154078
 20
-128.5792317386885
 10
99.53776581712945
 20
-128.6495116865876
 10
99.53776581712945
 20
-128.6495116865876
 10
99.504003881374
 20
-128.5840548723679
 10
99.46369626419659
 20
-128.4958604279455
 10
99.46369626419659
 20
-128.3690809140883
 10
99.46369626419659
 20
-128.0979518993991
 10
99.6500759299486
 20
-127.8447373812333
 10
99.9632351095578
 20
-127.8447373812333
 10
100.2805284037493
 20
-127.8447373812333
 10
100.5151394062948
 20
-128.0841715174581
 10
100.5151394062948
 20
-128.4076659835231
 97
        0
 97
        0
 75
     2
 76
     1
 98
        0
  0
ENDBLK
  5
69
330
66
100
AcDbEntity
  8
0
100
AcDbBlockEnd
  0
ENDSEC
  0
SECTION
  2
ENTITIES
  0
POLYLINE
  5
41
330
1F
100
AcDbEntity
  8
_U+30EC_U+30A4_U+30E4_U+30FC 1
 62
   179
420
  2234388
370
    25
100
AcDb2dPolyline
 66
     1
 10
0.0
 20
0.0
 30
0.0
  0
VERTEX
  5
42
330
41
100
AcDbEntity
  8
_U+30EC_U+30A4_U+30E4_U+30FC 1
 62
   179
420
  2234388
370
    25
100
AcDbVertex
100
AcDb2dVertex
 10
79.11041664688906
 20
-127.5577769125551
 30
0.0
  0
VERTEX
  5
43
330
41
100
AcDbEntity
  8
_U+30EC_U+30A4_U+30E4_U+30FC 1
 62
   179
420
  2234388
370
    25
100
AcDbVertex
100
AcDb2dVertex
 10
79.11041664688906
 20
-132.0577396892079
 30
0.0
  0
SEQEND
  5
44
330
41
100
AcDbEntity
  8
_U+30EC_U+30A4_U+30E4_U+30FC 1
 62
   179
420
  2234388
370
    25
  0
POLYLINE
  5
45
330
1F
100
AcDbEntity
  8
_U+30EC_U+30A4_U+30E4_U+30FC 1
 62
   179
420
  2234388
370
    25
100
AcDb2dPolyline
 66
     1
 10
0.0
 20
0.0
 30
0.0
  0
VERTEX
  5
46
330
45
100
AcDbEntity
  8
_U+30EC_U+30A4_U+30E4_U+30FC 1
 62
   179
420
  2234388
370
    25
100
AcDbVertex
100
AcDb2dVertex
 10
80.11018886886129
 20
-133.0578646889576
 30
0.0
  0
VERTEX
  5
47
330
45
100
AcDbEntity
  8
_U+30EC_U+30A4_U+30E4_U+30FC 1
 62
   179
420
  2234388
370
    25
100
AcDbVertex
100
AcDb2dVertex
 10
91.61060099615219
 20
-133.0578646889576
 30
0.0
  0
SEQEND
  5
48
330
45
100
AcDbEntity
  8
_U+30EC_U+30A4_U+30E4_U+30FC 1
 62
   179
420
  2234388
370
    25
  0
POLYLINE
  5
49
330
1F
100
AcDbEntity
  8
_U+30EC_U+30A4_U+30E4_U+30FC 1
 62
   179
420
  2234388
370
    25
100
AcDb2dPolyline
 66
     1
 10
0.0
 20
0.0
 30
0.0
  0
VERTEX
  5
4A
330
49
100
AcDbEntity
  8
_U+30EC_U+30A4_U+30E4_U+30FC 1
 62
   179
420
  2234388
370
    25
100
AcDbVertex
100
AcDb2dVertex
 10
80.11018886886129
 20
-126.557828301694
 30
0.0
  0
VERTEX
  5
4B
330
49
100
AcDbEntity
  8
_U+30EC_U+30A4_U+30E4_U+30FC 1
 62
   179
420
  2234388
370
    25
100
AcDbVertex
100
AcDb2dVertex
 10
97.11033585584227
 20
-126.557828301694
 30
0.0
  0
SEQEND
  5
4C
330
49
100
AcDbEntity
  8
_U+30EC_U+30A4_U+30E4_U+30FC 1
 62
   179
420
  2234388
370
    25
  0
POLYLINE
  5
4D
330
1F
100
AcDbEntity
  8
_U+30EC_U+30A4_U+30E4_U+30FC 1
 62
   179
420
  2234388
370
    25
100
AcDb2dPolyline
 66
     1
 10
0.0
 20
0.0
 30
0.0
  0
VERTEX
  5
4E
330
4D
100
AcDbEntity
  8
_U+30EC_U+30A4_U+30E4_U+30FC 1
 62
   179
420
  2234388
370
    25
100
AcDbVertex
100
AcDb2dVertex
 10
87.11028555540925
 20
-132.0577396892079
 30
0.0
  0
VERTEX
  5
4F
330
4D
100
AcDbEntity
  8
_U+30EC_U+30A4_U+30E4_U+30FC 1
 62
   179
420
  2234388
370
    25
100
AcDbVertex
100
AcDb2dVertex
 10
91.61060099615219
 20
-132.0577396892079
 30
0.0
  0
SEQEND
  5
50
330
4D
100
AcDbEntity
  8
_U+30EC_U+30A4_U+30E4_U+30FC 1
 62
   179
420
  2234388
370
    25
  0
SPLINE
  5
51
330
1F
100
AcDbEntity
  8
_U+30EC_U+30A4_U+30E4_U+30FC 1
 62
   179
420
  2234388
370
    25
100
AcDbSpline
210
0.0
220
0.0
230
1.0
 70
     8
 71
     3
 72
    11
 73
     7
 74
     0
 42
0.0000000001
 43
0.0000000001
 12
1.0
 22
0.0
 32
0.0
 13
1.0
 23
0.0
 33
0.0
 40
0.0
 40
0.0
 40
0.0
 40
0.0
 40
1.0
 40
1.0
 40
1.0
 40
2.0
 40
2.0
 40
2.0
 40
2.0
 10
91.61060099615219
 20
-133.0578646889576
 30
0.0
 10
91.8861909891213
 20
-133.0578646889576
 30
0.0
 10
92.11013431674137
 20
-132.8339213556802
 30
0.0
 10
92.11013431674137
 20
-132.5579785779716
 30
0.0
 10
92.11013431674137
 20
-132.2816830224852
 30
0.0
 10
91.8861909891213
 20
-132.0577396892079
 30
0.0
 10
91.61060099615219
 20
-132.0577396892079
 30
0.0
  0
SPLINE
  5
52
330
1F
100
AcDbEntity
  8
_U+30EC_U+30A4_U+30E4_U+30FC 1
 62
   179
420
  2234388
370
    25
100
AcDbSpline
210
0.0
220
0.0
230
1.0
 70
     8
 71
     3
 72
     8
 73
     4
 74
     0
 42
0.0000000001
 43
0.0000000001
 12
1.0
 22
0.0
 32
0.0
 13
1.0
 23
0.0
 33
0.0
 40
0.0
 40
0.0
 40
0.0
 40
0.0
 40
1.0
 40
1.0
 40
1.0
 40
1.0
 10
79.11041664688906
 20
-132.0577396892079
 30
0.0
 10
79.11041664688906
 20
-132.609978022403
 30
0.0
 10
79.55826602585509
 20
-133.0578646889576
 30
0.0
 10
80.11018886886129
 20
-133.0578646889576
 30
0.0
  0
SPLINE
  5
53
330
1F
100
AcDbEntity
  8
_U+30EC_U+30A4_U+30E4_U+30FC 1
 62
   179
420
  2234388
370
    25
100
AcDbSpline
210
0.0
220
0.0
230
1.0
 70
     8
 71
     3
 72
     8
 73
     4
 74
     0
 42
0.0000000001
 43
0.0000000001
 12
1.0
 22
0.0
 32
0.0
 13
1.0
 23
0.0
 33
0.0
 40
0.0
 40
0.0
 40
0.0
 40
0.0
 40
1.0
 40
1.0
 40
1.0
 40
1.0
 10
80.11018886886129
 20
-126.557828301694
 30
0.0
 10
79.55826602585509
 20
-126.557828301694
 30
0.0
 10
79.11041664688906
 20
-127.0055033015819
 30
0.0
 10
79.11041664688906
 20
-127.5577769125551
 30
0.0
  0
INSERT
  5
55
330
1F
100
AcDbEntity
  8
_U+30EC_U+30A4_U+30E4_U+30FC 1
100
AcDbBlockReference
  2
block 2
 10
0.0
 20
0.0
 30
0.0
  0
INSERT
  5
5F
330
1F
100
AcDbEntity
  8
_U+30EC_U+30A4_U+30E4_U+30FC 1
100
AcDbBlockReference
  2
block 3
 10
0.0
 20
0.0
 30
0.0
  0
INSERT
  5
67
330
1F
100
AcDbEntity
  8
_U+30EC_U+30A4_U+30E4_U+30FC 1
100
AcDbBlockReference
  2
block 4
 10
0.0
 20
0.0
 30
0.0
  0
SPLINE
  5
76
330
1F
100
AcDbEntity
  8
_U+30EC_U+30A4_U+30E4_U+30FC 1
 62
   179
420
  2234388
370
     9
100
AcDbSpline
210
0.0
220
0.0
230
1.0
 70
    11
 71
     3
 72
    17
 73
    13
 74
     0
 42
0.0000000001
 43
0.0000000001
 12
1.0
 22
0.0
 32
0.0
 13
1.0
 23
0.0
 33
0.0
 40
0.0
 40
0.0
 40
0.0
 40
0.0
 40
1.0
 40
1.0
 40
1.0
 40
2.0
 40
2.0
 40
2.0
 40
3.0
 40
3.0
 40
3.0
 40
4.0
 40
4.0
 40
4.0
 40
4.0
 10
92.2100409808592
 20
-137.0579413546247
 30
0.0
 10
92.2100409808592
 20
-137.0024846879713
 30
0.0
 10
92.16527348200131
 20
-136.9577171879828
 30
0.0
 10
92.11013431674137
 20
-136.9577171879828
 30
0.0
 10
92.0550304292583
 20
-136.9577171879828
 30
0.0
 10
92.01022765262353
 20
-137.0024846879713
 30
0.0
 10
92.01022765262353
 20
-137.0579413546247
 30
0.0
 10
92.01022765262353
 20
-137.1130805212771
 30
0.0
 10
92.0550304292583
 20
-137.1578480212663
 30
0.0
 10
92.11013431674137
 20
-137.1578480212663
 30
0.0
 10
92.16527348200131
 20
-137.1578480212663
 30
0.0
 10
92.2100409808592
 20
-137.1130805212771
 30
0.0
 10
92.2100409808592
 20
-137.0579413546247
 30
0.0
  0
SPLINE
  5
77
330
1F
100
AcDbEntity
  8
_U+30EC_U+30A4_U+30E4_U+30FC 1
 62
   179
420
  2234388
370
     9
100
AcDbSpline
210
0.0
220
0.0
230
1.0
 70
    11
 71
     3
 72
    17
 73
    13
 74
     0
 42
0.0000000001
 43
0.0000000001
 12
1.0
 22
0.0
 32
0.0
 13
1.0
 23
0.0
 33
0.0
 40
0.0
 40
0.0
 40
0.0
 40
0.0
 40
1.0
 40
1.0
 40
1.0
 40
2.0
 40
2.0
 40
2.0
 40
3.0
 40
3.0
 40
3.0
 40
4.0
 40
4.0
 40
4.0
 40
4.0
 10
79.21032131250968
 20
-137.0579413546247
 30
0.0
 10
79.21032131250968
 20
-137.0024846879713
 30
0.0
 10
79.1655538136518
 20
-136.9577171879828
 30
0.0
 10
79.11041664688906
 20
-136.9577171879828
 30
0.0
 10
79.05531076090877
 20
-136.9577171879828
 30
0.0
 10
79.01050798427401
 20
-137.0024846879713
 30
0.0
 10
79.01050798427401
 20
-137.0579413546247
 30
0.0
 10
79.01050798427401
 20
-137.1130805212771
 30
0.0
 10
79.05531076090877
 20
-137.1578480212663
 30
0.0
 10
79.11041664688906
 20
-137.1578480212663
 30
0.0
 10
79.1655538136518
 20
-137.1578480212663
 30
0.0
 10
79.21032131250968
 20
-137.1130805212771
 30
0.0
 10
79.21032131250968
 20
-137.0579413546247
 30
0.0
  0
SPLINE
  5
78
330
1F
100
AcDbEntity
  8
_U+30EC_U+30A4_U+30E4_U+30FC 1
 62
   179
420
  2234388
370
     9
100
AcDbSpline
210
0.0
220
0.0
230
1.0
 70
    11
 71
     3
 72
    17
 73
    13
 74
     0
 42
0.0000000001
 43
0.0000000001
 12
1.0
 22
0.0
 32
0.0
 13
1.0
 23
0.0
 33
0.0
 40
0.0
 40
0.0
 40
0.0
 40
0.0
 40
1.0
 40
1.0
 40
1.0
 40
2.0
 40
2.0
 40
2.0
 40
3.0
 40
3.0
 40
3.0
 40
4.0
 40
4.0
 40
4.0
 40
4.0
 10
79.21032131250968
 20
-122.5578927471383
 30
0.0
 10
79.21032131250968
 20
-122.5026124693745
 30
0.0
 10
79.1655538136518
 20
-122.4578096916077
 30
0.0
 10
79.11041664688906
 20
-122.4578096916077
 30
0.0
 10
79.05531076090877
 20
-122.4578096916077
 30
0.0
 10
79.01050798427401
 20
-122.5026124693745
 30
0.0
 10
79.01050798427401
 20
-122.5578927471383
 30
0.0
 10
79.01050798427401
 20
-122.6130319137913
 30
0.0
 10
79.05531076090877
 20
-122.6577994137799
 30
0.0
 10
79.11041664688906
 20
-122.6577994137799
 30
0.0
 10
79.1655538136518
 20
-122.6577994137799
 30
0.0
 10
79.21032131250968
 20
-122.6130319137913
 30
0.0
 10
79.21032131250968
 20
-122.5578927471383
 30
0.0
  0
SPLINE
  5
79
330
1F
100
AcDbEntity
  8
_U+30EC_U+30A4_U+30E4_U+30FC 1
 62
   179
420
  2234388
370
     9
100
AcDbSpline
210
0.0
220
0.0
230
1.0
 70
    11
 71
     3
 72
    17
 73
    13
 74
     0
 42
0.0000000001
 43
0.0000000001
 12
1.0
 22
0.0
 32
0.0
 13
1.0
 23
0.0
 33
0.0
 40
0.0
 40
0.0
 40
0.0
 40
0.0
 40
1.0
 40
1.0
 40
1.0
 40
2.0
 40
2.0
 40
2.0
 40
3.0
 40
3.0
 40
3.0
 40
4.0
 40
4.0
 40
4.0
 40
4.0
 10
97.2102425199601
 20
-122.5578927471383
 30
0.0
 10
97.2102425199601
 20
-122.5026124693745
 30
0.0
 10
97.16547502110221
 20
-122.4578096916077
 30
0.0
 10
97.11033585584227
 20
-122.4578096916077
 30
0.0
 10
97.0552319683592
 20
-122.4578096916077
 30
0.0
 10
97.01042919172443
 20
-122.5026124693745
 30
0.0
 10
97.01042919172443
 20
-122.5578927471383
 30
0.0
 10
97.01042919172443
 20
-122.6130319137913
 30
0.0
 10
97.0552319683592
 20
-122.6577994137799
 30
0.0
 10
97.11033585584227
 20
-122.6577994137799
 30
0.0
 10
97.16547502110221
 20
-122.6577994137799
 30
0.0
 10
97.2102425199601
 20
-122.6130319137913
 30
0.0
 10
97.2102425199601
 20
-122.5578927471383
 30
0.0
  0
SPLINE
  5
7A
330
1F
100
AcDbEntity
  8
_U+30EC_U+30A4_U+30E4_U+30FC 1
 62
   179
420
  2234388
370
     9
100
AcDbSpline
210
0.0
220
0.0
230
1.0
 70
    11
 71
     3
 72
    17
 73
    13
 74
     0
 42
0.0000000001
 43
0.0000000001
 12
1.0
 22
0.0
 32
0.0
 13
1.0
 23
0.0
 33
0.0
 40
0.0
 40
0.0
 40
0.0
 40
0.0
 40
1.0
 40
1.0
 40
1.0
 40
2.0
 40
2.0
 40
2.0
 40
3.0
 40
3.0
 40
3.0
 40
4.0
 40
4.0
 40
4.0
 40
4.0
 10
101.2100015845844
 20
-126.557828301694
 30
0.0
 10
101.2100015845844
 20
-126.5025127461521
 30
0.0
 10
101.1652340857265
 20
-126.4577452461635
 30
0.0
 10
101.1100949204666
 20
-126.4577452461635
 30
0.0
 10
101.0549910329835
 20
-126.4577452461635
 30
0.0
 10
101.0101882563487
 20
-126.5025127461521
 30
0.0
 10
101.0101882563487
 20
-126.557828301694
 30
0.0
 10
101.0101882563487
 20
-126.6131085794578
 30
0.0
 10
101.0549910329835
 20
-126.6579113572245
 30
0.0
 10
101.1100949204666
 20
-126.6579113572245
 30
0.0
 10
101.1652340857265
 20
-126.6579113572245
 30
0.0
 10
101.2100015845844
 20
-126.6131085794578
 30
0.0
 10
101.2100015845844
 20
-126.557828301694
 30
0.0
  0
SPLINE
  5
7B
330
1F
100
AcDbEntity
  8
_U+30EC_U+30A4_U+30E4_U+30FC 1
 62
   179
420
  2234388
370
     9
100
AcDbSpline
210
0.0
220
0.0
230
1.0
 70
    11
 71
     3
 72
    17
 73
    13
 74
     0
 42
0.0000000001
 43
0.0000000001
 12
1.0
 22
0.0
 32
0.0
 13
1.0
 23
0.0
 33
0.0
 40
0.0
 40
0.0
 40
0.0
 40
0.0
 40
1.0
 40
1.0
 40
1.0
 40
2.0
 40
2.0
 40
2.0
 40
3.0
 40
3.0
 40
3.0
 40
4.0
 40
4.0
 40
4.0
 40
4.0
 10
101.2100015845844
 20
-132.0577396892079
 30
0.0
 10
101.2100015845844
 20
-132.002635800333
 30
0.0
 10
101.1652340857265
 20
-131.9578330225662
 30
0.0
 10
101.1100949204666
 20
-131.9578330225662
 30
0.0
 10
101.0549910329835
 20
-131.9578330225662
 30
0.0
 10
101.0101882563487
 20
-132.002635800333
 30
0.0
 10
101.0101882563487
 20
-132.0577396892079
 30
0.0
 10
101.0101882563487
 20
-132.112878855861
 30
0.0
 10
101.0549910329835
 20
-132.1576463558495
 30
0.0
 10
101.1100949204666
 20
-132.1576463558495
 30
0.0
 10
101.1652340857265
 20
-132.1576463558495
 30
0.0
 10
101.2100015845844
 20
-132.112878855861
 30
0.0
 10
101.2100015845844
 20
-132.0577396892079
 30
0.0
  0
POLYLINE
  5
7C
330
1F
100
AcDbEntity
  8
_U+30EC_U+30A4_U+30E4_U+30FC 1
 62
   179
420
  2234388
370
     9
100
AcDb2dPolyline
 66
     1
 10
0.0
 20
0.0
 30
0.0
  0
VERTEX
  5
7D
330
7C
100
AcDbEntity
  8
_U+30EC_U+30A4_U+30E4_U+30FC 1
 62
   179
420
  2234388
370
     9
100
AcDbVertex
100
AcDb2dVertex
 10
79.11041664688906
 20
-122.5578927471383
 30
0.0
  0
VERTEX
  5
7E
330
7C
100
AcDbEntity
  8
_U+30EC_U+30A4_U+30E4_U+30FC 1
 62
   179
420
  2234388
370
     9
100
AcDbVertex
100
AcDb2dVertex
 10
97.11033585584227
 20
-122.5578927471383
 30
0.0
  0
SEQEND
  5
7F
330
7C
100
AcDbEntity
  8
_U+30EC_U+30A4_U+30E4_U+30FC 1
 62
   179
420
  2234388
370
     9
  0
POLYLINE
  5
80
330
1F
100
AcDbEntity
  8
_U+30EC_U+30A4_U+30E4_U+30FC 1
 62
   179
420
  2234388
370
     9
100
AcDb2dPolyline
 66
     1
 10
0.0
 20
0.0
 30
0.0
  0
VERTEX
  5
81
330
80
100
AcDbEntity
  8
_U+30EC_U+30A4_U+30E4_U+30FC 1
 62
   179
420
  2234388
370
     9
100
AcDbVertex
100
AcDb2dVertex
 10
79.11041664688906
 20
-125.0178474687455
 30
0.0
  0
VERTEX
  5
82
330
80
100
AcDbEntity
  8
_U+30EC_U+30A4_U+30E4_U+30FC 1
 62
   179
420
  2234388
370
     9
100
AcDbVertex
100
AcDb2dVertex
 10
79.11041664688906
 20
-121.5577677473883
 30
0.0
  0
SEQEND
  5
83
330
80
100
AcDbEntity
  8
_U+30EC_U+30A4_U+30E4_U+30FC 1
 62
   179
420
  2234388
370
     9
  0
POLYLINE
  5
84
330
1F
100
AcDbEntity
  8
_U+30EC_U+30A4_U+30E4_U+30FC 1
 62
   179
420
  2234388
370
     9
100
AcDb2dPolyline
 66
     1
 10
0.0
 20
0.0
 30
0.0
  0
VERTEX
  5
85
330
84
100
AcDbEntity
  8
_U+30EC_U+30A4_U+30E4_U+30FC 1
 62
   179
420
  2234388
370
     9
100
AcDbVertex
100
AcDb2dVertex
 10
97.11033585584227
 20
-124.0177577467734
 30
0.0
  0
VERTEX
  5
86
330
84
100
AcDbEntity
  8
_U+30EC_U+30A4_U+30E4_U+30FC 1
 62
   179
420
  2234388
370
     9
100
AcDbVertex
100
AcDb2dVertex
 10
97.11033585584227
 20
-121.5577677473883
 30
0.0
  0
SEQEND
  5
87
330
84
100
AcDbEntity
  8
_U+30EC_U+30A4_U+30E4_U+30FC 1
 62
   179
420
  2234388
370
     9
  0
POLYLINE
  5
88
330
1F
100
AcDbEntity
  8
_U+30EC_U+30A4_U+30E4_U+30FC 1
 62
   179
420
  2234388
370
     9
100
AcDb2dPolyline
 66
     1
 10
0.0
 20
0.0
 30
0.0
  0
VERTEX
  5
89
330
88
100
AcDbEntity
  8
_U+30EC_U+30A4_U+30E4_U+30FC 1
 62
   179
420
  2234388
370
     9
100
AcDbVertex
100
AcDb2dVertex
 10
79.11041664688906
 20
-137.0579413546247
 30
0.0
  0
VERTEX
  5
8A
330
88
100
AcDbEntity
  8
_U+30EC_U+30A4_U+30E4_U+30FC 1
 62
   179
420
  2234388
370
     9
100
AcDbVertex
100
AcDb2dVertex
 10
92.11013431674137
 20
-137.0579413546247
 30
0.0
  0
SEQEND
  5
8B
330
88
100
AcDbEntity
  8
_U+30EC_U+30A4_U+30E4_U+30FC 1
 62
   179
420
  2234388
370
     9
  0
POLYLINE
  5
8C
330
1F
100
AcDbEntity
  8
_U+30EC_U+30A4_U+30E4_U+30FC 1
 62
   179
420
  2234388
370
     9
100
AcDb2dPolyline
 66
     1
 10
0.0
 20
0.0
 30
0.0
  0
VERTEX
  5
8D
330
8C
100
AcDbEntity
  8
_U+30EC_U+30A4_U+30E4_U+30FC 1
 62
   179
420
  2234388
370
     9
100
AcDbVertex
100
AcDb2dVertex
 10
79.11041664688906
 20
-134.5978102441282
 30
0.0
  0
VERTEX
  5
8E
330
8C
100
AcDbEntity
  8
_U+30EC_U+30A4_U+30E4_U+30FC 1
 62
   179
420
  2234388
370
     9
100
AcDbVertex
100
AcDb2dVertex
 10
79.11041664688906
 20
-138.0577135765966
 30
0.0
  0
SEQEND
  5
8F
330
8C
100
AcDbEntity
  8
_U+30EC_U+30A4_U+30E4_U+30FC 1
 62
   179
420
  2234388
370
     9
  0
POLYLINE
  5
90
330
1F
100
AcDbEntity
  8
_U+30EC_U+30A4_U+30E4_U+30FC 1
 62
   179
420
  2234388
370
     9
100
AcDb2dPolyline
 66
     1
 10
0.0
 20
0.0
 30
0.0
  0
VERTEX
  5
91
330
90
100
AcDbEntity
  8
_U+30EC_U+30A4_U+30E4_U+30FC 1
 62
   179
420
  2234388
370
     9
100
AcDbVertex
100
AcDb2dVertex
 10
92.11013431674137
 20
-135.0976963551148
 30
0.0
  0
VERTEX
  5
92
330
90
100
AcDbEntity
  8
_U+30EC_U+30A4_U+30E4_U+30FC 1
 62
   179
420
  2234388
370
     9
100
AcDbVertex
100
AcDb2dVertex
 10
92.11013431674137
 20
-138.0577135765966
 30
0.0
  0
SEQEND
  5
93
330
90
100
AcDbEntity
  8
_U+30EC_U+30A4_U+30E4_U+30FC 1
 62
   179
420
  2234388
370
     9
  0
POLYLINE
  5
94
330
1F
100
AcDbEntity
  8
_U+30EC_U+30A4_U+30E4_U+30FC 1
 62
   179
420
  2234388
370
     9
100
AcDb2dPolyline
 66
     1
 10
0.0
 20
0.0
 30
0.0
  0
VERTEX
  5
95
330
94
100
AcDbEntity
  8
_U+30EC_U+30A4_U+30E4_U+30FC 1
 62
   179
420
  2234388
370
     9
100
AcDbVertex
100
AcDb2dVertex
 10
101.1100949204666
 20
-132.0577396892079
 30
0.0
  0
VERTEX
  5
96
330
94
100
AcDbEntity
  8
_U+30EC_U+30A4_U+30E4_U+30FC 1
 62
   179
420
  2234388
370
     9
100
AcDbVertex
100
AcDb2dVertex
 10
101.1100949204666
 20
-126.557828301694
 30
0.0
  0
SEQEND
  5
97
330
94
100
AcDbEntity
  8
_U+30EC_U+30A4_U+30E4_U+30FC 1
 62
   179
420
  2234388
370
     9
  0
POLYLINE
  5
98
330
1F
100
AcDbEntity
  8
_U+30EC_U+30A4_U+30E4_U+30FC 1
 62
   179
420
  2234388
370
     9
100
AcDb2dPolyline
 66
     1
 10
0.0
 20
0.0
 30
0.0
  0
VERTEX
  5
99
330
98
100
AcDbEntity
  8
_U+30EC_U+30A4_U+30E4_U+30FC 1
 62
   179
420
  2234388
370
     9
100
AcDbVertex
100
AcDb2dVertex
 10
94.15031870913637
 20
-132.0577396892079
 30
0.0
  0
VERTEX
  5
9A
330
98
100
AcDbEntity
  8
_U+30EC_U+30A4_U+30E4_U+30FC 1
 62
   179
420
  2234388
370
     9
100
AcDbVertex
100
AcDb2dVertex
 10
102.11057267272
 20
-132.0577396892079
 30
0.0
  0
SEQEND
  5
9B
330
98
100
AcDbEntity
  8
_U+30EC_U+30A4_U+30E4_U+30FC 1
 62
   179
420
  2234388
370
     9
  0
POLYLINE
  5
9C
330
1F
100
AcDbEntity
  8
_U+30EC_U+30A4_U+30E4_U+30FC 1
 62
   179
420
  2234388
370
     9
100
AcDb2dPolyline
 66
     1
 10
0.0
 20
0.0
 30
0.0
  0
VERTEX
  5
9D
330
9C
100
AcDbEntity
  8
_U+30EC_U+30A4_U+30E4_U+30FC 1
 62
   179
420
  2234388
370
     9
100
AcDbVertex
100
AcDb2dVertex
 10
99.65008884660332
 20
-126.557828301694
 30
0.0
  0
VERTEX
  5
9E
330
9C
100
AcDbEntity
  8
_U+30EC_U+30A4_U+30E4_U+30FC 1
 62
   179
420
  2234388
370
     9
100
AcDbVertex
100
AcDb2dVertex
 10
102.11057267272
 20
-126.557828301694
 30
0.0
  0
SEQEND
  5
9F
330
9C
100
AcDbEntity
  8
_U+30EC_U+30A4_U+30E4_U+30FC 1
 62
   179
420
  2234388
370
     9
  0
ENDSEC
  0
SECTION
  2
OBJECTS
  0
DICTIONARY
  5
C
330
0
100
AcDbDictionary
281
     1
  3
ACAD_GROUP
350
D
  3
ACAD_LAYOUT
350
1A
  3
ACAD_MATERIAL
350
3B
  3
ACAD_MLEADERSTYLE
350
A1
  3
ACAD_MLINESTYLE
350
17
  3
ACAD_PLOTSETTINGS
350
19
  3
ACAD_PLOTSTYLENAME
350
E
  3
ACAD_TABLESTYLE
350
A0
  3
ACAD_VISUALSTYLE
350
2A
  0
SUN
  5
3F
330
29
100
AcDbSun
 90
        1
290
     0
 63
     7
421
 16777215
 40
1.0
291
     1
 91
  2455826
 92
 54000000
292
     0
 70
     2
 71
   256
280
     1
  0
DICTIONARY
  5
D
102
{ACAD_REACTORS
330
C
102
}
330
C
100
AcDbDictionary
281
     1
  0
DICTIONARY
  5
1A
102
{ACAD_REACTORS
330
C
102
}
330
C
100
AcDbDictionary
281
     1
  3
Layout1
350
1E
  3
Layout2
350
26
  3
Model
350
22
  0
DICTIONARY
  5
3B
102
{ACAD_REACTORS
330
C
102
}
330
C
100
AcDbDictionary
281
     1
  3
ByBlock
350
3D
  3
ByLayer
350
3C
  3
Global
350
3E
  0
DICTIONARY
  5
A1
102
{ACAD_REACTORS
330
C
102
}
330
C
100
AcDbDictionary
281
     1
  0
DICTIONARY
  5
17
102
{ACAD_REACTORS
330
C
102
}
330
C
100
AcDbDictionary
281
     1
  3
Standard
350
18
  0
DICTIONARY
  5
19
102
{ACAD_REACTORS
330
C
102
}
330
C
100
AcDbDictionary
281
     1
  0
ACDBDICTIONARYWDFLT
  5
E
102
{ACAD_REACTORS
330
C
102
}
330
C
100
AcDbDictionary
281
     1
  3
Normal
350
F
100
AcDbDictionaryWithDefault
340
F
  0
DICTIONARY
  5
A0
102
{ACAD_REACTORS
330
C
102
}
330
C
100
AcDbDictionary
281
     1
  0
DICTIONARY
  5
2A
102
{ACAD_REACTORS
330
C
102
}
330
C
100
AcDbDictionary
281
     1
  3
2dWireframe
350
2F
  3
3D Hidden
350
31
  3
3dWireframe
350
30
  3
Basic
350
32
  3
Brighten
350
36
  3
ColorChange
350
3A
  3
Conceptual
350
34
  3
Dim
350
35
  3
Facepattern
350
39
  3
Flat
350
2B
  3
FlatWithEdges
350
2C
  3
Gouraud
350
2D
  3
GouraudWithEdges
350
2E
  3
Linepattern
350
38
  3
Realistic
350
33
  3
Thicken
350
37
  0
LAYOUT
  5
1E
102
{ACAD_REACTORS
330
1A
102
}
330
1A
100
AcDbPlotSettings
  1

  2
none_device
  4

  6

 40
0.0
 41
0.0
 42
0.0
 43
0.0
 44
0.0
 45
0.0
 46
0.0
 47
0.0
 48
0.0
 49
0.0
140
0.0
141
0.0
142
1.0
143
1.0
 70
   688
 72
     0
 73
     0
 74
     5
  7

 75
    16
 76
     0
 77
     2
 78
   300
147
1.0
148
0.0
149
0.0
100
AcDbLayout
  1
Layout1
 70
     1
 71
     1
 10
0.0
 20
0.0
 11
12.0
 21
9.0
 12
0.0
 22
0.0
 32
0.0
 14
1.000000000000000E+20
 24
1.000000000000000E+20
 34
1.000000000000000E+20
 15
-1.000000000000000E+20
 25
-1.000000000000000E+20
 35
-1.000000000000000E+20
146
0.0
 13
0.0
 23
0.0
 33
0.0
 16
1.0
 26
0.0
 36
0.0
 17
0.0
 27
1.0
 37
0.0
 76
     0
330
1B
  0
LAYOUT
  5
26
102
{ACAD_REACTORS
330
1A
102
}
330
1A
100
AcDbPlotSettings
  1

  2
none_device
  4

  6

 40
0.0
 41
0.0
 42
0.0
 43
0.0
 44
0.0
 45
0.0
 46
0.0
 47
0.0
 48
0.0
 49
0.0
140
0.0
141
0.0
142
1.0
143
1.0
 70
   688
 72
     0
 73
     0
 74
     5
  7

 75
    16
 76
     0
 77
     2
 78
   300
147
1.0
148
0.0
149
0.0
100
AcDbLayout
  1
Layout2
 70
     1
 71
     2
 10
0.0
 20
0.0
 11
0.0
 21
0.0
 12
0.0
 22
0.0
 32
0.0
 14
0.0
 24
0.0
 34
0.0
 15
0.0
 25
0.0
 35
0.0
146
0.0
 13
0.0
 23
0.0
 33
0.0
 16
1.0
 26
0.0
 36
0.0
 17
0.0
 27
1.0
 37
0.0
 76
     0
330
23
  0
LAYOUT
  5
22
102
{ACAD_REACTORS
330
1A
102
}
330
1A
100
AcDbPlotSettings
  1

  2
none_device
  4

  6

 40
0.0
 41
0.0
 42
0.0
 43
0.0
 44
0.0
 45
0.0
 46
0.0
 47
0.0
 48
0.0
 49
0.0
140
0.0
141
0.0
142
1.0
143
1.0
 70
  1712
 72
     0
 73
     0
 74
     0
  7

 75
     0
 76
     0
 77
     2
 78
   300
147
1.0
148
0.0
149
0.0
100
AcDbLayout
  1
Model
 70
     1
 71
     0
 10
0.0
 20
0.0
 11
12.0
 21
9.0
 12
0.0
 22
0.0
 32
0.0
 14
1.000000000000000E+20
 24
1.000000000000000E+20
 34
1.000000000000000E+20
 15
-1.000000000000000E+20
 25
-1.000000000000000E+20
 35
-1.000000000000000E+20
146
0.0
 13
0.0
 23
0.0
 33
0.0
 16
1.0
 26
0.0
 36
0.0
 17
0.0
 27
1.0
 37
0.0
 76
     0
330
1F
331
29
  0
MATERIAL
  5
3D
102
{ACAD_REACTORS
330
3B
102
}
330
3B
100
AcDbMaterial
  1
ByBlock
 72
     1
 94
      127
  0
MATERIAL
  5
3C
102
{ACAD_REACTORS
330
3B
102
}
330
3B
100
AcDbMaterial
  1
ByLayer
 72
     1
 94
      127
  0
MATERIAL
  5
3E
102
{ACAD_REACTORS
330
3B
102
}
330
3B
100
AcDbMaterial
  1
Global
 72
     1
 94
      127
  0
MLINESTYLE
  5
18
102
{ACAD_REACTORS
330
17
102
}
330
17
100
AcDbMlineStyle
  2
Standard
 70
     0
  3

 62
   256
 51
90.0
 52
90.0
 71
     2
 49
0.5
 62
   256
  6
BYLAYER
 49
-0.5
 62
   256
  6
BYLAYER
  0
ACDBPLACEHOLDER
  5
F
102
{ACAD_REACTORS
330
E
102
}
330
E
  0
VISUALSTYLE
  5
2F
102
{ACAD_REACTORS
330
2A
102
}
330
2A
100
AcDbVisualStyle
  2
2dWireframe
 70
     4
177
     2
291
     0
 71
     0
176
     1
 72
     2
176
     1
 73
     0
176
     1
 90
        0
176
     1
 40
-0.6
176
     1
 41
-30.0
176
     1
 62
     5
 63
     7
421
 16777215
176
     1
 74
     1
176
     1
 91
        4
176
     1
 64
     7
176
     1
 65
   257
176
     1
 75
     1
176
     1
175
     1
176
     1
 42
1.0
176
     1
 92
        0
176
     1
 66
   257
176
     1
 43
1.0
176
     1
 76
     1
176
     1
 77
     6
176
     1
 78
     2
176
     1
 67
     7
176
     1
 79
     5
176
     1
170
     0
176
     1
171
     0
176
     1
290
     0
176
     1
 93
        1
176
     1
 44
0.0
176
     1
173
     0
176
     1
  0
VISUALSTYLE
  5
31
102
{ACAD_REACTORS
330
2A
102
}
330
2A
100
AcDbVisualStyle
  2
3D Hidden
 70
     6
177
     2
291
     0
 71
     1
176
     1
 72
     2
176
     1
 73
     2
176
     1
 90
        0
176
     1
 40
-0.6
176
     1
 41
-30.0
176
     1
 62
     5
 63
     7
421
 16777215
176
     1
 74
     2
176
     1
 91
        2
176
     1
 64
     7
176
     1
 65
   257
176
     1
 75
     2
176
     1
175
     1
176
     1
 42
40.0
176
     1
 92
        0
176
     1
 66
   257
176
     1
 43
1.0
176
     1
 76
     1
176
     1
 77
     6
176
     1
 78
     2
176
     1
 67
     7
176
     1
 79
     3
176
     1
170
     0
176
     1
171
     0
176
     1
290
     0
176
     1
 93
        1
176
     1
 44
0.0
176
     1
173
     0
176
     1
  0
VISUALSTYLE
  5
30
102
{ACAD_REACTORS
330
2A
102
}
330
2A
100
AcDbVisualStyle
  2
3dWireframe
 70
     5
177
     2
291
     0
 71
     0
176
     1
 72
     2
176
     1
 73
     0
176
     1
 90
        0
176
     1
 40
-0.6
176
     1
 41
-30.0
176
     1
 62
     5
 63
     7
421
 16777215
176
     1
 74
     1
176
     1
 91
        4
176
     1
 64
     7
176
     1
 65
   257
176
     1
 75
     1
176
     1
175
     1
176
     1
 42
1.0
176
     1
 92
        0
176
     1
 66
   257
176
     1
 43
1.0
176
     1
 76
     1
176
     1
 77
     6
176
     1
 78
     2
176
     1
 67
     7
176
     1
 79
     5
176
     1
170
     0
176
     1
171
     0
176
     1
290
     0
176
     1
 93
        1
176
     1
 44
0.0
176
     1
173
     0
176
     1
  0
VISUALSTYLE
  5
32
102
{ACAD_REACTORS
330
2A
102
}
330
2A
100
AcDbVisualStyle
  2
Basic
 70
     7
177
     2
291
     1
 71
     1
176
     1
 72
     0
176
     1
 73
     1
176
     1
 90
        0
176
     1
 40
-0.6
176
     1
 41
-30.0
176
     1
 62
     5
 63
     7
421
 16777215
176
     1
 74
     0
176
     1
 91
        4
176
     1
 64
     7
176
     1
 65
   257
176
     1
 75
     1
176
     1
175
     1
176
     1
 42
1.0
176
     1
 92
        8
176
     1
 66
     7
176
     1
 43
1.0
176
     1
 76
     1
176
     1
 77
     6
176
     1
 78
     2
176
     1
 67
     7
176
     1
 79
     5
176
     1
170
     0
176
     1
171
     0
176
     1
290
     0
176
     1
 93
        1
176
     1
 44
0.0
176
     1
173
     0
176
     1
  0
VISUALSTYLE
  5
36
102
{ACAD_REACTORS
330
2A
102
}
330
2A
100
AcDbVisualStyle
  2
Brighten
 70
    12
177
     2
291
     1
 71
     2
176
     1
 72
     2
176
     1
 73
     0
176
     1
 90
        0
176
     1
 40
-0.6
176
     1
 41
-30.0
176
     1
 62
     5
 63
     7
421
 16777215
176
     1
 74
     1
176
     1
 91
        4
176
     1
 64
     7
176
     1
 65
   257
176
     1
 75
     1
176
     1
175
     1
176
     1
 42
1.0
176
     1
 92
        8
176
     1
 66
     7
176
     1
 43
1.0
176
     1
 76
     1
176
     1
 77
     6
176
     1
 78
     2
176
     1
 67
     7
176
     1
 79
     5
176
     1
170
     0
176
     1
171
     0
176
     1
290
     0
176
     1
 93
        1
176
     1
 44
50.0
176
     1
173
     0
176
     1
  0
VISUALSTYLE
  5
3A
102
{ACAD_REACTORS
330
2A
102
}
330
2A
100
AcDbVisualStyle
  2
ColorChange
 70
    16
177
     2
291
     1
 71
     2
176
     1
 72
     2
176
     1
 73
     3
176
     1
 90
        0
176
     1
 40
-0.6
176
     1
 41
-30.0
176
     1
 62
     5
 63
     8
421
  8421504
176
     1
 74
     1
176
     1
 91
        4
176
     1
 64
     7
176
     1
 65
   257
176
     1
 75
     1
176
     1
175
     1
176
     1
 42
1.0
176
     1
 92
        8
176
     1
 66
     8
424
  8421504
176
     1
 43
1.0
176
     1
 76
     1
176
     1
 77
     6
176
     1
 78
     2
176
     1
 67
     7
176
     1
 79
     5
176
     1
170
     0
176
     1
171
     0
176
     1
290
     0
176
     1
 93
        1
176
     1
 44
0.0
176
     1
173
     0
176
     1
  0
VISUALSTYLE
  5
34
102
{ACAD_REACTORS
330
2A
102
}
330
2A
100
AcDbVisualStyle
  2
Conceptual
 70
     9
177
     2
291
     0
 71
     3
176
     1
 72
     2
176
     1
 73
     0
176
     1
 90
        0
176
     1
 40
-0.6
176
     1
 41
-30.0
176
     1
 62
     5
 63
     7
421
 16777215
176
     1
 74
     2
176
     1
 91
        2
176
     1
 64
     7
176
     1
 65
   257
176
     1
 75
     1
176
     1
175
     1
176
     1
 42
40.0
176
     1
 92
        8
176
     1
 66
     7
176
     1
 43
1.0
176
     1
 76
     1
176
     1
 77
     6
176
     1
 78
     2
176
     1
 67
     7
176
     1
 79
     3
176
     1
170
     0
176
     1
171
     0
176
     1
290
     0
176
     1
 93
        1
176
     1
 44
0.0
176
     1
173
     0
176
     1
  0
VISUALSTYLE
  5
35
102
{ACAD_REACTORS
330
2A
102
}
330
2A
100
AcDbVisualStyle
  2
Dim
 70
    11
177
     2
291
     1
 71
     2
176
     1
 72
     2
176
     1
 73
     0
176
     1
 90
        0
176
     1
 40
-0.6
176
     1
 41
-30.0
176
     1
 62
     5
 63
     7
421
 16777215
176
     1
 74
     1
176
     1
 91
        4
176
     1
 64
     7
176
     1
 65
   257
176
     1
 75
     1
176
     1
175
     1
176
     1
 42
1.0
176
     1
 92
        8
176
     1
 66
     7
176
     1
 43
1.0
176
     1
 76
     1
176
     1
 77
     6
176
     1
 78
     2
176
     1
 67
     7
176
     1
 79
     5
176
     1
170
     0
176
     1
171
     0
176
     1
290
     0
176
     1
 93
        1
176
     1
 44
-50.0
176
     1
173
     0
176
     1
  0
VISUALSTYLE
  5
39
102
{ACAD_REACTORS
330
2A
102
}
330
2A
100
AcDbVisualStyle
  2
Facepattern
 70
    15
177
     2
291
     1
 71
     2
176
     1
 72
     2
176
     1
 73
     0
176
     1
 90
        0
176
     1
 40
-0.6
176
     1
 41
-30.0
176
     1
 62
     5
 63
     7
421
 16777215
176
     1
 74
     1
176
     1
 91
        4
176
     1
 64
     7
176
     1
 65
   257
176
     1
 75
     1
176
     1
175
     1
176
     1
 42
1.0
176
     1
 92
        8
176
     1
 66
     7
176
     1
 43
1.0
176
     1
 76
     1
176
     1
 77
     6
176
     1
 78
     2
176
     1
 67
     7
176
     1
 79
     5
176
     1
170
     0
176
     1
171
     0
176
     1
290
     0
176
     1
 93
        1
176
     1
 44
0.0
176
     1
173
     0
176
     1
  0
VISUALSTYLE
  5
2B
102
{ACAD_REACTORS
330
2A
102
}
330
2A
100
AcDbVisualStyle
  2
Flat
 70
     0
177
     2
291
     1
 71
     2
176
     1
 72
     1
176
     1
 73
     1
176
     1
 90
        2
176
     1
 40
-0.6
176
     1
 41
30.0
176
     1
 62
     5
 63
     7
421
 16777215
176
     1
 74
     0
176
     1
 91
        4
176
     1
 64
     7
176
     1
 65
   257
176
     1
 75
     1
176
     1
175
     1
176
     1
 42
1.0
176
     1
 92
        8
176
     1
 66
     7
176
     1
 43
1.0
176
     1
 76
     1
176
     1
 77
     6
176
     1
 78
     2
176
     1
 67
     7
176
     1
 79
     5
176
     1
170
     0
176
     1
171
     0
176
     1
290
     0
176
     1
 93
       13
176
     1
 44
0.0
176
     1
173
     0
176
     1
  0
VISUALSTYLE
  5
2C
102
{ACAD_REACTORS
330
2A
102
}
330
2A
100
AcDbVisualStyle
  2
FlatWithEdges
 70
     1
177
     2
291
     1
 71
     2
176
     1
 72
     1
176
     1
 73
     1
176
     1
 90
        2
176
     1
 40
-0.6
176
     1
 41
30.0
176
     1
 62
     5
 63
     7
421
 16777215
176
     1
 74
     1
176
     1
 91
        4
176
     1
 64
     7
176
     1
 65
   257
176
     1
 75
     1
176
     1
175
     1
176
     1
 42
1.0
176
     1
 92
        0
176
     1
 66
   257
176
     1
 43
1.0
176
     1
 76
     1
176
     1
 77
     6
176
     1
 78
     2
176
     1
 67
     7
176
     1
 79
     5
176
     1
170
     0
176
     1
171
     0
176
     1
290
     0
176
     1
 93
       13
176
     1
 44
0.0
176
     1
173
     0
176
     1
  0
VISUALSTYLE
  5
2D
102
{ACAD_REACTORS
330
2A
102
}
330
2A
100
AcDbVisualStyle
  2
Gouraud
 70
     2
177
     2
291
     1
 71
     2
176
     1
 72
     2
176
     1
 73
     1
176
     1
 90
        2
176
     1
 40
-0.6
176
     1
 41
30.0
176
     1
 62
     5
 63
     7
421
 16777215
176
     1
 74
     0
176
     1
 91
        4
176
     1
 64
     7
176
     1
 65
   257
176
     1
 75
     1
176
     1
175
     1
176
     1
 42
1.0
176
     1
 92
        0
176
     1
 66
     7
176
     1
 43
1.0
176
     1
 76
     1
176
     1
 77
     6
176
     1
 78
     2
176
     1
 67
     7
176
     1
 79
     5
176
     1
170
     0
176
     1
171
     0
176
     1
290
     0
176
     1
 93
       13
176
     1
 44
0.0
176
     1
173
     0
176
     1
  0
VISUALSTYLE
  5
2E
102
{ACAD_REACTORS
330
2A
102
}
330
2A
100
AcDbVisualStyle
  2
GouraudWithEdges
 70
     3
177
     2
291
     1
 71
     2
176
     1
 72
     2
176
     1
 73
     1
176
     1
 90
        2
176
     1
 40
-0.6
176
     1
 41
30.0
176
     1
 62
     5
 63
     7
421
 16777215
176
     1
 74
     1
176
     1
 91
        4
176
     1
 64
     7
176
     1
 65
   257
176
     1
 75
     1
176
     1
175
     1
176
     1
 42
1.0
176
     1
 92
        0
176
     1
 66
   257
176
     1
 43
1.0
176
     1
 76
     1
176
     1
 77
     6
176
     1
 78
     2
176
     1
 67
     7
176
     1
 79
     5
176
     1
170
     0
176
     1
171
     0
176
     1
290
     0
176
     1
 93
       13
176
     1
 44
0.0
176
     1
173
     0
176
     1
  0
VISUALSTYLE
  5
38
102
{ACAD_REACTORS
330
2A
102
}
330
2A
100
AcDbVisualStyle
  2
Linepattern
 70
    14
177
     2
291
     1
 71
     2
176
     1
 72
     2
176
     1
 73
     0
176
     1
 90
        0
176
     1
 40
-0.6
176
     1
 41
-30.0
176
     1
 62
     5
 63
     7
421
 16777215
176
     1
 74
     1
176
     1
 91
        4
176
     1
 64
     7
176
     1
 65
   257
176
     1
 75
     7
176
     1
175
     7
176
     1
 42
1.0
176
     1
 92
        8
176
     1
 66
     7
176
     1
 43
1.0
176
     1
 76
     1
176
     1
 77
     6
176
     1
 78
     2
176
     1
 67
     7
176
     1
 79
     5
176
     1
170
     0
176
     1
171
     0
176
     1
290
     0
176
     1
 93
        1
176
     1
 44
0.0
176
     1
173
     0
176
     1
  0
VISUALSTYLE
  5
33
102
{ACAD_REACTORS
330
2A
102
}
330
2A
100
AcDbVisualStyle
  2
Realistic
 70
     8
177
     2
291
     0
 71
     2
176
     1
 72
     2
176
     1
 73
     0
176
     1
 90
        0
176
     1
 40
-0.6
176
     1
 41
-30.0
176
     1
 62
     5
 63
     7
421
 16777215
176
     1
 74
     1
176
     1
 91
        0
176
     1
 64
     7
176
     1
 65
   257
176
     1
 75
     1
176
     1
175
     1
176
     1
 42
1.0
176
     1
 92
        8
176
     1
 66
     8
424
  7895160
176
     1
 43
1.0
176
     1
 76
     1
176
     1
 77
     6
176
     1
 78
     2
176
     1
 67
     7
176
     1
 79
     5
176
     1
170
     0
176
     1
171
     0
176
     1
290
     0
176
     1
 93
       13
176
     1
 44
0.0
176
     1
173
     0
176
     1
  0
VISUALSTYLE
  5
37
102
{ACAD_REACTORS
330
2A
102
}
330
2A
100
AcDbVisualStyle
  2
Thicken
 70
    13
177
     2
291
     1
 71
     2
176
     1
 72
     2
176
     1
 73
     0
176
     1
 90
        0
176
     1
 40
-0.6
176
     1
 41
-30.0
176
     1
 62
     5
 63
     7
421
 16777215
176
     1
 74
     1
176
     1
 91
        4
176
     1
 64
     7
176
     1
 65
   257
176
     1
 75
     1
176
     1
175
     1
176
     1
 42
1.0
176
     1
 92
       12
176
     1
 66
     7
176
     1
 43
1.0
176
     1
 76
     1
176
     1
 77
     6
176
     1
 78
     2
176
     1
 67
     7
176
     1
 79
     5
176
     1
170
     0
176
     1
171
     0
176
     1
290
     0
176
     1
 93
        1
176
     1
 44
0.0
176
     1
173
     0
176
     1
  0
ENDSEC
  0
EOF
