  0
SECTION
  2
HEADER
  9
$ACADVER
  1
AC1024
  9
$ACADMAINTVER
 70
     6
  9
$DWGCODEPAGE
  3
UNDEFINED
  9
$INSBASE
 10
0.0
 20
0.0
 30
0.0
  9
$EXTMIN
 10
1.000000000000000E+20
 20
1.000000000000000E+20
 30
1.000000000000000E+20
  9
$EXTMAX
 10
-1.000000000000000E+20
 20
-1.000000000000000E+20
 30
-1.000000000000000E+20
  9
$LIMMIN
 10
0.0
 20
0.0
  9
$LIMMAX
 10
12.0
 20
9.0
  9
$ORTHOMODE
 70
     0
  9
$REGENMODE
 70
     1
  9
$FILLMODE
 70
     1
  9
$QTEXTMODE
 70
     0
  9
$MIRRTEXT
 70
     1
  9
$LTSCALE
 40
1.0
  9
$ATTMODE
 70
     1
  9
$TEXTSIZE
 40
0.2
  9
$TRACEWID
 40
0.05
  9
$TEXTSTYLE
  7
Standard
  9
$CLAYER
  8
0
  9
$CELTYPE
  6
ByLayer
  9
$CECOLOR
 62
   256
  9
$CELTSCALE
 40
1.0
  9
$DISPSILH
 70
     0
  9
$DIMSCALE
 40
1.0
  9
$DIMASZ
 40
0.18
  9
$DIMEXO
 40
0.0625
  9
$DIMDLI
 40
0.38
  9
$DIMRND
 40
0.0
  9
$DIMDLE
 40
0.0
  9
$DIMEXE
 40
0.18
  9
$DIMTP
 40
0.0
  9
$DIMTM
 40
0.0
  9
$DIMTXT
 40
0.18
  9
$DIMCEN
 40
0.09
  9
$DIMTSZ
 40
0.0
  9
$DIMTOL
 70
     0
  9
$DIMLIM
 70
     0
  9
$DIMTIH
 70
     1
  9
$DIMTOH
 70
     1
  9
$DIMSE1
 70
     0
  9
$DIMSE2
 70
     0
  9
$DIMTAD
 70
     0
  9
$DIMZIN
 70
     0
  9
$DIMBLK
  1

  9
$DIMASO
 70
     1
  9
$DIMSHO
 70
     1
  9
$DIMPOST
  1

  9
$DIMAPOST
  1

  9
$DIMALT
 70
     0
  9
$DIMALTD
 70
     2
  9
$DIMALTF
 40
25.4
  9
$DIMLFAC
 40
1.0
  9
$DIMTOFL
 70
     0
  9
$DIMTVP
 40
0.0
  9
$DIMTIX
 70
     0
  9
$DIMSOXD
 70
     0
  9
$DIMSAH
 70
     0
  9
$DIMBLK1
  1

  9
$DIMBLK2
  1

  9
$DIMSTYLE
  2
Standard
  9
$DIMCLRD
 70
     0
  9
$DIMCLRE
 70
     0
  9
$DIMCLRT
 70
     0
  9
$DIMTFAC
 40
1.0
  9
$DIMGAP
 40
0.09
  9
$DIMJUST
 70
     0
  9
$DIMSD1
 70
     0
  9
$DIMSD2
 70
     0
  9
$DIMTOLJ
 70
     1
  9
$DIMTZIN
 70
     0
  9
$DIMALTZ
 70
     0
  9
$DIMALTTZ
 70
     0
  9
$DIMUPT
 70
     0
  9
$DIMDEC
 70
     4
  9
$DIMTDEC
 70
     4
  9
$DIMALTU
 70
     2
  9
$DIMALTTD
 70
     2
  9
$DIMTXSTY
  7
Standard
  9
$DIMAUNIT
 70
     0
  9
$DIMADEC
 70
     0
  9
$DIMALTRND
 40
0.0
  9
$DIMAZIN
 70
     0
  9
$DIMDSEP
 70
    46
  9
$DIMATFIT
 70
     3
  9
$DIMFRAC
 70
     0
  9
$DIMLDRBLK
  1

  9
$DIMLUNIT
 70
     2
  9
$DIMLWD
 70
    -2
  9
$DIMLWE
 70
    -2
  9
$DIMTMOVE
 70
     0
  9
$DIMFXL
 40
1.0
  9
$DIMFXLON
 70
     0
  9
$DIMJOGANG
 40
0.7853981633974483
  9
$DIMTFILL
 70
     0
  9
$DIMTFILLCLR
 70
     0
  9
$DIMARCSYM
 70
     0
  9
$DIMLTYPE
  6

  9
$DIMLTEX1
  6

  9
$DIMLTEX2
  6

  9
$DIMTXTDIRECTION
 70
     0
  9
$LUNITS
 70
     2
  9
$LUPREC
 70
     4
  9
$SKETCHINC
 40
0.1
  9
$FILLETRAD
 40
0.5
  9
$AUNITS
 70
     0
  9
$AUPREC
 70
     0
  9
$MENU
  1
.
  9
$ELEVATION
 40
0.0
  9
$PELEVATION
 40
0.0
  9
$THICKNESS
 40
0.0
  9
$LIMCHECK
 70
     0
  9
$CHAMFERA
 40
0.5
  9
$CHAMFERB
 40
0.5
  9
$CHAMFERC
 40
1.0
  9
$CHAMFERD
 40
0.0
  9
$SKPOLY
 70
     0
  9
$TDCREATE
 40
2457917.624583322
  9
$TDUCREATE
 40
2457917.249583333
  9
$TDUPDATE
 40
2457917.624583322
  9
$TDUUPDATE
 40
2457917.249583333
  9
$TDINDWG
 40
0.0000000116
  9
$TDUSRTIMER
 40
0.0000000116
  9
$USRTIMER
 70
     1
  9
$ANGBASE
 50
0.0
  9
$ANGDIR
 70
     0
  9
$PDMODE
 70
     0
  9
$PDSIZE
 40
0.0
  9
$PLINEWID
 40
0.0
  9
$SPLFRAME
 70
     0
  9
$SPLINETYPE
 70
     6
  9
$SPLINESEGS
 70
     8
  9
$HANDSEED
  5
B2
  9
$SURFTAB1
 70
     6
  9
$SURFTAB2
 70
     6
  9
$SURFTYPE
 70
     6
  9
$SURFU
 70
     6
  9
$SURFV
 70
     6
  9
$UCSBASE
  2

  9
$UCSNAME
  2

  9
$UCSORG
 10
0.0
 20
0.0
 30
0.0
  9
$UCSXDIR
 10
1.0
 20
0.0
 30
0.0
  9
$UCSYDIR
 10
0.0
 20
1.0
 30
0.0
  9
$UCSORTHOREF
  2

  9
$UCSORTHOVIEW
 70
     0
  9
$UCSORGTOP
 10
0.0
 20
0.0
 30
0.0
  9
$UCSORGBOTTOM
 10
0.0
 20
0.0
 30
0.0
  9
$UCSORGLEFT
 10
0.0
 20
0.0
 30
0.0
  9
$UCSORGRIGHT
 10
0.0
 20
0.0
 30
0.0
  9
$UCSORGFRONT
 10
0.0
 20
0.0
 30
0.0
  9
$UCSORGBACK
 10
0.0
 20
0.0
 30
0.0
  9
$PUCSBASE
  2

  9
$PUCSNAME
  2

  9
$PUCSORG
 10
0.0
 20
0.0
 30
0.0
  9
$PUCSXDIR
 10
1.0
 20
0.0
 30
0.0
  9
$PUCSYDIR
 10
0.0
 20
1.0
 30
0.0
  9
$PUCSORTHOREF
  2

  9
$PUCSORTHOVIEW
 70
     0
  9
$PUCSORGTOP
 10
0.0
 20
0.0
 30
0.0
  9
$PUCSORGBOTTOM
 10
0.0
 20
0.0
 30
0.0
  9
$PUCSORGLEFT
 10
0.0
 20
0.0
 30
0.0
  9
$PUCSORGRIGHT
 10
0.0
 20
0.0
 30
0.0
  9
$PUCSORGFRONT
 10
0.0
 20
0.0
 30
0.0
  9
$PUCSORGBACK
 10
0.0
 20
0.0
 30
0.0
  9
$USERI1
 70
     0
  9
$USERI2
 70
     0
  9
$USERI3
 70
     0
  9
$USERI4
 70
     0
  9
$USERI5
 70
     0
  9
$USERR1
 40
0.0
  9
$USERR2
 40
0.0
  9
$USERR3
 40
0.0
  9
$USERR4
 40
0.0
  9
$USERR5
 40
0.0
  9
$WORLDVIEW
 70
     1
  9
$SHADEDGE
 70
     3
  9
$SHADEDIF
 70
    70
  9
$TILEMODE
 70
     1
  9
$MAXACTVP
 70
    64
  9
$PINSBASE
 10
0.0
 20
0.0
 30
0.0
  9
$PLIMCHECK
 70
     0
  9
$PEXTMIN
 10
1.000000000000000E+20
 20
1.000000000000000E+20
 30
1.000000000000000E+20
  9
$PEXTMAX
 10
-1.000000000000000E+20
 20
-1.000000000000000E+20
 30
-1.000000000000000E+20
  9
$PLIMMIN
 10
0.0
 20
0.0
  9
$PLIMMAX
 10
12.0
 20
9.0
  9
$UNITMODE
 70
     0
  9
$VISRETAIN
 70
     1
  9
$PLINEGEN
 70
     0
  9
$PSLTSCALE
 70
     1
  9
$TREEDEPTH
 70
  3020
  9
$CMLSTYLE
  2
Standard
  9
$CMLJUST
 70
     0
  9
$CMLSCALE
 40
1.0
  9
$PROXYGRAPHICS
 70
     1
  9
$MEASUREMENT
 70
     0
  9
$CELWEIGHT
370
    -1
  9
$ENDCAPS
280
     0
  9
$JOINSTYLE
280
     0
  9
$LWDISPLAY
290
     1
  9
$INSUNITS
 70
     1
  9
$HYPERLINKBASE
  1

  9
$STYLESHEET
  1

  9
$XEDIT
290
     1
  9
$CEPSNTYPE
380
     0
  9
$PSTYLEMODE
290
     1
  9
$FINGERPRINTGUID
  2
{C5CDE06A-F4A9-1948-FDF4-A038708ABCEC}
  9
$VERSIONGUID
  2
{FAEB1C32-E019-11D5-929B-00C0DF256EC4}
  9
$EXTNAMES
290
     1
  9
$PSVPSCALE
 40
0.0
  9
$OLESTARTUP
290
     0
  9
$SORTENTS
280
   127
  9
$INDEXCTL
280
     0
  9
$HIDETEXT
280
     1
  9
$XCLIPFRAME
280
     2
  9
$HALOGAP
280
     0
  9
$OBSCOLOR
 70
   257
  9
$OBSLTYPE
280
     0
  9
$INTERSECTIONDISPLAY
280
     0
  9
$INTERSECTIONCOLOR
 70
   257
  9
$DIMASSOC
280
     2
  9
$PROJECTNAME
  1

  9
$CAMERADISPLAY
290
     0
  9
$LENSLENGTH
 40
50.0
  9
$CAMERAHEIGHT
 40
0.0
  9
$STEPSPERSEC
 40
2.0
  9
$STEPSIZE
 40
6.0
  9
$3DDWFPREC
 40
2.0
  9
$PSOLWIDTH
 40
0.25
  9
$PSOLHEIGHT
 40
4.0
  9
$LOFTANG1
 40
1.570796326794897
  9
$LOFTANG2
 40
1.570796326794897
  9
$LOFTMAG1
 40
0.0
  9
$LOFTMAG2
 40
0.0
  9
$LOFTPARAM
 70
     7
  9
$LOFTNORMALS
280
     1
  9
$LATITUDE
 40
37.795
  9
$LONGITUDE
 40
-122.394
  9
$NORTHDIRECTION
 40
0.0
  9
$TIMEZONE
 70
 -8000
  9
$LIGHTGLYPHDISPLAY
280
     1
  9
$TILEMODELIGHTSYNCH
280
     1
  9
$CMATERIAL
347
3C
  9
$SOLIDHIST
280
     1
  9
$SHOWHIST
280
     1
  9
$DWFFRAME
280
     2
  9
$DGNFRAME
280
     2
  9
$REALWORLDSCALE
290
     1
  9
$INTERFERECOLOR
 62
   256
  9
$CSHADOW
280
     0
  9
$SHADOWPLANELOCATION
 40
0.0
  0
ENDSEC
  0
SECTION
  2
CLASSES
  0
CLASS
  1
ACDBDICTIONARYWDFLT
  2
AcDbDictionaryWithDefault
  3
ObjectDBX Classes
 90
        0
 91
        4
280
     0
281
     0
  0
CLASS
  1
VISUALSTYLE
  2
AcDbVisualStyle
  3
ObjectDBX Classes
 90
     4095
 91
        4
280
     0
281
     0
  0
CLASS
  1
MATERIAL
  2
AcDbMaterial
  3
ObjectDBX Classes
 90
     1153
 91
        4
280
     0
281
     0
  0
CLASS
  1
SUN
  2
AcDbSun
  3
SCENEOE
 90
     1024
 91
        4
280
     0
281
     0
  0
ENDSEC
  0
SECTION
  2
TABLES
  0
TABLE
  2
VPORT
  5
8
330
0
100
AcDbSymbolTable
 70
     1
  0
VPORT
  5
29
330
8
100
AcDbSymbolTableRecord
100
AcDbViewportTableRecord
  2
*Active
 70
     0
 10
0.0
 20
0.0
 11
1.0
 21
1.0
 12
0.0
 22
0.0
 13
0.0
 23
0.0
 14
0.5
 24
0.5
 15
0.5
 25
0.5
 16
0.0
 26
0.0
 36
1.0
 17
91.00082462281999
 27
-128.4993055234307
 37
0.0
 40
256.9986110468615
 41
0.7081814508812795
 42
50.0
 43
0.0
 44
0.0
 50
0.0
 51
0.0
 71
     0
 72
   100
 73
     1
 74
     3
 75
     0
 76
     0
 77
     0
 78
     0
281
     0
 65
     1
110
0.0
120
0.0
130
0.0
111
1.0
121
0.0
131
0.0
112
0.0
122
1.0
132
0.0
 79
     0
146
0.0
 60
     3
 61
     5
292
     1
282
     1
141
0.0
142
0.0
 63
   250
361
3F
  0
ENDTAB
  0
TABLE
  2
LTYPE
  5
5
330
0
100
AcDbSymbolTable
 70
     1
  0
LTYPE
  5
14
330
5
100
AcDbSymbolTableRecord
100
AcDbLinetypeTableRecord
  2
ByBlock
 70
     0
  3

 72
    65
 73
     0
 40
0.0
  0
LTYPE
  5
15
330
5
100
AcDbSymbolTableRecord
100
AcDbLinetypeTableRecord
  2
ByLayer
 70
     0
  3

 72
    65
 73
     0
 40
0.0
  0
LTYPE
  5
16
330
5
100
AcDbSymbolTableRecord
100
AcDbLinetypeTableRecord
  2
Continuous
 70
     0
  3
Solid line
 72
    65
 73
     0
 40
0.0
  0
ENDTAB
  0
TABLE
  2
LAYER
  5
2
330
0
100
AcDbSymbolTable
 70
     2
  0
LAYER
  5
10
330
2
100
AcDbSymbolTableRecord
100
AcDbLayerTableRecord
  2
0
 70
     0
 62
     7
  6
Continuous
370
    -3
390
F
347
3E
  0
LAYER
  5
40
330
2
100
AcDbSymbolTableRecord
100
AcDbLayerTableRecord
  2
_U+30EC_U+30A4_U+30E4_U+30FC 1
 70
     0
 62
     7
  6
Continuous
370
    -3
390
F
347
3E
  0
ENDTAB
  0
TABLE
  2
STYLE
  5
3
330
0
100
AcDbSymbolTable
 70
     1
  0
STYLE
  5
11
330
3
100
AcDbSymbolTableRecord
100
AcDbTextStyleTableRecord
  2
Standard
 70
     0
 40
0.0
 41
1.0
 50
0.0
 71
     0
 42
0.2
  3
txt
  4

  0
ENDTAB
  0
TABLE
  2
VIEW
  5
6
330
0
100
AcDbSymbolTable
 70
     0
  0
ENDTAB
  0
TABLE
  2
UCS
  5
7
330
0
100
AcDbSymbolTable
 70
     0
  0
ENDTAB
  0
TABLE
  2
APPID
  5
9
330
0
100
AcDbSymbolTable
 70
     1
  0
APPID
  5
12
330
9
100
AcDbSymbolTableRecord
100
AcDbRegAppTableRecord
  2
ACAD
 70
     0
  0
ENDTAB
  0
TABLE
  2
DIMSTYLE
  5
A
330
0
100
AcDbSymbolTable
 70
     1
100
AcDbDimStyleTable
  0
DIMSTYLE
105
27
330
A
100
AcDbSymbolTableRecord
100
AcDbDimStyleTableRecord
  2
Standard
 70
     0
178
     0
340
11
  0
ENDTAB
  0
TABLE
  2
BLOCK_RECORD
  5
1
330
0
100
AcDbSymbolTable
 70
     4
  0
BLOCK_RECORD
  5
1F
330
1
100
AcDbSymbolTableRecord
100
AcDbBlockTableRecord
  2
*Model_Space
340
22
 70
     0
280
     1
281
     0
  0
BLOCK_RECORD
  5
1B
330
1
100
AcDbSymbolTableRecord
100
AcDbBlockTableRecord
  2
*Paper_Space
340
1E
 70
     0
280
     1
281
     0
  0
BLOCK_RECORD
  5
23
330
1
100
AcDbSymbolTableRecord
100
AcDbBlockTableRecord
  2
*Paper_Space0
340
26
 70
     0
280
     1
281
     0
  0
BLOCK_RECORD
  5
83
330
1
100
AcDbSymbolTableRecord
100
AcDbBlockTableRecord
  2
block 2
340
0
102
{BLKREFS
331
84
102
}
 70
     0
280
     1
281
     0
  0
BLOCK_RECORD
  5
94
330
1
100
AcDbSymbolTableRecord
100
AcDbBlockTableRecord
  2
block 3
340
0
102
{BLKREFS
331
95
102
}
 70
     0
280
     1
281
     0
  0
BLOCK_RECORD
  5
9C
330
1
100
AcDbSymbolTableRecord
100
AcDbBlockTableRecord
  2
block 4
340
0
102
{BLKREFS
331
9D
102
}
 70
     0
280
     1
281
     0
  0
ENDTAB
  0
ENDSEC
  0
SECTION
  2
BLOCKS
  0
BLOCK
  5
20
330
1F
100
AcDbEntity
  8
0
100
AcDbBlockBegin
  2
*Model_Space
 70
     0
 10
0.0
 20
0.0
 30
0.0
  3
*Model_Space
  1

  0
ENDBLK
  5
21
330
1F
100
AcDbEntity
  8
0
100
AcDbBlockEnd
  0
BLOCK
  5
1C
330
1B
100
AcDbEntity
 67
     1
  8
0
100
AcDbBlockBegin
  2
*Paper_Space
 70
     0
 10
0.0
 20
0.0
 30
0.0
  3
*Paper_Space
  1

  0
ENDBLK
  5
1D
330
1B
100
AcDbEntity
 67
     1
  8
0
100
AcDbBlockEnd
  0
BLOCK
  5
24
330
23
100
AcDbEntity
  8
0
100
AcDbBlockBegin
  2
*Paper_Space0
 70
     0
 10
0.0
 20
0.0
 30
0.0
  3
*Paper_Space0
  1

  0
ENDBLK
  5
25
330
23
100
AcDbEntity
  8
0
100
AcDbBlockEnd
  0
BLOCK
  5
85
330
83
100
AcDbEntity
  8
0
100
AcDbBlockBegin
  2
block 2
 70
     0
 10
0.0
 20
0.0
 30
0.0
  3
block 2
  1

  0
SPLINE
  5
87
330
83
100
AcDbEntity
  8
_U+30EC_U+30A4_U+30E4_U+30FC 1
370
     0
100
AcDbSpline
210
0.0
220
0.0
230
1.0
 70
    11
 71
     3
 72
    53
 73
    49
 74
     0
 42
0.0000000001
 43
0.0000000001
 12
1.0
 22
0.0
 32
0.0
 13
1.0
 23
0.0
 33
0.0
 40
0.0
 40
0.0
 40
0.0
 40
0.0
 40
1.0
 40
1.0
 40
1.0
 40
2.0
 40
2.0
 40
2.0
 40
3.0
 40
3.0
 40
3.0
 40
4.0
 40
4.0
 40
4.0
 40
5.0
 40
5.0
 40
5.0
 40
6.0
 40
6.0
 40
6.0
 40
7.0
 40
7.0
 40
7.0
 40
8.0
 40
8.0
 40
8.0
 40
9.0
 40
9.0
 40
9.0
 40
10.0
 40
10.0
 40
10.0
 40
11.0
 40
11.0
 40
11.0
 40
12.0
 40
12.0
 40
12.0
 40
13.0
 40
13.0
 40
13.0
 40
14.0
 40
14.0
 40
14.0
 40
15.0
 40
15.0
 40
15.0
 40
16.0
 40
16.0
 40
16.0
 40
16.0
 10
85.17964136325371
 20
-114.8351955550586
 30
0.0
 10
85.10126544096427
 20
-114.8351955550586
 30
0.0
 10
84.99980737892366
 20
-114.8181423324066
 30
0.0
 10
84.89817706210879
 20
-114.754752575478
 30
0.0
 10
84.72471650442647
 20
-114.6446817747242
 30
0.0
 10
84.70352916719217
 20
-114.5135958915105
 30
0.0
 10
84.6845811420233
 20
-114.4057644028222
 30
0.0
 10
84.6845811420233
 20
-114.4057644028222
 30
0.0
 10
84.90661754604766
 20
-114.4057644028222
 30
0.0
 10
84.90661754604766
 20
-114.4057644028222
 30
0.0
 10
84.96173907381166
 20
-114.6045464123211
 30
0.0
 10
85.08869084244311
 20
-114.6341742334942
 30
0.0
 10
85.18170842054485
 20
-114.6341742334942
 30
0.0
 10
85.32123478769748
 20
-114.6341742334942
 30
0.0
 10
85.47368026291979
 20
-114.5347832287448
 30
0.0
 10
85.47368026291979
 20
-114.3020670287162
 30
0.0
 10
85.47368026291979
 20
-114.0460964341621
 30
0.0
 10
85.29384627858974
 20
-113.9763332505858
 30
0.0
 10
85.173267936606
 20
-113.9763332505858
 30
0.0
 10
85.14157305814169
 20
-113.9763332505858
 30
0.0
 10
84.99980737892366
 20
-113.9763332505858
 30
0.0
 10
84.91092391540421
 20
-114.1053520765084
 30
0.0
 10
84.91092391540421
 20
-114.1053520765084
 30
0.0
 10
84.73539630043074
 20
-114.0862317965653
 30
0.0
 10
84.73539630043074
 20
-114.0862317965653
 30
0.0
 10
84.73539630043074
 20
-114.0862317965653
 30
0.0
 10
84.85597464241448
 20
-113.2401163453879
 30
0.0
 10
84.85597464241448
 20
-113.2401163453879
 30
0.0
 10
84.85597464241448
 20
-113.2401163453879
 30
0.0
 10
85.63439396730668
 20
-113.2401163453879
 30
0.0
 10
85.63439396730668
 20
-113.2401163453879
 30
0.0
 10
85.63439396730668
 20
-113.2401163453879
 30
0.0
 10
85.63439396730668
 20
-113.4347642403045
 30
0.0
 10
85.63439396730668
 20
-113.4347642403045
 30
0.0
 10
85.63439396730668
 20
-113.4347642403045
 30
0.0
 10
85.01875540409253
 20
-113.4347642403045
 30
0.0
 10
85.01875540409253
 20
-113.4347642403045
 30
0.0
 10
85.01875540409253
 20
-113.4347642403045
 30
0.0
 10
84.95329858987279
 20
-113.8578219658932
 30
0.0
 10
84.95329858987279
 20
-113.8578219658932
 30
0.0
 10
85.01462128951023
 20
-113.8238877753635
 30
0.0
 10
85.09713132638197
 20
-113.7837524129603
 30
0.0
 10
85.2154703563003
 20
-113.7837524129603
 30
0.0
 10
85.46937389356322
 20
-113.7837524129603
 30
0.0
 10
85.7063964629484
 20
-113.9699598239381
 30
0.0
 10
85.7063964629484
 20
-114.282946748773
 30
0.0
 10
85.7063964629484
 20
-114.6004122977388
 30
0.0
 10
85.48212074685864
 20
-114.8351955550586
 30
0.0
 10
85.17964136325371
 20
-114.8351955550586
 30
0.0
  0
HATCH
  5
88
330
83
100
AcDbEntity
  8
_U+30EC_U+30A4_U+30E4_U+30FC 1
 62
   179
420
  2234388
100
AcDbHatch
 10
0.0
 20
0.0
 30
0.0
210
0.0
220
0.0
230
1.0
  2
SOLID
 70
     1
 71
     0
 91
        1
 92
        1
 93
        1
 72
     4
 94
        3
 73
     0
 74
     1
 95
       53
 96
       49
 40
0.0
 40
0.0
 40
0.0
 40
0.0
 40
1.0
 40
1.0
 40
1.0
 40
2.0
 40
2.0
 40
2.0
 40
3.0
 40
3.0
 40
3.0
 40
4.0
 40
4.0
 40
4.0
 40
5.0
 40
5.0
 40
5.0
 40
6.0
 40
6.0
 40
6.0
 40
7.0
 40
7.0
 40
7.0
 40
8.0
 40
8.0
 40
8.0
 40
9.0
 40
9.0
 40
9.0
 40
10.0
 40
10.0
 40
10.0
 40
11.0
 40
11.0
 40
11.0
 40
12.0
 40
12.0
 40
12.0
 40
13.0
 40
13.0
 40
13.0
 40
14.0
 40
14.0
 40
14.0
 40
15.0
 40
15.0
 40
15.0
 40
16.0
 40
16.0
 40
16.0
 40
16.0
 10
85.17964136325371
 20
-114.8351955550586
 10
85.10126544096427
 20
-114.8351955550586
 10
84.99980737892366
 20
-114.8181423324066
 10
84.89817706210879
 20
-114.754752575478
 10
84.72471650442647
 20
-114.6446817747242
 10
84.70352916719217
 20
-114.5135958915105
 10
84.6845811420233
 20
-114.4057644028222
 10
84.6845811420233
 20
-114.4057644028222
 10
84.90661754604766
 20
-114.4057644028222
 10
84.90661754604766
 20
-114.4057644028222
 10
84.96173907381166
 20
-114.6045464123211
 10
85.08869084244311
 20
-114.6341742334942
 10
85.18170842054485
 20
-114.6341742334942
 10
85.32123478769748
 20
-114.6341742334942
 10
85.47368026291979
 20
-114.5347832287448
 10
85.47368026291979
 20
-114.3020670287162
 10
85.47368026291979
 20
-114.0460964341621
 10
85.29384627858974
 20
-113.9763332505858
 10
85.173267936606
 20
-113.9763332505858
 10
85.14157305814169
 20
-113.9763332505858
 10
84.99980737892366
 20
-113.9763332505858
 10
84.91092391540421
 20
-114.1053520765084
 10
84.91092391540421
 20
-114.1053520765084
 10
84.73539630043074
 20
-114.0862317965653
 10
84.73539630043074
 20
-114.0862317965653
 10
84.73539630043074
 20
-114.0862317965653
 10
84.85597464241448
 20
-113.2401163453879
 10
84.85597464241448
 20
-113.2401163453879
 10
84.85597464241448
 20
-113.2401163453879
 10
85.63439396730668
 20
-113.2401163453879
 10
85.63439396730668
 20
-113.2401163453879
 10
85.63439396730668
 20
-113.2401163453879
 10
85.63439396730668
 20
-113.4347642403045
 10
85.63439396730668
 20
-113.4347642403045
 10
85.63439396730668
 20
-113.4347642403045
 10
85.01875540409253
 20
-113.4347642403045
 10
85.01875540409253
 20
-113.4347642403045
 10
85.01875540409253
 20
-113.4347642403045
 10
84.95329858987279
 20
-113.8578219658932
 10
84.95329858987279
 20
-113.8578219658932
 10
85.01462128951023
 20
-113.8238877753635
 10
85.09713132638197
 20
-113.7837524129603
 10
85.2154703563003
 20
-113.7837524129603
 10
85.46937389356322
 20
-113.7837524129603
 10
85.7063964629484
 20
-113.9699598239381
 10
85.7063964629484
 20
-114.282946748773
 10
85.7063964629484
 20
-114.6004122977388
 10
85.48212074685864
 20
-114.8351955550586
 10
85.17964136325371
 20
-114.8351955550586
 97
        0
 97
        0
 75
     2
 76
     1
 98
        0
  0
SPLINE
  5
89
330
83
100
AcDbEntity
  8
_U+30EC_U+30A4_U+30E4_U+30FC 1
370
     0
100
AcDbSpline
210
0.0
220
0.0
230
1.0
 70
    11
 71
     3
 72
    29
 73
    25
 74
     0
 42
0.0000000001
 43
0.0000000001
 12
1.0
 22
0.0
 32
0.0
 13
1.0
 23
0.0
 33
0.0
 40
0.0
 40
0.0
 40
0.0
 40
0.0
 40
1.0
 40
1.0
 40
1.0
 40
2.0
 40
2.0
 40
2.0
 40
3.0
 40
3.0
 40
3.0
 40
4.0
 40
4.0
 40
4.0
 40
5.0
 40
5.0
 40
5.0
 40
6.0
 40
6.0
 40
6.0
 40
7.0
 40
7.0
 40
7.0
 40
8.0
 40
8.0
 40
8.0
 40
8.0
 10
86.77334253473028
 20
-114.6066134696122
 30
0.0
 10
86.66516653649343
 20
-114.8160752751154
 30
0.0
 10
86.49187823358537
 20
-114.8351955550586
 30
0.0
 10
86.37543400618392
 20
-114.8351955550586
 30
0.0
 10
86.21454804702276
 20
-114.8351955550586
 30
0.0
 10
86.07295462257899
 20
-114.7886867660077
 30
0.0
 10
85.97769773241183
 20
-114.6066134696122
 30
0.0
 10
85.87417261308008
 20
-114.4119655746956
 30
0.0
 10
85.85505233313694
 20
-114.1751152600847
 30
0.0
 10
85.85505233313694
 20
-114.0121622436324
 30
0.0
 10
85.85505233313694
 20
-113.8683295071232
 30
0.0
 10
85.87193330101466
 20
-113.6166652819257
 30
0.0
 10
85.97769773241183
 20
-113.4177110176525
 30
0.0
 10
86.08570147587442
 20
-113.214622638797
 30
0.0
 10
86.24658743503558
 20
-113.1913682442716
 30
0.0
 10
86.37543400618392
 20
-113.1913682442716
 30
0.0
 10
86.53425290805394
 20
-113.1913682442716
 30
0.0
 10
86.67791338978886
 20
-113.2358099760313
 30
0.0
 10
86.77334253473028
 20
-113.4177110176525
 30
0.0
 10
86.87256128470547
 20
-113.610291855278
 30
0.0
 10
86.89598793400518
 20
-113.8387016859501
 30
0.0
 10
86.89598793400518
 20
-114.0121622436324
 30
0.0
 10
86.89598793400518
 20
-114.1835557440236
 30
0.0
 10
86.87462834199663
 20
-114.414204886761
 30
0.0
 10
86.77334253473028
 20
-114.6066134696122
 30
0.0
  0
SPLINE
  5
8A
330
83
100
AcDbEntity
  8
_U+30EC_U+30A4_U+30E4_U+30FC 1
370
     0
100
AcDbSpline
210
0.0
220
0.0
230
1.0
 70
    11
 71
     3
 72
    17
 73
    13
 74
     0
 42
0.0000000001
 43
0.0000000001
 12
1.0
 22
0.0
 32
0.0
 13
1.0
 23
0.0
 33
0.0
 40
0.0
 40
0.0
 40
0.0
 40
0.0
 40
1.0
 40
1.0
 40
1.0
 40
2.0
 40
2.0
 40
2.0
 40
3.0
 40
3.0
 40
3.0
 40
4.0
 40
4.0
 40
4.0
 40
4.0
 10
86.37543400618392
 20
-113.3839490818971
 30
0.0
 10
86.12583683827758
 20
-113.3839490818971
 30
0.0
 10
86.0793280492267
 20
-113.6674804403331
 30
0.0
 10
86.0793280492267
 20
-114.0121622436324
 30
0.0
 10
86.0793280492267
 20
-114.3316948498893
 30
0.0
 10
86.11532929704757
 20
-114.6405476601419
 30
0.0
 10
86.37543400618392
 20
-114.6405476601419
 30
0.0
 10
86.62313637157338
 20
-114.6405476601419
 30
0.0
 10
86.67171221791541
 20
-114.359083358997
 30
0.0
 10
86.67171221791541
 20
-114.0121622436324
 30
0.0
 10
86.67171221791541
 20
-113.6928018921497
 30
0.0
 10
86.63347165802914
 20
-113.3839490818971
 30
0.0
 10
86.37543400618392
 20
-113.3839490818971
 30
0.0
  0
HATCH
  5
8B
330
83
100
AcDbEntity
  8
_U+30EC_U+30A4_U+30E4_U+30FC 1
 62
   179
420
  2234388
100
AcDbHatch
 10
0.0
 20
0.0
 30
0.0
210
0.0
220
0.0
230
1.0
  2
SOLID
 70
     1
 71
     0
 91
        2
 92
        1
 93
        1
 72
     4
 94
        3
 73
     0
 74
     1
 95
       29
 96
       25
 40
0.0
 40
0.0
 40
0.0
 40
0.0
 40
1.0
 40
1.0
 40
1.0
 40
2.0
 40
2.0
 40
2.0
 40
3.0
 40
3.0
 40
3.0
 40
4.0
 40
4.0
 40
4.0
 40
5.0
 40
5.0
 40
5.0
 40
6.0
 40
6.0
 40
6.0
 40
7.0
 40
7.0
 40
7.0
 40
8.0
 40
8.0
 40
8.0
 40
8.0
 10
86.77334253473028
 20
-114.6066134696122
 10
86.66516653649343
 20
-114.8160752751154
 10
86.49187823358537
 20
-114.8351955550586
 10
86.37543400618392
 20
-114.8351955550586
 10
86.21454804702276
 20
-114.8351955550586
 10
86.07295462257899
 20
-114.7886867660077
 10
85.97769773241183
 20
-114.6066134696122
 10
85.87417261308008
 20
-114.4119655746956
 10
85.85505233313694
 20
-114.1751152600847
 10
85.85505233313694
 20
-114.0121622436324
 10
85.85505233313694
 20
-113.8683295071232
 10
85.87193330101466
 20
-113.6166652819257
 10
85.97769773241183
 20
-113.4177110176525
 10
86.08570147587442
 20
-113.214622638797
 10
86.24658743503558
 20
-113.1913682442716
 10
86.37543400618392
 20
-113.1913682442716
 10
86.53425290805394
 20
-113.1913682442716
 10
86.67791338978886
 20
-113.2358099760313
 10
86.77334253473028
 20
-113.4177110176525
 10
86.87256128470547
 20
-113.610291855278
 10
86.89598793400518
 20
-113.8387016859501
 10
86.89598793400518
 20
-114.0121622436324
 10
86.89598793400518
 20
-114.1835557440236
 10
86.87462834199663
 20
-114.414204886761
 10
86.77334253473028
 20
-114.6066134696122
 97
        0
 97
        0
 92
        1
 93
        1
 72
     4
 94
        3
 73
     0
 74
     1
 95
       17
 96
       13
 40
0.0
 40
0.0
 40
0.0
 40
0.0
 40
1.0
 40
1.0
 40
1.0
 40
2.0
 40
2.0
 40
2.0
 40
3.0
 40
3.0
 40
3.0
 40
4.0
 40
4.0
 40
4.0
 40
4.0
 10
86.37543400618392
 20
-113.3839490818971
 10
86.12583683827758
 20
-113.3839490818971
 10
86.0793280492267
 20
-113.6674804403331
 10
86.0793280492267
 20
-114.0121622436324
 10
86.0793280492267
 20
-114.3316948498893
 10
86.11532929704757
 20
-114.6405476601419
 10
86.37543400618392
 20
-114.6405476601419
 10
86.62313637157338
 20
-114.6405476601419
 10
86.67171221791541
 20
-114.359083358997
 10
86.67171221791541
 20
-114.0121622436324
 10
86.67171221791541
 20
-113.6928018921497
 10
86.63347165802914
 20
-113.3839490818971
 10
86.37543400618392
 20
-113.3839490818971
 97
        0
 97
        0
 75
     2
 76
     1
 98
        0
  0
ENDBLK
  5
86
330
83
100
AcDbEntity
  8
0
100
AcDbBlockEnd
  0
BLOCK
  5
96
330
94
100
AcDbEntity
  8
0
100
AcDbBlockBegin
  2
block 3
 70
     0
 10
0.0
 20
0.0
 30
0.0
  3
block 3
  1

  0
SPLINE
  5
98
330
94
100
AcDbEntity
  8
_U+30EC_U+30A4_U+30E4_U+30FC 1
370
     0
100
AcDbSpline
210
0.0
220
0.0
230
1.0
 70
    11
 71
     3
 72
    44
 73
    40
 74
     0
 42
0.0000000001
 43
0.0000000001
 12
1.0
 22
0.0
 32
0.0
 13
1.0
 23
0.0
 33
0.0
 40
0.0
 40
0.0
 40
0.0
 40
0.0
 40
1.0
 40
1.0
 40
1.0
 40
2.0
 40
2.0
 40
2.0
 40
3.0
 40
3.0
 40
3.0
 40
4.0
 40
4.0
 40
4.0
 40
5.0
 40
5.0
 40
5.0
 40
6.0
 40
6.0
 40
6.0
 40
7.0
 40
7.0
 40
7.0
 40
8.0
 40
8.0
 40
8.0
 40
9.0
 40
9.0
 40
9.0
 40
10.0
 40
10.0
 40
10.0
 40
11.0
 40
11.0
 40
11.0
 40
12.0
 40
12.0
 40
12.0
 40
13.0
 40
13.0
 40
13.0
 40
13.0
 10
113.5593044420963
 20
-132.426369867067
 30
0.0
 10
113.7181233439663
 20
-132.6440999017348
 30
0.0
 10
113.7921928968992
 20
-132.7371174798366
 30
0.0
 10
113.9358533786341
 20
-132.7860378357271
 30
0.0
 10
113.9358533786341
 20
-132.7860378357271
 30
0.0
 10
113.9358533786341
 20
-132.0074462560606
 30
0.0
 10
113.9358533786341
 20
-132.0074462560606
 30
0.0
 10
113.9358533786341
 20
-132.0074462560606
 30
0.0
 10
114.141181069555
 20
-132.0074462560606
 30
0.0
 10
114.141181069555
 20
-132.0074462560606
 30
0.0
 10
114.141181069555
 20
-132.0074462560606
 30
0.0
 10
114.141181069555
 20
-133.0354627488592
 30
0.0
 10
114.141181069555
 20
-133.0354627488592
 30
0.0
 10
113.7835801581861
 20
-133.0037678703949
 30
0.0
 10
113.7053764906709
 20
-132.9383110561751
 30
0.0
 10
113.4070312216483
 20
-132.5531493809242
 30
0.0
 10
113.2082492121493
 20
-132.2971787863702
 30
0.0
 10
113.1403808310899
 20
-132.2317219721504
 30
0.0
 10
113.0029215212284
 20
-132.2317219721504
 30
0.0
 10
112.8844102365358
 20
-132.2317219721504
 30
0.0
 10
112.7534966080964
 20
-132.3037244677921
 30
0.0
 10
112.7534966080964
 20
-132.5004394199999
 30
0.0
 10
112.7534966080964
 20
-132.7605441291363
 30
0.0
 10
112.9839734960596
 20
-132.7691568678494
 30
0.0
 10
113.100417723461
 20
-132.7732909824317
 30
0.0
 10
113.100417723461
 20
-132.7732909824317
 30
0.0
 10
113.100417723461
 20
-132.9975666985214
 30
0.0
 10
113.100417723461
 20
-132.9975666985214
 30
0.0
 10
112.9732937000553
 20
-132.9889539598083
 30
0.0
 10
112.8613280967847
 20
-132.9782741638041
 30
0.0
 10
112.7428168120921
 20
-132.8980034389977
 30
0.0
 10
112.5819308529309
 20
-132.7881048930183
 30
0.0
 10
112.5481689171755
 20
-132.6017252272662
 30
0.0
 10
112.5481689171755
 20
-132.4856255094133
 30
0.0
 10
112.5481689171755
 20
-132.2082953228507
 30
0.0
 10
112.7321370160878
 20
-132.0009005746387
 30
0.0
 10
113.0049885785196
 20
-132.0009005746387
 30
0.0
 10
113.2337429187402
 20
-132.0009005746387
 30
0.0
 10
113.3329616687154
 20
-132.1173448020401
 30
0.0
 10
113.5593044420963
 20
-132.426369867067
 30
0.0
  0
HATCH
  5
99
330
94
100
AcDbEntity
  8
_U+30EC_U+30A4_U+30E4_U+30FC 1
 62
   179
420
  2234388
100
AcDbHatch
 10
0.0
 20
0.0
 30
0.0
210
0.0
220
0.0
230
1.0
  2
SOLID
 70
     1
 71
     0
 91
        1
 92
        1
 93
        1
 72
     4
 94
        3
 73
     0
 74
     1
 95
       44
 96
       40
 40
0.0
 40
0.0
 40
0.0
 40
0.0
 40
1.0
 40
1.0
 40
1.0
 40
2.0
 40
2.0
 40
2.0
 40
3.0
 40
3.0
 40
3.0
 40
4.0
 40
4.0
 40
4.0
 40
5.0
 40
5.0
 40
5.0
 40
6.0
 40
6.0
 40
6.0
 40
7.0
 40
7.0
 40
7.0
 40
8.0
 40
8.0
 40
8.0
 40
9.0
 40
9.0
 40
9.0
 40
10.0
 40
10.0
 40
10.0
 40
11.0
 40
11.0
 40
11.0
 40
12.0
 40
12.0
 40
12.0
 40
13.0
 40
13.0
 40
13.0
 40
13.0
 10
113.5593044420963
 20
-132.426369867067
 10
113.7181233439663
 20
-132.6440999017348
 10
113.7921928968992
 20
-132.7371174798366
 10
113.9358533786341
 20
-132.7860378357271
 10
113.9358533786341
 20
-132.7860378357271
 10
113.9358533786341
 20
-132.0074462560606
 10
113.9358533786341
 20
-132.0074462560606
 10
113.9358533786341
 20
-132.0074462560606
 10
114.141181069555
 20
-132.0074462560606
 10
114.141181069555
 20
-132.0074462560606
 10
114.141181069555
 20
-132.0074462560606
 10
114.141181069555
 20
-133.0354627488592
 10
114.141181069555
 20
-133.0354627488592
 10
113.7835801581861
 20
-133.0037678703949
 10
113.7053764906709
 20
-132.9383110561751
 10
113.4070312216483
 20
-132.5531493809242
 10
113.2082492121493
 20
-132.2971787863702
 10
113.1403808310899
 20
-132.2317219721504
 10
113.0029215212284
 20
-132.2317219721504
 10
112.8844102365358
 20
-132.2317219721504
 10
112.7534966080964
 20
-132.3037244677921
 10
112.7534966080964
 20
-132.5004394199999
 10
112.7534966080964
 20
-132.7605441291363
 10
112.9839734960596
 20
-132.7691568678494
 10
113.100417723461
 20
-132.7732909824317
 10
113.100417723461
 20
-132.7732909824317
 10
113.100417723461
 20
-132.9975666985214
 10
113.100417723461
 20
-132.9975666985214
 10
112.9732937000553
 20
-132.9889539598083
 10
112.8613280967847
 20
-132.9782741638041
 10
112.7428168120921
 20
-132.8980034389977
 10
112.5819308529309
 20
-132.7881048930183
 10
112.5481689171755
 20
-132.6017252272662
 10
112.5481689171755
 20
-132.4856255094133
 10
112.5481689171755
 20
-132.2082953228507
 10
112.7321370160878
 20
-132.0009005746387
 10
113.0049885785196
 20
-132.0009005746387
 10
113.2337429187402
 20
-132.0009005746387
 10
113.3329616687154
 20
-132.1173448020401
 10
113.5593044420963
 20
-132.426369867067
 97
        0
 97
        0
 75
     2
 76
     1
 98
        0
  0
SPLINE
  5
9A
330
94
100
AcDbEntity
  8
_U+30EC_U+30A4_U+30E4_U+30FC 1
370
     0
100
AcDbSpline
210
0.0
220
0.0
230
1.0
 70
    11
 71
     3
 72
    53
 73
    49
 74
     0
 42
0.0000000001
 43
0.0000000001
 12
1.0
 22
0.0
 32
0.0
 13
1.0
 23
0.0
 33
0.0
 40
0.0
 40
0.0
 40
0.0
 40
0.0
 40
1.0
 40
1.0
 40
1.0
 40
2.0
 40
2.0
 40
2.0
 40
3.0
 40
3.0
 40
3.0
 40
4.0
 40
4.0
 40
4.0
 40
5.0
 40
5.0
 40
5.0
 40
6.0
 40
6.0
 40
6.0
 40
7.0
 40
7.0
 40
7.0
 40
8.0
 40
8.0
 40
8.0
 40
9.0
 40
9.0
 40
9.0
 40
10.0
 40
10.0
 40
10.0
 40
11.0
 40
11.0
 40
11.0
 40
12.0
 40
12.0
 40
12.0
 40
13.0
 40
13.0
 40
13.0
 40
14.0
 40
14.0
 40
14.0
 40
15.0
 40
15.0
 40
15.0
 40
16.0
 40
16.0
 40
16.0
 40
16.0
 10
114.1918239731882
 20
-131.3614908525763
 30
0.0
 10
114.1918239731882
 20
-131.4396945200915
 30
0.0
 10
114.1749430053104
 20
-131.5413248369063
 30
0.0
 10
114.1115532483818
 20
-131.6429551537212
 30
0.0
 10
114.0016547024024
 20
-131.8162434566293
 30
0.0
 10
113.8703965644143
 20
-131.8376030486378
 30
0.0
 10
113.762565075726
 20
-131.8565510738067
 30
0.0
 10
113.762565075726
 20
-131.8565510738067
 30
0.0
 10
113.762565075726
 20
-131.6343424150081
 30
0.0
 10
113.762565075726
 20
-131.6343424150081
 30
0.0
 10
113.9613470852249
 20
-131.5795653967926
 30
0.0
 10
113.9909749063981
 20
-131.4524413733869
 30
0.0
 10
113.9909749063981
 20
-131.3594237952852
 30
0.0
 10
113.9909749063981
 20
-131.2198974281325
 30
0.0
 10
113.8914116468744
 20
-131.0676242076845
 30
0.0
 10
113.65886770162
 20
-131.0676242076845
 30
0.0
 10
113.402897107066
 20
-131.0676242076845
 30
0.0
 10
113.3329616687154
 20
-131.2474581920145
 30
0.0
 10
113.3329616687154
 20
-131.3680365339983
 30
0.0
 10
113.3329616687154
 20
-131.3997314124626
 30
0.0
 10
113.3329616687154
 20
-131.5413248369063
 30
0.0
 10
113.4621527494122
 20
-131.6302083004258
 30
0.0
 10
113.4621527494122
 20
-131.6302083004258
 30
0.0
 10
113.4432047242434
 20
-131.8059081701735
 30
0.0
 10
113.4432047242434
 20
-131.8059081701735
 30
0.0
 10
113.4432047242434
 20
-131.8059081701735
 30
0.0
 10
112.5967447635175
 20
-131.6853298281898
 30
0.0
 10
112.5967447635175
 20
-131.6853298281898
 30
0.0
 10
112.5967447635175
 20
-131.6853298281898
 30
0.0
 10
112.5967447635175
 20
-130.9067382485233
 30
0.0
 10
112.5967447635175
 20
-130.9067382485233
 30
0.0
 10
112.5967447635175
 20
-130.9067382485233
 30
0.0
 10
112.7913926584341
 20
-130.9067382485233
 30
0.0
 10
112.7913926584341
 20
-130.9067382485233
 30
0.0
 10
112.7913926584341
 20
-130.9067382485233
 30
0.0
 10
112.7913926584341
 20
-131.5223768117375
 30
0.0
 10
112.7913926584341
 20
-131.5223768117375
 30
0.0
 10
112.7913926584341
 20
-131.5223768117375
 30
0.0
 10
113.2144503840228
 20
-131.5878336259572
 30
0.0
 10
113.2144503840228
 20
-131.5878336259572
 30
0.0
 10
113.1806884482673
 20
-131.5265109263198
 30
0.0
 10
113.1403808310899
 20
-131.4441731442223
 30
0.0
 10
113.1403808310899
 20
-131.3256618595297
 30
0.0
 10
113.1403808310899
 20
-131.0717583222668
 30
0.0
 10
113.3267604968419
 20
-130.8347357528816
 30
0.0
 10
113.6399196764511
 20
-130.8347357528816
 30
0.0
 10
113.9572129706426
 20
-130.8347357528816
 30
0.0
 10
114.1918239731882
 20
-131.0590114689714
 30
0.0
 10
114.1918239731882
 20
-131.3614908525763
 30
0.0
  0
HATCH
  5
9B
330
94
100
AcDbEntity
  8
_U+30EC_U+30A4_U+30E4_U+30FC 1
 62
   179
420
  2234388
100
AcDbHatch
 10
0.0
 20
0.0
 30
0.0
210
0.0
220
0.0
230
1.0
  2
SOLID
 70
     1
 71
     0
 91
        1
 92
        1
 93
        1
 72
     4
 94
        3
 73
     0
 74
     1
 95
       53
 96
       49
 40
0.0
 40
0.0
 40
0.0
 40
0.0
 40
1.0
 40
1.0
 40
1.0
 40
2.0
 40
2.0
 40
2.0
 40
3.0
 40
3.0
 40
3.0
 40
4.0
 40
4.0
 40
4.0
 40
5.0
 40
5.0
 40
5.0
 40
6.0
 40
6.0
 40
6.0
 40
7.0
 40
7.0
 40
7.0
 40
8.0
 40
8.0
 40
8.0
 40
9.0
 40
9.0
 40
9.0
 40
10.0
 40
10.0
 40
10.0
 40
11.0
 40
11.0
 40
11.0
 40
12.0
 40
12.0
 40
12.0
 40
13.0
 40
13.0
 40
13.0
 40
14.0
 40
14.0
 40
14.0
 40
15.0
 40
15.0
 40
15.0
 40
16.0
 40
16.0
 40
16.0
 40
16.0
 10
114.1918239731882
 20
-131.3614908525763
 10
114.1918239731882
 20
-131.4396945200915
 10
114.1749430053104
 20
-131.5413248369063
 10
114.1115532483818
 20
-131.6429551537212
 10
114.0016547024024
 20
-131.8162434566293
 10
113.8703965644143
 20
-131.8376030486378
 10
113.762565075726
 20
-131.8565510738067
 10
113.762565075726
 20
-131.8565510738067
 10
113.762565075726
 20
-131.6343424150081
 10
113.762565075726
 20
-131.6343424150081
 10
113.9613470852249
 20
-131.5795653967926
 10
113.9909749063981
 20
-131.4524413733869
 10
113.9909749063981
 20
-131.3594237952852
 10
113.9909749063981
 20
-131.2198974281325
 10
113.8914116468744
 20
-131.0676242076845
 10
113.65886770162
 20
-131.0676242076845
 10
113.402897107066
 20
-131.0676242076845
 10
113.3329616687154
 20
-131.2474581920145
 10
113.3329616687154
 20
-131.3680365339983
 10
113.3329616687154
 20
-131.3997314124626
 10
113.3329616687154
 20
-131.5413248369063
 10
113.4621527494122
 20
-131.6302083004258
 10
113.4621527494122
 20
-131.6302083004258
 10
113.4432047242434
 20
-131.8059081701735
 10
113.4432047242434
 20
-131.8059081701735
 10
113.4432047242434
 20
-131.8059081701735
 10
112.5967447635175
 20
-131.6853298281898
 10
112.5967447635175
 20
-131.6853298281898
 10
112.5967447635175
 20
-131.6853298281898
 10
112.5967447635175
 20
-130.9067382485233
 10
112.5967447635175
 20
-130.9067382485233
 10
112.5967447635175
 20
-130.9067382485233
 10
112.7913926584341
 20
-130.9067382485233
 10
112.7913926584341
 20
-130.9067382485233
 10
112.7913926584341
 20
-130.9067382485233
 10
112.7913926584341
 20
-131.5223768117375
 10
112.7913926584341
 20
-131.5223768117375
 10
112.7913926584341
 20
-131.5223768117375
 10
113.2144503840228
 20
-131.5878336259572
 10
113.2144503840228
 20
-131.5878336259572
 10
113.1806884482673
 20
-131.5265109263198
 10
113.1403808310899
 20
-131.4441731442223
 10
113.1403808310899
 20
-131.3256618595297
 10
113.1403808310899
 20
-131.0717583222668
 10
113.3267604968419
 20
-130.8347357528816
 10
113.6399196764511
 20
-130.8347357528816
 10
113.9572129706426
 20
-130.8347357528816
 10
114.1918239731882
 20
-131.0590114689714
 10
114.1918239731882
 20
-131.3614908525763
 97
        0
 97
        0
 75
     2
 76
     1
 98
        0
  0
ENDBLK
  5
97
330
94
100
AcDbEntity
  8
0
100
AcDbBlockEnd
  0
BLOCK
  5
9E
330
9C
100
AcDbEntity
  8
0
100
AcDbBlockBegin
  2
block 4
 70
     0
 10
0.0
 20
0.0
 30
0.0
  3
block 4
  1

  0
SPLINE
  5
A0
330
9C
100
AcDbEntity
  8
_U+30EC_U+30A4_U+30E4_U+30FC 1
370
     0
100
AcDbSpline
210
0.0
220
0.0
230
1.0
 70
    11
 71
     3
 72
    44
 73
    40
 74
     0
 42
0.0000000001
 43
0.0000000001
 12
1.0
 22
0.0
 32
0.0
 13
1.0
 23
0.0
 33
0.0
 40
0.0
 40
0.0
 40
0.0
 40
0.0
 40
1.0
 40
1.0
 40
1.0
 40
2.0
 40
2.0
 40
2.0
 40
3.0
 40
3.0
 40
3.0
 40
4.0
 40
4.0
 40
4.0
 40
5.0
 40
5.0
 40
5.0
 40
6.0
 40
6.0
 40
6.0
 40
7.0
 40
7.0
 40
7.0
 40
8.0
 40
8.0
 40
8.0
 40
9.0
 40
9.0
 40
9.0
 40
10.0
 40
10.0
 40
10.0
 40
11.0
 40
11.0
 40
11.0
 40
12.0
 40
12.0
 40
12.0
 40
13.0
 40
13.0
 40
13.0
 40
13.0
 10
118.4496174834084
 20
-143.3297525683342
 30
0.0
 10
118.6084363852785
 20
-143.547482603002
 30
0.0
 10
118.6825059382113
 20
-143.6405001811038
 30
0.0
 10
118.8261664199462
 20
-143.6894205369943
 30
0.0
 10
118.8261664199462
 20
-143.6894205369943
 30
0.0
 10
118.8261664199462
 20
-142.9108289573279
 30
0.0
 10
118.8261664199462
 20
-142.9108289573279
 30
0.0
 10
118.8261664199462
 20
-142.9108289573279
 30
0.0
 10
119.0314941108671
 20
-142.9108289573279
 30
0.0
 10
119.0314941108671
 20
-142.9108289573279
 30
0.0
 10
119.0314941108671
 20
-142.9108289573279
 30
0.0
 10
119.0314941108671
 20
-143.9388454501264
 30
0.0
 10
119.0314941108671
 20
-143.9388454501264
 30
0.0
 10
118.6738931994982
 20
-143.9071505716621
 30
0.0
 10
118.595689531983
 20
-143.8416937574424
 30
0.0
 10
118.2973442629604
 20
-143.4565320821914
 30
0.0
 10
118.0985622534615
 20
-143.2005614876374
 30
0.0
 10
118.0306938724021
 20
-143.1351046734176
 30
0.0
 10
117.8932345625406
 20
-143.1351046734176
 30
0.0
 10
117.774723277848
 20
-143.1351046734176
 30
0.0
 10
117.6438096494085
 20
-143.2071071690593
 30
0.0
 10
117.6438096494085
 20
-143.4038221212671
 30
0.0
 10
117.6438096494085
 20
-143.6639268304035
 30
0.0
 10
117.8742865373717
 20
-143.6721950595681
 30
0.0
 10
117.9907307647732
 20
-143.6766736836989
 30
0.0
 10
117.9907307647732
 20
-143.6766736836989
 30
0.0
 10
117.9907307647732
 20
-143.9009493997887
 30
0.0
 10
117.9907307647732
 20
-143.9009493997887
 30
0.0
 10
117.8636067413674
 20
-143.8923366610755
 30
0.0
 10
117.7516411380968
 20
-143.8816568650712
 30
0.0
 10
117.6331298534042
 20
-143.8013861402649
 30
0.0
 10
117.4722438942431
 20
-143.6914875942855
 30
0.0
 10
117.4384819584876
 20
-143.5051079285334
 30
0.0
 10
117.4384819584876
 20
-143.3890082106805
 30
0.0
 10
117.4384819584876
 20
-143.1116780241179
 30
0.0
 10
117.6224500573999
 20
-142.9042832759059
 30
0.0
 10
117.8953016198317
 20
-142.9042832759059
 30
0.0
 10
118.1240559600523
 20
-142.9042832759059
 30
0.0
 10
118.2232747100275
 20
-143.0207275033073
 30
0.0
 10
118.4496174834084
 20
-143.3297525683342
 30
0.0
  0
HATCH
  5
A1
330
9C
100
AcDbEntity
  8
_U+30EC_U+30A4_U+30E4_U+30FC 1
 62
   179
420
  2234388
100
AcDbHatch
 10
0.0
 20
0.0
 30
0.0
210
0.0
220
0.0
230
1.0
  2
SOLID
 70
     1
 71
     0
 91
        1
 92
        1
 93
        1
 72
     4
 94
        3
 73
     0
 74
     1
 95
       44
 96
       40
 40
0.0
 40
0.0
 40
0.0
 40
0.0
 40
1.0
 40
1.0
 40
1.0
 40
2.0
 40
2.0
 40
2.0
 40
3.0
 40
3.0
 40
3.0
 40
4.0
 40
4.0
 40
4.0
 40
5.0
 40
5.0
 40
5.0
 40
6.0
 40
6.0
 40
6.0
 40
7.0
 40
7.0
 40
7.0
 40
8.0
 40
8.0
 40
8.0
 40
9.0
 40
9.0
 40
9.0
 40
10.0
 40
10.0
 40
10.0
 40
11.0
 40
11.0
 40
11.0
 40
12.0
 40
12.0
 40
12.0
 40
13.0
 40
13.0
 40
13.0
 40
13.0
 10
118.4496174834084
 20
-143.3297525683342
 10
118.6084363852785
 20
-143.547482603002
 10
118.6825059382113
 20
-143.6405001811038
 10
118.8261664199462
 20
-143.6894205369943
 10
118.8261664199462
 20
-143.6894205369943
 10
118.8261664199462
 20
-142.9108289573279
 10
118.8261664199462
 20
-142.9108289573279
 10
118.8261664199462
 20
-142.9108289573279
 10
119.0314941108671
 20
-142.9108289573279
 10
119.0314941108671
 20
-142.9108289573279
 10
119.0314941108671
 20
-142.9108289573279
 10
119.0314941108671
 20
-143.9388454501264
 10
119.0314941108671
 20
-143.9388454501264
 10
118.6738931994982
 20
-143.9071505716621
 10
118.595689531983
 20
-143.8416937574424
 10
118.2973442629604
 20
-143.4565320821914
 10
118.0985622534615
 20
-143.2005614876374
 10
118.0306938724021
 20
-143.1351046734176
 10
117.8932345625406
 20
-143.1351046734176
 10
117.774723277848
 20
-143.1351046734176
 10
117.6438096494085
 20
-143.2071071690593
 10
117.6438096494085
 20
-143.4038221212671
 10
117.6438096494085
 20
-143.6639268304035
 10
117.8742865373717
 20
-143.6721950595681
 10
117.9907307647732
 20
-143.6766736836989
 10
117.9907307647732
 20
-143.6766736836989
 10
117.9907307647732
 20
-143.9009493997887
 10
117.9907307647732
 20
-143.9009493997887
 10
117.8636067413674
 20
-143.8923366610755
 10
117.7516411380968
 20
-143.8816568650712
 10
117.6331298534042
 20
-143.8013861402649
 10
117.4722438942431
 20
-143.6914875942855
 10
117.4384819584876
 20
-143.5051079285334
 10
117.4384819584876
 20
-143.3890082106805
 10
117.4384819584876
 20
-143.1116780241179
 10
117.6224500573999
 20
-142.9042832759059
 10
117.8953016198317
 20
-142.9042832759059
 10
118.1240559600523
 20
-142.9042832759059
 10
118.2232747100275
 20
-143.0207275033073
 10
118.4496174834084
 20
-143.3297525683342
 97
        0
 97
        0
 75
     2
 76
     1
 98
        0
  0
ENDBLK
  5
9F
330
9C
100
AcDbEntity
  8
0
100
AcDbBlockEnd
  0
ENDSEC
  0
SECTION
  2
ENTITIES
  0
POLYLINE
  5
41
330
1F
100
AcDbEntity
  8
_U+30EC_U+30A4_U+30E4_U+30FC 1
370
     0
100
AcDb2dPolyline
 66
     1
 10
0.0
 20
0.0
 30
0.0
  0
VERTEX
  5
42
330
41
100
AcDbEntity
  8
_U+30EC_U+30A4_U+30E4_U+30FC 1
370
     0
100
AcDbVertex
100
AcDb2dVertex
 10
60.78749165146969
 20
-144.4304677416702
 30
0.0
  0
VERTEX
  5
43
330
41
100
AcDbEntity
  8
_U+30EC_U+30A4_U+30E4_U+30FC 1
370
     0
100
AcDbVertex
100
AcDb2dVertex
 10
110.7873916389697
 20
-144.4304677416702
 30
0.0
  0
VERTEX
  5
44
330
41
100
AcDbEntity
  8
_U+30EC_U+30A4_U+30E4_U+30FC 1
370
     0
100
AcDbVertex
100
AcDb2dVertex
 10
110.7873916389697
 20
-119.4307646923644
 30
0.0
  0
VERTEX
  5
45
330
41
100
AcDbEntity
  8
_U+30EC_U+30A4_U+30E4_U+30FC 1
370
     0
100
AcDbVertex
100
AcDb2dVertex
 10
60.78749165146969
 20
-119.4307646923644
 30
0.0
  0
VERTEX
  5
46
330
41
100
AcDbEntity
  8
_U+30EC_U+30A4_U+30E4_U+30FC 1
370
     0
100
AcDbVertex
100
AcDb2dVertex
 10
60.78749165146969
 20
-144.4304677416702
 30
0.0
  0
SEQEND
  5
47
330
41
100
AcDbEntity
  8
_U+30EC_U+30A4_U+30E4_U+30FC 1
370
     0
  0
POLYLINE
  5
48
330
1F
100
AcDbEntity
  8
_U+30EC_U+30A4_U+30E4_U+30FC 1
370
     0
100
AcDb2dPolyline
 66
     1
 10
0.0
 20
0.0
 30
0.0
  0
VERTEX
  5
49
330
48
100
AcDbEntity
  8
_U+30EC_U+30A4_U+30E4_U+30FC 1
370
     0
100
AcDbVertex
100
AcDb2dVertex
 10
62.78738887319189
 20
-121.4303091363092
 30
0.0
  0
VERTEX
  5
4A
330
48
100
AcDbEntity
  8
_U+30EC_U+30A4_U+30E4_U+30FC 1
370
     0
100
AcDbVertex
100
AcDb2dVertex
 10
108.7871416394697
 20
-121.4303091363092
 30
0.0
  0
VERTEX
  5
4B
330
48
100
AcDbEntity
  8
_U+30EC_U+30A4_U+30E4_U+30FC 1
370
     0
100
AcDbVertex
100
AcDb2dVertex
 10
108.7871416394697
 20
-142.4302530199477
 30
0.0
  0
VERTEX
  5
4C
330
48
100
AcDbEntity
  8
_U+30EC_U+30A4_U+30E4_U+30FC 1
370
     0
100
AcDbVertex
100
AcDb2dVertex
 10
62.78738887319189
 20
-142.4302530199477
 30
0.0
  0
VERTEX
  5
4D
330
48
100
AcDbEntity
  8
_U+30EC_U+30A4_U+30E4_U+30FC 1
370
     0
100
AcDbVertex
100
AcDb2dVertex
 10
62.78738887319189
 20
-121.4303091363092
 30
0.0
  0
SEQEND
  5
4E
330
48
100
AcDbEntity
  8
_U+30EC_U+30A4_U+30E4_U+30FC 1
370
     0
  0
HATCH
  5
4F
330
1F
100
AcDbEntity
  8
_U+30EC_U+30A4_U+30E4_U+30FC 1
 62
   253
420
 11711154
100
AcDbHatch
 10
0.0
 20
0.0
 30
0.0
210
0.0
220
0.0
230
1.0
  2
SOLID
 70
     1
 71
     0
 91
        2
 92
        1
 93
        4
 72
     1
 10
60.78749165146969
 20
-144.4304677416702
 11
110.7873916389697
 21
-144.4304677416702
 72
     1
 10
110.7873916389697
 20
-144.4304677416702
 11
110.7873916389697
 21
-119.4307646923644
 72
     1
 10
110.7873916389697
 20
-119.4307646923644
 11
60.78749165146969
 21
-119.4307646923644
 72
     1
 10
60.78749165146969
 20
-119.4307646923644
 11
60.78749165146969
 21
-144.4304677416702
 97
        0
 92
        1
 93
        4
 72
     1
 10
62.78738887319189
 20
-121.4303091363092
 11
108.7871416394697
 21
-121.4303091363092
 72
     1
 10
108.7871416394697
 20
-121.4303091363092
 11
108.7871416394697
 21
-142.4302530199477
 72
     1
 10
108.7871416394697
 20
-142.4302530199477
 11
62.78738887319189
 21
-142.4302530199477
 72
     1
 10
62.78738887319189
 20
-142.4302530199477
 11
62.78738887319189
 21
-121.4303091363092
 97
        0
 75
     2
 76
     1
 98
        0
  0
POLYLINE
  5
50
330
1F
100
AcDbEntity
  8
_U+30EC_U+30A4_U+30E4_U+30FC 1
 62
   179
420
  2234388
370
    25
100
AcDb2dPolyline
 66
     1
 10
0.0
 20
0.0
 30
0.0
  0
VERTEX
  5
51
330
50
100
AcDbEntity
  8
_U+30EC_U+30A4_U+30E4_U+30FC 1
 62
   179
420
  2234388
370
    25
100
AcDbVertex
100
AcDb2dVertex
 10
60.78749165146969
 20
-119.4307646923644
 30
0.0
  0
VERTEX
  5
52
330
50
100
AcDbEntity
  8
_U+30EC_U+30A4_U+30E4_U+30FC 1
 62
   179
420
  2234388
370
    25
100
AcDbVertex
100
AcDb2dVertex
 10
60.78749165146969
 20
-144.4304677416702
 30
0.0
  0
SEQEND
  5
53
330
50
100
AcDbEntity
  8
_U+30EC_U+30A4_U+30E4_U+30FC 1
 62
   179
420
  2234388
370
    25
  0
POLYLINE
  5
54
330
1F
100
AcDbEntity
  8
_U+30EC_U+30A4_U+30E4_U+30FC 1
 62
   179
420
  2234388
370
    25
100
AcDb2dPolyline
 66
     1
 10
0.0
 20
0.0
 30
0.0
  0
VERTEX
  5
55
330
54
100
AcDbEntity
  8
_U+30EC_U+30A4_U+30E4_U+30FC 1
 62
   179
420
  2234388
370
    25
100
AcDbVertex
100
AcDb2dVertex
 10
110.7873916389697
 20
-119.4307646923644
 30
0.0
  0
VERTEX
  5
56
330
54
100
AcDbEntity
  8
_U+30EC_U+30A4_U+30E4_U+30FC 1
 62
   179
420
  2234388
370
    25
100
AcDbVertex
100
AcDb2dVertex
 10
110.7873916389697
 20
-144.4304677416702
 30
0.0
  0
SEQEND
  5
57
330
54
100
AcDbEntity
  8
_U+30EC_U+30A4_U+30E4_U+30FC 1
 62
   179
420
  2234388
370
    25
  0
POLYLINE
  5
58
330
1F
100
AcDbEntity
  8
_U+30EC_U+30A4_U+30E4_U+30FC 1
 62
   179
420
  2234388
370
    25
100
AcDb2dPolyline
 66
     1
 10
0.0
 20
0.0
 30
0.0
  0
VERTEX
  5
59
330
58
100
AcDbEntity
  8
_U+30EC_U+30A4_U+30E4_U+30FC 1
 62
   179
420
  2234388
370
    25
100
AcDbVertex
100
AcDb2dVertex
 10
60.78749165146969
 20
-119.4307646923644
 30
0.0
  0
VERTEX
  5
5A
330
58
100
AcDbEntity
  8
_U+30EC_U+30A4_U+30E4_U+30FC 1
 62
   179
420
  2234388
370
    25
100
AcDbVertex
100
AcDb2dVertex
 10
110.7873916389697
 20
-119.4307646923644
 30
0.0
  0
SEQEND
  5
5B
330
58
100
AcDbEntity
  8
_U+30EC_U+30A4_U+30E4_U+30FC 1
 62
   179
420
  2234388
370
    25
  0
POLYLINE
  5
5C
330
1F
100
AcDbEntity
  8
_U+30EC_U+30A4_U+30E4_U+30FC 1
 62
   179
420
  2234388
370
    25
100
AcDb2dPolyline
 66
     1
 10
0.0
 20
0.0
 30
0.0
  0
VERTEX
  5
5D
330
5C
100
AcDbEntity
  8
_U+30EC_U+30A4_U+30E4_U+30FC 1
 62
   179
420
  2234388
370
    25
100
AcDbVertex
100
AcDb2dVertex
 10
60.78749165146969
 20
-144.4304677416702
 30
0.0
  0
VERTEX
  5
5E
330
5C
100
AcDbEntity
  8
_U+30EC_U+30A4_U+30E4_U+30FC 1
 62
   179
420
  2234388
370
    25
100
AcDbVertex
100
AcDb2dVertex
 10
110.7873916389697
 20
-144.4304677416702
 30
0.0
  0
SEQEND
  5
5F
330
5C
100
AcDbEntity
  8
_U+30EC_U+30A4_U+30E4_U+30FC 1
 62
   179
420
  2234388
370
    25
  0
POLYLINE
  5
60
330
1F
100
AcDbEntity
  8
_U+30EC_U+30A4_U+30E4_U+30FC 1
 62
   179
420
  2234388
370
    25
100
AcDb2dPolyline
 66
     1
 10
0.0
 20
0.0
 30
0.0
  0
VERTEX
  5
61
330
60
100
AcDbEntity
  8
_U+30EC_U+30A4_U+30E4_U+30FC 1
 62
   179
420
  2234388
370
    25
100
AcDbVertex
100
AcDb2dVertex
 10
62.78738887319189
 20
-121.4303091363092
 30
0.0
  0
VERTEX
  5
62
330
60
100
AcDbEntity
  8
_U+30EC_U+30A4_U+30E4_U+30FC 1
 62
   179
420
  2234388
370
    25
100
AcDbVertex
100
AcDb2dVertex
 10
108.7871416394697
 20
-121.4303091363092
 30
0.0
  0
SEQEND
  5
63
330
60
100
AcDbEntity
  8
_U+30EC_U+30A4_U+30E4_U+30FC 1
 62
   179
420
  2234388
370
    25
  0
POLYLINE
  5
64
330
1F
100
AcDbEntity
  8
_U+30EC_U+30A4_U+30E4_U+30FC 1
 62
   179
420
  2234388
370
    25
100
AcDb2dPolyline
 66
     1
 10
0.0
 20
0.0
 30
0.0
  0
VERTEX
  5
65
330
64
100
AcDbEntity
  8
_U+30EC_U+30A4_U+30E4_U+30FC 1
 62
   179
420
  2234388
370
    25
100
AcDbVertex
100
AcDb2dVertex
 10
62.78738887319189
 20
-142.4302530199477
 30
0.0
  0
VERTEX
  5
66
330
64
100
AcDbEntity
  8
_U+30EC_U+30A4_U+30E4_U+30FC 1
 62
   179
420
  2234388
370
    25
100
AcDbVertex
100
AcDb2dVertex
 10
108.7871416394697
 20
-142.4302530199477
 30
0.0
  0
SEQEND
  5
67
330
64
100
AcDbEntity
  8
_U+30EC_U+30A4_U+30E4_U+30FC 1
 62
   179
420
  2234388
370
    25
  0
POLYLINE
  5
68
330
1F
100
AcDbEntity
  8
_U+30EC_U+30A4_U+30E4_U+30FC 1
 62
   179
420
  2234388
370
    25
100
AcDb2dPolyline
 66
     1
 10
0.0
 20
0.0
 30
0.0
  0
VERTEX
  5
69
330
68
100
AcDbEntity
  8
_U+30EC_U+30A4_U+30E4_U+30FC 1
 62
   179
420
  2234388
370
    25
100
AcDbVertex
100
AcDb2dVertex
 10
62.78738887319189
 20
-121.4303091363092
 30
0.0
  0
VERTEX
  5
6A
330
68
100
AcDbEntity
  8
_U+30EC_U+30A4_U+30E4_U+30FC 1
 62
   179
420
  2234388
370
    25
100
AcDbVertex
100
AcDb2dVertex
 10
62.78738887319189
 20
-142.4302530199477
 30
0.0
  0
SEQEND
  5
6B
330
68
100
AcDbEntity
  8
_U+30EC_U+30A4_U+30E4_U+30FC 1
 62
   179
420
  2234388
370
    25
  0
POLYLINE
  5
6C
330
1F
100
AcDbEntity
  8
_U+30EC_U+30A4_U+30E4_U+30FC 1
 62
   179
420
  2234388
370
    25
100
AcDb2dPolyline
 66
     1
 10
0.0
 20
0.0
 30
0.0
  0
VERTEX
  5
6D
330
6C
100
AcDbEntity
  8
_U+30EC_U+30A4_U+30E4_U+30FC 1
 62
   179
420
  2234388
370
    25
100
AcDbVertex
100
AcDb2dVertex
 10
108.7871416394697
 20
-121.4303091363092
 30
0.0
  0
VERTEX
  5
6E
330
6C
100
AcDbEntity
  8
_U+30EC_U+30A4_U+30E4_U+30FC 1
 62
   179
420
  2234388
370
    25
100
AcDbVertex
100
AcDb2dVertex
 10
108.7871416394697
 20
-142.4302530199477
 30
0.0
  0
SEQEND
  5
6F
330
6C
100
AcDbEntity
  8
_U+30EC_U+30A4_U+30E4_U+30FC 1
 62
   179
420
  2234388
370
    25
  0
SPLINE
  5
70
330
1F
100
AcDbEntity
  8
_U+30EC_U+30A4_U+30E4_U+30FC 1
 62
   179
420
  2234388
370
     9
100
AcDbSpline
210
0.0
220
0.0
230
1.0
 70
    11
 71
     3
 72
    17
 73
    13
 74
     0
 42
0.0000000001
 43
0.0000000001
 12
1.0
 22
0.0
 32
0.0
 13
1.0
 23
0.0
 33
0.0
 40
0.0
 40
0.0
 40
0.0
 40
0.0
 40
1.0
 40
1.0
 40
1.0
 40
2.0
 40
2.0
 40
2.0
 40
3.0
 40
3.0
 40
3.0
 40
4.0
 40
4.0
 40
4.0
 40
4.0
 10
114.8870545689871
 20
-144.4304677416702
 30
0.0
 10
114.8870545689871
 20
-144.3753285750171
 30
0.0
 10
114.8422517923523
 20
-144.3305610750286
 30
0.0
 10
114.7871479048692
 20
-144.3305610750286
 30
0.0
 10
114.7320087396093
 20
-144.3305610750286
 30
0.0
 10
114.6872412407514
 20
-144.3753285750171
 30
0.0
 10
114.6872412407514
 20
-144.4304677416702
 30
0.0
 10
114.6872412407514
 20
-144.4855716305451
 30
0.0
 10
114.7320087396093
 20
-144.5303744083118
 30
0.0
 10
114.7871479048692
 20
-144.5303744083118
 30
0.0
 10
114.8422517923523
 20
-144.5303744083118
 30
0.0
 10
114.8870545689871
 20
-144.4855716305451
 30
0.0
 10
114.8870545689871
 20
-144.4304677416702
 30
0.0
  0
SPLINE
  5
71
330
1F
100
AcDbEntity
  8
_U+30EC_U+30A4_U+30E4_U+30FC 1
 62
   179
420
  2234388
370
     9
100
AcDbSpline
210
0.0
220
0.0
230
1.0
 70
    11
 71
     3
 72
    17
 73
    13
 74
     0
 42
0.0000000001
 43
0.0000000001
 12
1.0
 22
0.0
 32
0.0
 13
1.0
 23
0.0
 33
0.0
 40
0.0
 40
0.0
 40
0.0
 40
0.0
 40
1.0
 40
1.0
 40
1.0
 40
2.0
 40
2.0
 40
2.0
 40
3.0
 40
3.0
 40
3.0
 40
4.0
 40
4.0
 40
4.0
 40
4.0
 10
114.8870545689871
 20
-142.4171296866181
 30
0.0
 10
114.8870545689871
 20
-142.3620257977425
 30
0.0
 10
114.8422517923523
 20
-142.3172230199765
 30
0.0
 10
114.7871479048692
 20
-142.3172230199765
 30
0.0
 10
114.7320087396093
 20
-142.3172230199765
 30
0.0
 10
114.6872412407514
 20
-142.3620257977425
 30
0.0
 10
114.6872412407514
 20
-142.4171296866181
 30
0.0
 10
114.6872412407514
 20
-142.4722688532705
 30
0.0
 10
114.7320087396093
 20
-142.5170716310373
 30
0.0
 10
114.7871479048692
 20
-142.5170716310373
 30
0.0
 10
114.8422517923523
 20
-142.5170716310373
 30
0.0
 10
114.8870545689871
 20
-142.4722688532705
 30
0.0
 10
114.8870545689871
 20
-142.4171296866181
 30
0.0
  0
SPLINE
  5
72
330
1F
100
AcDbEntity
  8
_U+30EC_U+30A4_U+30E4_U+30FC 1
 62
   179
420
  2234388
370
     9
100
AcDbSpline
210
0.0
220
0.0
230
1.0
 70
    11
 71
     3
 72
    17
 73
    13
 74
     0
 42
0.0000000001
 43
0.0000000001
 12
1.0
 22
0.0
 32
0.0
 13
1.0
 23
0.0
 33
0.0
 40
0.0
 40
0.0
 40
0.0
 40
0.0
 40
1.0
 40
1.0
 40
1.0
 40
2.0
 40
2.0
 40
2.0
 40
3.0
 40
3.0
 40
3.0
 40
4.0
 40
4.0
 40
4.0
 40
4.0
 10
114.8870545689871
 20
-119.4307646923644
 30
0.0
 10
114.8870545689871
 20
-119.374955247934
 30
0.0
 10
114.8422517923523
 20
-119.3301877479451
 30
0.0
 10
114.7871479048692
 20
-119.3301877479451
 30
0.0
 10
114.7320087396093
 20
-119.3301877479451
 30
0.0
 10
114.6872412407514
 20
-119.374955247934
 30
0.0
 10
114.6872412407514
 20
-119.4307646923644
 30
0.0
 10
114.6872412407514
 20
-119.4859038590175
 30
0.0
 10
114.7320087396093
 20
-119.5306713590064
 30
0.0
 10
114.7871479048692
 20
-119.5306713590064
 30
0.0
 10
114.8422517923523
 20
-119.5306713590064
 30
0.0
 10
114.8870545689871
 20
-119.4859038590175
 30
0.0
 10
114.8870545689871
 20
-119.4307646923644
 30
0.0
  0
SPLINE
  5
73
330
1F
100
AcDbEntity
  8
_U+30EC_U+30A4_U+30E4_U+30FC 1
 62
   179
420
  2234388
370
     9
100
AcDbSpline
210
0.0
220
0.0
230
1.0
 70
    11
 71
     3
 72
    17
 73
    13
 74
     0
 42
0.0000000001
 43
0.0000000001
 12
1.0
 22
0.0
 32
0.0
 13
1.0
 23
0.0
 33
0.0
 40
0.0
 40
0.0
 40
0.0
 40
0.0
 40
1.0
 40
1.0
 40
1.0
 40
2.0
 40
2.0
 40
2.0
 40
3.0
 40
3.0
 40
3.0
 40
4.0
 40
4.0
 40
4.0
 40
4.0
 10
110.8872955043627
 20
-115.4299824711424
 30
0.0
 10
110.8872955043627
 20
-115.3748785822675
 30
0.0
 10
110.842492727728
 20
-115.3300758045008
 30
0.0
 10
110.7873916389697
 20
-115.3300758045008
 30
0.0
 10
110.732249674985
 20
-115.3300758045008
 30
0.0
 10
110.6874821761271
 20
-115.3748785822675
 30
0.0
 10
110.6874821761271
 20
-115.4299824711424
 30
0.0
 10
110.6874821761271
 20
-115.4851216377955
 30
0.0
 10
110.732249674985
 20
-115.5298891377844
 30
0.0
 10
110.7873916389697
 20
-115.5298891377844
 30
0.0
 10
110.842492727728
 20
-115.5298891377844
 30
0.0
 10
110.8872955043627
 20
-115.4851216377955
 30
0.0
 10
110.8872955043627
 20
-115.4299824711424
 30
0.0
  0
SPLINE
  5
74
330
1F
100
AcDbEntity
  8
_U+30EC_U+30A4_U+30E4_U+30FC 1
 62
   179
420
  2234388
370
     9
100
AcDbSpline
210
0.0
220
0.0
230
1.0
 70
    11
 71
     3
 72
    17
 73
    13
 74
     0
 42
0.0000000001
 43
0.0000000001
 12
1.0
 22
0.0
 32
0.0
 13
1.0
 23
0.0
 33
0.0
 40
0.0
 40
0.0
 40
0.0
 40
0.0
 40
1.0
 40
1.0
 40
1.0
 40
2.0
 40
2.0
 40
2.0
 40
3.0
 40
3.0
 40
3.0
 40
4.0
 40
4.0
 40
4.0
 40
4.0
 10
60.88739677996643
 20
-115.4299824711424
 30
0.0
 10
60.88739677996643
 20
-115.3748785822675
 30
0.0
 10
60.84262928110854
 20
-115.3300758045008
 30
0.0
 10
60.78749165146969
 20
-115.3300758045008
 30
0.0
 10
60.73238622836552
 20
-115.3300758045008
 30
0.0
 10
60.68758345173076
 20
-115.3748785822675
 30
0.0
 10
60.68758345173076
 20
-115.4299824711424
 30
0.0
 10
60.68758345173076
 20
-115.4851216377955
 30
0.0
 10
60.73238622836552
 20
-115.5298891377844
 30
0.0
 10
60.78749165146969
 20
-115.5298891377844
 30
0.0
 10
60.84262928110854
 20
-115.5298891377844
 30
0.0
 10
60.88739677996643
 20
-115.4851216377955
 30
0.0
 10
60.88739677996643
 20
-115.4299824711424
 30
0.0
  0
SPLINE
  5
75
330
1F
100
AcDbEntity
  8
_U+30EC_U+30A4_U+30E4_U+30FC 1
 62
   179
420
  2234388
370
     9
100
AcDbSpline
210
0.0
220
0.0
230
1.0
 70
    11
 71
     3
 72
    17
 73
    13
 74
     0
 42
0.0000000001
 43
0.0000000001
 12
1.0
 22
0.0
 32
0.0
 13
1.0
 23
0.0
 33
0.0
 40
0.0
 40
0.0
 40
0.0
 40
0.0
 40
1.0
 40
1.0
 40
1.0
 40
2.0
 40
2.0
 40
2.0
 40
3.0
 40
3.0
 40
3.0
 40
4.0
 40
4.0
 40
4.0
 40
4.0
 10
104.8873217685459
 20
-144.4304677416702
 30
0.0
 10
104.8873217685459
 20
-144.3753285750171
 30
0.0
 10
104.8425189919112
 20
-144.3305610750286
 30
0.0
 10
104.7874151044281
 20
-144.3305610750286
 30
0.0
 10
104.7322759391681
 20
-144.3305610750286
 30
0.0
 10
104.6875110849394
 20
-144.3753285750171
 30
0.0
 10
104.6875110849394
 20
-144.4304677416702
 30
0.0
 10
104.6875110849394
 20
-144.4855716305451
 30
0.0
 10
104.7322759391681
 20
-144.5303744083118
 30
0.0
 10
104.7874151044281
 20
-144.5303744083118
 30
0.0
 10
104.8425189919112
 20
-144.5303744083118
 30
0.0
 10
104.8873217685459
 20
-144.4855716305451
 30
0.0
 10
104.8873217685459
 20
-144.4304677416702
 30
0.0
  0
SPLINE
  5
76
330
1F
100
AcDbEntity
  8
_U+30EC_U+30A4_U+30E4_U+30FC 1
 62
   179
420
  2234388
370
     9
100
AcDbSpline
210
0.0
220
0.0
230
1.0
 70
    11
 71
     3
 72
    17
 73
    13
 74
     0
 42
0.0000000001
 43
0.0000000001
 12
1.0
 22
0.0
 32
0.0
 13
1.0
 23
0.0
 33
0.0
 40
0.0
 40
0.0
 40
0.0
 40
0.0
 40
1.0
 40
1.0
 40
1.0
 40
2.0
 40
2.0
 40
2.0
 40
3.0
 40
3.0
 40
3.0
 40
4.0
 40
4.0
 40
4.0
 40
4.0
 10
104.8873217685459
 20
-142.4302530199477
 30
0.0
 10
104.8873217685459
 20
-142.3751138532953
 30
0.0
 10
104.8425189919112
 20
-142.3303463533061
 30
0.0
 10
104.7874151044281
 20
-142.3303463533061
 30
0.0
 10
104.7322759391681
 20
-142.3303463533061
 30
0.0
 10
104.6875110849394
 20
-142.3751138532953
 30
0.0
 10
104.6875110849394
 20
-142.4302530199477
 30
0.0
 10
104.6875110849394
 20
-142.4860624643782
 30
0.0
 10
104.7322759391681
 20
-142.5308299643674
 30
0.0
 10
104.7874151044281
 20
-142.5308299643674
 30
0.0
 10
104.8425189919112
 20
-142.5308299643674
 30
0.0
 10
104.8873217685459
 20
-142.4860624643782
 30
0.0
 10
104.8873217685459
 20
-142.4302530199477
 30
0.0
  0
POLYLINE
  5
77
330
1F
100
AcDbEntity
  8
_U+30EC_U+30A4_U+30E4_U+30FC 1
 62
   179
420
  2234388
370
     9
100
AcDb2dPolyline
 66
     1
 10
0.0
 20
0.0
 30
0.0
  0
VERTEX
  5
78
330
77
100
AcDbEntity
  8
_U+30EC_U+30A4_U+30E4_U+30FC 1
 62
   179
420
  2234388
370
     9
100
AcDbVertex
100
AcDb2dVertex
 10
60.78749165146969
 20
-115.4299824711424
 30
0.0
  0
VERTEX
  5
79
330
77
100
AcDbEntity
  8
_U+30EC_U+30A4_U+30E4_U+30FC 1
 62
   179
420
  2234388
370
     9
100
AcDbVertex
100
AcDb2dVertex
 10
110.7873916389697
 20
-115.4299824711424
 30
0.0
  0
SEQEND
  5
7A
330
77
100
AcDbEntity
  8
_U+30EC_U+30A4_U+30E4_U+30FC 1
 62
   179
420
  2234388
370
     9
  0
POLYLINE
  5
7B
330
1F
100
AcDbEntity
  8
_U+30EC_U+30A4_U+30E4_U+30FC 1
 62
   179
420
  2234388
370
     9
100
AcDb2dPolyline
 66
     1
 10
0.0
 20
0.0
 30
0.0
  0
VERTEX
  5
7C
330
7B
100
AcDbEntity
  8
_U+30EC_U+30A4_U+30E4_U+30FC 1
 62
   179
420
  2234388
370
     9
100
AcDbVertex
100
AcDb2dVertex
 10
60.78749165146969
 20
-116.8903766374442
 30
0.0
  0
VERTEX
  5
7D
330
7B
100
AcDbEntity
  8
_U+30EC_U+30A4_U+30E4_U+30FC 1
 62
   179
420
  2234388
370
     9
100
AcDbVertex
100
AcDb2dVertex
 10
60.78749165146969
 20
-114.4302102491702
 30
0.0
  0
SEQEND
  5
7E
330
7B
100
AcDbEntity
  8
_U+30EC_U+30A4_U+30E4_U+30FC 1
 62
   179
420
  2234388
370
     9
  0
POLYLINE
  5
7F
330
1F
100
AcDbEntity
  8
_U+30EC_U+30A4_U+30E4_U+30FC 1
 62
   179
420
  2234388
370
     9
100
AcDb2dPolyline
 66
     1
 10
0.0
 20
0.0
 30
0.0
  0
VERTEX
  5
80
330
7F
100
AcDbEntity
  8
_U+30EC_U+30A4_U+30E4_U+30FC 1
 62
   179
420
  2234388
370
     9
100
AcDbVertex
100
AcDb2dVertex
 10
110.7873916389697
 20
-116.8903766374442
 30
0.0
  0
VERTEX
  5
81
330
7F
100
AcDbEntity
  8
_U+30EC_U+30A4_U+30E4_U+30FC 1
 62
   179
420
  2234388
370
     9
100
AcDbVertex
100
AcDb2dVertex
 10
110.7873916389697
 20
-114.4302102491702
 30
0.0
  0
SEQEND
  5
82
330
7F
100
AcDbEntity
  8
_U+30EC_U+30A4_U+30E4_U+30FC 1
 62
   179
420
  2234388
370
     9
  0
INSERT
  5
84
330
1F
100
AcDbEntity
  8
_U+30EC_U+30A4_U+30E4_U+30FC 1
100
AcDbBlockReference
  2
block 2
 10
0.0
 20
0.0
 30
0.0
  0
POLYLINE
  5
8C
330
1F
100
AcDbEntity
  8
_U+30EC_U+30A4_U+30E4_U+30FC 1
 62
   179
420
  2234388
370
     9
100
AcDb2dPolyline
 66
     1
 10
0.0
 20
0.0
 30
0.0
  0
VERTEX
  5
8D
330
8C
100
AcDbEntity
  8
_U+30EC_U+30A4_U+30E4_U+30FC 1
 62
   179
420
  2234388
370
     9
100
AcDbVertex
100
AcDb2dVertex
 10
114.7871479048692
 20
-119.4307646923644
 30
0.0
  0
VERTEX
  5
8E
330
8C
100
AcDbEntity
  8
_U+30EC_U+30A4_U+30E4_U+30FC 1
 62
   179
420
  2234388
370
     9
100
AcDbVertex
100
AcDb2dVertex
 10
114.7871479048692
 20
-144.4304677416702
 30
0.0
  0
SEQEND
  5
8F
330
8C
100
AcDbEntity
  8
_U+30EC_U+30A4_U+30E4_U+30FC 1
 62
   179
420
  2234388
370
     9
  0
POLYLINE
  5
90
330
1F
100
AcDbEntity
  8
_U+30EC_U+30A4_U+30E4_U+30FC 1
 62
   179
420
  2234388
370
     9
100
AcDb2dPolyline
 66
     1
 10
0.0
 20
0.0
 30
0.0
  0
VERTEX
  5
91
330
90
100
AcDbEntity
  8
_U+30EC_U+30A4_U+30E4_U+30FC 1
 62
   179
420
  2234388
370
     9
100
AcDbVertex
100
AcDb2dVertex
 10
113.3271065532291
 20
-119.4307646923644
 30
0.0
  0
VERTEX
  5
92
330
90
100
AcDbEntity
  8
_U+30EC_U+30A4_U+30E4_U+30FC 1
 62
   179
420
  2234388
370
     9
100
AcDbVertex
100
AcDb2dVertex
 10
115.7875903793458
 20
-119.4307646923644
 30
0.0
  0
SEQEND
  5
93
330
90
100
AcDbEntity
  8
_U+30EC_U+30A4_U+30E4_U+30FC 1
 62
   179
420
  2234388
370
     9
  0
INSERT
  5
95
330
1F
100
AcDbEntity
  8
_U+30EC_U+30A4_U+30E4_U+30FC 1
100
AcDbBlockReference
  2
block 3
 10
0.0
 20
0.0
 30
0.0
  0
INSERT
  5
9D
330
1F
100
AcDbEntity
  8
_U+30EC_U+30A4_U+30E4_U+30FC 1
100
AcDbBlockReference
  2
block 4
 10
0.0
 20
0.0
 30
0.0
  0
SPLINE
  5
A2
330
1F
100
AcDbEntity
  8
_U+30EC_U+30A4_U+30E4_U+30FC 1
 62
   179
420
  2234388
370
     9
100
AcDbSpline
210
0.0
220
0.0
230
1.0
 70
    11
 71
     3
 72
    17
 73
    13
 74
     0
 42
0.0000000001
 43
0.0000000001
 12
1.0
 22
0.0
 32
0.0
 13
1.0
 23
0.0
 33
0.0
 40
0.0
 40
0.0
 40
0.0
 40
0.0
 40
1.0
 40
1.0
 40
1.0
 40
2.0
 40
2.0
 40
2.0
 40
3.0
 40
3.0
 40
3.0
 40
4.0
 40
4.0
 40
4.0
 40
4.0
 10
116.125198704066
 20
-142.4171296866181
 30
0.0
 10
116.125198704066
 20
-142.3620257977425
 30
0.0
 10
116.0804312052081
 20
-142.3172230199765
 30
0.0
 10
116.0252920399482
 20
-142.3172230199765
 30
0.0
 10
115.9694825969276
 20
-142.3172230199765
 30
0.0
 10
115.9253853758304
 20
-142.3620257977425
 30
0.0
 10
115.9253853758304
 20
-142.4171296866181
 30
0.0
 10
115.9253853758304
 20
-142.4722688532705
 30
0.0
 10
115.9694825969276
 20
-142.5170716310373
 30
0.0
 10
116.0252920399482
 20
-142.5170716310373
 30
0.0
 10
116.0804312052081
 20
-142.5170716310373
 30
0.0
 10
116.125198704066
 20
-142.4722688532705
 30
0.0
 10
116.125198704066
 20
-142.4171296866181
 30
0.0
  0
SPLINE
  5
A3
330
1F
100
AcDbEntity
  8
_U+30EC_U+30A4_U+30E4_U+30FC 1
 62
   179
420
  2234388
370
     9
100
AcDbSpline
210
0.0
220
0.0
230
1.0
 70
    11
 71
     3
 72
    17
 73
    13
 74
     0
 42
0.0000000001
 43
0.0000000001
 12
1.0
 22
0.0
 32
0.0
 13
1.0
 23
0.0
 33
0.0
 40
0.0
 40
0.0
 40
0.0
 40
0.0
 40
1.0
 40
1.0
 40
1.0
 40
2.0
 40
2.0
 40
2.0
 40
3.0
 40
3.0
 40
3.0
 40
4.0
 40
4.0
 40
4.0
 40
4.0
 10
116.125198704066
 20
-144.4173796861181
 30
0.0
 10
116.125198704066
 20
-144.362240519465
 30
0.0
 10
116.0804312052081
 20
-144.3174730194764
 30
0.0
 10
116.0252920399482
 20
-144.3174730194764
 30
0.0
 10
115.9694825969276
 20
-144.3174730194764
 30
0.0
 10
115.9253853758304
 20
-144.362240519465
 30
0.0
 10
115.9253853758304
 20
-144.4173796861181
 30
0.0
 10
115.9253853758304
 20
-144.472483574993
 30
0.0
 10
115.9694825969276
 20
-144.5172863527597
 30
0.0
 10
116.0252920399482
 20
-144.5172863527597
 30
0.0
 10
116.0804312052081
 20
-144.5172863527597
 30
0.0
 10
116.125198704066
 20
-144.472483574993
 30
0.0
 10
116.125198704066
 20
-144.4173796861181
 30
0.0
  0
POLYLINE
  5
A4
330
1F
100
AcDbEntity
  8
_U+30EC_U+30A4_U+30E4_U+30FC 1
 62
   179
420
  2234388
370
     9
100
AcDb2dPolyline
 66
     1
 10
0.0
 20
0.0
 30
0.0
  0
VERTEX
  5
A5
330
A4
100
AcDbEntity
  8
_U+30EC_U+30A4_U+30E4_U+30FC 1
 62
   179
420
  2234388
370
     9
100
AcDbVertex
100
AcDb2dVertex
 10
116.0252920399482
 20
-145.4171519080899
 30
0.0
  0
VERTEX
  5
A6
330
A4
100
AcDbEntity
  8
_U+30EC_U+30A4_U+30E4_U+30FC 1
 62
   179
420
  2234388
370
     9
100
AcDbVertex
100
AcDb2dVertex
 10
116.0252920399482
 20
-141.4173927424237
 30
0.0
  0
SEQEND
  5
A7
330
A4
100
AcDbEntity
  8
_U+30EC_U+30A4_U+30E4_U+30FC 1
 62
   179
420
  2234388
370
     9
  0
POLYLINE
  5
A8
330
1F
100
AcDbEntity
  8
_U+30EC_U+30A4_U+30E4_U+30FC 1
 62
   179
420
  2234388
370
     9
100
AcDb2dPolyline
 66
     1
 10
0.0
 20
0.0
 30
0.0
  0
VERTEX
  5
A9
330
A8
100
AcDbEntity
  8
_U+30EC_U+30A4_U+30E4_U+30FC 1
 62
   179
420
  2234388
370
     9
100
AcDbVertex
100
AcDb2dVertex
 10
112.9364404520847
 20
-144.4173796861181
 30
0.0
  0
VERTEX
  5
AA
330
A8
100
AcDbEntity
  8
_U+30EC_U+30A4_U+30E4_U+30FC 1
 62
   179
420
  2234388
370
     9
100
AcDbVertex
100
AcDb2dVertex
 10
117.8704961595398
 20
-144.4173796861181
 30
0.0
  0
SEQEND
  5
AB
330
A8
100
AcDbEntity
  8
_U+30EC_U+30A4_U+30E4_U+30FC 1
 62
   179
420
  2234388
370
     9
  0
POLYLINE
  5
AC
330
1F
100
AcDbEntity
  8
_U+30EC_U+30A4_U+30E4_U+30FC 1
 62
   179
420
  2234388
370
     9
100
AcDb2dPolyline
 66
     1
 10
0.0
 20
0.0
 30
0.0
  0
VERTEX
  5
AD
330
AC
100
AcDbEntity
  8
_U+30EC_U+30A4_U+30E4_U+30FC 1
 62
   179
420
  2234388
370
     9
100
AcDbVertex
100
AcDb2dVertex
 10
111.4095477132612
 20
-142.4171296866181
 30
0.0
  0
VERTEX
  5
AE
330
AC
100
AcDbEntity
  8
_U+30EC_U+30A4_U+30E4_U+30FC 1
 62
   179
420
  2234388
370
     9
100
AcDbVertex
100
AcDb2dVertex
 10
117.8704961595398
 20
-142.4171296866181
 30
0.0
  0
SEQEND
  5
AF
330
AC
100
AcDbEntity
  8
_U+30EC_U+30A4_U+30E4_U+30FC 1
 62
   179
420
  2234388
370
     9
  0
ENDSEC
  0
SECTION
  2
OBJECTS
  0
DICTIONARY
  5
C
330
0
100
AcDbDictionary
281
     1
  3
ACAD_GROUP
350
D
  3
ACAD_LAYOUT
350
1A
  3
ACAD_MATERIAL
350
3B
  3
ACAD_MLEADERSTYLE
350
B1
  3
ACAD_MLINESTYLE
350
17
  3
ACAD_PLOTSETTINGS
350
19
  3
ACAD_PLOTSTYLENAME
350
E
  3
ACAD_TABLESTYLE
350
B0
  3
ACAD_VISUALSTYLE
350
2A
  0
SUN
  5
3F
330
29
100
AcDbSun
 90
        1
290
     0
 63
     7
421
 16777215
 40
1.0
291
     1
 91
  2455826
 92
 54000000
292
     0
 70
     2
 71
   256
280
     1
  0
DICTIONARY
  5
D
102
{ACAD_REACTORS
330
C
102
}
330
C
100
AcDbDictionary
281
     1
  0
DICTIONARY
  5
1A
102
{ACAD_REACTORS
330
C
102
}
330
C
100
AcDbDictionary
281
     1
  3
Layout1
350
1E
  3
Layout2
350
26
  3
Model
350
22
  0
DICTIONARY
  5
3B
102
{ACAD_REACTORS
330
C
102
}
330
C
100
AcDbDictionary
281
     1
  3
ByBlock
350
3D
  3
ByLayer
350
3C
  3
Global
350
3E
  0
DICTIONARY
  5
B1
102
{ACAD_REACTORS
330
C
102
}
330
C
100
AcDbDictionary
281
     1
  0
DICTIONARY
  5
17
102
{ACAD_REACTORS
330
C
102
}
330
C
100
AcDbDictionary
281
     1
  3
Standard
350
18
  0
DICTIONARY
  5
19
102
{ACAD_REACTORS
330
C
102
}
330
C
100
AcDbDictionary
281
     1
  0
ACDBDICTIONARYWDFLT
  5
E
102
{ACAD_REACTORS
330
C
102
}
330
C
100
AcDbDictionary
281
     1
  3
Normal
350
F
100
AcDbDictionaryWithDefault
340
F
  0
DICTIONARY
  5
B0
102
{ACAD_REACTORS
330
C
102
}
330
C
100
AcDbDictionary
281
     1
  0
DICTIONARY
  5
2A
102
{ACAD_REACTORS
330
C
102
}
330
C
100
AcDbDictionary
281
     1
  3
2dWireframe
350
2F
  3
3D Hidden
350
31
  3
3dWireframe
350
30
  3
Basic
350
32
  3
Brighten
350
36
  3
ColorChange
350
3A
  3
Conceptual
350
34
  3
Dim
350
35
  3
Facepattern
350
39
  3
Flat
350
2B
  3
FlatWithEdges
350
2C
  3
Gouraud
350
2D
  3
GouraudWithEdges
350
2E
  3
Linepattern
350
38
  3
Realistic
350
33
  3
Thicken
350
37
  0
LAYOUT
  5
1E
102
{ACAD_REACTORS
330
1A
102
}
330
1A
100
AcDbPlotSettings
  1

  2
none_device
  4

  6

 40
0.0
 41
0.0
 42
0.0
 43
0.0
 44
0.0
 45
0.0
 46
0.0
 47
0.0
 48
0.0
 49
0.0
140
0.0
141
0.0
142
1.0
143
1.0
 70
   688
 72
     0
 73
     0
 74
     5
  7

 75
    16
 76
     0
 77
     2
 78
   300
147
1.0
148
0.0
149
0.0
100
AcDbLayout
  1
Layout1
 70
     1
 71
     1
 10
0.0
 20
0.0
 11
12.0
 21
9.0
 12
0.0
 22
0.0
 32
0.0
 14
1.000000000000000E+20
 24
1.000000000000000E+20
 34
1.000000000000000E+20
 15
-1.000000000000000E+20
 25
-1.000000000000000E+20
 35
-1.000000000000000E+20
146
0.0
 13
0.0
 23
0.0
 33
0.0
 16
1.0
 26
0.0
 36
0.0
 17
0.0
 27
1.0
 37
0.0
 76
     0
330
1B
  0
LAYOUT
  5
26
102
{ACAD_REACTORS
330
1A
102
}
330
1A
100
AcDbPlotSettings
  1

  2
none_device
  4

  6

 40
0.0
 41
0.0
 42
0.0
 43
0.0
 44
0.0
 45
0.0
 46
0.0
 47
0.0
 48
0.0
 49
0.0
140
0.0
141
0.0
142
1.0
143
1.0
 70
   688
 72
     0
 73
     0
 74
     5
  7

 75
    16
 76
     0
 77
     2
 78
   300
147
1.0
148
0.0
149
0.0
100
AcDbLayout
  1
Layout2
 70
     1
 71
     2
 10
0.0
 20
0.0
 11
0.0
 21
0.0
 12
0.0
 22
0.0
 32
0.0
 14
0.0
 24
0.0
 34
0.0
 15
0.0
 25
0.0
 35
0.0
146
0.0
 13
0.0
 23
0.0
 33
0.0
 16
1.0
 26
0.0
 36
0.0
 17
0.0
 27
1.0
 37
0.0
 76
     0
330
23
  0
LAYOUT
  5
22
102
{ACAD_REACTORS
330
1A
102
}
330
1A
100
AcDbPlotSettings
  1

  2
none_device
  4

  6

 40
0.0
 41
0.0
 42
0.0
 43
0.0
 44
0.0
 45
0.0
 46
0.0
 47
0.0
 48
0.0
 49
0.0
140
0.0
141
0.0
142
1.0
143
1.0
 70
  1712
 72
     0
 73
     0
 74
     0
  7

 75
     0
 76
     0
 77
     2
 78
   300
147
1.0
148
0.0
149
0.0
100
AcDbLayout
  1
Model
 70
     1
 71
     0
 10
0.0
 20
0.0
 11
12.0
 21
9.0
 12
0.0
 22
0.0
 32
0.0
 14
1.000000000000000E+20
 24
1.000000000000000E+20
 34
1.000000000000000E+20
 15
-1.000000000000000E+20
 25
-1.000000000000000E+20
 35
-1.000000000000000E+20
146
0.0
 13
0.0
 23
0.0
 33
0.0
 16
1.0
 26
0.0
 36
0.0
 17
0.0
 27
1.0
 37
0.0
 76
     0
330
1F
331
29
  0
MATERIAL
  5
3D
102
{ACAD_REACTORS
330
3B
102
}
330
3B
100
AcDbMaterial
  1
ByBlock
 72
     1
 94
      127
  0
MATERIAL
  5
3C
102
{ACAD_REACTORS
330
3B
102
}
330
3B
100
AcDbMaterial
  1
ByLayer
 72
     1
 94
      127
  0
MATERIAL
  5
3E
102
{ACAD_REACTORS
330
3B
102
}
330
3B
100
AcDbMaterial
  1
Global
 72
     1
 94
      127
  0
MLINESTYLE
  5
18
102
{ACAD_REACTORS
330
17
102
}
330
17
100
AcDbMlineStyle
  2
Standard
 70
     0
  3

 62
   256
 51
90.0
 52
90.0
 71
     2
 49
0.5
 62
   256
  6
BYLAYER
 49
-0.5
 62
   256
  6
BYLAYER
  0
ACDBPLACEHOLDER
  5
F
102
{ACAD_REACTORS
330
E
102
}
330
E
  0
VISUALSTYLE
  5
2F
102
{ACAD_REACTORS
330
2A
102
}
330
2A
100
AcDbVisualStyle
  2
2dWireframe
 70
     4
177
     2
291
     0
 71
     0
176
     1
 72
     2
176
     1
 73
     0
176
     1
 90
        0
176
     1
 40
-0.6
176
     1
 41
-30.0
176
     1
 62
     5
 63
     7
421
 16777215
176
     1
 74
     1
176
     1
 91
        4
176
     1
 64
     7
176
     1
 65
   257
176
     1
 75
     1
176
     1
175
     1
176
     1
 42
1.0
176
     1
 92
        0
176
     1
 66
   257
176
     1
 43
1.0
176
     1
 76
     1
176
     1
 77
     6
176
     1
 78
     2
176
     1
 67
     7
176
     1
 79
     5
176
     1
170
     0
176
     1
171
     0
176
     1
290
     0
176
     1
 93
        1
176
     1
 44
0.0
176
     1
173
     0
176
     1
  0
VISUALSTYLE
  5
31
102
{ACAD_REACTORS
330
2A
102
}
330
2A
100
AcDbVisualStyle
  2
3D Hidden
 70
     6
177
     2
291
     0
 71
     1
176
     1
 72
     2
176
     1
 73
     2
176
     1
 90
        0
176
     1
 40
-0.6
176
     1
 41
-30.0
176
     1
 62
     5
 63
     7
421
 16777215
176
     1
 74
     2
176
     1
 91
        2
176
     1
 64
     7
176
     1
 65
   257
176
     1
 75
     2
176
     1
175
     1
176
     1
 42
40.0
176
     1
 92
        0
176
     1
 66
   257
176
     1
 43
1.0
176
     1
 76
     1
176
     1
 77
     6
176
     1
 78
     2
176
     1
 67
     7
176
     1
 79
     3
176
     1
170
     0
176
     1
171
     0
176
     1
290
     0
176
     1
 93
        1
176
     1
 44
0.0
176
     1
173
     0
176
     1
  0
VISUALSTYLE
  5
30
102
{ACAD_REACTORS
330
2A
102
}
330
2A
100
AcDbVisualStyle
  2
3dWireframe
 70
     5
177
     2
291
     0
 71
     0
176
     1
 72
     2
176
     1
 73
     0
176
     1
 90
        0
176
     1
 40
-0.6
176
     1
 41
-30.0
176
     1
 62
     5
 63
     7
421
 16777215
176
     1
 74
     1
176
     1
 91
        4
176
     1
 64
     7
176
     1
 65
   257
176
     1
 75
     1
176
     1
175
     1
176
     1
 42
1.0
176
     1
 92
        0
176
     1
 66
   257
176
     1
 43
1.0
176
     1
 76
     1
176
     1
 77
     6
176
     1
 78
     2
176
     1
 67
     7
176
     1
 79
     5
176
     1
170
     0
176
     1
171
     0
176
     1
290
     0
176
     1
 93
        1
176
     1
 44
0.0
176
     1
173
     0
176
     1
  0
VISUALSTYLE
  5
32
102
{ACAD_REACTORS
330
2A
102
}
330
2A
100
AcDbVisualStyle
  2
Basic
 70
     7
177
     2
291
     1
 71
     1
176
     1
 72
     0
176
     1
 73
     1
176
     1
 90
        0
176
     1
 40
-0.6
176
     1
 41
-30.0
176
     1
 62
     5
 63
     7
421
 16777215
176
     1
 74
     0
176
     1
 91
        4
176
     1
 64
     7
176
     1
 65
   257
176
     1
 75
     1
176
     1
175
     1
176
     1
 42
1.0
176
     1
 92
        8
176
     1
 66
     7
176
     1
 43
1.0
176
     1
 76
     1
176
     1
 77
     6
176
     1
 78
     2
176
     1
 67
     7
176
     1
 79
     5
176
     1
170
     0
176
     1
171
     0
176
     1
290
     0
176
     1
 93
        1
176
     1
 44
0.0
176
     1
173
     0
176
     1
  0
VISUALSTYLE
  5
36
102
{ACAD_REACTORS
330
2A
102
}
330
2A
100
AcDbVisualStyle
  2
Brighten
 70
    12
177
     2
291
     1
 71
     2
176
     1
 72
     2
176
     1
 73
     0
176
     1
 90
        0
176
     1
 40
-0.6
176
     1
 41
-30.0
176
     1
 62
     5
 63
     7
421
 16777215
176
     1
 74
     1
176
     1
 91
        4
176
     1
 64
     7
176
     1
 65
   257
176
     1
 75
     1
176
     1
175
     1
176
     1
 42
1.0
176
     1
 92
        8
176
     1
 66
     7
176
     1
 43
1.0
176
     1
 76
     1
176
     1
 77
     6
176
     1
 78
     2
176
     1
 67
     7
176
     1
 79
     5
176
     1
170
     0
176
     1
171
     0
176
     1
290
     0
176
     1
 93
        1
176
     1
 44
50.0
176
     1
173
     0
176
     1
  0
VISUALSTYLE
  5
3A
102
{ACAD_REACTORS
330
2A
102
}
330
2A
100
AcDbVisualStyle
  2
ColorChange
 70
    16
177
     2
291
     1
 71
     2
176
     1
 72
     2
176
     1
 73
     3
176
     1
 90
        0
176
     1
 40
-0.6
176
     1
 41
-30.0
176
     1
 62
     5
 63
     8
421
  8421504
176
     1
 74
     1
176
     1
 91
        4
176
     1
 64
     7
176
     1
 65
   257
176
     1
 75
     1
176
     1
175
     1
176
     1
 42
1.0
176
     1
 92
        8
176
     1
 66
     8
424
  8421504
176
     1
 43
1.0
176
     1
 76
     1
176
     1
 77
     6
176
     1
 78
     2
176
     1
 67
     7
176
     1
 79
     5
176
     1
170
     0
176
     1
171
     0
176
     1
290
     0
176
     1
 93
        1
176
     1
 44
0.0
176
     1
173
     0
176
     1
  0
VISUALSTYLE
  5
34
102
{ACAD_REACTORS
330
2A
102
}
330
2A
100
AcDbVisualStyle
  2
Conceptual
 70
     9
177
     2
291
     0
 71
     3
176
     1
 72
     2
176
     1
 73
     0
176
     1
 90
        0
176
     1
 40
-0.6
176
     1
 41
-30.0
176
     1
 62
     5
 63
     7
421
 16777215
176
     1
 74
     2
176
     1
 91
        2
176
     1
 64
     7
176
     1
 65
   257
176
     1
 75
     1
176
     1
175
     1
176
     1
 42
40.0
176
     1
 92
        8
176
     1
 66
     7
176
     1
 43
1.0
176
     1
 76
     1
176
     1
 77
     6
176
     1
 78
     2
176
     1
 67
     7
176
     1
 79
     3
176
     1
170
     0
176
     1
171
     0
176
     1
290
     0
176
     1
 93
        1
176
     1
 44
0.0
176
     1
173
     0
176
     1
  0
VISUALSTYLE
  5
35
102
{ACAD_REACTORS
330
2A
102
}
330
2A
100
AcDbVisualStyle
  2
Dim
 70
    11
177
     2
291
     1
 71
     2
176
     1
 72
     2
176
     1
 73
     0
176
     1
 90
        0
176
     1
 40
-0.6
176
     1
 41
-30.0
176
     1
 62
     5
 63
     7
421
 16777215
176
     1
 74
     1
176
     1
 91
        4
176
     1
 64
     7
176
     1
 65
   257
176
     1
 75
     1
176
     1
175
     1
176
     1
 42
1.0
176
     1
 92
        8
176
     1
 66
     7
176
     1
 43
1.0
176
     1
 76
     1
176
     1
 77
     6
176
     1
 78
     2
176
     1
 67
     7
176
     1
 79
     5
176
     1
170
     0
176
     1
171
     0
176
     1
290
     0
176
     1
 93
        1
176
     1
 44
-50.0
176
     1
173
     0
176
     1
  0
VISUALSTYLE
  5
39
102
{ACAD_REACTORS
330
2A
102
}
330
2A
100
AcDbVisualStyle
  2
Facepattern
 70
    15
177
     2
291
     1
 71
     2
176
     1
 72
     2
176
     1
 73
     0
176
     1
 90
        0
176
     1
 40
-0.6
176
     1
 41
-30.0
176
     1
 62
     5
 63
     7
421
 16777215
176
     1
 74
     1
176
     1
 91
        4
176
     1
 64
     7
176
     1
 65
   257
176
     1
 75
     1
176
     1
175
     1
176
     1
 42
1.0
176
     1
 92
        8
176
     1
 66
     7
176
     1
 43
1.0
176
     1
 76
     1
176
     1
 77
     6
176
     1
 78
     2
176
     1
 67
     7
176
     1
 79
     5
176
     1
170
     0
176
     1
171
     0
176
     1
290
     0
176
     1
 93
        1
176
     1
 44
0.0
176
     1
173
     0
176
     1
  0
VISUALSTYLE
  5
2B
102
{ACAD_REACTORS
330
2A
102
}
330
2A
100
AcDbVisualStyle
  2
Flat
 70
     0
177
     2
291
     1
 71
     2
176
     1
 72
     1
176
     1
 73
     1
176
     1
 90
        2
176
     1
 40
-0.6
176
     1
 41
30.0
176
     1
 62
     5
 63
     7
421
 16777215
176
     1
 74
     0
176
     1
 91
        4
176
     1
 64
     7
176
     1
 65
   257
176
     1
 75
     1
176
     1
175
     1
176
     1
 42
1.0
176
     1
 92
        8
176
     1
 66
     7
176
     1
 43
1.0
176
     1
 76
     1
176
     1
 77
     6
176
     1
 78
     2
176
     1
 67
     7
176
     1
 79
     5
176
     1
170
     0
176
     1
171
     0
176
     1
290
     0
176
     1
 93
       13
176
     1
 44
0.0
176
     1
173
     0
176
     1
  0
VISUALSTYLE
  5
2C
102
{ACAD_REACTORS
330
2A
102
}
330
2A
100
AcDbVisualStyle
  2
FlatWithEdges
 70
     1
177
     2
291
     1
 71
     2
176
     1
 72
     1
176
     1
 73
     1
176
     1
 90
        2
176
     1
 40
-0.6
176
     1
 41
30.0
176
     1
 62
     5
 63
     7
421
 16777215
176
     1
 74
     1
176
     1
 91
        4
176
     1
 64
     7
176
     1
 65
   257
176
     1
 75
     1
176
     1
175
     1
176
     1
 42
1.0
176
     1
 92
        0
176
     1
 66
   257
176
     1
 43
1.0
176
     1
 76
     1
176
     1
 77
     6
176
     1
 78
     2
176
     1
 67
     7
176
     1
 79
     5
176
     1
170
     0
176
     1
171
     0
176
     1
290
     0
176
     1
 93
       13
176
     1
 44
0.0
176
     1
173
     0
176
     1
  0
VISUALSTYLE
  5
2D
102
{ACAD_REACTORS
330
2A
102
}
330
2A
100
AcDbVisualStyle
  2
Gouraud
 70
     2
177
     2
291
     1
 71
     2
176
     1
 72
     2
176
     1
 73
     1
176
     1
 90
        2
176
     1
 40
-0.6
176
     1
 41
30.0
176
     1
 62
     5
 63
     7
421
 16777215
176
     1
 74
     0
176
     1
 91
        4
176
     1
 64
     7
176
     1
 65
   257
176
     1
 75
     1
176
     1
175
     1
176
     1
 42
1.0
176
     1
 92
        0
176
     1
 66
     7
176
     1
 43
1.0
176
     1
 76
     1
176
     1
 77
     6
176
     1
 78
     2
176
     1
 67
     7
176
     1
 79
     5
176
     1
170
     0
176
     1
171
     0
176
     1
290
     0
176
     1
 93
       13
176
     1
 44
0.0
176
     1
173
     0
176
     1
  0
VISUALSTYLE
  5
2E
102
{ACAD_REACTORS
330
2A
102
}
330
2A
100
AcDbVisualStyle
  2
GouraudWithEdges
 70
     3
177
     2
291
     1
 71
     2
176
     1
 72
     2
176
     1
 73
     1
176
     1
 90
        2
176
     1
 40
-0.6
176
     1
 41
30.0
176
     1
 62
     5
 63
     7
421
 16777215
176
     1
 74
     1
176
     1
 91
        4
176
     1
 64
     7
176
     1
 65
   257
176
     1
 75
     1
176
     1
175
     1
176
     1
 42
1.0
176
     1
 92
        0
176
     1
 66
   257
176
     1
 43
1.0
176
     1
 76
     1
176
     1
 77
     6
176
     1
 78
     2
176
     1
 67
     7
176
     1
 79
     5
176
     1
170
     0
176
     1
171
     0
176
     1
290
     0
176
     1
 93
       13
176
     1
 44
0.0
176
     1
173
     0
176
     1
  0
VISUALSTYLE
  5
38
102
{ACAD_REACTORS
330
2A
102
}
330
2A
100
AcDbVisualStyle
  2
Linepattern
 70
    14
177
     2
291
     1
 71
     2
176
     1
 72
     2
176
     1
 73
     0
176
     1
 90
        0
176
     1
 40
-0.6
176
     1
 41
-30.0
176
     1
 62
     5
 63
     7
421
 16777215
176
     1
 74
     1
176
     1
 91
        4
176
     1
 64
     7
176
     1
 65
   257
176
     1
 75
     7
176
     1
175
     7
176
     1
 42
1.0
176
     1
 92
        8
176
     1
 66
     7
176
     1
 43
1.0
176
     1
 76
     1
176
     1
 77
     6
176
     1
 78
     2
176
     1
 67
     7
176
     1
 79
     5
176
     1
170
     0
176
     1
171
     0
176
     1
290
     0
176
     1
 93
        1
176
     1
 44
0.0
176
     1
173
     0
176
     1
  0
VISUALSTYLE
  5
33
102
{ACAD_REACTORS
330
2A
102
}
330
2A
100
AcDbVisualStyle
  2
Realistic
 70
     8
177
     2
291
     0
 71
     2
176
     1
 72
     2
176
     1
 73
     0
176
     1
 90
        0
176
     1
 40
-0.6
176
     1
 41
-30.0
176
     1
 62
     5
 63
     7
421
 16777215
176
     1
 74
     1
176
     1
 91
        0
176
     1
 64
     7
176
     1
 65
   257
176
     1
 75
     1
176
     1
175
     1
176
     1
 42
1.0
176
     1
 92
        8
176
     1
 66
     8
424
  7895160
176
     1
 43
1.0
176
     1
 76
     1
176
     1
 77
     6
176
     1
 78
     2
176
     1
 67
     7
176
     1
 79
     5
176
     1
170
     0
176
     1
171
     0
176
     1
290
     0
176
     1
 93
       13
176
     1
 44
0.0
176
     1
173
     0
176
     1
  0
VISUALSTYLE
  5
37
102
{ACAD_REACTORS
330
2A
102
}
330
2A
100
AcDbVisualStyle
  2
Thicken
 70
    13
177
     2
291
     1
 71
     2
176
     1
 72
     2
176
     1
 73
     0
176
     1
 90
        0
176
     1
 40
-0.6
176
     1
 41
-30.0
176
     1
 62
     5
 63
     7
421
 16777215
176
     1
 74
     1
176
     1
 91
        4
176
     1
 64
     7
176
     1
 65
   257
176
     1
 75
     1
176
     1
175
     1
176
     1
 42
1.0
176
     1
 92
       12
176
     1
 66
     7
176
     1
 43
1.0
176
     1
 76
     1
176
     1
 77
     6
176
     1
 78
     2
176
     1
 67
     7
176
     1
 79
     5
176
     1
170
     0
176
     1
171
     0
176
     1
290
     0
176
     1
 93
        1
176
     1
 44
0.0
176
     1
173
     0
176
     1
  0
ENDSEC
  0
EOF
