  0
SECTION
  2
HEADER
  9
$ACADVER
  1
AC1024
  9
$ACADMAINTVER
 70
     6
  9
$DWGCODEPAGE
  3
UNDEFINED
  9
$INSBASE
 10
0.0
 20
0.0
 30
0.0
  9
$EXTMIN
 10
1.000000000000000E+20
 20
1.000000000000000E+20
 30
1.000000000000000E+20
  9
$EXTMAX
 10
-1.000000000000000E+20
 20
-1.000000000000000E+20
 30
-1.000000000000000E+20
  9
$LIMMIN
 10
0.0
 20
0.0
  9
$LIMMAX
 10
12.0
 20
9.0
  9
$ORTHOMODE
 70
     0
  9
$REGENMODE
 70
     1
  9
$FILLMODE
 70
     1
  9
$QTEXTMODE
 70
     0
  9
$MIRRTEXT
 70
     1
  9
$LTSCALE
 40
1.0
  9
$ATTMODE
 70
     1
  9
$TEXTSIZE
 40
0.2
  9
$TRACEWID
 40
0.05
  9
$TEXTSTYLE
  7
Standard
  9
$CLAYER
  8
0
  9
$CELTYPE
  6
ByLayer
  9
$CECOLOR
 62
   256
  9
$CELTSCALE
 40
1.0
  9
$DISPSILH
 70
     0
  9
$DIMSCALE
 40
1.0
  9
$DIMASZ
 40
0.18
  9
$DIMEXO
 40
0.0625
  9
$DIMDLI
 40
0.38
  9
$DIMRND
 40
0.0
  9
$DIMDLE
 40
0.0
  9
$DIMEXE
 40
0.18
  9
$DIMTP
 40
0.0
  9
$DIMTM
 40
0.0
  9
$DIMTXT
 40
0.18
  9
$DIMCEN
 40
0.09
  9
$DIMTSZ
 40
0.0
  9
$DIMTOL
 70
     0
  9
$DIMLIM
 70
     0
  9
$DIMTIH
 70
     1
  9
$DIMTOH
 70
     1
  9
$DIMSE1
 70
     0
  9
$DIMSE2
 70
     0
  9
$DIMTAD
 70
     0
  9
$DIMZIN
 70
     0
  9
$DIMBLK
  1

  9
$DIMASO
 70
     1
  9
$DIMSHO
 70
     1
  9
$DIMPOST
  1

  9
$DIMAPOST
  1

  9
$DIMALT
 70
     0
  9
$DIMALTD
 70
     2
  9
$DIMALTF
 40
25.4
  9
$DIMLFAC
 40
1.0
  9
$DIMTOFL
 70
     0
  9
$DIMTVP
 40
0.0
  9
$DIMTIX
 70
     0
  9
$DIMSOXD
 70
     0
  9
$DIMSAH
 70
     0
  9
$DIMBLK1
  1

  9
$DIMBLK2
  1

  9
$DIMSTYLE
  2
Standard
  9
$DIMCLRD
 70
     0
  9
$DIMCLRE
 70
     0
  9
$DIMCLRT
 70
     0
  9
$DIMTFAC
 40
1.0
  9
$DIMGAP
 40
0.09
  9
$DIMJUST
 70
     0
  9
$DIMSD1
 70
     0
  9
$DIMSD2
 70
     0
  9
$DIMTOLJ
 70
     1
  9
$DIMTZIN
 70
     0
  9
$DIMALTZ
 70
     0
  9
$DIMALTTZ
 70
     0
  9
$DIMUPT
 70
     0
  9
$DIMDEC
 70
     4
  9
$DIMTDEC
 70
     4
  9
$DIMALTU
 70
     2
  9
$DIMALTTD
 70
     2
  9
$DIMTXSTY
  7
Standard
  9
$DIMAUNIT
 70
     0
  9
$DIMADEC
 70
     0
  9
$DIMALTRND
 40
0.0
  9
$DIMAZIN
 70
     0
  9
$DIMDSEP
 70
    46
  9
$DIMATFIT
 70
     3
  9
$DIMFRAC
 70
     0
  9
$DIMLDRBLK
  1

  9
$DIMLUNIT
 70
     2
  9
$DIMLWD
 70
    -2
  9
$DIMLWE
 70
    -2
  9
$DIMTMOVE
 70
     0
  9
$DIMFXL
 40
1.0
  9
$DIMFXLON
 70
     0
  9
$DIMJOGANG
 40
0.7853981633974483
  9
$DIMTFILL
 70
     0
  9
$DIMTFILLCLR
 70
     0
  9
$DIMARCSYM
 70
     0
  9
$DIMLTYPE
  6

  9
$DIMLTEX1
  6

  9
$DIMLTEX2
  6

  9
$DIMTXTDIRECTION
 70
     0
  9
$LUNITS
 70
     2
  9
$LUPREC
 70
     4
  9
$SKETCHINC
 40
0.1
  9
$FILLETRAD
 40
0.5
  9
$AUNITS
 70
     0
  9
$AUPREC
 70
     0
  9
$MENU
  1
.
  9
$ELEVATION
 40
0.0
  9
$PELEVATION
 40
0.0
  9
$THICKNESS
 40
0.0
  9
$LIMCHECK
 70
     0
  9
$CHAMFERA
 40
0.5
  9
$CHAMFERB
 40
0.5
  9
$CHAMFERC
 40
1.0
  9
$CHAMFERD
 40
0.0
  9
$SKPOLY
 70
     0
  9
$TDCREATE
 40
2457917.624525452
  9
$TDUCREATE
 40
2457917.249525463
  9
$TDUPDATE
 40
2457917.624525452
  9
$TDUUPDATE
 40
2457917.249525463
  9
$TDINDWG
 40
0.0000000116
  9
$TDUSRTIMER
 40
0.0000000116
  9
$USRTIMER
 70
     1
  9
$ANGBASE
 50
0.0
  9
$ANGDIR
 70
     0
  9
$PDMODE
 70
     0
  9
$PDSIZE
 40
0.0
  9
$PLINEWID
 40
0.0
  9
$SPLFRAME
 70
     0
  9
$SPLINETYPE
 70
     6
  9
$SPLINESEGS
 70
     8
  9
$HANDSEED
  5
BB
  9
$SURFTAB1
 70
     6
  9
$SURFTAB2
 70
     6
  9
$SURFTYPE
 70
     6
  9
$SURFU
 70
     6
  9
$SURFV
 70
     6
  9
$UCSBASE
  2

  9
$UCSNAME
  2

  9
$UCSORG
 10
0.0
 20
0.0
 30
0.0
  9
$UCSXDIR
 10
1.0
 20
0.0
 30
0.0
  9
$UCSYDIR
 10
0.0
 20
1.0
 30
0.0
  9
$UCSORTHOREF
  2

  9
$UCSORTHOVIEW
 70
     0
  9
$UCSORGTOP
 10
0.0
 20
0.0
 30
0.0
  9
$UCSORGBOTTOM
 10
0.0
 20
0.0
 30
0.0
  9
$UCSORGLEFT
 10
0.0
 20
0.0
 30
0.0
  9
$UCSORGRIGHT
 10
0.0
 20
0.0
 30
0.0
  9
$UCSORGFRONT
 10
0.0
 20
0.0
 30
0.0
  9
$UCSORGBACK
 10
0.0
 20
0.0
 30
0.0
  9
$PUCSBASE
  2

  9
$PUCSNAME
  2

  9
$PUCSORG
 10
0.0
 20
0.0
 30
0.0
  9
$PUCSXDIR
 10
1.0
 20
0.0
 30
0.0
  9
$PUCSYDIR
 10
0.0
 20
1.0
 30
0.0
  9
$PUCSORTHOREF
  2

  9
$PUCSORTHOVIEW
 70
     0
  9
$PUCSORGTOP
 10
0.0
 20
0.0
 30
0.0
  9
$PUCSORGBOTTOM
 10
0.0
 20
0.0
 30
0.0
  9
$PUCSORGLEFT
 10
0.0
 20
0.0
 30
0.0
  9
$PUCSORGRIGHT
 10
0.0
 20
0.0
 30
0.0
  9
$PUCSORGFRONT
 10
0.0
 20
0.0
 30
0.0
  9
$PUCSORGBACK
 10
0.0
 20
0.0
 30
0.0
  9
$USERI1
 70
     0
  9
$USERI2
 70
     0
  9
$USERI3
 70
     0
  9
$USERI4
 70
     0
  9
$USERI5
 70
     0
  9
$USERR1
 40
0.0
  9
$USERR2
 40
0.0
  9
$USERR3
 40
0.0
  9
$USERR4
 40
0.0
  9
$USERR5
 40
0.0
  9
$WORLDVIEW
 70
     1
  9
$SHADEDGE
 70
     3
  9
$SHADEDIF
 70
    70
  9
$TILEMODE
 70
     1
  9
$MAXACTVP
 70
    64
  9
$PINSBASE
 10
0.0
 20
0.0
 30
0.0
  9
$PLIMCHECK
 70
     0
  9
$PEXTMIN
 10
1.000000000000000E+20
 20
1.000000000000000E+20
 30
1.000000000000000E+20
  9
$PEXTMAX
 10
-1.000000000000000E+20
 20
-1.000000000000000E+20
 30
-1.000000000000000E+20
  9
$PLIMMIN
 10
0.0
 20
0.0
  9
$PLIMMAX
 10
12.0
 20
9.0
  9
$UNITMODE
 70
     0
  9
$VISRETAIN
 70
     1
  9
$PLINEGEN
 70
     0
  9
$PSLTSCALE
 70
     1
  9
$TREEDEPTH
 70
  3020
  9
$CMLSTYLE
  2
Standard
  9
$CMLJUST
 70
     0
  9
$CMLSCALE
 40
1.0
  9
$PROXYGRAPHICS
 70
     1
  9
$MEASUREMENT
 70
     0
  9
$CELWEIGHT
370
    -1
  9
$ENDCAPS
280
     0
  9
$JOINSTYLE
280
     0
  9
$LWDISPLAY
290
     1
  9
$INSUNITS
 70
     1
  9
$HYPERLINKBASE
  1

  9
$STYLESHEET
  1

  9
$XEDIT
290
     1
  9
$CEPSNTYPE
380
     0
  9
$PSTYLEMODE
290
     1
  9
$FINGERPRINTGUID
  2
{8EA1416D-9E61-B30E-D66C-CB62E79BFE8C}
  9
$VERSIONGUID
  2
{FAEB1C32-E019-11D5-929B-00C0DF256EC4}
  9
$EXTNAMES
290
     1
  9
$PSVPSCALE
 40
0.0
  9
$OLESTARTUP
290
     0
  9
$SORTENTS
280
   127
  9
$INDEXCTL
280
     0
  9
$HIDETEXT
280
     1
  9
$XCLIPFRAME
280
     2
  9
$HALOGAP
280
     0
  9
$OBSCOLOR
 70
   257
  9
$OBSLTYPE
280
     0
  9
$INTERSECTIONDISPLAY
280
     0
  9
$INTERSECTIONCOLOR
 70
   257
  9
$DIMASSOC
280
     2
  9
$PROJECTNAME
  1

  9
$CAMERADISPLAY
290
     0
  9
$LENSLENGTH
 40
50.0
  9
$CAMERAHEIGHT
 40
0.0
  9
$STEPSPERSEC
 40
2.0
  9
$STEPSIZE
 40
6.0
  9
$3DDWFPREC
 40
2.0
  9
$PSOLWIDTH
 40
0.25
  9
$PSOLHEIGHT
 40
4.0
  9
$LOFTANG1
 40
1.570796326794897
  9
$LOFTANG2
 40
1.570796326794897
  9
$LOFTMAG1
 40
0.0
  9
$LOFTMAG2
 40
0.0
  9
$LOFTPARAM
 70
     7
  9
$LOFTNORMALS
280
     1
  9
$LATITUDE
 40
37.795
  9
$LONGITUDE
 40
-122.394
  9
$NORTHDIRECTION
 40
0.0
  9
$TIMEZONE
 70
 -8000
  9
$LIGHTGLYPHDISPLAY
280
     1
  9
$TILEMODELIGHTSYNCH
280
     1
  9
$CMATERIAL
347
3C
  9
$SOLIDHIST
280
     1
  9
$SHOWHIST
280
     1
  9
$DWFFRAME
280
     2
  9
$DGNFRAME
280
     2
  9
$REALWORLDSCALE
290
     1
  9
$INTERFERECOLOR
 62
   256
  9
$CSHADOW
280
     0
  9
$SHADOWPLANELOCATION
 40
0.0
  0
ENDSEC
  0
SECTION
  2
CLASSES
  0
CLASS
  1
ACDBDICTIONARYWDFLT
  2
AcDbDictionaryWithDefault
  3
ObjectDBX Classes
 90
        0
 91
        4
280
     0
281
     0
  0
CLASS
  1
VISUALSTYLE
  2
AcDbVisualStyle
  3
ObjectDBX Classes
 90
     4095
 91
        4
280
     0
281
     0
  0
CLASS
  1
MATERIAL
  2
AcDbMaterial
  3
ObjectDBX Classes
 90
     1153
 91
        4
280
     0
281
     0
  0
CLASS
  1
SUN
  2
AcDbSun
  3
SCENEOE
 90
     1024
 91
        4
280
     0
281
     0
  0
ENDSEC
  0
SECTION
  2
TABLES
  0
TABLE
  2
VPORT
  5
8
330
0
100
AcDbSymbolTable
 70
     1
  0
VPORT
  5
29
330
8
100
AcDbSymbolTableRecord
100
AcDbViewportTableRecord
  2
*Active
 70
     0
 10
0.0
 20
0.0
 11
1.0
 21
1.0
 12
0.0
 22
0.0
 13
0.0
 23
0.0
 14
0.5
 24
0.5
 15
0.5
 25
0.5
 16
0.0
 26
0.0
 36
1.0
 17
91.00082462281999
 27
-128.4993055234307
 37
0.0
 40
256.9986110468615
 41
0.7081814508812795
 42
50.0
 43
0.0
 44
0.0
 50
0.0
 51
0.0
 71
     0
 72
   100
 73
     1
 74
     3
 75
     0
 76
     0
 77
     0
 78
     0
281
     0
 65
     1
110
0.0
120
0.0
130
0.0
111
1.0
121
0.0
131
0.0
112
0.0
122
1.0
132
0.0
 79
     0
146
0.0
 60
     3
 61
     5
292
     1
282
     1
141
0.0
142
0.0
 63
   250
361
3F
  0
ENDTAB
  0
TABLE
  2
LTYPE
  5
5
330
0
100
AcDbSymbolTable
 70
     1
  0
LTYPE
  5
14
330
5
100
AcDbSymbolTableRecord
100
AcDbLinetypeTableRecord
  2
ByBlock
 70
     0
  3

 72
    65
 73
     0
 40
0.0
  0
LTYPE
  5
15
330
5
100
AcDbSymbolTableRecord
100
AcDbLinetypeTableRecord
  2
ByLayer
 70
     0
  3

 72
    65
 73
     0
 40
0.0
  0
LTYPE
  5
16
330
5
100
AcDbSymbolTableRecord
100
AcDbLinetypeTableRecord
  2
Continuous
 70
     0
  3
Solid line
 72
    65
 73
     0
 40
0.0
  0
ENDTAB
  0
TABLE
  2
LAYER
  5
2
330
0
100
AcDbSymbolTable
 70
     2
  0
LAYER
  5
10
330
2
100
AcDbSymbolTableRecord
100
AcDbLayerTableRecord
  2
0
 70
     0
 62
     7
  6
Continuous
370
    -3
390
F
347
3E
  0
LAYER
  5
40
330
2
100
AcDbSymbolTableRecord
100
AcDbLayerTableRecord
  2
_U+30EC_U+30A4_U+30E4_U+30FC 1
 70
     0
 62
     7
  6
Continuous
370
    -3
390
F
347
3E
  0
ENDTAB
  0
TABLE
  2
STYLE
  5
3
330
0
100
AcDbSymbolTable
 70
     1
  0
STYLE
  5
11
330
3
100
AcDbSymbolTableRecord
100
AcDbTextStyleTableRecord
  2
Standard
 70
     0
 40
0.0
 41
1.0
 50
0.0
 71
     0
 42
0.2
  3
txt
  4

  0
ENDTAB
  0
TABLE
  2
VIEW
  5
6
330
0
100
AcDbSymbolTable
 70
     0
  0
ENDTAB
  0
TABLE
  2
UCS
  5
7
330
0
100
AcDbSymbolTable
 70
     0
  0
ENDTAB
  0
TABLE
  2
APPID
  5
9
330
0
100
AcDbSymbolTable
 70
     1
  0
APPID
  5
12
330
9
100
AcDbSymbolTableRecord
100
AcDbRegAppTableRecord
  2
ACAD
 70
     0
  0
ENDTAB
  0
TABLE
  2
DIMSTYLE
  5
A
330
0
100
AcDbSymbolTable
 70
     1
100
AcDbDimStyleTable
  0
DIMSTYLE
105
27
330
A
100
AcDbSymbolTableRecord
100
AcDbDimStyleTableRecord
  2
Standard
 70
     0
178
     0
340
11
  0
ENDTAB
  0
TABLE
  2
BLOCK_RECORD
  5
1
330
0
100
AcDbSymbolTable
 70
     4
  0
BLOCK_RECORD
  5
1F
330
1
100
AcDbSymbolTableRecord
100
AcDbBlockTableRecord
  2
*Model_Space
340
22
 70
     0
280
     1
281
     0
  0
BLOCK_RECORD
  5
1B
330
1
100
AcDbSymbolTableRecord
100
AcDbBlockTableRecord
  2
*Paper_Space
340
1E
 70
     0
280
     1
281
     0
  0
BLOCK_RECORD
  5
23
330
1
100
AcDbSymbolTableRecord
100
AcDbBlockTableRecord
  2
*Paper_Space0
340
26
 70
     0
280
     1
281
     0
  0
BLOCK_RECORD
  5
84
330
1
100
AcDbSymbolTableRecord
100
AcDbBlockTableRecord
  2
block 2
340
0
102
{BLKREFS
331
85
102
}
 70
     0
280
     1
281
     0
  0
BLOCK_RECORD
  5
91
330
1
100
AcDbSymbolTableRecord
100
AcDbBlockTableRecord
  2
block 3
340
0
102
{BLKREFS
331
92
102
}
 70
     0
280
     1
281
     0
  0
BLOCK_RECORD
  5
9A
330
1
100
AcDbSymbolTableRecord
100
AcDbBlockTableRecord
  2
block 4
340
0
102
{BLKREFS
331
9B
102
}
 70
     0
280
     1
281
     0
  0
ENDTAB
  0
ENDSEC
  0
SECTION
  2
BLOCKS
  0
BLOCK
  5
20
330
1F
100
AcDbEntity
  8
0
100
AcDbBlockBegin
  2
*Model_Space
 70
     0
 10
0.0
 20
0.0
 30
0.0
  3
*Model_Space
  1

  0
ENDBLK
  5
21
330
1F
100
AcDbEntity
  8
0
100
AcDbBlockEnd
  0
BLOCK
  5
1C
330
1B
100
AcDbEntity
 67
     1
  8
0
100
AcDbBlockBegin
  2
*Paper_Space
 70
     0
 10
0.0
 20
0.0
 30
0.0
  3
*Paper_Space
  1

  0
ENDBLK
  5
1D
330
1B
100
AcDbEntity
 67
     1
  8
0
100
AcDbBlockEnd
  0
BLOCK
  5
24
330
23
100
AcDbEntity
  8
0
100
AcDbBlockBegin
  2
*Paper_Space0
 70
     0
 10
0.0
 20
0.0
 30
0.0
  3
*Paper_Space0
  1

  0
ENDBLK
  5
25
330
23
100
AcDbEntity
  8
0
100
AcDbBlockEnd
  0
BLOCK
  5
86
330
84
100
AcDbEntity
  8
0
100
AcDbBlockBegin
  2
block 2
 70
     0
 10
0.0
 20
0.0
 30
0.0
  3
block 2
  1

  0
SPLINE
  5
88
330
84
100
AcDbEntity
  8
_U+30EC_U+30A4_U+30E4_U+30FC 1
370
     0
100
AcDbSpline
210
0.0
220
0.0
230
1.0
 70
    11
 71
     3
 72
    62
 73
    58
 74
     0
 42
0.0000000001
 43
0.0000000001
 12
1.0
 22
0.0
 32
0.0
 13
1.0
 23
0.0
 33
0.0
 40
0.0
 40
0.0
 40
0.0
 40
0.0
 40
1.0
 40
1.0
 40
1.0
 40
2.0
 40
2.0
 40
2.0
 40
3.0
 40
3.0
 40
3.0
 40
4.0
 40
4.0
 40
4.0
 40
5.0
 40
5.0
 40
5.0
 40
6.0
 40
6.0
 40
6.0
 40
7.0
 40
7.0
 40
7.0
 40
8.0
 40
8.0
 40
8.0
 40
9.0
 40
9.0
 40
9.0
 40
10.0
 40
10.0
 40
10.0
 40
11.0
 40
11.0
 40
11.0
 40
12.0
 40
12.0
 40
12.0
 40
13.0
 40
13.0
 40
13.0
 40
14.0
 40
14.0
 40
14.0
 40
15.0
 40
15.0
 40
15.0
 40
16.0
 40
16.0
 40
16.0
 40
17.0
 40
17.0
 40
17.0
 40
18.0
 40
18.0
 40
18.0
 40
19.0
 40
19.0
 40
19.0
 40
19.0
 10
85.73016762179662
 20
-120.9753892384194
 30
0.0
 10
85.6347384768552
 20
-120.9753892384194
 30
0.0
 10
85.41700844218742
 20
-120.9542019011851
 30
0.0
 10
85.29195147607285
 20
-120.7679944902073
 30
0.0
 10
85.2182264326885
 20
-120.6558566321624
 30
0.0
 10
85.21374780855768
 20
-120.556465627413
 30
0.0
 10
85.20961369397538
 20
-120.4718885332501
 30
0.0
 10
85.20961369397538
 20
-120.4718885332501
 30
0.0
 10
85.42975529548285
 20
-120.4718885332501
 30
0.0
 10
85.42975529548285
 20
-120.4718885332501
 30
0.0
 10
85.43182235277399
 20
-120.545958086183
 30
0.0
 10
85.44215763922975
 20
-120.7807413435027
 30
0.0
 10
85.7256889976658
 20
-120.7807413435027
 30
0.0
 10
85.86314830752727
 20
-120.7807413435027
 30
0.0
 10
86.01576603752385
 20
-120.7109781599264
 30
0.0
 10
86.01576603752385
 20
-120.4823960744801
 30
0.0
 10
86.01576603752385
 20
-120.3661241018529
 30
0.0
 10
85.97752547763757
 20
-120.3173760007366
 30
0.0
 10
85.94583059917326
 20
-120.2856811222723
 30
0.0
 10
85.8717610462404
 20
-120.2116115693395
 30
0.0
 10
85.75531681883895
 20
-120.1990369708183
 30
0.0
 10
85.70053980062347
 20
-120.1990369708183
 30
0.0
 10
85.68124726590608
 20
-120.1990369708183
 30
0.0
 10
85.64541827285949
 20
-120.2011040281095
 30
0.0
 10
85.61785750897748
 20
-120.2052381426918
 30
0.0
 10
85.61785750897748
 20
-120.2052381426918
 30
0.0
 10
85.61785750897748
 20
-120.0105902477751
 30
0.0
 10
85.61785750897748
 20
-120.0105902477751
 30
0.0
 10
85.65609806886376
 20
-120.0169636744229
 30
0.0
 10
85.6981282337838
 20
-120.0192029864883
 30
0.0
 10
85.70467391520577
 20
-120.0192029864883
 30
0.0
 10
85.77013072942553
 20
-120.0192029864883
 30
0.0
 10
85.96891273892444
 20
-119.998015649254
 30
0.0
 10
85.96891273892444
 20
-119.7609930798688
 30
0.0
 10
85.96891273892444
 20
-119.5833984076042
 30
0.0
 10
85.83799911048494
 20
-119.5282768798402
 30
0.0
 10
85.72775605495696
 20
-119.5282768798402
 30
0.0
 10
85.46351723123828
 20
-119.5282768798402
 30
0.0
 10
85.45490449252517
 20
-119.7609930798688
 30
0.0
 10
85.45077037794287
 20
-119.8329955755105
 30
0.0
 10
85.45077037794287
 20
-119.8329955755105
 30
0.0
 10
85.24750974431312
 20
-119.8329955755105
 30
0.0
 10
85.24750974431312
 20
-119.8329955755105
 30
0.0
 10
85.25612248302625
 20
-119.7081108641702
 30
0.0
 10
85.28368324690825
 20
-119.3315619276324
 30
0.0
 10
85.74050290825238
 20
-119.3315619276324
 30
0.0
 10
85.96477862434215
 20
-119.3315619276324
 30
0.0
 10
86.20593530830963
 20
-119.4585136962639
 30
0.0
 10
86.20593530830963
 20
-119.7546196532211
 30
0.0
 10
86.20593530830963
 20
-119.9408270641988
 30
0.0
 10
86.11085067291674
 20
-120.0233371010706
 30
0.0
 10
86.01128741339302
 20
-120.084659800708
 30
0.0
 10
86.07261011303046
 20
-120.11222056459
 30
0.0
 10
86.25451115465165
 20
-120.1926635441706
 30
0.0
 10
86.25451115465165
 20
-120.4698214759589
 30
0.0
 10
86.25451115465165
 20
-120.8083021073847
 30
0.0
 10
86.00715329881072
 20
-120.9753892384194
 30
0.0
 10
85.73016762179662
 20
-120.9753892384194
 30
0.0
  0
HATCH
  5
89
330
84
100
AcDbEntity
  8
_U+30EC_U+30A4_U+30E4_U+30FC 1
 62
   179
420
  2234388
100
AcDbHatch
 10
0.0
 20
0.0
 30
0.0
210
0.0
220
0.0
230
1.0
  2
SOLID
 70
     1
 71
     0
 91
        1
 92
        1
 93
        1
 72
     4
 94
        3
 73
     0
 74
     1
 95
       62
 96
       58
 40
0.0
 40
0.0
 40
0.0
 40
0.0
 40
1.0
 40
1.0
 40
1.0
 40
2.0
 40
2.0
 40
2.0
 40
3.0
 40
3.0
 40
3.0
 40
4.0
 40
4.0
 40
4.0
 40
5.0
 40
5.0
 40
5.0
 40
6.0
 40
6.0
 40
6.0
 40
7.0
 40
7.0
 40
7.0
 40
8.0
 40
8.0
 40
8.0
 40
9.0
 40
9.0
 40
9.0
 40
10.0
 40
10.0
 40
10.0
 40
11.0
 40
11.0
 40
11.0
 40
12.0
 40
12.0
 40
12.0
 40
13.0
 40
13.0
 40
13.0
 40
14.0
 40
14.0
 40
14.0
 40
15.0
 40
15.0
 40
15.0
 40
16.0
 40
16.0
 40
16.0
 40
17.0
 40
17.0
 40
17.0
 40
18.0
 40
18.0
 40
18.0
 40
19.0
 40
19.0
 40
19.0
 40
19.0
 10
85.73016762179662
 20
-120.9753892384194
 10
85.6347384768552
 20
-120.9753892384194
 10
85.41700844218742
 20
-120.9542019011851
 10
85.29195147607285
 20
-120.7679944902073
 10
85.2182264326885
 20
-120.6558566321624
 10
85.21374780855768
 20
-120.556465627413
 10
85.20961369397538
 20
-120.4718885332501
 10
85.20961369397538
 20
-120.4718885332501
 10
85.42975529548285
 20
-120.4718885332501
 10
85.42975529548285
 20
-120.4718885332501
 10
85.43182235277399
 20
-120.545958086183
 10
85.44215763922975
 20
-120.7807413435027
 10
85.7256889976658
 20
-120.7807413435027
 10
85.86314830752727
 20
-120.7807413435027
 10
86.01576603752385
 20
-120.7109781599264
 10
86.01576603752385
 20
-120.4823960744801
 10
86.01576603752385
 20
-120.3661241018529
 10
85.97752547763757
 20
-120.3173760007366
 10
85.94583059917326
 20
-120.2856811222723
 10
85.8717610462404
 20
-120.2116115693395
 10
85.75531681883895
 20
-120.1990369708183
 10
85.70053980062347
 20
-120.1990369708183
 10
85.68124726590608
 20
-120.1990369708183
 10
85.64541827285949
 20
-120.2011040281095
 10
85.61785750897748
 20
-120.2052381426918
 10
85.61785750897748
 20
-120.2052381426918
 10
85.61785750897748
 20
-120.0105902477751
 10
85.61785750897748
 20
-120.0105902477751
 10
85.65609806886376
 20
-120.0169636744229
 10
85.6981282337838
 20
-120.0192029864883
 10
85.70467391520577
 20
-120.0192029864883
 10
85.77013072942553
 20
-120.0192029864883
 10
85.96891273892444
 20
-119.998015649254
 10
85.96891273892444
 20
-119.7609930798688
 10
85.96891273892444
 20
-119.5833984076042
 10
85.83799911048494
 20
-119.5282768798402
 10
85.72775605495696
 20
-119.5282768798402
 10
85.46351723123828
 20
-119.5282768798402
 10
85.45490449252517
 20
-119.7609930798688
 10
85.45077037794287
 20
-119.8329955755105
 10
85.45077037794287
 20
-119.8329955755105
 10
85.24750974431312
 20
-119.8329955755105
 10
85.24750974431312
 20
-119.8329955755105
 10
85.25612248302625
 20
-119.7081108641702
 10
85.28368324690825
 20
-119.3315619276324
 10
85.74050290825238
 20
-119.3315619276324
 10
85.96477862434215
 20
-119.3315619276324
 10
86.20593530830963
 20
-119.4585136962639
 10
86.20593530830963
 20
-119.7546196532211
 10
86.20593530830963
 20
-119.9408270641988
 10
86.11085067291674
 20
-120.0233371010706
 10
86.01128741339302
 20
-120.084659800708
 10
86.07261011303046
 20
-120.11222056459
 10
86.25451115465165
 20
-120.1926635441706
 10
86.25451115465165
 20
-120.4698214759589
 10
86.25451115465165
 20
-120.8083021073847
 10
86.00715329881072
 20
-120.9753892384194
 10
85.73016762179662
 20
-120.9753892384194
 97
        0
 97
        0
 75
     2
 76
     1
 98
        0
  0
SPLINE
  5
8A
330
84
100
AcDbEntity
  8
_U+30EC_U+30A4_U+30E4_U+30FC 1
370
     0
100
AcDbSpline
210
0.0
220
0.0
230
1.0
 70
    11
 71
     3
 72
    29
 73
    25
 74
     0
 42
0.0000000001
 43
0.0000000001
 12
1.0
 22
0.0
 32
0.0
 13
1.0
 23
0.0
 33
0.0
 40
0.0
 40
0.0
 40
0.0
 40
0.0
 40
1.0
 40
1.0
 40
1.0
 40
2.0
 40
2.0
 40
2.0
 40
3.0
 40
3.0
 40
3.0
 40
4.0
 40
4.0
 40
4.0
 40
5.0
 40
5.0
 40
5.0
 40
6.0
 40
6.0
 40
6.0
 40
7.0
 40
7.0
 40
7.0
 40
8.0
 40
8.0
 40
8.0
 40
8.0
 10
87.31318899726892
 20
-120.746807152973
 30
0.0
 10
87.20501299903208
 20
-120.9562689584762
 30
0.0
 10
87.03172469612402
 20
-120.9753892384194
 30
0.0
 10
86.91528046872257
 20
-120.9753892384194
 30
0.0
 10
86.75439450956141
 20
-120.9753892384194
 30
0.0
 10
86.61280108511764
 20
-120.9288804493685
 30
0.0
 10
86.51771644972474
 20
-120.746807152973
 30
0.0
 10
86.41401907561873
 20
-120.5521592580564
 30
0.0
 10
86.39507105044984
 20
-120.3153089434455
 30
0.0
 10
86.39507105044984
 20
-120.1523559269932
 30
0.0
 10
86.39507105044984
 20
-120.008523190484
 30
0.0
 10
86.41195201832757
 20
-119.7568589652865
 30
0.0
 10
86.51771644972474
 20
-119.5579047010133
 30
0.0
 10
86.62554793841306
 20
-119.3548163221578
 30
0.0
 10
86.78643389757423
 20
-119.3315619276324
 30
0.0
 10
86.91528046872257
 20
-119.3315619276324
 30
0.0
 10
87.07409937059259
 20
-119.3315619276324
 30
0.0
 10
87.2177598523275
 20
-119.3760036593921
 30
0.0
 10
87.31318899726892
 20
-119.5579047010133
 30
0.0
 10
87.41240774724412
 20
-119.7504855386388
 30
0.0
 10
87.43583439654383
 20
-119.9788953693108
 30
0.0
 10
87.43583439654383
 20
-120.1523559269932
 30
0.0
 10
87.43583439654383
 20
-120.3237494273843
 30
0.0
 10
87.41447480453527
 20
-120.5543985701218
 30
0.0
 10
87.31318899726892
 20
-120.746807152973
 30
0.0
  0
SPLINE
  5
8B
330
84
100
AcDbEntity
  8
_U+30EC_U+30A4_U+30E4_U+30FC 1
370
     0
100
AcDbSpline
210
0.0
220
0.0
230
1.0
 70
    11
 71
     3
 72
    17
 73
    13
 74
     0
 42
0.0000000001
 43
0.0000000001
 12
1.0
 22
0.0
 32
0.0
 13
1.0
 23
0.0
 33
0.0
 40
0.0
 40
0.0
 40
0.0
 40
0.0
 40
1.0
 40
1.0
 40
1.0
 40
2.0
 40
2.0
 40
2.0
 40
3.0
 40
3.0
 40
3.0
 40
4.0
 40
4.0
 40
4.0
 40
4.0
 10
86.91528046872257
 20
-119.5241427652579
 30
0.0
 10
86.66585555559048
 20
-119.5241427652579
 30
0.0
 10
86.61900225699108
 20
-119.8076741236939
 30
0.0
 10
86.61900225699108
 20
-120.1523559269932
 30
0.0
 10
86.61900225699108
 20
-120.4718885332501
 30
0.0
 10
86.65517575958621
 20
-120.7807413435027
 30
0.0
 10
86.91528046872257
 20
-120.7807413435027
 30
0.0
 10
87.16298283411204
 20
-120.7807413435027
 30
0.0
 10
87.21155868045406
 20
-120.4992770423578
 30
0.0
 10
87.21155868045406
 20
-120.1523559269932
 30
0.0
 10
87.21155868045406
 20
-119.8329955755105
 30
0.0
 10
87.17331812056779
 20
-119.5241427652579
 30
0.0
 10
86.91528046872257
 20
-119.5241427652579
 30
0.0
  0
HATCH
  5
8C
330
84
100
AcDbEntity
  8
_U+30EC_U+30A4_U+30E4_U+30FC 1
 62
   179
420
  2234388
100
AcDbHatch
 10
0.0
 20
0.0
 30
0.0
210
0.0
220
0.0
230
1.0
  2
SOLID
 70
     1
 71
     0
 91
        2
 92
        1
 93
        1
 72
     4
 94
        3
 73
     0
 74
     1
 95
       29
 96
       25
 40
0.0
 40
0.0
 40
0.0
 40
0.0
 40
1.0
 40
1.0
 40
1.0
 40
2.0
 40
2.0
 40
2.0
 40
3.0
 40
3.0
 40
3.0
 40
4.0
 40
4.0
 40
4.0
 40
5.0
 40
5.0
 40
5.0
 40
6.0
 40
6.0
 40
6.0
 40
7.0
 40
7.0
 40
7.0
 40
8.0
 40
8.0
 40
8.0
 40
8.0
 10
87.31318899726892
 20
-120.746807152973
 10
87.20501299903208
 20
-120.9562689584762
 10
87.03172469612402
 20
-120.9753892384194
 10
86.91528046872257
 20
-120.9753892384194
 10
86.75439450956141
 20
-120.9753892384194
 10
86.61280108511764
 20
-120.9288804493685
 10
86.51771644972474
 20
-120.746807152973
 10
86.41401907561873
 20
-120.5521592580564
 10
86.39507105044984
 20
-120.3153089434455
 10
86.39507105044984
 20
-120.1523559269932
 10
86.39507105044984
 20
-120.008523190484
 10
86.41195201832757
 20
-119.7568589652865
 10
86.51771644972474
 20
-119.5579047010133
 10
86.62554793841306
 20
-119.3548163221578
 10
86.78643389757423
 20
-119.3315619276324
 10
86.91528046872257
 20
-119.3315619276324
 10
87.07409937059259
 20
-119.3315619276324
 10
87.2177598523275
 20
-119.3760036593921
 10
87.31318899726892
 20
-119.5579047010133
 10
87.41240774724412
 20
-119.7504855386388
 10
87.43583439654383
 20
-119.9788953693108
 10
87.43583439654383
 20
-120.1523559269932
 10
87.43583439654383
 20
-120.3237494273843
 10
87.41447480453527
 20
-120.5543985701218
 10
87.31318899726892
 20
-120.746807152973
 97
        0
 97
        0
 92
        1
 93
        1
 72
     4
 94
        3
 73
     0
 74
     1
 95
       17
 96
       13
 40
0.0
 40
0.0
 40
0.0
 40
0.0
 40
1.0
 40
1.0
 40
1.0
 40
2.0
 40
2.0
 40
2.0
 40
3.0
 40
3.0
 40
3.0
 40
4.0
 40
4.0
 40
4.0
 40
4.0
 10
86.91528046872257
 20
-119.5241427652579
 10
86.66585555559048
 20
-119.5241427652579
 10
86.61900225699108
 20
-119.8076741236939
 10
86.61900225699108
 20
-120.1523559269932
 10
86.61900225699108
 20
-120.4718885332501
 10
86.65517575958621
 20
-120.7807413435027
 10
86.91528046872257
 20
-120.7807413435027
 10
87.16298283411204
 20
-120.7807413435027
 10
87.21155868045406
 20
-120.4992770423578
 10
87.21155868045406
 20
-120.1523559269932
 10
87.21155868045406
 20
-119.8329955755105
 10
87.17331812056779
 20
-119.5241427652579
 10
86.91528046872257
 20
-119.5241427652579
 97
        0
 97
        0
 75
     2
 76
     1
 98
        0
  0
ENDBLK
  5
87
330
84
100
AcDbEntity
  8
0
100
AcDbBlockEnd
  0
BLOCK
  5
93
330
91
100
AcDbEntity
  8
0
100
AcDbBlockBegin
  2
block 3
 70
     0
 10
0.0
 20
0.0
 30
0.0
  3
block 3
  1

  0
SPLINE
  5
95
330
91
100
AcDbEntity
  8
_U+30EC_U+30A4_U+30E4_U+30FC 1
370
     0
100
AcDbSpline
210
0.0
220
0.0
230
1.0
 70
    11
 71
     3
 72
    26
 73
    22
 74
     0
 42
0.0000000001
 43
0.0000000001
 12
1.0
 22
0.0
 32
0.0
 13
1.0
 23
0.0
 33
0.0
 40
0.0
 40
0.0
 40
0.0
 40
0.0
 40
1.0
 40
1.0
 40
1.0
 40
2.0
 40
2.0
 40
2.0
 40
3.0
 40
3.0
 40
3.0
 40
4.0
 40
4.0
 40
4.0
 40
5.0
 40
5.0
 40
5.0
 40
6.0
 40
6.0
 40
6.0
 40
7.0
 40
7.0
 40
7.0
 40
7.0
 10
103.6226155339902
 20
-131.2078395939342
 30
0.0
 10
103.6226155339902
 20
-131.2078395939342
 30
0.0
 10
102.5184624309676
 20
-131.2078395939342
 30
0.0
 10
102.5184624309676
 20
-131.2078395939342
 30
0.0
 10
102.5184624309676
 20
-131.2078395939342
 30
0.0
 10
102.5184624309676
 20
-131.5378797414211
 30
0.0
 10
102.5184624309676
 20
-131.5378797414211
 30
0.0
 10
102.5184624309676
 20
-131.5378797414211
 30
0.0
 10
102.3703233251019
 20
-131.5378797414211
 30
0.0
 10
102.3703233251019
 20
-131.5378797414211
 30
0.0
 10
102.3555094145153
 20
-131.205772536643
 30
0.0
 10
102.192556398063
 20
-131.1592637475921
 30
0.0
 10
102.0781792279527
 20
-131.129635926419
 30
0.0
 10
102.0781792279527
 20
-131.129635926419
 30
0.0
 10
102.0781792279527
 20
-130.9835638778444
 30
0.0
 10
102.0781792279527
 20
-130.9835638778444
 30
0.0
 10
102.0781792279527
 20
-130.9835638778444
 30
0.0
 10
103.6226155339902
 20
-130.9835638778444
 30
0.0
 10
103.6226155339902
 20
-130.9835638778444
 30
0.0
 10
103.6226155339902
 20
-130.9835638778444
 30
0.0
 10
103.6226155339902
 20
-131.2078395939342
 30
0.0
 10
103.6226155339902
 20
-131.2078395939342
 30
0.0
  0
HATCH
  5
96
330
91
100
AcDbEntity
  8
_U+30EC_U+30A4_U+30E4_U+30FC 1
 62
   179
420
  2234388
100
AcDbHatch
 10
0.0
 20
0.0
 30
0.0
210
0.0
220
0.0
230
1.0
  2
SOLID
 70
     1
 71
     0
 91
        1
 92
        1
 93
        1
 72
     4
 94
        3
 73
     0
 74
     1
 95
       26
 96
       22
 40
0.0
 40
0.0
 40
0.0
 40
0.0
 40
1.0
 40
1.0
 40
1.0
 40
2.0
 40
2.0
 40
2.0
 40
3.0
 40
3.0
 40
3.0
 40
4.0
 40
4.0
 40
4.0
 40
5.0
 40
5.0
 40
5.0
 40
6.0
 40
6.0
 40
6.0
 40
7.0
 40
7.0
 40
7.0
 40
7.0
 10
103.6226155339902
 20
-131.2078395939342
 10
103.6226155339902
 20
-131.2078395939342
 10
102.5184624309676
 20
-131.2078395939342
 10
102.5184624309676
 20
-131.2078395939342
 10
102.5184624309676
 20
-131.2078395939342
 10
102.5184624309676
 20
-131.5378797414211
 10
102.5184624309676
 20
-131.5378797414211
 10
102.5184624309676
 20
-131.5378797414211
 10
102.3703233251019
 20
-131.5378797414211
 10
102.3703233251019
 20
-131.5378797414211
 10
102.3555094145153
 20
-131.205772536643
 10
102.192556398063
 20
-131.1592637475921
 10
102.0781792279527
 20
-131.129635926419
 10
102.0781792279527
 20
-131.129635926419
 10
102.0781792279527
 20
-130.9835638778444
 10
102.0781792279527
 20
-130.9835638778444
 10
102.0781792279527
 20
-130.9835638778444
 10
103.6226155339902
 20
-130.9835638778444
 10
103.6226155339902
 20
-130.9835638778444
 10
103.6226155339902
 20
-130.9835638778444
 10
103.6226155339902
 20
-131.2078395939342
 10
103.6226155339902
 20
-131.2078395939342
 97
        0
 97
        0
 75
     2
 76
     1
 98
        0
  0
SPLINE
  5
97
330
91
100
AcDbEntity
  8
_U+30EC_U+30A4_U+30E4_U+30FC 1
370
     0
100
AcDbSpline
210
0.0
220
0.0
230
1.0
 70
    11
 71
     3
 72
    29
 73
    25
 74
     0
 42
0.0000000001
 43
0.0000000001
 12
1.0
 22
0.0
 32
0.0
 13
1.0
 23
0.0
 33
0.0
 40
0.0
 40
0.0
 40
0.0
 40
0.0
 40
1.0
 40
1.0
 40
1.0
 40
2.0
 40
2.0
 40
2.0
 40
3.0
 40
3.0
 40
3.0
 40
4.0
 40
4.0
 40
4.0
 40
5.0
 40
5.0
 40
5.0
 40
6.0
 40
6.0
 40
6.0
 40
7.0
 40
7.0
 40
7.0
 40
8.0
 40
8.0
 40
8.0
 40
8.0
 10
103.4448486069513
 20
-129.5845106012844
 30
0.0
 10
103.6543104124545
 20
-129.6926865995213
 30
0.0
 10
103.6732584376234
 20
-129.8659749024293
 30
0.0
 10
103.6732584376234
 20
-129.9824191298308
 30
0.0
 10
103.6732584376234
 20
-130.143305088992
 30
0.0
 10
103.6267496485725
 20
-130.2848985134357
 30
0.0
 10
103.4448486069513
 20
-130.3799831488286
 30
0.0
 10
103.2502007120347
 20
-130.4836805229346
 30
0.0
 10
103.0131781426495
 20
-130.502973057652
 30
0.0
 10
102.8505696357457
 20
-130.502973057652
 30
0.0
 10
102.7065646444622
 20
-130.502973057652
 30
0.0
 10
102.4547281644905
 20
-130.4857475802258
 30
0.0
 10
102.2559461549916
 20
-130.3799831488286
 30
0.0
 10
102.0530300309104
 20
-130.2721516601403
 30
0.0
 10
102.0296033816107
 20
-130.1112657009791
 30
0.0
 10
102.0296033816107
 20
-129.9824191298308
 30
0.0
 10
102.0296033816107
 20
-129.8236002279608
 30
0.0
 10
102.0740451133704
 20
-129.6799397462258
 30
0.0
 10
102.2559461549916
 20
-129.5845106012844
 30
0.0
 10
102.448526992617
 20
-129.4852918513092
 30
0.0
 10
102.6769368232891
 20
-129.4618652020095
 30
0.0
 10
102.8505696357457
 20
-129.4618652020095
 30
0.0
 10
103.0217908813626
 20
-129.4618652020095
 30
0.0
 10
103.2522677693258
 20
-129.4832247940181
 30
0.0
 10
103.4448486069513
 20
-129.5845106012844
 30
0.0
  0
SPLINE
  5
98
330
91
100
AcDbEntity
  8
_U+30EC_U+30A4_U+30E4_U+30FC 1
370
     0
100
AcDbSpline
210
0.0
220
0.0
230
1.0
 70
    11
 71
     3
 72
    17
 73
    13
 74
     0
 42
0.0000000001
 43
0.0000000001
 12
1.0
 22
0.0
 32
0.0
 13
1.0
 23
0.0
 33
0.0
 40
0.0
 40
0.0
 40
0.0
 40
0.0
 40
1.0
 40
1.0
 40
1.0
 40
2.0
 40
2.0
 40
2.0
 40
3.0
 40
3.0
 40
3.0
 40
4.0
 40
4.0
 40
4.0
 40
4.0
 10
102.2221842192361
 20
-129.9824191298308
 30
0.0
 10
102.2221842192361
 20
-130.2321885525114
 30
0.0
 10
102.5057155776722
 20
-130.2786973415623
 30
0.0
 10
102.8505696357457
 20
-130.2786973415623
 30
0.0
 10
103.1699299872284
 20
-130.2786973415623
 30
0.0
 10
103.4786105427067
 20
-130.2425238389671
 30
0.0
 10
103.4786105427067
 20
-129.9824191298308
 30
0.0
 10
103.4786105427067
 20
-129.7347167644413
 30
0.0
 10
103.1974907511104
 20
-129.6861409180993
 30
0.0
 10
102.8505696357457
 20
-129.6861409180993
 30
0.0
 10
102.5308647747145
 20
-129.6861409180993
 30
0.0
 10
102.2221842192361
 20
-129.7243814779856
 30
0.0
 10
102.2221842192361
 20
-129.9824191298308
 30
0.0
  0
HATCH
  5
99
330
91
100
AcDbEntity
  8
_U+30EC_U+30A4_U+30E4_U+30FC 1
 62
   179
420
  2234388
100
AcDbHatch
 10
0.0
 20
0.0
 30
0.0
210
0.0
220
0.0
230
1.0
  2
SOLID
 70
     1
 71
     0
 91
        2
 92
        1
 93
        1
 72
     4
 94
        3
 73
     0
 74
     1
 95
       29
 96
       25
 40
0.0
 40
0.0
 40
0.0
 40
0.0
 40
1.0
 40
1.0
 40
1.0
 40
2.0
 40
2.0
 40
2.0
 40
3.0
 40
3.0
 40
3.0
 40
4.0
 40
4.0
 40
4.0
 40
5.0
 40
5.0
 40
5.0
 40
6.0
 40
6.0
 40
6.0
 40
7.0
 40
7.0
 40
7.0
 40
8.0
 40
8.0
 40
8.0
 40
8.0
 10
103.4448486069513
 20
-129.5845106012844
 10
103.6543104124545
 20
-129.6926865995213
 10
103.6732584376234
 20
-129.8659749024293
 10
103.6732584376234
 20
-129.9824191298308
 10
103.6732584376234
 20
-130.143305088992
 10
103.6267496485725
 20
-130.2848985134357
 10
103.4448486069513
 20
-130.3799831488286
 10
103.2502007120347
 20
-130.4836805229346
 10
103.0131781426495
 20
-130.502973057652
 10
102.8505696357457
 20
-130.502973057652
 10
102.7065646444622
 20
-130.502973057652
 10
102.4547281644905
 20
-130.4857475802258
 10
102.2559461549916
 20
-130.3799831488286
 10
102.0530300309104
 20
-130.2721516601403
 10
102.0296033816107
 20
-130.1112657009791
 10
102.0296033816107
 20
-129.9824191298308
 10
102.0296033816107
 20
-129.8236002279608
 10
102.0740451133704
 20
-129.6799397462258
 10
102.2559461549916
 20
-129.5845106012844
 10
102.448526992617
 20
-129.4852918513092
 10
102.6769368232891
 20
-129.4618652020095
 10
102.8505696357457
 20
-129.4618652020095
 10
103.0217908813626
 20
-129.4618652020095
 10
103.2522677693258
 20
-129.4832247940181
 10
103.4448486069513
 20
-129.5845106012844
 97
        0
 97
        0
 92
        1
 93
        1
 72
     4
 94
        3
 73
     0
 74
     1
 95
       17
 96
       13
 40
0.0
 40
0.0
 40
0.0
 40
0.0
 40
1.0
 40
1.0
 40
1.0
 40
2.0
 40
2.0
 40
2.0
 40
3.0
 40
3.0
 40
3.0
 40
4.0
 40
4.0
 40
4.0
 40
4.0
 10
102.2221842192361
 20
-129.9824191298308
 10
102.2221842192361
 20
-130.2321885525114
 10
102.5057155776722
 20
-130.2786973415623
 10
102.8505696357457
 20
-130.2786973415623
 10
103.1699299872284
 20
-130.2786973415623
 10
103.4786105427067
 20
-130.2425238389671
 10
103.4786105427067
 20
-129.9824191298308
 10
103.4786105427067
 20
-129.7347167644413
 10
103.1974907511104
 20
-129.6861409180993
 10
102.8505696357457
 20
-129.6861409180993
 10
102.5308647747145
 20
-129.6861409180993
 10
102.2221842192361
 20
-129.7243814779856
 10
102.2221842192361
 20
-129.9824191298308
 97
        0
 97
        0
 75
     2
 76
     1
 98
        0
  0
ENDBLK
  5
94
330
91
100
AcDbEntity
  8
0
100
AcDbBlockEnd
  0
BLOCK
  5
9C
330
9A
100
AcDbEntity
  8
0
100
AcDbBlockBegin
  2
block 4
 70
     0
 10
0.0
 20
0.0
 30
0.0
  3
block 4
  1

  0
SPLINE
  5
9E
330
9A
100
AcDbEntity
  8
_U+30EC_U+30A4_U+30E4_U+30FC 1
370
     0
100
AcDbSpline
210
0.0
220
0.0
230
1.0
 70
    11
 71
     3
 72
    26
 73
    22
 74
     0
 42
0.0000000001
 43
0.0000000001
 12
1.0
 22
0.0
 32
0.0
 13
1.0
 23
0.0
 33
0.0
 40
0.0
 40
0.0
 40
0.0
 40
0.0
 40
1.0
 40
1.0
 40
1.0
 40
2.0
 40
2.0
 40
2.0
 40
3.0
 40
3.0
 40
3.0
 40
4.0
 40
4.0
 40
4.0
 40
5.0
 40
5.0
 40
5.0
 40
6.0
 40
6.0
 40
6.0
 40
7.0
 40
7.0
 40
7.0
 40
7.0
 10
108.7044758842822
 20
-135.9544921535114
 30
0.0
 10
108.7044758842822
 20
-135.9544921535114
 30
0.0
 10
107.6003227812596
 20
-135.9544921535114
 30
0.0
 10
107.6003227812596
 20
-135.9544921535114
 30
0.0
 10
107.6003227812596
 20
-135.9544921535114
 30
0.0
 10
107.6003227812596
 20
-136.2845323009983
 30
0.0
 10
107.6003227812596
 20
-136.2845323009983
 30
0.0
 10
107.6003227812596
 20
-136.2845323009983
 30
0.0
 10
107.4521836753939
 20
-136.2845323009983
 30
0.0
 10
107.4521836753939
 20
-136.2845323009983
 30
0.0
 10
107.4373697648073
 20
-135.9524250962202
 30
0.0
 10
107.274416748355
 20
-135.9059163071693
 30
0.0
 10
107.1600395782447
 20
-135.8762884859962
 30
0.0
 10
107.1600395782447
 20
-135.8762884859962
 30
0.0
 10
107.1600395782447
 20
-135.7302164374216
 30
0.0
 10
107.1600395782447
 20
-135.7302164374216
 30
0.0
 10
107.1600395782447
 20
-135.7302164374216
 30
0.0
 10
108.7044758842822
 20
-135.7302164374216
 30
0.0
 10
108.7044758842822
 20
-135.7302164374216
 30
0.0
 10
108.7044758842822
 20
-135.7302164374216
 30
0.0
 10
108.7044758842822
 20
-135.9544921535114
 30
0.0
 10
108.7044758842822
 20
-135.9544921535114
 30
0.0
  0
HATCH
  5
9F
330
9A
100
AcDbEntity
  8
_U+30EC_U+30A4_U+30E4_U+30FC 1
 62
   179
420
  2234388
100
AcDbHatch
 10
0.0
 20
0.0
 30
0.0
210
0.0
220
0.0
230
1.0
  2
SOLID
 70
     1
 71
     0
 91
        1
 92
        1
 93
        1
 72
     4
 94
        3
 73
     0
 74
     1
 95
       26
 96
       22
 40
0.0
 40
0.0
 40
0.0
 40
0.0
 40
1.0
 40
1.0
 40
1.0
 40
2.0
 40
2.0
 40
2.0
 40
3.0
 40
3.0
 40
3.0
 40
4.0
 40
4.0
 40
4.0
 40
5.0
 40
5.0
 40
5.0
 40
6.0
 40
6.0
 40
6.0
 40
7.0
 40
7.0
 40
7.0
 40
7.0
 10
108.7044758842822
 20
-135.9544921535114
 10
108.7044758842822
 20
-135.9544921535114
 10
107.6003227812596
 20
-135.9544921535114
 10
107.6003227812596
 20
-135.9544921535114
 10
107.6003227812596
 20
-135.9544921535114
 10
107.6003227812596
 20
-136.2845323009983
 10
107.6003227812596
 20
-136.2845323009983
 10
107.6003227812596
 20
-136.2845323009983
 10
107.4521836753939
 20
-136.2845323009983
 10
107.4521836753939
 20
-136.2845323009983
 10
107.4373697648073
 20
-135.9524250962202
 10
107.274416748355
 20
-135.9059163071693
 10
107.1600395782447
 20
-135.8762884859962
 10
107.1600395782447
 20
-135.8762884859962
 10
107.1600395782447
 20
-135.7302164374216
 10
107.1600395782447
 20
-135.7302164374216
 10
107.1600395782447
 20
-135.7302164374216
 10
108.7044758842822
 20
-135.7302164374216
 10
108.7044758842822
 20
-135.7302164374216
 10
108.7044758842822
 20
-135.7302164374216
 10
108.7044758842822
 20
-135.9544921535114
 10
108.7044758842822
 20
-135.9544921535114
 97
        0
 97
        0
 75
     2
 76
     1
 98
        0
  0
POLYLINE
  5
A0
330
9A
100
AcDbEntity
  8
_U+30EC_U+30A4_U+30E4_U+30FC 1
370
     0
100
AcDb2dPolyline
 66
     1
 10
0.0
 20
0.0
 30
0.0
  0
VERTEX
  5
A1
330
A0
100
AcDbEntity
  8
_U+30EC_U+30A4_U+30E4_U+30FC 1
370
     0
100
AcDbVertex
100
AcDb2dVertex
 10
108.7044758842822
 20
-135.1690103828744
 30
0.0
  0
VERTEX
  5
A2
330
A0
100
AcDbEntity
  8
_U+30EC_U+30A4_U+30E4_U+30FC 1
370
     0
100
AcDbVertex
100
AcDb2dVertex
 10
108.4526394043105
 20
-135.1690103828744
 30
0.0
  0
VERTEX
  5
A3
330
A0
100
AcDbEntity
  8
_U+30EC_U+30A4_U+30E4_U+30FC 1
370
     0
100
AcDbVertex
100
AcDb2dVertex
 10
108.4526394043105
 20
-134.9171739029026
 30
0.0
  0
VERTEX
  5
A4
330
A0
100
AcDbEntity
  8
_U+30EC_U+30A4_U+30E4_U+30FC 1
370
     0
100
AcDbVertex
100
AcDb2dVertex
 10
108.7044758842822
 20
-134.9171739029026
 30
0.0
  0
VERTEX
  5
A5
330
A0
100
AcDbEntity
  8
_U+30EC_U+30A4_U+30E4_U+30FC 1
370
     0
100
AcDbVertex
100
AcDb2dVertex
 10
108.7044758842822
 20
-135.1690103828744
 30
0.0
  0
SEQEND
  5
A6
330
A0
100
AcDbEntity
  8
_U+30EC_U+30A4_U+30E4_U+30FC 1
370
     0
  0
HATCH
  5
A7
330
9A
100
AcDbEntity
  8
_U+30EC_U+30A4_U+30E4_U+30FC 1
 62
   179
420
  2234388
100
AcDbHatch
 10
0.0
 20
0.0
 30
0.0
210
0.0
220
0.0
230
1.0
  2
SOLID
 70
     1
 71
     0
 91
        1
 92
        1
 93
        4
 72
     1
 10
108.7044758842822
 20
-135.1690103828744
 11
108.4526394043105
 21
-135.1690103828744
 72
     1
 10
108.4526394043105
 20
-135.1690103828744
 11
108.4526394043105
 21
-134.9171739029026
 72
     1
 10
108.4526394043105
 20
-134.9171739029026
 11
108.7044758842822
 21
-134.9171739029026
 72
     1
 10
108.7044758842822
 20
-134.9171739029026
 11
108.7044758842822
 21
-135.1690103828744
 97
        0
 75
     2
 76
     1
 98
        0
  0
SPLINE
  5
A8
330
9A
100
AcDbEntity
  8
_U+30EC_U+30A4_U+30E4_U+30FC 1
370
     0
100
AcDbSpline
210
0.0
220
0.0
230
1.0
 70
    11
 71
     3
 72
    53
 73
    49
 74
     0
 42
0.0000000001
 43
0.0000000001
 12
1.0
 22
0.0
 32
0.0
 13
1.0
 23
0.0
 33
0.0
 40
0.0
 40
0.0
 40
0.0
 40
0.0
 40
1.0
 40
1.0
 40
1.0
 40
2.0
 40
2.0
 40
2.0
 40
3.0
 40
3.0
 40
3.0
 40
4.0
 40
4.0
 40
4.0
 40
5.0
 40
5.0
 40
5.0
 40
6.0
 40
6.0
 40
6.0
 40
7.0
 40
7.0
 40
7.0
 40
8.0
 40
8.0
 40
8.0
 40
9.0
 40
9.0
 40
9.0
 40
10.0
 40
10.0
 40
10.0
 40
11.0
 40
11.0
 40
11.0
 40
12.0
 40
12.0
 40
12.0
 40
13.0
 40
13.0
 40
13.0
 40
14.0
 40
14.0
 40
14.0
 40
15.0
 40
15.0
 40
15.0
 40
16.0
 40
16.0
 40
16.0
 40
16.0
 10
108.7551187879154
 20
-134.1999050228737
 30
0.0
 10
108.7551187879154
 20
-134.2781086903888
 30
0.0
 10
108.7382378200377
 20
-134.3797390072037
 30
0.0
 10
108.6748480631091
 20
-134.4813693240185
 30
0.0
 10
108.5649495171296
 20
-134.6546576269266
 30
0.0
 10
108.4336913791416
 20
-134.6760172189352
 30
0.0
 10
108.3258598904533
 20
-134.6949652441041
 30
0.0
 10
108.3258598904533
 20
-134.6949652441041
 30
0.0
 10
108.3258598904533
 20
-134.4727565853054
 30
0.0
 10
108.3258598904533
 20
-134.4727565853054
 30
0.0
 10
108.5246418999522
 20
-134.41797956709
 30
0.0
 10
108.5542697211253
 20
-134.2908555436842
 30
0.0
 10
108.5542697211253
 20
-134.1978379655825
 30
0.0
 10
108.5542697211253
 20
-134.0583115984299
 30
0.0
 10
108.4547064616016
 20
-133.9060383779818
 30
0.0
 10
108.2221625163472
 20
-133.9060383779818
 30
0.0
 10
107.9661919217932
 20
-133.9060383779818
 30
0.0
 10
107.8962564834426
 20
-134.0858723623119
 30
0.0
 10
107.8962564834426
 20
-134.2064507042956
 30
0.0
 10
107.8962564834426
 20
-134.2381455827599
 30
0.0
 10
107.8962564834426
 20
-134.3797390072037
 30
0.0
 10
108.0254475641395
 20
-134.4686224707231
 30
0.0
 10
108.0254475641395
 20
-134.4686224707231
 30
0.0
 10
108.0064995389706
 20
-134.6443223404709
 30
0.0
 10
108.0064995389706
 20
-134.6443223404709
 30
0.0
 10
108.0064995389706
 20
-134.6443223404709
 30
0.0
 10
107.1600395782447
 20
-134.5237439984871
 30
0.0
 10
107.1600395782447
 20
-134.5237439984871
 30
0.0
 10
107.1600395782447
 20
-134.5237439984871
 30
0.0
 10
107.1600395782447
 20
-133.7451524188207
 30
0.0
 10
107.1600395782447
 20
-133.7451524188207
 30
0.0
 10
107.1600395782447
 20
-133.7451524188207
 30
0.0
 10
107.3546874731613
 20
-133.7451524188207
 30
0.0
 10
107.3546874731613
 20
-133.7451524188207
 30
0.0
 10
107.3546874731613
 20
-133.7451524188207
 30
0.0
 10
107.3546874731613
 20
-134.3607909820348
 30
0.0
 10
107.3546874731613
 20
-134.3607909820348
 30
0.0
 10
107.3546874731613
 20
-134.3607909820348
 30
0.0
 10
107.77774519875
 20
-134.4262477962546
 30
0.0
 10
107.77774519875
 20
-134.4262477962546
 30
0.0
 10
107.7439832629946
 20
-134.3649250966171
 30
0.0
 10
107.7036756458171
 20
-134.2825873145196
 30
0.0
 10
107.7036756458171
 20
-134.164076029827
 30
0.0
 10
107.7036756458171
 20
-133.9101724925641
 30
0.0
 10
107.8900553115692
 20
-133.673149923179
 30
0.0
 10
108.2032144911784
 20
-133.673149923179
 30
0.0
 10
108.5205077853699
 20
-133.673149923179
 30
0.0
 10
108.7551187879154
 20
-133.8974256392687
 30
0.0
 10
108.7551187879154
 20
-134.1999050228737
 30
0.0
  0
HATCH
  5
A9
330
9A
100
AcDbEntity
  8
_U+30EC_U+30A4_U+30E4_U+30FC 1
 62
   179
420
  2234388
100
AcDbHatch
 10
0.0
 20
0.0
 30
0.0
210
0.0
220
0.0
230
1.0
  2
SOLID
 70
     1
 71
     0
 91
        1
 92
        1
 93
        1
 72
     4
 94
        3
 73
     0
 74
     1
 95
       53
 96
       49
 40
0.0
 40
0.0
 40
0.0
 40
0.0
 40
1.0
 40
1.0
 40
1.0
 40
2.0
 40
2.0
 40
2.0
 40
3.0
 40
3.0
 40
3.0
 40
4.0
 40
4.0
 40
4.0
 40
5.0
 40
5.0
 40
5.0
 40
6.0
 40
6.0
 40
6.0
 40
7.0
 40
7.0
 40
7.0
 40
8.0
 40
8.0
 40
8.0
 40
9.0
 40
9.0
 40
9.0
 40
10.0
 40
10.0
 40
10.0
 40
11.0
 40
11.0
 40
11.0
 40
12.0
 40
12.0
 40
12.0
 40
13.0
 40
13.0
 40
13.0
 40
14.0
 40
14.0
 40
14.0
 40
15.0
 40
15.0
 40
15.0
 40
16.0
 40
16.0
 40
16.0
 40
16.0
 10
108.7551187879154
 20
-134.1999050228737
 10
108.7551187879154
 20
-134.2781086903888
 10
108.7382378200377
 20
-134.3797390072037
 10
108.6748480631091
 20
-134.4813693240185
 10
108.5649495171296
 20
-134.6546576269266
 10
108.4336913791416
 20
-134.6760172189352
 10
108.3258598904533
 20
-134.6949652441041
 10
108.3258598904533
 20
-134.6949652441041
 10
108.3258598904533
 20
-134.4727565853054
 10
108.3258598904533
 20
-134.4727565853054
 10
108.5246418999522
 20
-134.41797956709
 10
108.5542697211253
 20
-134.2908555436842
 10
108.5542697211253
 20
-134.1978379655825
 10
108.5542697211253
 20
-134.0583115984299
 10
108.4547064616016
 20
-133.9060383779818
 10
108.2221625163472
 20
-133.9060383779818
 10
107.9661919217932
 20
-133.9060383779818
 10
107.8962564834426
 20
-134.0858723623119
 10
107.8962564834426
 20
-134.2064507042956
 10
107.8962564834426
 20
-134.2381455827599
 10
107.8962564834426
 20
-134.3797390072037
 10
108.0254475641395
 20
-134.4686224707231
 10
108.0254475641395
 20
-134.4686224707231
 10
108.0064995389706
 20
-134.6443223404709
 10
108.0064995389706
 20
-134.6443223404709
 10
108.0064995389706
 20
-134.6443223404709
 10
107.1600395782447
 20
-134.5237439984871
 10
107.1600395782447
 20
-134.5237439984871
 10
107.1600395782447
 20
-134.5237439984871
 10
107.1600395782447
 20
-133.7451524188207
 10
107.1600395782447
 20
-133.7451524188207
 10
107.1600395782447
 20
-133.7451524188207
 10
107.3546874731613
 20
-133.7451524188207
 10
107.3546874731613
 20
-133.7451524188207
 10
107.3546874731613
 20
-133.7451524188207
 10
107.3546874731613
 20
-134.3607909820348
 10
107.3546874731613
 20
-134.3607909820348
 10
107.3546874731613
 20
-134.3607909820348
 10
107.77774519875
 20
-134.4262477962546
 10
107.77774519875
 20
-134.4262477962546
 10
107.7439832629946
 20
-134.3649250966171
 10
107.7036756458171
 20
-134.2825873145196
 10
107.7036756458171
 20
-134.164076029827
 10
107.7036756458171
 20
-133.9101724925641
 10
107.8900553115692
 20
-133.673149923179
 10
108.2032144911784
 20
-133.673149923179
 10
108.5205077853699
 20
-133.673149923179
 10
108.7551187879154
 20
-133.8974256392687
 10
108.7551187879154
 20
-134.1999050228737
 97
        0
 97
        0
 75
     2
 76
     1
 98
        0
  0
ENDBLK
  5
9D
330
9A
100
AcDbEntity
  8
0
100
AcDbBlockEnd
  0
ENDSEC
  0
SECTION
  2
ENTITIES
  0
SPLINE
  5
41
330
1F
100
AcDbEntity
  8
_U+30EC_U+30A4_U+30E4_U+30FC 1
 62
   179
420
  2234388
370
     9
100
AcDbSpline
210
0.0
220
0.0
230
1.0
 70
    11
 71
     3
 72
    17
 73
    13
 74
     0
 42
0.0000000001
 43
0.0000000001
 12
1.0
 22
0.0
 32
0.0
 13
1.0
 23
0.0
 33
0.0
 40
0.0
 40
0.0
 40
0.0
 40
0.0
 40
1.0
 40
1.0
 40
1.0
 40
2.0
 40
2.0
 40
2.0
 40
3.0
 40
3.0
 40
3.0
 40
4.0
 40
4.0
 40
4.0
 40
4.0
 10
104.3688090039965
 20
-135.5700305216629
 30
0.0
 10
104.3688090039965
 20
-135.5148913550099
 30
0.0
 10
104.3240415051386
 20
-135.4701238550213
 30
0.0
 10
104.2685848398868
 20
-135.4701238550213
 30
0.0
 10
104.2134456746268
 20
-135.4701238550213
 30
0.0
 10
104.1686781757689
 20
-135.5148913550099
 30
0.0
 10
104.1686781757689
 20
-135.5700305216629
 30
0.0
 10
104.1686781757689
 20
-135.6258399660934
 30
0.0
 10
104.2134456746268
 20
-135.6706074660826
 30
0.0
 10
104.2685848398868
 20
-135.6706074660826
 30
0.0
 10
104.3240415051386
 20
-135.6706074660826
 30
0.0
 10
104.3688090039965
 20
-135.6258399660934
 30
0.0
 10
104.3688090039965
 20
-135.5700305216629
 30
0.0
  0
SPLINE
  5
42
330
1F
100
AcDbEntity
  8
_U+30EC_U+30A4_U+30E4_U+30FC 1
 62
   179
420
  2234388
370
     9
100
AcDbSpline
210
0.0
220
0.0
230
1.0
 70
    11
 71
     3
 72
    17
 73
    13
 74
     0
 42
0.0000000001
 43
0.0000000001
 12
1.0
 22
0.0
 32
0.0
 13
1.0
 23
0.0
 33
0.0
 40
0.0
 40
0.0
 40
0.0
 40
0.0
 40
1.0
 40
1.0
 40
1.0
 40
2.0
 40
2.0
 40
2.0
 40
3.0
 40
3.0
 40
3.0
 40
4.0
 40
4.0
 40
4.0
 40
4.0
 10
104.3688090039965
 20
-125.5704738574963
 30
0.0
 10
104.3688090039965
 20
-125.5153346908435
 30
0.0
 10
104.3240415051386
 20
-125.4705671908546
 30
0.0
 10
104.2685848398868
 20
-125.4705671908546
 30
0.0
 10
104.2134456746268
 20
-125.4705671908546
 30
0.0
 10
104.1686781757689
 20
-125.5153346908435
 30
0.0
 10
104.1686781757689
 20
-125.5704738574963
 30
0.0
 10
104.1686781757689
 20
-125.6255777463715
 30
0.0
 10
104.2134456746268
 20
-125.6703805241379
 30
0.0
 10
104.2685848398868
 20
-125.6703805241379
 30
0.0
 10
104.3240415051386
 20
-125.6703805241379
 30
0.0
 10
104.3688090039965
 20
-125.6255777463715
 30
0.0
 10
104.3688090039965
 20
-125.5704738574963
 30
0.0
  0
POLYLINE
  5
43
330
1F
100
AcDbEntity
  8
_U+30EC_U+30A4_U+30E4_U+30FC 1
 62
   179
420
  2234388
370
     9
100
AcDb2dPolyline
 66
     1
 10
0.0
 20
0.0
 30
0.0
  0
VERTEX
  5
44
330
43
100
AcDbEntity
  8
_U+30EC_U+30A4_U+30E4_U+30FC 1
 62
   179
420
  2234388
370
     9
100
AcDbVertex
100
AcDb2dVertex
 10
104.2685848398868
 20
-125.5704738574963
 30
0.0
  0
VERTEX
  5
45
330
43
100
AcDbEntity
  8
_U+30EC_U+30A4_U+30E4_U+30FC 1
 62
   179
420
  2234388
370
     9
100
AcDbVertex
100
AcDb2dVertex
 10
104.2685848398868
 20
-135.5700305216629
 30
0.0
  0
SEQEND
  5
46
330
43
100
AcDbEntity
  8
_U+30EC_U+30A4_U+30E4_U+30FC 1
 62
   179
420
  2234388
370
     9
  0
POLYLINE
  5
47
330
1F
100
AcDbEntity
  8
_U+30EC_U+30A4_U+30E4_U+30FC 1
370
     0
100
AcDb2dPolyline
 66
     1
 10
0.0
 20
0.0
 30
0.0
  0
VERTEX
  5
48
330
47
100
AcDbEntity
  8
_U+30EC_U+30A4_U+30E4_U+30FC 1
370
     0
100
AcDbVertex
100
AcDb2dVertex
 10
71.32708053772376
 20
-135.5700305216629
 30
0.0
  0
VERTEX
  5
49
330
47
100
AcDbEntity
  8
_U+30EC_U+30A4_U+30E4_U+30FC 1
370
     0
100
AcDbVertex
100
AcDb2dVertex
 10
101.3271590815955
 20
-135.5700305216629
 30
0.0
  0
VERTEX
  5
4A
330
47
100
AcDbEntity
  8
_U+30EC_U+30A4_U+30E4_U+30FC 1
370
     0
100
AcDbVertex
100
AcDb2dVertex
 10
101.3271590815955
 20
-125.5704738574963
 30
0.0
  0
VERTEX
  5
4B
330
47
100
AcDbEntity
  8
_U+30EC_U+30A4_U+30E4_U+30FC 1
370
     0
100
AcDbVertex
100
AcDb2dVertex
 10
71.32708053772376
 20
-125.5704738574963
 30
0.0
  0
VERTEX
  5
4C
330
47
100
AcDbEntity
  8
_U+30EC_U+30A4_U+30E4_U+30FC 1
370
     0
100
AcDbVertex
100
AcDb2dVertex
 10
71.32708053772376
 20
-135.5700305216629
 30
0.0
  0
SEQEND
  5
4D
330
47
100
AcDbEntity
  8
_U+30EC_U+30A4_U+30E4_U+30FC 1
370
     0
  0
POLYLINE
  5
4E
330
1F
100
AcDbEntity
  8
_U+30EC_U+30A4_U+30E4_U+30FC 1
370
     0
100
AcDb2dPolyline
 66
     1
 10
0.0
 20
0.0
 30
0.0
  0
VERTEX
  5
4F
330
4E
100
AcDbEntity
  8
_U+30EC_U+30A4_U+30E4_U+30FC 1
370
     0
100
AcDbVertex
100
AcDb2dVertex
 10
72.82709164846
 20
-127.0704496904547
 30
0.0
  0
VERTEX
  5
50
330
4E
100
AcDbEntity
  8
_U+30EC_U+30A4_U+30E4_U+30FC 1
370
     0
100
AcDbVertex
100
AcDb2dVertex
 10
99.82714800875283
 20
-127.0704496904547
 30
0.0
  0
VERTEX
  5
51
330
4E
100
AcDbEntity
  8
_U+30EC_U+30A4_U+30E4_U+30FC 1
370
     0
100
AcDbVertex
100
AcDb2dVertex
 10
99.82714800875283
 20
-134.0700194109267
 30
0.0
  0
VERTEX
  5
52
330
4E
100
AcDbEntity
  8
_U+30EC_U+30A4_U+30E4_U+30FC 1
370
     0
100
AcDbVertex
100
AcDb2dVertex
 10
72.82709164846
 20
-134.0700194109267
 30
0.0
  0
VERTEX
  5
53
330
4E
100
AcDbEntity
  8
_U+30EC_U+30A4_U+30E4_U+30FC 1
370
     0
100
AcDbVertex
100
AcDb2dVertex
 10
72.82709164846
 20
-127.0704496904547
 30
0.0
  0
SEQEND
  5
54
330
4E
100
AcDbEntity
  8
_U+30EC_U+30A4_U+30E4_U+30FC 1
370
     0
  0
HATCH
  5
55
330
1F
100
AcDbEntity
  8
_U+30EC_U+30A4_U+30E4_U+30FC 1
 62
   253
420
 11711154
100
AcDbHatch
 10
0.0
 20
0.0
 30
0.0
210
0.0
220
0.0
230
1.0
  2
SOLID
 70
     1
 71
     0
 91
        2
 92
        1
 93
        4
 72
     1
 10
71.32708053772376
 20
-135.5700305216629
 11
101.3271590815955
 21
-135.5700305216629
 72
     1
 10
101.3271590815955
 20
-135.5700305216629
 11
101.3271590815955
 21
-125.5704738574963
 72
     1
 10
101.3271590815955
 20
-125.5704738574963
 11
71.32708053772376
 21
-125.5704738574963
 72
     1
 10
71.32708053772376
 20
-125.5704738574963
 11
71.32708053772376
 21
-135.5700305216629
 97
        0
 92
        1
 93
        4
 72
     1
 10
72.82709164846
 20
-127.0704496904547
 11
99.82714800875283
 21
-127.0704496904547
 72
     1
 10
99.82714800875283
 20
-127.0704496904547
 11
99.82714800875283
 21
-134.0700194109267
 72
     1
 10
99.82714800875283
 20
-134.0700194109267
 11
72.82709164846
 21
-134.0700194109267
 72
     1
 10
72.82709164846
 20
-134.0700194109267
 11
72.82709164846
 21
-127.0704496904547
 97
        0
 75
     2
 76
     1
 98
        0
  0
POLYLINE
  5
56
330
1F
100
AcDbEntity
  8
_U+30EC_U+30A4_U+30E4_U+30FC 1
 62
   179
420
  2234388
370
    25
100
AcDb2dPolyline
 66
     1
 10
0.0
 20
0.0
 30
0.0
  0
VERTEX
  5
57
330
56
100
AcDbEntity
  8
_U+30EC_U+30A4_U+30E4_U+30FC 1
 62
   179
420
  2234388
370
    25
100
AcDbVertex
100
AcDb2dVertex
 10
71.32708053772376
 20
-125.5704738574963
 30
0.0
  0
VERTEX
  5
58
330
56
100
AcDbEntity
  8
_U+30EC_U+30A4_U+30E4_U+30FC 1
 62
   179
420
  2234388
370
    25
100
AcDbVertex
100
AcDb2dVertex
 10
71.32708053772376
 20
-135.5700305216629
 30
0.0
  0
SEQEND
  5
59
330
56
100
AcDbEntity
  8
_U+30EC_U+30A4_U+30E4_U+30FC 1
 62
   179
420
  2234388
370
    25
  0
POLYLINE
  5
5A
330
1F
100
AcDbEntity
  8
_U+30EC_U+30A4_U+30E4_U+30FC 1
 62
   179
420
  2234388
370
    25
100
AcDb2dPolyline
 66
     1
 10
0.0
 20
0.0
 30
0.0
  0
VERTEX
  5
5B
330
5A
100
AcDbEntity
  8
_U+30EC_U+30A4_U+30E4_U+30FC 1
 62
   179
420
  2234388
370
    25
100
AcDbVertex
100
AcDb2dVertex
 10
101.3271590815955
 20
-125.5704738574963
 30
0.0
  0
VERTEX
  5
5C
330
5A
100
AcDbEntity
  8
_U+30EC_U+30A4_U+30E4_U+30FC 1
 62
   179
420
  2234388
370
    25
100
AcDbVertex
100
AcDb2dVertex
 10
101.3271590815955
 20
-135.5700305216629
 30
0.0
  0
SEQEND
  5
5D
330
5A
100
AcDbEntity
  8
_U+30EC_U+30A4_U+30E4_U+30FC 1
 62
   179
420
  2234388
370
    25
  0
POLYLINE
  5
5E
330
1F
100
AcDbEntity
  8
_U+30EC_U+30A4_U+30E4_U+30FC 1
 62
   179
420
  2234388
370
    25
100
AcDb2dPolyline
 66
     1
 10
0.0
 20
0.0
 30
0.0
  0
VERTEX
  5
5F
330
5E
100
AcDbEntity
  8
_U+30EC_U+30A4_U+30E4_U+30FC 1
 62
   179
420
  2234388
370
    25
100
AcDbVertex
100
AcDb2dVertex
 10
71.32708053772376
 20
-125.5704738574963
 30
0.0
  0
VERTEX
  5
60
330
5E
100
AcDbEntity
  8
_U+30EC_U+30A4_U+30E4_U+30FC 1
 62
   179
420
  2234388
370
    25
100
AcDbVertex
100
AcDb2dVertex
 10
101.3271590815955
 20
-125.5704738574963
 30
0.0
  0
SEQEND
  5
61
330
5E
100
AcDbEntity
  8
_U+30EC_U+30A4_U+30E4_U+30FC 1
 62
   179
420
  2234388
370
    25
  0
POLYLINE
  5
62
330
1F
100
AcDbEntity
  8
_U+30EC_U+30A4_U+30E4_U+30FC 1
 62
   179
420
  2234388
370
    25
100
AcDb2dPolyline
 66
     1
 10
0.0
 20
0.0
 30
0.0
  0
VERTEX
  5
63
330
62
100
AcDbEntity
  8
_U+30EC_U+30A4_U+30E4_U+30FC 1
 62
   179
420
  2234388
370
    25
100
AcDbVertex
100
AcDb2dVertex
 10
71.32708053772376
 20
-135.5700305216629
 30
0.0
  0
VERTEX
  5
64
330
62
100
AcDbEntity
  8
_U+30EC_U+30A4_U+30E4_U+30FC 1
 62
   179
420
  2234388
370
    25
100
AcDbVertex
100
AcDb2dVertex
 10
101.3271590815955
 20
-135.5700305216629
 30
0.0
  0
SEQEND
  5
65
330
62
100
AcDbEntity
  8
_U+30EC_U+30A4_U+30E4_U+30FC 1
 62
   179
420
  2234388
370
    25
  0
POLYLINE
  5
66
330
1F
100
AcDbEntity
  8
_U+30EC_U+30A4_U+30E4_U+30FC 1
 62
   179
420
  2234388
370
    25
100
AcDb2dPolyline
 66
     1
 10
0.0
 20
0.0
 30
0.0
  0
VERTEX
  5
67
330
66
100
AcDbEntity
  8
_U+30EC_U+30A4_U+30E4_U+30FC 1
 62
   179
420
  2234388
370
    25
100
AcDbVertex
100
AcDb2dVertex
 10
72.82709164846
 20
-127.0704496904547
 30
0.0
  0
VERTEX
  5
68
330
66
100
AcDbEntity
  8
_U+30EC_U+30A4_U+30E4_U+30FC 1
 62
   179
420
  2234388
370
    25
100
AcDbVertex
100
AcDb2dVertex
 10
99.82714800875283
 20
-127.0704496904547
 30
0.0
  0
SEQEND
  5
69
330
66
100
AcDbEntity
  8
_U+30EC_U+30A4_U+30E4_U+30FC 1
 62
   179
420
  2234388
370
    25
  0
POLYLINE
  5
6A
330
1F
100
AcDbEntity
  8
_U+30EC_U+30A4_U+30E4_U+30FC 1
 62
   179
420
  2234388
370
    25
100
AcDb2dPolyline
 66
     1
 10
0.0
 20
0.0
 30
0.0
  0
VERTEX
  5
6B
330
6A
100
AcDbEntity
  8
_U+30EC_U+30A4_U+30E4_U+30FC 1
 62
   179
420
  2234388
370
    25
100
AcDbVertex
100
AcDb2dVertex
 10
72.82709164846
 20
-134.0700194109267
 30
0.0
  0
VERTEX
  5
6C
330
6A
100
AcDbEntity
  8
_U+30EC_U+30A4_U+30E4_U+30FC 1
 62
   179
420
  2234388
370
    25
100
AcDbVertex
100
AcDb2dVertex
 10
99.82714800875283
 20
-134.0700194109267
 30
0.0
  0
SEQEND
  5
6D
330
6A
100
AcDbEntity
  8
_U+30EC_U+30A4_U+30E4_U+30FC 1
 62
   179
420
  2234388
370
    25
  0
POLYLINE
  5
6E
330
1F
100
AcDbEntity
  8
_U+30EC_U+30A4_U+30E4_U+30FC 1
 62
   179
420
  2234388
370
    25
100
AcDb2dPolyline
 66
     1
 10
0.0
 20
0.0
 30
0.0
  0
VERTEX
  5
6F
330
6E
100
AcDbEntity
  8
_U+30EC_U+30A4_U+30E4_U+30FC 1
 62
   179
420
  2234388
370
    25
100
AcDbVertex
100
AcDb2dVertex
 10
99.82714800875283
 20
-127.0704496904547
 30
0.0
  0
VERTEX
  5
70
330
6E
100
AcDbEntity
  8
_U+30EC_U+30A4_U+30E4_U+30FC 1
 62
   179
420
  2234388
370
    25
100
AcDbVertex
100
AcDb2dVertex
 10
99.82714800875283
 20
-134.0700194109267
 30
0.0
  0
SEQEND
  5
71
330
6E
100
AcDbEntity
  8
_U+30EC_U+30A4_U+30E4_U+30FC 1
 62
   179
420
  2234388
370
    25
  0
POLYLINE
  5
72
330
1F
100
AcDbEntity
  8
_U+30EC_U+30A4_U+30E4_U+30FC 1
 62
   179
420
  2234388
370
    25
100
AcDb2dPolyline
 66
     1
 10
0.0
 20
0.0
 30
0.0
  0
VERTEX
  5
73
330
72
100
AcDbEntity
  8
_U+30EC_U+30A4_U+30E4_U+30FC 1
 62
   179
420
  2234388
370
    25
100
AcDbVertex
100
AcDb2dVertex
 10
72.82709164846
 20
-127.0704496904547
 30
0.0
  0
VERTEX
  5
74
330
72
100
AcDbEntity
  8
_U+30EC_U+30A4_U+30E4_U+30FC 1
 62
   179
420
  2234388
370
    25
100
AcDbVertex
100
AcDb2dVertex
 10
72.82709164846
 20
-134.0700194109267
 30
0.0
  0
SEQEND
  5
75
330
72
100
AcDbEntity
  8
_U+30EC_U+30A4_U+30E4_U+30FC 1
 62
   179
420
  2234388
370
    25
  0
SPLINE
  5
76
330
1F
100
AcDbEntity
  8
_U+30EC_U+30A4_U+30E4_U+30FC 1
 62
   179
420
  2234388
370
     9
100
AcDbSpline
210
0.0
220
0.0
230
1.0
 70
    11
 71
     3
 72
    17
 73
    13
 74
     0
 42
0.0000000001
 43
0.0000000001
 12
1.0
 22
0.0
 32
0.0
 13
1.0
 23
0.0
 33
0.0
 40
0.0
 40
0.0
 40
0.0
 40
0.0
 40
1.0
 40
1.0
 40
1.0
 40
2.0
 40
2.0
 40
2.0
 40
3.0
 40
3.0
 40
3.0
 40
4.0
 40
4.0
 40
4.0
 40
4.0
 10
101.4270657457133
 20
-121.5703619140519
 30
0.0
 10
101.4270657457133
 20
-121.5149052473989
 30
0.0
 10
101.3822629690785
 20
-121.4701024696325
 30
0.0
 10
101.3271590815955
 20
-121.4701024696325
 30
0.0
 10
101.2716671385667
 20
-121.4701024696325
 30
0.0
 10
101.2268996397089
 20
-121.5149052473989
 30
0.0
 10
101.2268996397089
 20
-121.5703619140519
 30
0.0
 10
101.2268996397089
 20
-121.6258185807046
 30
0.0
 10
101.2716671385667
 20
-121.6702685806936
 30
0.0
 10
101.3271590815955
 20
-121.6702685806936
 30
0.0
 10
101.3822629690785
 20
-121.6702685806936
 30
0.0
 10
101.4270657457133
 20
-121.6258185807046
 30
0.0
 10
101.4270657457133
 20
-121.5703619140519
 30
0.0
  0
SPLINE
  5
77
330
1F
100
AcDbEntity
  8
_U+30EC_U+30A4_U+30E4_U+30FC 1
 62
   179
420
  2234388
370
     9
100
AcDbSpline
210
0.0
220
0.0
230
1.0
 70
    11
 71
     3
 72
    17
 73
    13
 74
     0
 42
0.0000000001
 43
0.0000000001
 12
1.0
 22
0.0
 32
0.0
 13
1.0
 23
0.0
 33
0.0
 40
0.0
 40
0.0
 40
0.0
 40
0.0
 40
1.0
 40
1.0
 40
1.0
 40
2.0
 40
2.0
 40
2.0
 40
3.0
 40
3.0
 40
3.0
 40
4.0
 40
4.0
 40
4.0
 40
4.0
 10
71.42698539996802
 20
-121.5703619140519
 30
0.0
 10
71.42698539996802
 20
-121.5149052473989
 30
0.0
 10
71.38239428999451
 20
-121.4701024696325
 30
0.0
 10
71.32708053772376
 20
-121.4701024696325
 30
0.0
 10
71.27179845948271
 20
-121.4701024696325
 30
0.0
 10
71.22699568284796
 20
-121.5149052473989
 30
0.0
 10
71.22699568284796
 20
-121.5703619140519
 30
0.0
 10
71.22699568284796
 20
-121.6258185807046
 30
0.0
 10
71.27179845948271
 20
-121.6702685806936
 30
0.0
 10
71.32708053772376
 20
-121.6702685806936
 30
0.0
 10
71.38239428999451
 20
-121.6702685806936
 30
0.0
 10
71.42698539996802
 20
-121.6258185807046
 30
0.0
 10
71.42698539996802
 20
-121.5703619140519
 30
0.0
  0
POLYLINE
  5
78
330
1F
100
AcDbEntity
  8
_U+30EC_U+30A4_U+30E4_U+30FC 1
 62
   179
420
  2234388
370
     9
100
AcDb2dPolyline
 66
     1
 10
0.0
 20
0.0
 30
0.0
  0
VERTEX
  5
79
330
78
100
AcDbEntity
  8
_U+30EC_U+30A4_U+30E4_U+30FC 1
 62
   179
420
  2234388
370
     9
100
AcDbVertex
100
AcDb2dVertex
 10
71.32708053772376
 20
-121.5703619140519
 30
0.0
  0
VERTEX
  5
7A
330
78
100
AcDbEntity
  8
_U+30EC_U+30A4_U+30E4_U+30FC 1
 62
   179
420
  2234388
370
     9
100
AcDbVertex
100
AcDb2dVertex
 10
101.3271590815955
 20
-121.5703619140519
 30
0.0
  0
SEQEND
  5
7B
330
78
100
AcDbEntity
  8
_U+30EC_U+30A4_U+30E4_U+30FC 1
 62
   179
420
  2234388
370
     9
  0
POLYLINE
  5
7C
330
1F
100
AcDbEntity
  8
_U+30EC_U+30A4_U+30E4_U+30FC 1
 62
   179
420
  2234388
370
     9
100
AcDb2dPolyline
 66
     1
 10
0.0
 20
0.0
 30
0.0
  0
VERTEX
  5
7D
330
7C
100
AcDbEntity
  8
_U+30EC_U+30A4_U+30E4_U+30FC 1
 62
   179
420
  2234388
370
     9
100
AcDbVertex
100
AcDb2dVertex
 10
71.32708053772376
 20
-123.0304033025756
 30
0.0
  0
VERTEX
  5
7E
330
7C
100
AcDbEntity
  8
_U+30EC_U+30A4_U+30E4_U+30FC 1
 62
   179
420
  2234388
370
     9
100
AcDbVertex
100
AcDb2dVertex
 10
71.32708053772376
 20
-120.5702369143019
 30
0.0
  0
SEQEND
  5
7F
330
7C
100
AcDbEntity
  8
_U+30EC_U+30A4_U+30E4_U+30FC 1
 62
   179
420
  2234388
370
     9
  0
POLYLINE
  5
80
330
1F
100
AcDbEntity
  8
_U+30EC_U+30A4_U+30E4_U+30FC 1
 62
   179
420
  2234388
370
     9
100
AcDb2dPolyline
 66
     1
 10
0.0
 20
0.0
 30
0.0
  0
VERTEX
  5
81
330
80
100
AcDbEntity
  8
_U+30EC_U+30A4_U+30E4_U+30FC 1
 62
   179
420
  2234388
370
     9
100
AcDbVertex
100
AcDb2dVertex
 10
101.3271590815955
 20
-123.0304033025756
 30
0.0
  0
VERTEX
  5
82
330
80
100
AcDbEntity
  8
_U+30EC_U+30A4_U+30E4_U+30FC 1
 62
   179
420
  2234388
370
     9
100
AcDbVertex
100
AcDb2dVertex
 10
101.3271590815955
 20
-120.5702369143019
 30
0.0
  0
SEQEND
  5
83
330
80
100
AcDbEntity
  8
_U+30EC_U+30A4_U+30E4_U+30FC 1
 62
   179
420
  2234388
370
     9
  0
INSERT
  5
85
330
1F
100
AcDbEntity
  8
_U+30EC_U+30A4_U+30E4_U+30FC 1
100
AcDbBlockReference
  2
block 2
 10
0.0
 20
0.0
 30
0.0
  0
POLYLINE
  5
8D
330
1F
100
AcDbEntity
  8
_U+30EC_U+30A4_U+30E4_U+30FC 1
 62
   179
420
  2234388
370
     9
100
AcDb2dPolyline
 66
     1
 10
0.0
 20
0.0
 30
0.0
  0
VERTEX
  5
8E
330
8D
100
AcDbEntity
  8
_U+30EC_U+30A4_U+30E4_U+30FC 1
 62
   179
420
  2234388
370
     9
100
AcDbVertex
100
AcDb2dVertex
 10
102.8088962660154
 20
-125.5704738574963
 30
0.0
  0
VERTEX
  5
8F
330
8D
100
AcDbEntity
  8
_U+30EC_U+30A4_U+30E4_U+30FC 1
 62
   179
420
  2234388
370
     9
100
AcDbVertex
100
AcDb2dVertex
 10
105.2686745365946
 20
-125.5704738574963
 30
0.0
  0
SEQEND
  5
90
330
8D
100
AcDbEntity
  8
_U+30EC_U+30A4_U+30E4_U+30FC 1
 62
   179
420
  2234388
370
     9
  0
INSERT
  5
92
330
1F
100
AcDbEntity
  8
_U+30EC_U+30A4_U+30E4_U+30FC 1
100
AcDbBlockReference
  2
block 3
 10
0.0
 20
0.0
 30
0.0
  0
INSERT
  5
9B
330
1F
100
AcDbEntity
  8
_U+30EC_U+30A4_U+30E4_U+30FC 1
100
AcDbBlockReference
  2
block 4
 10
0.0
 20
0.0
 30
0.0
  0
SPLINE
  5
AA
330
1F
100
AcDbEntity
  8
_U+30EC_U+30A4_U+30E4_U+30FC 1
 62
   179
420
  2234388
370
     9
100
AcDbSpline
210
0.0
220
0.0
230
1.0
 70
    11
 71
     3
 72
    17
 73
    13
 74
     0
 42
0.0000000001
 43
0.0000000001
 12
1.0
 22
0.0
 32
0.0
 13
1.0
 23
0.0
 33
0.0
 40
0.0
 40
0.0
 40
0.0
 40
0.0
 40
1.0
 40
1.0
 40
1.0
 40
2.0
 40
2.0
 40
2.0
 40
3.0
 40
3.0
 40
3.0
 40
4.0
 40
4.0
 40
4.0
 40
4.0
 10
105.4809083069632
 20
-134.1623413553484
 30
0.0
 10
105.4809083069632
 20
-134.1072374664735
 30
0.0
 10
105.4361055291965
 20
-134.0624346887067
 30
0.0
 10
105.3809989781734
 20
-134.0624346887067
 30
0.0
 10
105.3255070351447
 20
-134.0624346887067
 30
0.0
 10
105.2810923140556
 20
-134.1072374664735
 30
0.0
 10
105.2810923140556
 20
-134.1623413553484
 30
0.0
 10
105.2810923140556
 20
-134.2174805220015
 30
0.0
 10
105.3255070351447
 20
-134.26224802199
 30
0.0
 10
105.3809989781734
 20
-134.26224802199
 30
0.0
 10
105.4361055291965
 20
-134.26224802199
 30
0.0
 10
105.4809083069632
 20
-134.2174805220015
 30
0.0
 10
105.4809083069632
 20
-134.1623413553484
 30
0.0
  0
SPLINE
  5
AB
330
1F
100
AcDbEntity
  8
_U+30EC_U+30A4_U+30E4_U+30FC 1
 62
   179
420
  2234388
370
     9
100
AcDbSpline
210
0.0
220
0.0
230
1.0
 70
    11
 71
     3
 72
    17
 73
    13
 74
     0
 42
0.0000000001
 43
0.0000000001
 12
1.0
 22
0.0
 32
0.0
 13
1.0
 23
0.0
 33
0.0
 40
0.0
 40
0.0
 40
0.0
 40
0.0
 40
1.0
 40
1.0
 40
1.0
 40
2.0
 40
2.0
 40
2.0
 40
3.0
 40
3.0
 40
3.0
 40
4.0
 40
4.0
 40
4.0
 40
4.0
 10
105.4809083069632
 20
-135.5824130216602
 30
0.0
 10
105.4809083069632
 20
-135.5273091327846
 30
0.0
 10
105.4361055291965
 20
-135.4825063550186
 30
0.0
 10
105.3809989781734
 20
-135.4825063550186
 30
0.0
 10
105.3255070351447
 20
-135.4825063550186
 30
0.0
 10
105.2810923140556
 20
-135.5273091327846
 30
0.0
 10
105.2810923140556
 20
-135.5824130216602
 30
0.0
 10
105.2810923140556
 20
-135.6375521883126
 30
0.0
 10
105.3255070351447
 20
-135.6823196883018
 30
0.0
 10
105.3809989781734
 20
-135.6823196883018
 30
0.0
 10
105.4361055291965
 20
-135.6823196883018
 30
0.0
 10
105.4809083069632
 20
-135.6375521883126
 30
0.0
 10
105.4809083069632
 20
-135.5824130216602
 30
0.0
  0
POLYLINE
  5
AC
330
1F
100
AcDbEntity
  8
_U+30EC_U+30A4_U+30E4_U+30FC 1
 62
   179
420
  2234388
370
     9
100
AcDb2dPolyline
 66
     1
 10
0.0
 20
0.0
 30
0.0
  0
VERTEX
  5
AD
330
AC
100
AcDbEntity
  8
_U+30EC_U+30A4_U+30E4_U+30FC 1
 62
   179
420
  2234388
370
     9
100
AcDbVertex
100
AcDb2dVertex
 10
105.3809989781734
 20
-136.5821852436321
 30
0.0
  0
VERTEX
  5
AE
330
AC
100
AcDbEntity
  8
_U+30EC_U+30A4_U+30E4_U+30FC 1
 62
   179
420
  2234388
370
     9
100
AcDbVertex
100
AcDb2dVertex
 10
105.3809989781734
 20
-132.5820733001881
 30
0.0
  0
SEQEND
  5
AF
330
AC
100
AcDbEntity
  8
_U+30EC_U+30A4_U+30E4_U+30FC 1
 62
   179
420
  2234388
370
     9
  0
POLYLINE
  5
B0
330
1F
100
AcDbEntity
  8
_U+30EC_U+30A4_U+30E4_U+30FC 1
 62
   179
420
  2234388
370
     9
100
AcDb2dPolyline
 66
     1
 10
0.0
 20
0.0
 30
0.0
  0
VERTEX
  5
B1
330
B0
100
AcDbEntity
  8
_U+30EC_U+30A4_U+30E4_U+30FC 1
 62
   179
420
  2234388
370
     9
100
AcDbVertex
100
AcDb2dVertex
 10
102.8912345972481
 20
-135.5824130216602
 30
0.0
  0
VERTEX
  5
B2
330
B0
100
AcDbEntity
  8
_U+30EC_U+30A4_U+30E4_U+30FC 1
 62
   179
420
  2234388
370
     9
100
AcDbVertex
100
AcDb2dVertex
 10
106.6670503342524
 20
-135.5824130216602
 30
0.0
  0
SEQEND
  5
B3
330
B0
100
AcDbEntity
  8
_U+30EC_U+30A4_U+30E4_U+30FC 1
 62
   179
420
  2234388
370
     9
  0
POLYLINE
  5
B4
330
1F
100
AcDbEntity
  8
_U+30EC_U+30A4_U+30E4_U+30FC 1
 62
   179
420
  2234388
370
     9
100
AcDb2dPolyline
 66
     1
 10
0.0
 20
0.0
 30
0.0
  0
VERTEX
  5
B5
330
B4
100
AcDbEntity
  8
_U+30EC_U+30A4_U+30E4_U+30FC 1
 62
   179
420
  2234388
370
     9
100
AcDbVertex
100
AcDb2dVertex
 10
101.7178277523486
 20
-134.1699260775683
 30
0.0
  0
VERTEX
  5
B6
330
B4
100
AcDbEntity
  8
_U+30EC_U+30A4_U+30E4_U+30FC 1
 62
   179
420
  2234388
370
     9
100
AcDbVertex
100
AcDb2dVertex
 10
106.7745444177507
 20
-134.1699260775683
 30
0.0
  0
SEQEND
  5
B7
330
B4
100
AcDbEntity
  8
_U+30EC_U+30A4_U+30E4_U+30FC 1
 62
   179
420
  2234388
370
     9
  0
SPLINE
  5
B8
330
1F
100
AcDbEntity
  8
_U+30EC_U+30A4_U+30E4_U+30FC 1
 62
   179
420
  2234388
370
     9
100
AcDbSpline
210
0.0
220
0.0
230
1.0
 70
    11
 71
     3
 72
    17
 73
    13
 74
     0
 42
0.0000000001
 43
0.0000000001
 12
1.0
 22
0.0
 32
0.0
 13
1.0
 23
0.0
 33
0.0
 40
0.0
 40
0.0
 40
0.0
 40
0.0
 40
1.0
 40
1.0
 40
1.0
 40
2.0
 40
2.0
 40
2.0
 40
3.0
 40
3.0
 40
3.0
 40
4.0
 40
4.0
 40
4.0
 40
4.0
 10
104.3684915040046
 20
-134.1699260775683
 30
0.0
 10
104.3684915040046
 20
-134.1148221886934
 30
0.0
 10
104.3236887273699
 20
-134.0700194109267
 30
0.0
 10
104.2685848398868
 20
-134.0700194109267
 30
0.0
 10
104.2134456746268
 20
-134.0700194109267
 30
0.0
 10
104.1686781757689
 20
-134.1148221886934
 30
0.0
 10
104.1686781757689
 20
-134.1699260775683
 30
0.0
 10
104.1686781757689
 20
-134.2250652442214
 30
0.0
 10
104.2134456746268
 20
-134.2698327442106
 30
0.0
 10
104.2685848398868
 20
-134.2698327442106
 30
0.0
 10
104.3236887273699
 20
-134.2698327442106
 30
0.0
 10
104.3684915040046
 20
-134.2250652442214
 30
0.0
 10
104.3684915040046
 20
-134.1699260775683
 30
0.0
  0
ENDSEC
  0
SECTION
  2
OBJECTS
  0
DICTIONARY
  5
C
330
0
100
AcDbDictionary
281
     1
  3
ACAD_GROUP
350
D
  3
ACAD_LAYOUT
350
1A
  3
ACAD_MATERIAL
350
3B
  3
ACAD_MLEADERSTYLE
350
BA
  3
ACAD_MLINESTYLE
350
17
  3
ACAD_PLOTSETTINGS
350
19
  3
ACAD_PLOTSTYLENAME
350
E
  3
ACAD_TABLESTYLE
350
B9
  3
ACAD_VISUALSTYLE
350
2A
  0
SUN
  5
3F
330
29
100
AcDbSun
 90
        1
290
     0
 63
     7
421
 16777215
 40
1.0
291
     1
 91
  2455826
 92
 54000000
292
     0
 70
     2
 71
   256
280
     1
  0
DICTIONARY
  5
D
102
{ACAD_REACTORS
330
C
102
}
330
C
100
AcDbDictionary
281
     1
  0
DICTIONARY
  5
1A
102
{ACAD_REACTORS
330
C
102
}
330
C
100
AcDbDictionary
281
     1
  3
Layout1
350
1E
  3
Layout2
350
26
  3
Model
350
22
  0
DICTIONARY
  5
3B
102
{ACAD_REACTORS
330
C
102
}
330
C
100
AcDbDictionary
281
     1
  3
ByBlock
350
3D
  3
ByLayer
350
3C
  3
Global
350
3E
  0
DICTIONARY
  5
BA
102
{ACAD_REACTORS
330
C
102
}
330
C
100
AcDbDictionary
281
     1
  0
DICTIONARY
  5
17
102
{ACAD_REACTORS
330
C
102
}
330
C
100
AcDbDictionary
281
     1
  3
Standard
350
18
  0
DICTIONARY
  5
19
102
{ACAD_REACTORS
330
C
102
}
330
C
100
AcDbDictionary
281
     1
  0
ACDBDICTIONARYWDFLT
  5
E
102
{ACAD_REACTORS
330
C
102
}
330
C
100
AcDbDictionary
281
     1
  3
Normal
350
F
100
AcDbDictionaryWithDefault
340
F
  0
DICTIONARY
  5
B9
102
{ACAD_REACTORS
330
C
102
}
330
C
100
AcDbDictionary
281
     1
  0
DICTIONARY
  5
2A
102
{ACAD_REACTORS
330
C
102
}
330
C
100
AcDbDictionary
281
     1
  3
2dWireframe
350
2F
  3
3D Hidden
350
31
  3
3dWireframe
350
30
  3
Basic
350
32
  3
Brighten
350
36
  3
ColorChange
350
3A
  3
Conceptual
350
34
  3
Dim
350
35
  3
Facepattern
350
39
  3
Flat
350
2B
  3
FlatWithEdges
350
2C
  3
Gouraud
350
2D
  3
GouraudWithEdges
350
2E
  3
Linepattern
350
38
  3
Realistic
350
33
  3
Thicken
350
37
  0
LAYOUT
  5
1E
102
{ACAD_REACTORS
330
1A
102
}
330
1A
100
AcDbPlotSettings
  1

  2
none_device
  4

  6

 40
0.0
 41
0.0
 42
0.0
 43
0.0
 44
0.0
 45
0.0
 46
0.0
 47
0.0
 48
0.0
 49
0.0
140
0.0
141
0.0
142
1.0
143
1.0
 70
   688
 72
     0
 73
     0
 74
     5
  7

 75
    16
 76
     0
 77
     2
 78
   300
147
1.0
148
0.0
149
0.0
100
AcDbLayout
  1
Layout1
 70
     1
 71
     1
 10
0.0
 20
0.0
 11
12.0
 21
9.0
 12
0.0
 22
0.0
 32
0.0
 14
1.000000000000000E+20
 24
1.000000000000000E+20
 34
1.000000000000000E+20
 15
-1.000000000000000E+20
 25
-1.000000000000000E+20
 35
-1.000000000000000E+20
146
0.0
 13
0.0
 23
0.0
 33
0.0
 16
1.0
 26
0.0
 36
0.0
 17
0.0
 27
1.0
 37
0.0
 76
     0
330
1B
  0
LAYOUT
  5
26
102
{ACAD_REACTORS
330
1A
102
}
330
1A
100
AcDbPlotSettings
  1

  2
none_device
  4

  6

 40
0.0
 41
0.0
 42
0.0
 43
0.0
 44
0.0
 45
0.0
 46
0.0
 47
0.0
 48
0.0
 49
0.0
140
0.0
141
0.0
142
1.0
143
1.0
 70
   688
 72
     0
 73
     0
 74
     5
  7

 75
    16
 76
     0
 77
     2
 78
   300
147
1.0
148
0.0
149
0.0
100
AcDbLayout
  1
Layout2
 70
     1
 71
     2
 10
0.0
 20
0.0
 11
0.0
 21
0.0
 12
0.0
 22
0.0
 32
0.0
 14
0.0
 24
0.0
 34
0.0
 15
0.0
 25
0.0
 35
0.0
146
0.0
 13
0.0
 23
0.0
 33
0.0
 16
1.0
 26
0.0
 36
0.0
 17
0.0
 27
1.0
 37
0.0
 76
     0
330
23
  0
LAYOUT
  5
22
102
{ACAD_REACTORS
330
1A
102
}
330
1A
100
AcDbPlotSettings
  1

  2
none_device
  4

  6

 40
0.0
 41
0.0
 42
0.0
 43
0.0
 44
0.0
 45
0.0
 46
0.0
 47
0.0
 48
0.0
 49
0.0
140
0.0
141
0.0
142
1.0
143
1.0
 70
  1712
 72
     0
 73
     0
 74
     0
  7

 75
     0
 76
     0
 77
     2
 78
   300
147
1.0
148
0.0
149
0.0
100
AcDbLayout
  1
Model
 70
     1
 71
     0
 10
0.0
 20
0.0
 11
12.0
 21
9.0
 12
0.0
 22
0.0
 32
0.0
 14
1.000000000000000E+20
 24
1.000000000000000E+20
 34
1.000000000000000E+20
 15
-1.000000000000000E+20
 25
-1.000000000000000E+20
 35
-1.000000000000000E+20
146
0.0
 13
0.0
 23
0.0
 33
0.0
 16
1.0
 26
0.0
 36
0.0
 17
0.0
 27
1.0
 37
0.0
 76
     0
330
1F
331
29
  0
MATERIAL
  5
3D
102
{ACAD_REACTORS
330
3B
102
}
330
3B
100
AcDbMaterial
  1
ByBlock
 72
     1
 94
      127
  0
MATERIAL
  5
3C
102
{ACAD_REACTORS
330
3B
102
}
330
3B
100
AcDbMaterial
  1
ByLayer
 72
     1
 94
      127
  0
MATERIAL
  5
3E
102
{ACAD_REACTORS
330
3B
102
}
330
3B
100
AcDbMaterial
  1
Global
 72
     1
 94
      127
  0
MLINESTYLE
  5
18
102
{ACAD_REACTORS
330
17
102
}
330
17
100
AcDbMlineStyle
  2
Standard
 70
     0
  3

 62
   256
 51
90.0
 52
90.0
 71
     2
 49
0.5
 62
   256
  6
BYLAYER
 49
-0.5
 62
   256
  6
BYLAYER
  0
ACDBPLACEHOLDER
  5
F
102
{ACAD_REACTORS
330
E
102
}
330
E
  0
VISUALSTYLE
  5
2F
102
{ACAD_REACTORS
330
2A
102
}
330
2A
100
AcDbVisualStyle
  2
2dWireframe
 70
     4
177
     2
291
     0
 71
     0
176
     1
 72
     2
176
     1
 73
     0
176
     1
 90
        0
176
     1
 40
-0.6
176
     1
 41
-30.0
176
     1
 62
     5
 63
     7
421
 16777215
176
     1
 74
     1
176
     1
 91
        4
176
     1
 64
     7
176
     1
 65
   257
176
     1
 75
     1
176
     1
175
     1
176
     1
 42
1.0
176
     1
 92
        0
176
     1
 66
   257
176
     1
 43
1.0
176
     1
 76
     1
176
     1
 77
     6
176
     1
 78
     2
176
     1
 67
     7
176
     1
 79
     5
176
     1
170
     0
176
     1
171
     0
176
     1
290
     0
176
     1
 93
        1
176
     1
 44
0.0
176
     1
173
     0
176
     1
  0
VISUALSTYLE
  5
31
102
{ACAD_REACTORS
330
2A
102
}
330
2A
100
AcDbVisualStyle
  2
3D Hidden
 70
     6
177
     2
291
     0
 71
     1
176
     1
 72
     2
176
     1
 73
     2
176
     1
 90
        0
176
     1
 40
-0.6
176
     1
 41
-30.0
176
     1
 62
     5
 63
     7
421
 16777215
176
     1
 74
     2
176
     1
 91
        2
176
     1
 64
     7
176
     1
 65
   257
176
     1
 75
     2
176
     1
175
     1
176
     1
 42
40.0
176
     1
 92
        0
176
     1
 66
   257
176
     1
 43
1.0
176
     1
 76
     1
176
     1
 77
     6
176
     1
 78
     2
176
     1
 67
     7
176
     1
 79
     3
176
     1
170
     0
176
     1
171
     0
176
     1
290
     0
176
     1
 93
        1
176
     1
 44
0.0
176
     1
173
     0
176
     1
  0
VISUALSTYLE
  5
30
102
{ACAD_REACTORS
330
2A
102
}
330
2A
100
AcDbVisualStyle
  2
3dWireframe
 70
     5
177
     2
291
     0
 71
     0
176
     1
 72
     2
176
     1
 73
     0
176
     1
 90
        0
176
     1
 40
-0.6
176
     1
 41
-30.0
176
     1
 62
     5
 63
     7
421
 16777215
176
     1
 74
     1
176
     1
 91
        4
176
     1
 64
     7
176
     1
 65
   257
176
     1
 75
     1
176
     1
175
     1
176
     1
 42
1.0
176
     1
 92
        0
176
     1
 66
   257
176
     1
 43
1.0
176
     1
 76
     1
176
     1
 77
     6
176
     1
 78
     2
176
     1
 67
     7
176
     1
 79
     5
176
     1
170
     0
176
     1
171
     0
176
     1
290
     0
176
     1
 93
        1
176
     1
 44
0.0
176
     1
173
     0
176
     1
  0
VISUALSTYLE
  5
32
102
{ACAD_REACTORS
330
2A
102
}
330
2A
100
AcDbVisualStyle
  2
Basic
 70
     7
177
     2
291
     1
 71
     1
176
     1
 72
     0
176
     1
 73
     1
176
     1
 90
        0
176
     1
 40
-0.6
176
     1
 41
-30.0
176
     1
 62
     5
 63
     7
421
 16777215
176
     1
 74
     0
176
     1
 91
        4
176
     1
 64
     7
176
     1
 65
   257
176
     1
 75
     1
176
     1
175
     1
176
     1
 42
1.0
176
     1
 92
        8
176
     1
 66
     7
176
     1
 43
1.0
176
     1
 76
     1
176
     1
 77
     6
176
     1
 78
     2
176
     1
 67
     7
176
     1
 79
     5
176
     1
170
     0
176
     1
171
     0
176
     1
290
     0
176
     1
 93
        1
176
     1
 44
0.0
176
     1
173
     0
176
     1
  0
VISUALSTYLE
  5
36
102
{ACAD_REACTORS
330
2A
102
}
330
2A
100
AcDbVisualStyle
  2
Brighten
 70
    12
177
     2
291
     1
 71
     2
176
     1
 72
     2
176
     1
 73
     0
176
     1
 90
        0
176
     1
 40
-0.6
176
     1
 41
-30.0
176
     1
 62
     5
 63
     7
421
 16777215
176
     1
 74
     1
176
     1
 91
        4
176
     1
 64
     7
176
     1
 65
   257
176
     1
 75
     1
176
     1
175
     1
176
     1
 42
1.0
176
     1
 92
        8
176
     1
 66
     7
176
     1
 43
1.0
176
     1
 76
     1
176
     1
 77
     6
176
     1
 78
     2
176
     1
 67
     7
176
     1
 79
     5
176
     1
170
     0
176
     1
171
     0
176
     1
290
     0
176
     1
 93
        1
176
     1
 44
50.0
176
     1
173
     0
176
     1
  0
VISUALSTYLE
  5
3A
102
{ACAD_REACTORS
330
2A
102
}
330
2A
100
AcDbVisualStyle
  2
ColorChange
 70
    16
177
     2
291
     1
 71
     2
176
     1
 72
     2
176
     1
 73
     3
176
     1
 90
        0
176
     1
 40
-0.6
176
     1
 41
-30.0
176
     1
 62
     5
 63
     8
421
  8421504
176
     1
 74
     1
176
     1
 91
        4
176
     1
 64
     7
176
     1
 65
   257
176
     1
 75
     1
176
     1
175
     1
176
     1
 42
1.0
176
     1
 92
        8
176
     1
 66
     8
424
  8421504
176
     1
 43
1.0
176
     1
 76
     1
176
     1
 77
     6
176
     1
 78
     2
176
     1
 67
     7
176
     1
 79
     5
176
     1
170
     0
176
     1
171
     0
176
     1
290
     0
176
     1
 93
        1
176
     1
 44
0.0
176
     1
173
     0
176
     1
  0
VISUALSTYLE
  5
34
102
{ACAD_REACTORS
330
2A
102
}
330
2A
100
AcDbVisualStyle
  2
Conceptual
 70
     9
177
     2
291
     0
 71
     3
176
     1
 72
     2
176
     1
 73
     0
176
     1
 90
        0
176
     1
 40
-0.6
176
     1
 41
-30.0
176
     1
 62
     5
 63
     7
421
 16777215
176
     1
 74
     2
176
     1
 91
        2
176
     1
 64
     7
176
     1
 65
   257
176
     1
 75
     1
176
     1
175
     1
176
     1
 42
40.0
176
     1
 92
        8
176
     1
 66
     7
176
     1
 43
1.0
176
     1
 76
     1
176
     1
 77
     6
176
     1
 78
     2
176
     1
 67
     7
176
     1
 79
     3
176
     1
170
     0
176
     1
171
     0
176
     1
290
     0
176
     1
 93
        1
176
     1
 44
0.0
176
     1
173
     0
176
     1
  0
VISUALSTYLE
  5
35
102
{ACAD_REACTORS
330
2A
102
}
330
2A
100
AcDbVisualStyle
  2
Dim
 70
    11
177
     2
291
     1
 71
     2
176
     1
 72
     2
176
     1
 73
     0
176
     1
 90
        0
176
     1
 40
-0.6
176
     1
 41
-30.0
176
     1
 62
     5
 63
     7
421
 16777215
176
     1
 74
     1
176
     1
 91
        4
176
     1
 64
     7
176
     1
 65
   257
176
     1
 75
     1
176
     1
175
     1
176
     1
 42
1.0
176
     1
 92
        8
176
     1
 66
     7
176
     1
 43
1.0
176
     1
 76
     1
176
     1
 77
     6
176
     1
 78
     2
176
     1
 67
     7
176
     1
 79
     5
176
     1
170
     0
176
     1
171
     0
176
     1
290
     0
176
     1
 93
        1
176
     1
 44
-50.0
176
     1
173
     0
176
     1
  0
VISUALSTYLE
  5
39
102
{ACAD_REACTORS
330
2A
102
}
330
2A
100
AcDbVisualStyle
  2
Facepattern
 70
    15
177
     2
291
     1
 71
     2
176
     1
 72
     2
176
     1
 73
     0
176
     1
 90
        0
176
     1
 40
-0.6
176
     1
 41
-30.0
176
     1
 62
     5
 63
     7
421
 16777215
176
     1
 74
     1
176
     1
 91
        4
176
     1
 64
     7
176
     1
 65
   257
176
     1
 75
     1
176
     1
175
     1
176
     1
 42
1.0
176
     1
 92
        8
176
     1
 66
     7
176
     1
 43
1.0
176
     1
 76
     1
176
     1
 77
     6
176
     1
 78
     2
176
     1
 67
     7
176
     1
 79
     5
176
     1
170
     0
176
     1
171
     0
176
     1
290
     0
176
     1
 93
        1
176
     1
 44
0.0
176
     1
173
     0
176
     1
  0
VISUALSTYLE
  5
2B
102
{ACAD_REACTORS
330
2A
102
}
330
2A
100
AcDbVisualStyle
  2
Flat
 70
     0
177
     2
291
     1
 71
     2
176
     1
 72
     1
176
     1
 73
     1
176
     1
 90
        2
176
     1
 40
-0.6
176
     1
 41
30.0
176
     1
 62
     5
 63
     7
421
 16777215
176
     1
 74
     0
176
     1
 91
        4
176
     1
 64
     7
176
     1
 65
   257
176
     1
 75
     1
176
     1
175
     1
176
     1
 42
1.0
176
     1
 92
        8
176
     1
 66
     7
176
     1
 43
1.0
176
     1
 76
     1
176
     1
 77
     6
176
     1
 78
     2
176
     1
 67
     7
176
     1
 79
     5
176
     1
170
     0
176
     1
171
     0
176
     1
290
     0
176
     1
 93
       13
176
     1
 44
0.0
176
     1
173
     0
176
     1
  0
VISUALSTYLE
  5
2C
102
{ACAD_REACTORS
330
2A
102
}
330
2A
100
AcDbVisualStyle
  2
FlatWithEdges
 70
     1
177
     2
291
     1
 71
     2
176
     1
 72
     1
176
     1
 73
     1
176
     1
 90
        2
176
     1
 40
-0.6
176
     1
 41
30.0
176
     1
 62
     5
 63
     7
421
 16777215
176
     1
 74
     1
176
     1
 91
        4
176
     1
 64
     7
176
     1
 65
   257
176
     1
 75
     1
176
     1
175
     1
176
     1
 42
1.0
176
     1
 92
        0
176
     1
 66
   257
176
     1
 43
1.0
176
     1
 76
     1
176
     1
 77
     6
176
     1
 78
     2
176
     1
 67
     7
176
     1
 79
     5
176
     1
170
     0
176
     1
171
     0
176
     1
290
     0
176
     1
 93
       13
176
     1
 44
0.0
176
     1
173
     0
176
     1
  0
VISUALSTYLE
  5
2D
102
{ACAD_REACTORS
330
2A
102
}
330
2A
100
AcDbVisualStyle
  2
Gouraud
 70
     2
177
     2
291
     1
 71
     2
176
     1
 72
     2
176
     1
 73
     1
176
     1
 90
        2
176
     1
 40
-0.6
176
     1
 41
30.0
176
     1
 62
     5
 63
     7
421
 16777215
176
     1
 74
     0
176
     1
 91
        4
176
     1
 64
     7
176
     1
 65
   257
176
     1
 75
     1
176
     1
175
     1
176
     1
 42
1.0
176
     1
 92
        0
176
     1
 66
     7
176
     1
 43
1.0
176
     1
 76
     1
176
     1
 77
     6
176
     1
 78
     2
176
     1
 67
     7
176
     1
 79
     5
176
     1
170
     0
176
     1
171
     0
176
     1
290
     0
176
     1
 93
       13
176
     1
 44
0.0
176
     1
173
     0
176
     1
  0
VISUALSTYLE
  5
2E
102
{ACAD_REACTORS
330
2A
102
}
330
2A
100
AcDbVisualStyle
  2
GouraudWithEdges
 70
     3
177
     2
291
     1
 71
     2
176
     1
 72
     2
176
     1
 73
     1
176
     1
 90
        2
176
     1
 40
-0.6
176
     1
 41
30.0
176
     1
 62
     5
 63
     7
421
 16777215
176
     1
 74
     1
176
     1
 91
        4
176
     1
 64
     7
176
     1
 65
   257
176
     1
 75
     1
176
     1
175
     1
176
     1
 42
1.0
176
     1
 92
        0
176
     1
 66
   257
176
     1
 43
1.0
176
     1
 76
     1
176
     1
 77
     6
176
     1
 78
     2
176
     1
 67
     7
176
     1
 79
     5
176
     1
170
     0
176
     1
171
     0
176
     1
290
     0
176
     1
 93
       13
176
     1
 44
0.0
176
     1
173
     0
176
     1
  0
VISUALSTYLE
  5
38
102
{ACAD_REACTORS
330
2A
102
}
330
2A
100
AcDbVisualStyle
  2
Linepattern
 70
    14
177
     2
291
     1
 71
     2
176
     1
 72
     2
176
     1
 73
     0
176
     1
 90
        0
176
     1
 40
-0.6
176
     1
 41
-30.0
176
     1
 62
     5
 63
     7
421
 16777215
176
     1
 74
     1
176
     1
 91
        4
176
     1
 64
     7
176
     1
 65
   257
176
     1
 75
     7
176
     1
175
     7
176
     1
 42
1.0
176
     1
 92
        8
176
     1
 66
     7
176
     1
 43
1.0
176
     1
 76
     1
176
     1
 77
     6
176
     1
 78
     2
176
     1
 67
     7
176
     1
 79
     5
176
     1
170
     0
176
     1
171
     0
176
     1
290
     0
176
     1
 93
        1
176
     1
 44
0.0
176
     1
173
     0
176
     1
  0
VISUALSTYLE
  5
33
102
{ACAD_REACTORS
330
2A
102
}
330
2A
100
AcDbVisualStyle
  2
Realistic
 70
     8
177
     2
291
     0
 71
     2
176
     1
 72
     2
176
     1
 73
     0
176
     1
 90
        0
176
     1
 40
-0.6
176
     1
 41
-30.0
176
     1
 62
     5
 63
     7
421
 16777215
176
     1
 74
     1
176
     1
 91
        0
176
     1
 64
     7
176
     1
 65
   257
176
     1
 75
     1
176
     1
175
     1
176
     1
 42
1.0
176
     1
 92
        8
176
     1
 66
     8
424
  7895160
176
     1
 43
1.0
176
     1
 76
     1
176
     1
 77
     6
176
     1
 78
     2
176
     1
 67
     7
176
     1
 79
     5
176
     1
170
     0
176
     1
171
     0
176
     1
290
     0
176
     1
 93
       13
176
     1
 44
0.0
176
     1
173
     0
176
     1
  0
VISUALSTYLE
  5
37
102
{ACAD_REACTORS
330
2A
102
}
330
2A
100
AcDbVisualStyle
  2
Thicken
 70
    13
177
     2
291
     1
 71
     2
176
     1
 72
     2
176
     1
 73
     0
176
     1
 90
        0
176
     1
 40
-0.6
176
     1
 41
-30.0
176
     1
 62
     5
 63
     7
421
 16777215
176
     1
 74
     1
176
     1
 91
        4
176
     1
 64
     7
176
     1
 65
   257
176
     1
 75
     1
176
     1
175
     1
176
     1
 42
1.0
176
     1
 92
       12
176
     1
 66
     7
176
     1
 43
1.0
176
     1
 76
     1
176
     1
 77
     6
176
     1
 78
     2
176
     1
 67
     7
176
     1
 79
     5
176
     1
170
     0
176
     1
171
     0
176
     1
290
     0
176
     1
 93
        1
176
     1
 44
0.0
176
     1
173
     0
176
     1
  0
ENDSEC
  0
EOF
