  0
SECTION
  2
HEADER
  9
$ACADVER
  1
AC1024
  9
$ACADMAINTVER
 70
     6
  9
$DWGCODEPAGE
  3
UNDEFINED
  9
$INSBASE
 10
0.0
 20
0.0
 30
0.0
  9
$EXTMIN
 10
1.000000000000000E+20
 20
1.000000000000000E+20
 30
1.000000000000000E+20
  9
$EXTMAX
 10
-1.000000000000000E+20
 20
-1.000000000000000E+20
 30
-1.000000000000000E+20
  9
$LIMMIN
 10
0.0
 20
0.0
  9
$LIMMAX
 10
12.0
 20
9.0
  9
$ORTHOMODE
 70
     0
  9
$REGENMODE
 70
     1
  9
$FILLMODE
 70
     1
  9
$QTEXTMODE
 70
     0
  9
$MIRRTEXT
 70
     1
  9
$LTSCALE
 40
1.0
  9
$ATTMODE
 70
     1
  9
$TEXTSIZE
 40
0.2
  9
$TRACEWID
 40
0.05
  9
$TEXTSTYLE
  7
Standard
  9
$CLAYER
  8
0
  9
$CELTYPE
  6
ByLayer
  9
$CECOLOR
 62
   256
  9
$CELTSCALE
 40
1.0
  9
$DISPSILH
 70
     0
  9
$DIMSCALE
 40
1.0
  9
$DIMASZ
 40
0.18
  9
$DIMEXO
 40
0.0625
  9
$DIMDLI
 40
0.38
  9
$DIMRND
 40
0.0
  9
$DIMDLE
 40
0.0
  9
$DIMEXE
 40
0.18
  9
$DIMTP
 40
0.0
  9
$DIMTM
 40
0.0
  9
$DIMTXT
 40
0.18
  9
$DIMCEN
 40
0.09
  9
$DIMTSZ
 40
0.0
  9
$DIMTOL
 70
     0
  9
$DIMLIM
 70
     0
  9
$DIMTIH
 70
     1
  9
$DIMTOH
 70
     1
  9
$DIMSE1
 70
     0
  9
$DIMSE2
 70
     0
  9
$DIMTAD
 70
     0
  9
$DIMZIN
 70
     0
  9
$DIMBLK
  1

  9
$DIMASO
 70
     1
  9
$DIMSHO
 70
     1
  9
$DIMPOST
  1

  9
$DIMAPOST
  1

  9
$DIMALT
 70
     0
  9
$DIMALTD
 70
     2
  9
$DIMALTF
 40
25.4
  9
$DIMLFAC
 40
1.0
  9
$DIMTOFL
 70
     0
  9
$DIMTVP
 40
0.0
  9
$DIMTIX
 70
     0
  9
$DIMSOXD
 70
     0
  9
$DIMSAH
 70
     0
  9
$DIMBLK1
  1

  9
$DIMBLK2
  1

  9
$DIMSTYLE
  2
Standard
  9
$DIMCLRD
 70
     0
  9
$DIMCLRE
 70
     0
  9
$DIMCLRT
 70
     0
  9
$DIMTFAC
 40
1.0
  9
$DIMGAP
 40
0.09
  9
$DIMJUST
 70
     0
  9
$DIMSD1
 70
     0
  9
$DIMSD2
 70
     0
  9
$DIMTOLJ
 70
     1
  9
$DIMTZIN
 70
     0
  9
$DIMALTZ
 70
     0
  9
$DIMALTTZ
 70
     0
  9
$DIMUPT
 70
     0
  9
$DIMDEC
 70
     4
  9
$DIMTDEC
 70
     4
  9
$DIMALTU
 70
     2
  9
$DIMALTTD
 70
     2
  9
$DIMTXSTY
  7
Standard
  9
$DIMAUNIT
 70
     0
  9
$DIMADEC
 70
     0
  9
$DIMALTRND
 40
0.0
  9
$DIMAZIN
 70
     0
  9
$DIMDSEP
 70
    46
  9
$DIMATFIT
 70
     3
  9
$DIMFRAC
 70
     0
  9
$DIMLDRBLK
  1

  9
$DIMLUNIT
 70
     2
  9
$DIMLWD
 70
    -2
  9
$DIMLWE
 70
    -2
  9
$DIMTMOVE
 70
     0
  9
$DIMFXL
 40
1.0
  9
$DIMFXLON
 70
     0
  9
$DIMJOGANG
 40
0.7853981633974483
  9
$DIMTFILL
 70
     0
  9
$DIMTFILLCLR
 70
     0
  9
$DIMARCSYM
 70
     0
  9
$DIMLTYPE
  6

  9
$DIMLTEX1
  6

  9
$DIMLTEX2
  6

  9
$DIMTXTDIRECTION
 70
     0
  9
$LUNITS
 70
     2
  9
$LUPREC
 70
     4
  9
$SKETCHINC
 40
0.1
  9
$FILLETRAD
 40
0.5
  9
$AUNITS
 70
     0
  9
$AUPREC
 70
     0
  9
$MENU
  1
.
  9
$ELEVATION
 40
0.0
  9
$PELEVATION
 40
0.0
  9
$THICKNESS
 40
0.0
  9
$LIMCHECK
 70
     0
  9
$CHAMFERA
 40
0.5
  9
$CHAMFERB
 40
0.5
  9
$CHAMFERC
 40
1.0
  9
$CHAMFERD
 40
0.0
  9
$SKPOLY
 70
     0
  9
$TDCREATE
 40
2457917.624502303
  9
$TDUCREATE
 40
2457917.249502315
  9
$TDUPDATE
 40
2457917.624502303
  9
$TDUUPDATE
 40
2457917.249502315
  9
$TDINDWG
 40
0.0000000116
  9
$TDUSRTIMER
 40
0.0000000116
  9
$USRTIMER
 70
     1
  9
$ANGBASE
 50
0.0
  9
$ANGDIR
 70
     0
  9
$PDMODE
 70
     0
  9
$PDSIZE
 40
0.0
  9
$PLINEWID
 40
0.0
  9
$SPLFRAME
 70
     0
  9
$SPLINETYPE
 70
     6
  9
$SPLINESEGS
 70
     8
  9
$HANDSEED
  5
AF
  9
$SURFTAB1
 70
     6
  9
$SURFTAB2
 70
     6
  9
$SURFTYPE
 70
     6
  9
$SURFU
 70
     6
  9
$SURFV
 70
     6
  9
$UCSBASE
  2

  9
$UCSNAME
  2

  9
$UCSORG
 10
0.0
 20
0.0
 30
0.0
  9
$UCSXDIR
 10
1.0
 20
0.0
 30
0.0
  9
$UCSYDIR
 10
0.0
 20
1.0
 30
0.0
  9
$UCSORTHOREF
  2

  9
$UCSORTHOVIEW
 70
     0
  9
$UCSORGTOP
 10
0.0
 20
0.0
 30
0.0
  9
$UCSORGBOTTOM
 10
0.0
 20
0.0
 30
0.0
  9
$UCSORGLEFT
 10
0.0
 20
0.0
 30
0.0
  9
$UCSORGRIGHT
 10
0.0
 20
0.0
 30
0.0
  9
$UCSORGFRONT
 10
0.0
 20
0.0
 30
0.0
  9
$UCSORGBACK
 10
0.0
 20
0.0
 30
0.0
  9
$PUCSBASE
  2

  9
$PUCSNAME
  2

  9
$PUCSORG
 10
0.0
 20
0.0
 30
0.0
  9
$PUCSXDIR
 10
1.0
 20
0.0
 30
0.0
  9
$PUCSYDIR
 10
0.0
 20
1.0
 30
0.0
  9
$PUCSORTHOREF
  2

  9
$PUCSORTHOVIEW
 70
     0
  9
$PUCSORGTOP
 10
0.0
 20
0.0
 30
0.0
  9
$PUCSORGBOTTOM
 10
0.0
 20
0.0
 30
0.0
  9
$PUCSORGLEFT
 10
0.0
 20
0.0
 30
0.0
  9
$PUCSORGRIGHT
 10
0.0
 20
0.0
 30
0.0
  9
$PUCSORGFRONT
 10
0.0
 20
0.0
 30
0.0
  9
$PUCSORGBACK
 10
0.0
 20
0.0
 30
0.0
  9
$USERI1
 70
     0
  9
$USERI2
 70
     0
  9
$USERI3
 70
     0
  9
$USERI4
 70
     0
  9
$USERI5
 70
     0
  9
$USERR1
 40
0.0
  9
$USERR2
 40
0.0
  9
$USERR3
 40
0.0
  9
$USERR4
 40
0.0
  9
$USERR5
 40
0.0
  9
$WORLDVIEW
 70
     1
  9
$SHADEDGE
 70
     3
  9
$SHADEDIF
 70
    70
  9
$TILEMODE
 70
     1
  9
$MAXACTVP
 70
    64
  9
$PINSBASE
 10
0.0
 20
0.0
 30
0.0
  9
$PLIMCHECK
 70
     0
  9
$PEXTMIN
 10
1.000000000000000E+20
 20
1.000000000000000E+20
 30
1.000000000000000E+20
  9
$PEXTMAX
 10
-1.000000000000000E+20
 20
-1.000000000000000E+20
 30
-1.000000000000000E+20
  9
$PLIMMIN
 10
0.0
 20
0.0
  9
$PLIMMAX
 10
12.0
 20
9.0
  9
$UNITMODE
 70
     0
  9
$VISRETAIN
 70
     1
  9
$PLINEGEN
 70
     0
  9
$PSLTSCALE
 70
     1
  9
$TREEDEPTH
 70
  3020
  9
$CMLSTYLE
  2
Standard
  9
$CMLJUST
 70
     0
  9
$CMLSCALE
 40
1.0
  9
$PROXYGRAPHICS
 70
     1
  9
$MEASUREMENT
 70
     0
  9
$CELWEIGHT
370
    -1
  9
$ENDCAPS
280
     0
  9
$JOINSTYLE
280
     0
  9
$LWDISPLAY
290
     1
  9
$INSUNITS
 70
     1
  9
$HYPERLINKBASE
  1

  9
$STYLESHEET
  1

  9
$XEDIT
290
     1
  9
$CEPSNTYPE
380
     0
  9
$PSTYLEMODE
290
     1
  9
$FINGERPRINTGUID
  2
{98EE1172-02F4-7059-16D2-DB0331742125}
  9
$VERSIONGUID
  2
{FAEB1C32-E019-11D5-929B-00C0DF256EC4}
  9
$EXTNAMES
290
     1
  9
$PSVPSCALE
 40
0.0
  9
$OLESTARTUP
290
     0
  9
$SORTENTS
280
   127
  9
$INDEXCTL
280
     0
  9
$HIDETEXT
280
     1
  9
$XCLIPFRAME
280
     2
  9
$HALOGAP
280
     0
  9
$OBSCOLOR
 70
   257
  9
$OBSLTYPE
280
     0
  9
$INTERSECTIONDISPLAY
280
     0
  9
$INTERSECTIONCOLOR
 70
   257
  9
$DIMASSOC
280
     2
  9
$PROJECTNAME
  1

  9
$CAMERADISPLAY
290
     0
  9
$LENSLENGTH
 40
50.0
  9
$CAMERAHEIGHT
 40
0.0
  9
$STEPSPERSEC
 40
2.0
  9
$STEPSIZE
 40
6.0
  9
$3DDWFPREC
 40
2.0
  9
$PSOLWIDTH
 40
0.25
  9
$PSOLHEIGHT
 40
4.0
  9
$LOFTANG1
 40
1.570796326794897
  9
$LOFTANG2
 40
1.570796326794897
  9
$LOFTMAG1
 40
0.0
  9
$LOFTMAG2
 40
0.0
  9
$LOFTPARAM
 70
     7
  9
$LOFTNORMALS
280
     1
  9
$LATITUDE
 40
37.795
  9
$LONGITUDE
 40
-122.394
  9
$NORTHDIRECTION
 40
0.0
  9
$TIMEZONE
 70
 -8000
  9
$LIGHTGLYPHDISPLAY
280
     1
  9
$TILEMODELIGHTSYNCH
280
     1
  9
$CMATERIAL
347
3C
  9
$SOLIDHIST
280
     1
  9
$SHOWHIST
280
     1
  9
$DWFFRAME
280
     2
  9
$DGNFRAME
280
     2
  9
$REALWORLDSCALE
290
     1
  9
$INTERFERECOLOR
 62
   256
  9
$CSHADOW
280
     0
  9
$SHADOWPLANELOCATION
 40
0.0
  0
ENDSEC
  0
SECTION
  2
CLASSES
  0
CLASS
  1
ACDBDICTIONARYWDFLT
  2
AcDbDictionaryWithDefault
  3
ObjectDBX Classes
 90
        0
 91
        4
280
     0
281
     0
  0
CLASS
  1
VISUALSTYLE
  2
AcDbVisualStyle
  3
ObjectDBX Classes
 90
     4095
 91
        4
280
     0
281
     0
  0
CLASS
  1
MATERIAL
  2
AcDbMaterial
  3
ObjectDBX Classes
 90
     1153
 91
        4
280
     0
281
     0
  0
CLASS
  1
SUN
  2
AcDbSun
  3
SCENEOE
 90
     1024
 91
        4
280
     0
281
     0
  0
ENDSEC
  0
SECTION
  2
TABLES
  0
TABLE
  2
VPORT
  5
8
330
0
100
AcDbSymbolTable
 70
     1
  0
VPORT
  5
29
330
8
100
AcDbSymbolTableRecord
100
AcDbViewportTableRecord
  2
*Active
 70
     0
 10
0.0
 20
0.0
 11
1.0
 21
1.0
 12
0.0
 22
0.0
 13
0.0
 23
0.0
 14
0.5
 24
0.5
 15
0.5
 25
0.5
 16
0.0
 26
0.0
 36
1.0
 17
91.00082462281999
 27
-128.4993055234307
 37
0.0
 40
256.9986110468615
 41
0.7081814508812795
 42
50.0
 43
0.0
 44
0.0
 50
0.0
 51
0.0
 71
     0
 72
   100
 73
     1
 74
     3
 75
     0
 76
     0
 77
     0
 78
     0
281
     0
 65
     1
110
0.0
120
0.0
130
0.0
111
1.0
121
0.0
131
0.0
112
0.0
122
1.0
132
0.0
 79
     0
146
0.0
 60
     3
 61
     5
292
     1
282
     1
141
0.0
142
0.0
 63
   250
361
3F
  0
ENDTAB
  0
TABLE
  2
LTYPE
  5
5
330
0
100
AcDbSymbolTable
 70
     1
  0
LTYPE
  5
14
330
5
100
AcDbSymbolTableRecord
100
AcDbLinetypeTableRecord
  2
ByBlock
 70
     0
  3

 72
    65
 73
     0
 40
0.0
  0
LTYPE
  5
15
330
5
100
AcDbSymbolTableRecord
100
AcDbLinetypeTableRecord
  2
ByLayer
 70
     0
  3

 72
    65
 73
     0
 40
0.0
  0
LTYPE
  5
16
330
5
100
AcDbSymbolTableRecord
100
AcDbLinetypeTableRecord
  2
Continuous
 70
     0
  3
Solid line
 72
    65
 73
     0
 40
0.0
  0
ENDTAB
  0
TABLE
  2
LAYER
  5
2
330
0
100
AcDbSymbolTable
 70
     2
  0
LAYER
  5
10
330
2
100
AcDbSymbolTableRecord
100
AcDbLayerTableRecord
  2
0
 70
     0
 62
     7
  6
Continuous
370
    -3
390
F
347
3E
  0
LAYER
  5
40
330
2
100
AcDbSymbolTableRecord
100
AcDbLayerTableRecord
  2
_U+30EC_U+30A4_U+30E4_U+30FC 1
 70
     0
 62
     7
  6
Continuous
370
    -3
390
F
347
3E
  0
ENDTAB
  0
TABLE
  2
STYLE
  5
3
330
0
100
AcDbSymbolTable
 70
     1
  0
STYLE
  5
11
330
3
100
AcDbSymbolTableRecord
100
AcDbTextStyleTableRecord
  2
Standard
 70
     0
 40
0.0
 41
1.0
 50
0.0
 71
     0
 42
0.2
  3
txt
  4

  0
ENDTAB
  0
TABLE
  2
VIEW
  5
6
330
0
100
AcDbSymbolTable
 70
     0
  0
ENDTAB
  0
TABLE
  2
UCS
  5
7
330
0
100
AcDbSymbolTable
 70
     0
  0
ENDTAB
  0
TABLE
  2
APPID
  5
9
330
0
100
AcDbSymbolTable
 70
     1
  0
APPID
  5
12
330
9
100
AcDbSymbolTableRecord
100
AcDbRegAppTableRecord
  2
ACAD
 70
     0
  0
ENDTAB
  0
TABLE
  2
DIMSTYLE
  5
A
330
0
100
AcDbSymbolTable
 70
     1
100
AcDbDimStyleTable
  0
DIMSTYLE
105
27
330
A
100
AcDbSymbolTableRecord
100
AcDbDimStyleTableRecord
  2
Standard
 70
     0
178
     0
340
11
  0
ENDTAB
  0
TABLE
  2
BLOCK_RECORD
  5
1
330
0
100
AcDbSymbolTable
 70
     4
  0
BLOCK_RECORD
  5
1F
330
1
100
AcDbSymbolTableRecord
100
AcDbBlockTableRecord
  2
*Model_Space
340
22
 70
     0
280
     1
281
     0
  0
BLOCK_RECORD
  5
1B
330
1
100
AcDbSymbolTableRecord
100
AcDbBlockTableRecord
  2
*Paper_Space
340
1E
 70
     0
280
     1
281
     0
  0
BLOCK_RECORD
  5
23
330
1
100
AcDbSymbolTableRecord
100
AcDbBlockTableRecord
  2
*Paper_Space0
340
26
 70
     0
280
     1
281
     0
  0
BLOCK_RECORD
  5
80
330
1
100
AcDbSymbolTableRecord
100
AcDbBlockTableRecord
  2
block 2
340
0
102
{BLKREFS
331
81
102
}
 70
     0
280
     1
281
     0
  0
BLOCK_RECORD
  5
94
330
1
100
AcDbSymbolTableRecord
100
AcDbBlockTableRecord
  2
block 3
340
0
102
{BLKREFS
331
95
102
}
 70
     0
280
     1
281
     0
  0
BLOCK_RECORD
  5
9C
330
1
100
AcDbSymbolTableRecord
100
AcDbBlockTableRecord
  2
block 4
340
0
102
{BLKREFS
331
9D
102
}
 70
     0
280
     1
281
     0
  0
ENDTAB
  0
ENDSEC
  0
SECTION
  2
BLOCKS
  0
BLOCK
  5
20
330
1F
100
AcDbEntity
  8
0
100
AcDbBlockBegin
  2
*Model_Space
 70
     0
 10
0.0
 20
0.0
 30
0.0
  3
*Model_Space
  1

  0
ENDBLK
  5
21
330
1F
100
AcDbEntity
  8
0
100
AcDbBlockEnd
  0
BLOCK
  5
1C
330
1B
100
AcDbEntity
 67
     1
  8
0
100
AcDbBlockBegin
  2
*Paper_Space
 70
     0
 10
0.0
 20
0.0
 30
0.0
  3
*Paper_Space
  1

  0
ENDBLK
  5
1D
330
1B
100
AcDbEntity
 67
     1
  8
0
100
AcDbBlockEnd
  0
BLOCK
  5
24
330
23
100
AcDbEntity
  8
0
100
AcDbBlockBegin
  2
*Paper_Space0
 70
     0
 10
0.0
 20
0.0
 30
0.0
  3
*Paper_Space0
  1

  0
ENDBLK
  5
25
330
23
100
AcDbEntity
  8
0
100
AcDbBlockEnd
  0
BLOCK
  5
82
330
80
100
AcDbEntity
  8
0
100
AcDbBlockBegin
  2
block 2
 70
     0
 10
0.0
 20
0.0
 30
0.0
  3
block 2
  1

  0
SPLINE
  5
84
330
80
100
AcDbEntity
  8
_U+30EC_U+30A4_U+30E4_U+30FC 1
370
     0
100
AcDbSpline
210
0.0
220
0.0
230
1.0
 70
    11
 71
     3
 72
    44
 73
    40
 74
     0
 42
0.0000000001
 43
0.0000000001
 12
1.0
 22
0.0
 32
0.0
 13
1.0
 23
0.0
 33
0.0
 40
0.0
 40
0.0
 40
0.0
 40
0.0
 40
1.0
 40
1.0
 40
1.0
 40
2.0
 40
2.0
 40
2.0
 40
3.0
 40
3.0
 40
3.0
 40
4.0
 40
4.0
 40
4.0
 40
5.0
 40
5.0
 40
5.0
 40
6.0
 40
6.0
 40
6.0
 40
7.0
 40
7.0
 40
7.0
 40
8.0
 40
8.0
 40
8.0
 40
9.0
 40
9.0
 40
9.0
 40
10.0
 40
10.0
 40
10.0
 40
11.0
 40
11.0
 40
11.0
 40
12.0
 40
12.0
 40
12.0
 40
13.0
 40
13.0
 40
13.0
 40
13.0
 10
100.2505560730276
 20
-130.9591036998991
 30
0.0
 10
100.4093749748977
 20
-131.1768337345669
 30
0.0
 10
100.4834445278305
 20
-131.2698513126687
 30
0.0
 10
100.6271050095655
 20
-131.3187716685592
 30
0.0
 10
100.6271050095655
 20
-131.3187716685592
 30
0.0
 10
100.6271050095655
 20
-130.5401800888927
 30
0.0
 10
100.6271050095655
 20
-130.5401800888927
 30
0.0
 10
100.6271050095655
 20
-130.5401800888927
 30
0.0
 10
100.8324327004863
 20
-130.5401800888927
 30
0.0
 10
100.8324327004863
 20
-130.5401800888927
 30
0.0
 10
100.8324327004863
 20
-130.5401800888927
 30
0.0
 10
100.8324327004863
 20
-131.5681965816913
 30
0.0
 10
100.8324327004863
 20
-131.5681965816913
 30
0.0
 10
100.4748317891174
 20
-131.536501703227
 30
0.0
 10
100.3966281216022
 20
-131.4710448890072
 30
0.0
 10
100.0982828525796
 20
-131.0858832137563
 30
0.0
 10
99.89950084308069
 20
-130.8299126192022
 30
0.0
 10
99.83163246202126
 20
-130.7644558049825
 30
0.0
 10
99.69417315215979
 20
-130.7644558049825
 30
0.0
 10
99.5756618674672
 20
-130.7644558049825
 30
0.0
 10
99.4447482390277
 20
-130.8364583006242
 30
0.0
 10
99.4447482390277
 20
-131.033173252832
 30
0.0
 10
99.4447482390277
 20
-131.2932779619684
 30
0.0
 10
99.67522512699092
 20
-131.301546191133
 30
0.0
 10
99.79166935439237
 20
-131.3060248152638
 30
0.0
 10
99.79166935439237
 20
-131.3060248152638
 30
0.0
 10
99.79166935439237
 20
-131.5303005313535
 30
0.0
 10
99.79166935439237
 20
-131.5303005313535
 30
0.0
 10
99.66454533098664
 20
-131.5216877926404
 30
0.0
 10
99.55257972771602
 20
-131.5110079966362
 30
0.0
 10
99.43406844302343
 20
-131.4307372718298
 30
0.0
 10
99.27318248386227
 20
-131.3208387258504
 30
0.0
 10
99.23942054810682
 20
-131.1344590600983
 30
0.0
 10
99.23942054810682
 20
-131.0183593422454
 30
0.0
 10
99.23942054810682
 20
-130.7410291556828
 30
0.0
 10
99.42338864701915
 20
-130.5336344074708
 30
0.0
 10
99.69624020945095
 20
-130.5336344074708
 30
0.0
 10
99.92499454967154
 20
-130.5336344074708
 30
0.0
 10
100.0242132996467
 20
-130.6500786348722
 30
0.0
 10
100.2505560730276
 20
-130.9591036998991
 30
0.0
  0
HATCH
  5
85
330
80
100
AcDbEntity
  8
_U+30EC_U+30A4_U+30E4_U+30FC 1
 62
   179
420
  2234388
100
AcDbHatch
 10
0.0
 20
0.0
 30
0.0
210
0.0
220
0.0
230
1.0
  2
SOLID
 70
     1
 71
     0
 91
        1
 92
        1
 93
        1
 72
     4
 94
        3
 73
     0
 74
     1
 95
       44
 96
       40
 40
0.0
 40
0.0
 40
0.0
 40
0.0
 40
1.0
 40
1.0
 40
1.0
 40
2.0
 40
2.0
 40
2.0
 40
3.0
 40
3.0
 40
3.0
 40
4.0
 40
4.0
 40
4.0
 40
5.0
 40
5.0
 40
5.0
 40
6.0
 40
6.0
 40
6.0
 40
7.0
 40
7.0
 40
7.0
 40
8.0
 40
8.0
 40
8.0
 40
9.0
 40
9.0
 40
9.0
 40
10.0
 40
10.0
 40
10.0
 40
11.0
 40
11.0
 40
11.0
 40
12.0
 40
12.0
 40
12.0
 40
13.0
 40
13.0
 40
13.0
 40
13.0
 10
100.2505560730276
 20
-130.9591036998991
 10
100.4093749748977
 20
-131.1768337345669
 10
100.4834445278305
 20
-131.2698513126687
 10
100.6271050095655
 20
-131.3187716685592
 10
100.6271050095655
 20
-131.3187716685592
 10
100.6271050095655
 20
-130.5401800888927
 10
100.6271050095655
 20
-130.5401800888927
 10
100.6271050095655
 20
-130.5401800888927
 10
100.8324327004863
 20
-130.5401800888927
 10
100.8324327004863
 20
-130.5401800888927
 10
100.8324327004863
 20
-130.5401800888927
 10
100.8324327004863
 20
-131.5681965816913
 10
100.8324327004863
 20
-131.5681965816913
 10
100.4748317891174
 20
-131.536501703227
 10
100.3966281216022
 20
-131.4710448890072
 10
100.0982828525796
 20
-131.0858832137563
 10
99.89950084308069
 20
-130.8299126192022
 10
99.83163246202126
 20
-130.7644558049825
 10
99.69417315215979
 20
-130.7644558049825
 10
99.5756618674672
 20
-130.7644558049825
 10
99.4447482390277
 20
-130.8364583006242
 10
99.4447482390277
 20
-131.033173252832
 10
99.4447482390277
 20
-131.2932779619684
 10
99.67522512699092
 20
-131.301546191133
 10
99.79166935439237
 20
-131.3060248152638
 10
99.79166935439237
 20
-131.3060248152638
 10
99.79166935439237
 20
-131.5303005313535
 10
99.79166935439237
 20
-131.5303005313535
 10
99.66454533098664
 20
-131.5216877926404
 10
99.55257972771602
 20
-131.5110079966362
 10
99.43406844302343
 20
-131.4307372718298
 10
99.27318248386227
 20
-131.3208387258504
 10
99.23942054810682
 20
-131.1344590600983
 10
99.23942054810682
 20
-131.0183593422454
 10
99.23942054810682
 20
-130.7410291556828
 10
99.42338864701915
 20
-130.5336344074708
 10
99.69624020945095
 20
-130.5336344074708
 10
99.92499454967154
 20
-130.5336344074708
 10
100.0242132996467
 20
-130.6500786348722
 10
100.2505560730276
 20
-130.9591036998991
 97
        0
 97
        0
 75
     2
 76
     1
 98
        0
  0
SPLINE
  5
86
330
80
100
AcDbEntity
  8
_U+30EC_U+30A4_U+30E4_U+30FC 1
370
     0
100
AcDbSpline
210
0.0
220
0.0
230
1.0
 70
    11
 71
     3
 72
    53
 73
    49
 74
     0
 42
0.0000000001
 43
0.0000000001
 12
1.0
 22
0.0
 32
0.0
 13
1.0
 23
0.0
 33
0.0
 40
0.0
 40
0.0
 40
0.0
 40
0.0
 40
1.0
 40
1.0
 40
1.0
 40
2.0
 40
2.0
 40
2.0
 40
3.0
 40
3.0
 40
3.0
 40
4.0
 40
4.0
 40
4.0
 40
5.0
 40
5.0
 40
5.0
 40
6.0
 40
6.0
 40
6.0
 40
7.0
 40
7.0
 40
7.0
 40
8.0
 40
8.0
 40
8.0
 40
9.0
 40
9.0
 40
9.0
 40
10.0
 40
10.0
 40
10.0
 40
11.0
 40
11.0
 40
11.0
 40
12.0
 40
12.0
 40
12.0
 40
13.0
 40
13.0
 40
13.0
 40
14.0
 40
14.0
 40
14.0
 40
15.0
 40
15.0
 40
15.0
 40
16.0
 40
16.0
 40
16.0
 40
16.0
 10
100.8830756041195
 20
-129.8942246854084
 30
0.0
 10
100.8830756041195
 20
-129.9724283529236
 30
0.0
 10
100.8661946362418
 20
-130.0740586697384
 30
0.0
 10
100.8028048793132
 20
-130.1756889865533
 30
0.0
 10
100.6929063333337
 20
-130.3489772894614
 30
0.0
 10
100.5616481953457
 20
-130.3703368814699
 30
0.0
 10
100.4538167066574
 20
-130.3892849066388
 30
0.0
 10
100.4538167066574
 20
-130.3892849066388
 30
0.0
 10
100.4538167066574
 20
-130.1670762478402
 30
0.0
 10
100.4538167066574
 20
-130.1670762478402
 30
0.0
 10
100.6525987161563
 20
-130.1122992296247
 30
0.0
 10
100.6822265373294
 20
-129.985175206219
 30
0.0
 10
100.6822265373294
 20
-129.8921576281172
 30
0.0
 10
100.6822265373294
 20
-129.7526312609646
 30
0.0
 10
100.5826632778057
 20
-129.6003580405166
 30
0.0
 10
100.3501193325514
 20
-129.6003580405166
 30
0.0
 10
100.0941487379973
 20
-129.6003580405166
 30
0.0
 10
100.0242132996467
 20
-129.7801920248466
 30
0.0
 10
100.0242132996467
 20
-129.9007703668304
 30
0.0
 10
100.0242132996467
 20
-129.9324652452947
 30
0.0
 10
100.0242132996467
 20
-130.0740586697384
 30
0.0
 10
100.1534043803436
 20
-130.1629421332579
 30
0.0
 10
100.1534043803436
 20
-130.1629421332579
 30
0.0
 10
100.1344563551747
 20
-130.3386420030056
 30
0.0
 10
100.1344563551747
 20
-130.3386420030056
 30
0.0
 10
100.1344563551747
 20
-130.3386420030056
 30
0.0
 10
99.28799639444884
 20
-130.2180636610219
 30
0.0
 10
99.28799639444884
 20
-130.2180636610219
 30
0.0
 10
99.28799639444884
 20
-130.2180636610219
 30
0.0
 10
99.28799639444884
 20
-129.4394720813554
 30
0.0
 10
99.28799639444884
 20
-129.4394720813554
 30
0.0
 10
99.28799639444884
 20
-129.4394720813554
 30
0.0
 10
99.48264428936545
 20
-129.4394720813554
 30
0.0
 10
99.48264428936545
 20
-129.4394720813554
 30
0.0
 10
99.48264428936545
 20
-129.4394720813554
 30
0.0
 10
99.48264428936545
 20
-130.0551106445696
 30
0.0
 10
99.48264428936545
 20
-130.0551106445696
 30
0.0
 10
99.48264428936545
 20
-130.0551106445696
 30
0.0
 10
99.90570201495413
 20
-130.1205674587893
 30
0.0
 10
99.90570201495413
 20
-130.1205674587893
 30
0.0
 10
99.87194007919868
 20
-130.0592447591519
 30
0.0
 10
99.83163246202126
 20
-129.9769069770544
 30
0.0
 10
99.83163246202126
 20
-129.8583956923618
 30
0.0
 10
99.83163246202126
 20
-129.6044921550989
 30
0.0
 10
100.0180121277733
 20
-129.3674695857137
 30
0.0
 10
100.3311713073825
 20
-129.3674695857137
 30
0.0
 10
100.648464601574
 20
-129.3674695857137
 30
0.0
 10
100.8830756041195
 20
-129.5917453018035
 30
0.0
 10
100.8830756041195
 20
-129.8942246854084
 30
0.0
  0
HATCH
  5
87
330
80
100
AcDbEntity
  8
_U+30EC_U+30A4_U+30E4_U+30FC 1
 62
   179
420
  2234388
100
AcDbHatch
 10
0.0
 20
0.0
 30
0.0
210
0.0
220
0.0
230
1.0
  2
SOLID
 70
     1
 71
     0
 91
        1
 92
        1
 93
        1
 72
     4
 94
        3
 73
     0
 74
     1
 95
       53
 96
       49
 40
0.0
 40
0.0
 40
0.0
 40
0.0
 40
1.0
 40
1.0
 40
1.0
 40
2.0
 40
2.0
 40
2.0
 40
3.0
 40
3.0
 40
3.0
 40
4.0
 40
4.0
 40
4.0
 40
5.0
 40
5.0
 40
5.0
 40
6.0
 40
6.0
 40
6.0
 40
7.0
 40
7.0
 40
7.0
 40
8.0
 40
8.0
 40
8.0
 40
9.0
 40
9.0
 40
9.0
 40
10.0
 40
10.0
 40
10.0
 40
11.0
 40
11.0
 40
11.0
 40
12.0
 40
12.0
 40
12.0
 40
13.0
 40
13.0
 40
13.0
 40
14.0
 40
14.0
 40
14.0
 40
15.0
 40
15.0
 40
15.0
 40
16.0
 40
16.0
 40
16.0
 40
16.0
 10
100.8830756041195
 20
-129.8942246854084
 10
100.8830756041195
 20
-129.9724283529236
 10
100.8661946362418
 20
-130.0740586697384
 10
100.8028048793132
 20
-130.1756889865533
 10
100.6929063333337
 20
-130.3489772894614
 10
100.5616481953457
 20
-130.3703368814699
 10
100.4538167066574
 20
-130.3892849066388
 10
100.4538167066574
 20
-130.3892849066388
 10
100.4538167066574
 20
-130.1670762478402
 10
100.4538167066574
 20
-130.1670762478402
 10
100.6525987161563
 20
-130.1122992296247
 10
100.6822265373294
 20
-129.985175206219
 10
100.6822265373294
 20
-129.8921576281172
 10
100.6822265373294
 20
-129.7526312609646
 10
100.5826632778057
 20
-129.6003580405166
 10
100.3501193325514
 20
-129.6003580405166
 10
100.0941487379973
 20
-129.6003580405166
 10
100.0242132996467
 20
-129.7801920248466
 10
100.0242132996467
 20
-129.9007703668304
 10
100.0242132996467
 20
-129.9324652452947
 10
100.0242132996467
 20
-130.0740586697384
 10
100.1534043803436
 20
-130.1629421332579
 10
100.1534043803436
 20
-130.1629421332579
 10
100.1344563551747
 20
-130.3386420030056
 10
100.1344563551747
 20
-130.3386420030056
 10
100.1344563551747
 20
-130.3386420030056
 10
99.28799639444884
 20
-130.2180636610219
 10
99.28799639444884
 20
-130.2180636610219
 10
99.28799639444884
 20
-130.2180636610219
 10
99.28799639444884
 20
-129.4394720813554
 10
99.28799639444884
 20
-129.4394720813554
 10
99.28799639444884
 20
-129.4394720813554
 10
99.48264428936545
 20
-129.4394720813554
 10
99.48264428936545
 20
-129.4394720813554
 10
99.48264428936545
 20
-129.4394720813554
 10
99.48264428936545
 20
-130.0551106445696
 10
99.48264428936545
 20
-130.0551106445696
 10
99.48264428936545
 20
-130.0551106445696
 10
99.90570201495413
 20
-130.1205674587893
 10
99.90570201495413
 20
-130.1205674587893
 10
99.87194007919868
 20
-130.0592447591519
 10
99.83163246202126
 20
-129.9769069770544
 10
99.83163246202126
 20
-129.8583956923618
 10
99.83163246202126
 20
-129.6044921550989
 10
100.0180121277733
 20
-129.3674695857137
 10
100.3311713073825
 20
-129.3674695857137
 10
100.648464601574
 20
-129.3674695857137
 10
100.8830756041195
 20
-129.5917453018035
 10
100.8830756041195
 20
-129.8942246854084
 97
        0
 97
        0
 75
     2
 76
     1
 98
        0
  0
ENDBLK
  5
83
330
80
100
AcDbEntity
  8
0
100
AcDbBlockEnd
  0
BLOCK
  5
96
330
94
100
AcDbEntity
  8
0
100
AcDbBlockBegin
  2
block 3
 70
     0
 10
0.0
 20
0.0
 30
0.0
  3
block 3
  1

  0
SPLINE
  5
98
330
94
100
AcDbEntity
  8
_U+30EC_U+30A4_U+30E4_U+30FC 1
370
     0
100
AcDbSpline
210
0.0
220
0.0
230
1.0
 70
    11
 71
     3
 72
    44
 73
    40
 74
     0
 42
0.0000000001
 43
0.0000000001
 12
1.0
 22
0.0
 32
0.0
 13
1.0
 23
0.0
 33
0.0
 40
0.0
 40
0.0
 40
0.0
 40
0.0
 40
1.0
 40
1.0
 40
1.0
 40
2.0
 40
2.0
 40
2.0
 40
3.0
 40
3.0
 40
3.0
 40
4.0
 40
4.0
 40
4.0
 40
5.0
 40
5.0
 40
5.0
 40
6.0
 40
6.0
 40
6.0
 40
7.0
 40
7.0
 40
7.0
 40
8.0
 40
8.0
 40
8.0
 40
9.0
 40
9.0
 40
9.0
 40
10.0
 40
10.0
 40
10.0
 40
11.0
 40
11.0
 40
11.0
 40
12.0
 40
12.0
 40
12.0
 40
13.0
 40
13.0
 40
13.0
 40
13.0
 10
84.48269854658766
 20
-112.7350653472503
 30
0.0
 10
84.26496851191988
 20
-112.893711994346
 30
0.0
 10
84.17195093381812
 20
-112.9677815472789
 30
0.0
 10
84.12303057792758
 20
-113.1116142837881
 30
0.0
 10
84.12303057792758
 20
-113.1116142837881
 30
0.0
 10
84.90162215759405
 20
-113.1116142837881
 30
0.0
 10
84.90162215759405
 20
-113.1116142837881
 30
0.0
 10
84.90162215759405
 20
-113.1116142837881
 30
0.0
 10
84.90162215759405
 20
-113.3167697199347
 30
0.0
 10
84.90162215759405
 20
-113.3167697199347
 30
0.0
 10
84.90162215759405
 20
-113.3167697199347
 30
0.0
 10
83.87360566479549
 20
-113.3167697199347
 30
0.0
 10
83.87360566479549
 20
-113.3167697199347
 30
0.0
 10
83.90530054325978
 20
-112.9591688085658
 30
0.0
 10
83.97075735747954
 20
-112.8809651410506
 30
0.0
 10
84.35591903273047
 20
-112.582619872028
 30
0.0
 10
84.61188962728453
 20
-112.383837862529
 30
0.0
 10
84.67734644150428
 20
-112.3161417362439
 30
0.0
 10
84.67734644150428
 20
-112.1786824263824
 30
0.0
 10
84.67734644150428
 20
-112.0601711416898
 30
0.0
 10
84.60534394586256
 20
-111.9290852584761
 30
0.0
 10
84.40862899365479
 20
-111.9290852584761
 30
0.0
 10
84.14852428451843
 20
-111.9290852584761
 30
0.0
 10
84.14025605535383
 20
-112.1595621464393
 30
0.0
 10
84.135777431223
 20
-112.2760063738407
 30
0.0
 10
84.135777431223
 20
-112.2760063738407
 30
0.0
 10
83.91150171513324
 20
-112.2760063738407
 30
0.0
 10
83.91150171513324
 20
-112.2760063738407
 30
0.0
 10
83.92011445384637
 20
-112.1490546052093
 30
0.0
 10
83.93079424985063
 20
-112.0369167471644
 30
0.0
 10
84.01106497465696
 20
-111.9184054624718
 30
0.0
 10
84.12096352063642
 20
-111.7576917580849
 30
0.0
 10
84.30734318638845
 20
-111.7237575675552
 30
0.0
 10
84.42344290424137
 20
-111.7237575675552
 30
0.0
 10
84.70077309080398
 20
-111.7237575675552
 30
0.0
 10
84.90816783901602
 20
-111.9078979212418
 30
0.0
 10
84.90816783901602
 20
-112.1807494836736
 30
0.0
 10
84.90816783901602
 20
-112.4091593143456
 30
0.0
 10
84.79172361161457
 20
-112.5087225738693
 30
0.0
 10
84.48269854658766
 20
-112.7350653472503
 30
0.0
  0
HATCH
  5
99
330
94
100
AcDbEntity
  8
_U+30EC_U+30A4_U+30E4_U+30FC 1
 62
   179
420
  2234388
100
AcDbHatch
 10
0.0
 20
0.0
 30
0.0
210
0.0
220
0.0
230
1.0
  2
SOLID
 70
     1
 71
     0
 91
        1
 92
        1
 93
        1
 72
     4
 94
        3
 73
     0
 74
     1
 95
       44
 96
       40
 40
0.0
 40
0.0
 40
0.0
 40
0.0
 40
1.0
 40
1.0
 40
1.0
 40
2.0
 40
2.0
 40
2.0
 40
3.0
 40
3.0
 40
3.0
 40
4.0
 40
4.0
 40
4.0
 40
5.0
 40
5.0
 40
5.0
 40
6.0
 40
6.0
 40
6.0
 40
7.0
 40
7.0
 40
7.0
 40
8.0
 40
8.0
 40
8.0
 40
9.0
 40
9.0
 40
9.0
 40
10.0
 40
10.0
 40
10.0
 40
11.0
 40
11.0
 40
11.0
 40
12.0
 40
12.0
 40
12.0
 40
13.0
 40
13.0
 40
13.0
 40
13.0
 10
84.48269854658766
 20
-112.7350653472503
 10
84.26496851191988
 20
-112.893711994346
 10
84.17195093381812
 20
-112.9677815472789
 10
84.12303057792758
 20
-113.1116142837881
 10
84.12303057792758
 20
-113.1116142837881
 10
84.90162215759405
 20
-113.1116142837881
 10
84.90162215759405
 20
-113.1116142837881
 10
84.90162215759405
 20
-113.1116142837881
 10
84.90162215759405
 20
-113.3167697199347
 10
84.90162215759405
 20
-113.3167697199347
 10
84.90162215759405
 20
-113.3167697199347
 10
83.87360566479549
 20
-113.3167697199347
 10
83.87360566479549
 20
-113.3167697199347
 10
83.90530054325978
 20
-112.9591688085658
 10
83.97075735747954
 20
-112.8809651410506
 10
84.35591903273047
 20
-112.582619872028
 10
84.61188962728453
 20
-112.383837862529
 10
84.67734644150428
 20
-112.3161417362439
 10
84.67734644150428
 20
-112.1786824263824
 10
84.67734644150428
 20
-112.0601711416898
 10
84.60534394586256
 20
-111.9290852584761
 10
84.40862899365479
 20
-111.9290852584761
 10
84.14852428451843
 20
-111.9290852584761
 10
84.14025605535383
 20
-112.1595621464393
 10
84.135777431223
 20
-112.2760063738407
 10
84.135777431223
 20
-112.2760063738407
 10
83.91150171513324
 20
-112.2760063738407
 10
83.91150171513324
 20
-112.2760063738407
 10
83.92011445384637
 20
-112.1490546052093
 10
83.93079424985063
 20
-112.0369167471644
 10
84.01106497465696
 20
-111.9184054624718
 10
84.12096352063642
 20
-111.7576917580849
 10
84.30734318638845
 20
-111.7237575675552
 10
84.42344290424137
 20
-111.7237575675552
 10
84.70077309080398
 20
-111.7237575675552
 10
84.90816783901602
 20
-111.9078979212418
 10
84.90816783901602
 20
-112.1807494836736
 10
84.90816783901602
 20
-112.4091593143456
 10
84.79172361161457
 20
-112.5087225738693
 10
84.48269854658766
 20
-112.7350653472503
 97
        0
 97
        0
 75
     2
 76
     1
 98
        0
  0
SPLINE
  5
9A
330
94
100
AcDbEntity
  8
_U+30EC_U+30A4_U+30E4_U+30FC 1
370
     0
100
AcDbSpline
210
0.0
220
0.0
230
1.0
 70
    11
 71
     3
 72
    53
 73
    49
 74
     0
 42
0.0000000001
 43
0.0000000001
 12
1.0
 22
0.0
 32
0.0
 13
1.0
 23
0.0
 33
0.0
 40
0.0
 40
0.0
 40
0.0
 40
0.0
 40
1.0
 40
1.0
 40
1.0
 40
2.0
 40
2.0
 40
2.0
 40
3.0
 40
3.0
 40
3.0
 40
4.0
 40
4.0
 40
4.0
 40
5.0
 40
5.0
 40
5.0
 40
6.0
 40
6.0
 40
6.0
 40
7.0
 40
7.0
 40
7.0
 40
8.0
 40
8.0
 40
8.0
 40
9.0
 40
9.0
 40
9.0
 40
10.0
 40
10.0
 40
10.0
 40
11.0
 40
11.0
 40
11.0
 40
12.0
 40
12.0
 40
12.0
 40
13.0
 40
13.0
 40
13.0
 40
14.0
 40
14.0
 40
14.0
 40
15.0
 40
15.0
 40
15.0
 40
16.0
 40
16.0
 40
16.0
 40
16.0
 10
85.54757756107838
 20
-113.3675848783421
 30
0.0
 10
85.46937389356322
 20
-113.3675848783421
 30
0.0
 10
85.36774357674834
 20
-113.3505316556901
 30
0.0
 10
85.26611325993348
 20
-113.2871418987615
 30
0.0
 10
85.09282495702541
 20
-113.1770710980078
 30
0.0
 10
85.07146536501686
 20
-113.0459852147941
 30
0.0
 10
85.05251733984798
 20
-112.9381537261057
 30
0.0
 10
85.05251733984798
 20
-112.9381537261057
 30
0.0
 10
85.2747259986466
 20
-112.9381537261057
 30
0.0
 10
85.2747259986466
 20
-112.9381537261057
 30
0.0
 10
85.32950301686208
 20
-113.1369357356047
 30
0.0
 10
85.45662704026779
 20
-113.1665635567778
 30
0.0
 10
85.54964461836954
 20
-113.1665635567778
 30
0.0
 10
85.68917098552215
 20
-113.1665635567778
 30
0.0
 10
85.8414442059702
 20
-113.0671725520284
 30
0.0
 10
85.8414442059702
 20
-112.8344563519997
 30
0.0
 10
85.8414442059702
 20
-112.5784857574457
 30
0.0
 10
85.66161022164016
 20
-112.5087225738693
 30
0.0
 10
85.54103187965642
 20
-112.5087225738693
 30
0.0
 10
85.50933700119211
 20
-112.5087225738693
 30
0.0
 10
85.36774357674834
 20
-112.5087225738693
 30
0.0
 10
85.2788601132289
 20
-112.637741399792
 30
0.0
 10
85.2788601132289
 20
-112.637741399792
 30
0.0
 10
85.10316024348116
 20
-112.6186211198488
 30
0.0
 10
85.10316024348116
 20
-112.6186211198488
 30
0.0
 10
85.10316024348116
 20
-112.6186211198488
 30
0.0
 10
85.2237385854649
 20
-111.7725056686715
 30
0.0
 10
85.2237385854649
 20
-111.7725056686715
 30
0.0
 10
85.2237385854649
 20
-111.7725056686715
 30
0.0
 10
86.00233016513137
 20
-111.7725056686715
 30
0.0
 10
86.00233016513137
 20
-111.7725056686715
 30
0.0
 10
86.00233016513137
 20
-111.7725056686715
 30
0.0
 10
86.00233016513137
 20
-111.9671535635881
 30
0.0
 10
86.00233016513137
 20
-111.9671535635881
 30
0.0
 10
86.00233016513137
 20
-111.9671535635881
 30
0.0
 10
85.38669160191722
 20
-111.9671535635881
 30
0.0
 10
85.38669160191722
 20
-111.9671535635881
 30
0.0
 10
85.38669160191722
 20
-111.9671535635881
 30
0.0
 10
85.32123478769748
 20
-112.3902112891768
 30
0.0
 10
85.32123478769748
 20
-112.3902112891768
 30
0.0
 10
85.38255748733492
 20
-112.356277098647
 30
0.0
 10
85.46489526943239
 20
-112.3161417362439
 30
0.0
 10
85.58340655412499
 20
-112.3161417362439
 30
0.0
 10
85.8373100913879
 20
-112.3161417362439
 30
0.0
 10
86.07433266077308
 20
-112.5023491472216
 30
0.0
 10
86.07433266077308
 20
-112.8153360720566
 30
0.0
 10
86.07433266077308
 20
-113.1328016210224
 30
0.0
 10
85.85005694468332
 20
-113.3675848783421
 30
0.0
 10
85.54757756107838
 20
-113.3675848783421
 30
0.0
  0
HATCH
  5
9B
330
94
100
AcDbEntity
  8
_U+30EC_U+30A4_U+30E4_U+30FC 1
 62
   179
420
  2234388
100
AcDbHatch
 10
0.0
 20
0.0
 30
0.0
210
0.0
220
0.0
230
1.0
  2
SOLID
 70
     1
 71
     0
 91
        1
 92
        1
 93
        1
 72
     4
 94
        3
 73
     0
 74
     1
 95
       53
 96
       49
 40
0.0
 40
0.0
 40
0.0
 40
0.0
 40
1.0
 40
1.0
 40
1.0
 40
2.0
 40
2.0
 40
2.0
 40
3.0
 40
3.0
 40
3.0
 40
4.0
 40
4.0
 40
4.0
 40
5.0
 40
5.0
 40
5.0
 40
6.0
 40
6.0
 40
6.0
 40
7.0
 40
7.0
 40
7.0
 40
8.0
 40
8.0
 40
8.0
 40
9.0
 40
9.0
 40
9.0
 40
10.0
 40
10.0
 40
10.0
 40
11.0
 40
11.0
 40
11.0
 40
12.0
 40
12.0
 40
12.0
 40
13.0
 40
13.0
 40
13.0
 40
14.0
 40
14.0
 40
14.0
 40
15.0
 40
15.0
 40
15.0
 40
16.0
 40
16.0
 40
16.0
 40
16.0
 10
85.54757756107838
 20
-113.3675848783421
 10
85.46937389356322
 20
-113.3675848783421
 10
85.36774357674834
 20
-113.3505316556901
 10
85.26611325993348
 20
-113.2871418987615
 10
85.09282495702541
 20
-113.1770710980078
 10
85.07146536501686
 20
-113.0459852147941
 10
85.05251733984798
 20
-112.9381537261057
 10
85.05251733984798
 20
-112.9381537261057
 10
85.2747259986466
 20
-112.9381537261057
 10
85.2747259986466
 20
-112.9381537261057
 10
85.32950301686208
 20
-113.1369357356047
 10
85.45662704026779
 20
-113.1665635567778
 10
85.54964461836954
 20
-113.1665635567778
 10
85.68917098552215
 20
-113.1665635567778
 10
85.8414442059702
 20
-113.0671725520284
 10
85.8414442059702
 20
-112.8344563519997
 10
85.8414442059702
 20
-112.5784857574457
 10
85.66161022164016
 20
-112.5087225738693
 10
85.54103187965642
 20
-112.5087225738693
 10
85.50933700119211
 20
-112.5087225738693
 10
85.36774357674834
 20
-112.5087225738693
 10
85.2788601132289
 20
-112.637741399792
 10
85.2788601132289
 20
-112.637741399792
 10
85.10316024348116
 20
-112.6186211198488
 10
85.10316024348116
 20
-112.6186211198488
 10
85.10316024348116
 20
-112.6186211198488
 10
85.2237385854649
 20
-111.7725056686715
 10
85.2237385854649
 20
-111.7725056686715
 10
85.2237385854649
 20
-111.7725056686715
 10
86.00233016513137
 20
-111.7725056686715
 10
86.00233016513137
 20
-111.7725056686715
 10
86.00233016513137
 20
-111.7725056686715
 10
86.00233016513137
 20
-111.9671535635881
 10
86.00233016513137
 20
-111.9671535635881
 10
86.00233016513137
 20
-111.9671535635881
 10
85.38669160191722
 20
-111.9671535635881
 10
85.38669160191722
 20
-111.9671535635881
 10
85.38669160191722
 20
-111.9671535635881
 10
85.32123478769748
 20
-112.3902112891768
 10
85.32123478769748
 20
-112.3902112891768
 10
85.38255748733492
 20
-112.356277098647
 10
85.46489526943239
 20
-112.3161417362439
 10
85.58340655412499
 20
-112.3161417362439
 10
85.8373100913879
 20
-112.3161417362439
 10
86.07433266077308
 20
-112.5023491472216
 10
86.07433266077308
 20
-112.8153360720566
 10
86.07433266077308
 20
-113.1328016210224
 10
85.85005694468332
 20
-113.3675848783421
 10
85.54757756107838
 20
-113.3675848783421
 97
        0
 97
        0
 75
     2
 76
     1
 98
        0
  0
ENDBLK
  5
97
330
94
100
AcDbEntity
  8
0
100
AcDbBlockEnd
  0
BLOCK
  5
9E
330
9C
100
AcDbEntity
  8
0
100
AcDbBlockBegin
  2
block 4
 70
     0
 10
0.0
 20
0.0
 30
0.0
  3
block 4
  1

  0
SPLINE
  5
A0
330
9C
100
AcDbEntity
  8
_U+30EC_U+30A4_U+30E4_U+30FC 1
370
     0
100
AcDbSpline
210
0.0
220
0.0
230
1.0
 70
    11
 71
     3
 72
    44
 73
    40
 74
     0
 42
0.0000000001
 43
0.0000000001
 12
1.0
 22
0.0
 32
0.0
 13
1.0
 23
0.0
 33
0.0
 40
0.0
 40
0.0
 40
0.0
 40
0.0
 40
1.0
 40
1.0
 40
1.0
 40
2.0
 40
2.0
 40
2.0
 40
3.0
 40
3.0
 40
3.0
 40
4.0
 40
4.0
 40
4.0
 40
5.0
 40
5.0
 40
5.0
 40
6.0
 40
6.0
 40
6.0
 40
7.0
 40
7.0
 40
7.0
 40
8.0
 40
8.0
 40
8.0
 40
9.0
 40
9.0
 40
9.0
 40
10.0
 40
10.0
 40
10.0
 40
11.0
 40
11.0
 40
11.0
 40
12.0
 40
12.0
 40
12.0
 40
13.0
 40
13.0
 40
13.0
 40
13.0
 10
106.8368896217283
 20
-141.9141628334451
 30
0.0
 10
106.9957085235983
 20
-142.1318928681129
 30
0.0
 10
107.0697780765312
 20
-142.2249104462146
 30
0.0
 10
107.2134385582661
 20
-142.2738308021052
 30
0.0
 10
107.2134385582661
 20
-142.2738308021052
 30
0.0
 10
107.2134385582661
 20
-141.4952392224387
 30
0.0
 10
107.2134385582661
 20
-141.4952392224387
 30
0.0
 10
107.2134385582661
 20
-141.4952392224387
 30
0.0
 10
107.418766249187
 20
-141.4952392224387
 30
0.0
 10
107.418766249187
 20
-141.4952392224387
 30
0.0
 10
107.418766249187
 20
-141.4952392224387
 30
0.0
 10
107.418766249187
 20
-142.5232557152372
 30
0.0
 10
107.418766249187
 20
-142.5232557152372
 30
0.0
 10
107.0611653378181
 20
-142.4915608367729
 30
0.0
 10
106.9829616703029
 20
-142.4261040225532
 30
0.0
 10
106.6846164012802
 20
-142.0409423473023
 30
0.0
 10
106.4858343917813
 20
-141.7849717527482
 30
0.0
 10
106.4179660107219
 20
-141.7195149385284
 30
0.0
 10
106.2805067008604
 20
-141.7195149385284
 30
0.0
 10
106.1619954161678
 20
-141.7195149385284
 30
0.0
 10
106.0310817877283
 20
-141.7915174341702
 30
0.0
 10
106.0310817877283
 20
-141.9882323863779
 30
0.0
 10
106.0310817877283
 20
-142.2483370955143
 30
0.0
 10
106.2615586756916
 20
-142.2569498342274
 30
0.0
 10
106.378002903093
 20
-142.2610839488097
 30
0.0
 10
106.378002903093
 20
-142.2610839488097
 30
0.0
 10
106.378002903093
 20
-142.4853596648995
 30
0.0
 10
106.378002903093
 20
-142.4853596648995
 30
0.0
 10
106.2508788796873
 20
-142.4767469261864
 30
0.0
 10
106.1389132764167
 20
-142.4660671301821
 30
0.0
 10
106.0204019917241
 20
-142.3857964053758
 30
0.0
 10
105.8595160325629
 20
-142.2758978593963
 30
0.0
 10
105.8257540968075
 20
-142.0895181936443
 30
0.0
 10
105.8257540968075
 20
-141.9734184757914
 30
0.0
 10
105.8257540968075
 20
-141.6960882892288
 30
0.0
 10
106.0097221957198
 20
-141.4886935410167
 30
0.0
 10
106.2825737581516
 20
-141.4886935410167
 30
0.0
 10
106.5113280983722
 20
-141.4886935410167
 30
0.0
 10
106.6105468483474
 20
-141.6051377684182
 30
0.0
 10
106.8368896217283
 20
-141.9141628334451
 30
0.0
  0
HATCH
  5
A1
330
9C
100
AcDbEntity
  8
_U+30EC_U+30A4_U+30E4_U+30FC 1
 62
   179
420
  2234388
100
AcDbHatch
 10
0.0
 20
0.0
 30
0.0
210
0.0
220
0.0
230
1.0
  2
SOLID
 70
     1
 71
     0
 91
        1
 92
        1
 93
        1
 72
     4
 94
        3
 73
     0
 74
     1
 95
       44
 96
       40
 40
0.0
 40
0.0
 40
0.0
 40
0.0
 40
1.0
 40
1.0
 40
1.0
 40
2.0
 40
2.0
 40
2.0
 40
3.0
 40
3.0
 40
3.0
 40
4.0
 40
4.0
 40
4.0
 40
5.0
 40
5.0
 40
5.0
 40
6.0
 40
6.0
 40
6.0
 40
7.0
 40
7.0
 40
7.0
 40
8.0
 40
8.0
 40
8.0
 40
9.0
 40
9.0
 40
9.0
 40
10.0
 40
10.0
 40
10.0
 40
11.0
 40
11.0
 40
11.0
 40
12.0
 40
12.0
 40
12.0
 40
13.0
 40
13.0
 40
13.0
 40
13.0
 10
106.8368896217283
 20
-141.9141628334451
 10
106.9957085235983
 20
-142.1318928681129
 10
107.0697780765312
 20
-142.2249104462146
 10
107.2134385582661
 20
-142.2738308021052
 10
107.2134385582661
 20
-142.2738308021052
 10
107.2134385582661
 20
-141.4952392224387
 10
107.2134385582661
 20
-141.4952392224387
 10
107.2134385582661
 20
-141.4952392224387
 10
107.418766249187
 20
-141.4952392224387
 10
107.418766249187
 20
-141.4952392224387
 10
107.418766249187
 20
-141.4952392224387
 10
107.418766249187
 20
-142.5232557152372
 10
107.418766249187
 20
-142.5232557152372
 10
107.0611653378181
 20
-142.4915608367729
 10
106.9829616703029
 20
-142.4261040225532
 10
106.6846164012802
 20
-142.0409423473023
 10
106.4858343917813
 20
-141.7849717527482
 10
106.4179660107219
 20
-141.7195149385284
 10
106.2805067008604
 20
-141.7195149385284
 10
106.1619954161678
 20
-141.7195149385284
 10
106.0310817877283
 20
-141.7915174341702
 10
106.0310817877283
 20
-141.9882323863779
 10
106.0310817877283
 20
-142.2483370955143
 10
106.2615586756916
 20
-142.2569498342274
 10
106.378002903093
 20
-142.2610839488097
 10
106.378002903093
 20
-142.2610839488097
 10
106.378002903093
 20
-142.4853596648995
 10
106.378002903093
 20
-142.4853596648995
 10
106.2508788796873
 20
-142.4767469261864
 10
106.1389132764167
 20
-142.4660671301821
 10
106.0204019917241
 20
-142.3857964053758
 10
105.8595160325629
 20
-142.2758978593963
 10
105.8257540968075
 20
-142.0895181936443
 10
105.8257540968075
 20
-141.9734184757914
 10
105.8257540968075
 20
-141.6960882892288
 10
106.0097221957198
 20
-141.4886935410167
 10
106.2825737581516
 20
-141.4886935410167
 10
106.5113280983722
 20
-141.4886935410167
 10
106.6105468483474
 20
-141.6051377684182
 10
106.8368896217283
 20
-141.9141628334451
 97
        0
 97
        0
 75
     2
 76
     1
 98
        0
  0
ENDBLK
  5
9F
330
9C
100
AcDbEntity
  8
0
100
AcDbBlockEnd
  0
ENDSEC
  0
SECTION
  2
ENTITIES
  0
POLYLINE
  5
41
330
1F
100
AcDbEntity
  8
_U+30EC_U+30A4_U+30E4_U+30FC 1
370
     0
100
AcDb2dPolyline
 66
     1
 10
0.0
 20
0.0
 30
0.0
  0
VERTEX
  5
42
330
41
100
AcDbEntity
  8
_U+30EC_U+30A4_U+30E4_U+30FC 1
370
     0
100
AcDbVertex
100
AcDb2dVertex
 10
72.47826315092546
 20
-142.9624888531481
 30
0.0
  0
VERTEX
  5
43
330
41
100
AcDbEntity
  8
_U+30EC_U+30A4_U+30E4_U+30FC 1
370
     0
100
AcDbVertex
100
AcDb2dVertex
 10
97.47828306867737
 20
-142.9624888531481
 30
0.0
  0
VERTEX
  5
44
330
41
100
AcDbEntity
  8
_U+30EC_U+30A4_U+30E4_U+30FC 1
370
     0
100
AcDbVertex
100
AcDb2dVertex
 10
97.47828306867737
 20
-117.9626446927316
 30
0.0
  0
VERTEX
  5
45
330
41
100
AcDbEntity
  8
_U+30EC_U+30A4_U+30E4_U+30FC 1
370
     0
100
AcDbVertex
100
AcDb2dVertex
 10
72.47826315092546
 20
-117.9626446927316
 30
0.0
  0
VERTEX
  5
46
330
41
100
AcDbEntity
  8
_U+30EC_U+30A4_U+30E4_U+30FC 1
370
     0
100
AcDbVertex
100
AcDb2dVertex
 10
72.47826315092546
 20
-142.9624888531481
 30
0.0
  0
SEQEND
  5
47
330
41
100
AcDbEntity
  8
_U+30EC_U+30A4_U+30E4_U+30FC 1
370
     0
  0
POLYLINE
  5
48
330
1F
100
AcDbEntity
  8
_U+30EC_U+30A4_U+30E4_U+30FC 1
370
     0
100
AcDb2dPolyline
 66
     1
 10
0.0
 20
0.0
 30
0.0
  0
VERTEX
  5
49
330
48
100
AcDbEntity
  8
_U+30EC_U+30A4_U+30E4_U+30FC 1
370
     0
100
AcDbVertex
100
AcDb2dVertex
 10
74.47847782211795
 20
-119.9625419144538
 30
0.0
  0
VERTEX
  5
4A
330
48
100
AcDbEntity
  8
_U+30EC_U+30A4_U+30E4_U+30FC 1
370
     0
100
AcDbVertex
100
AcDb2dVertex
 10
95.47842117525366
 20
-119.9625419144538
 30
0.0
  0
VERTEX
  5
4B
330
48
100
AcDbEntity
  8
_U+30EC_U+30A4_U+30E4_U+30FC 1
370
     0
100
AcDbVertex
100
AcDb2dVertex
 10
95.47842117525366
 20
-140.9629796869812
 30
0.0
  0
VERTEX
  5
4C
330
48
100
AcDbEntity
  8
_U+30EC_U+30A4_U+30E4_U+30FC 1
370
     0
100
AcDbVertex
100
AcDb2dVertex
 10
74.47847782211795
 20
-140.9629796869812
 30
0.0
  0
VERTEX
  5
4D
330
48
100
AcDbEntity
  8
_U+30EC_U+30A4_U+30E4_U+30FC 1
370
     0
100
AcDbVertex
100
AcDb2dVertex
 10
74.47847782211795
 20
-119.9625419144538
 30
0.0
  0
SEQEND
  5
4E
330
48
100
AcDbEntity
  8
_U+30EC_U+30A4_U+30E4_U+30FC 1
370
     0
  0
HATCH
  5
4F
330
1F
100
AcDbEntity
  8
_U+30EC_U+30A4_U+30E4_U+30FC 1
 62
   253
420
 11711154
100
AcDbHatch
 10
0.0
 20
0.0
 30
0.0
210
0.0
220
0.0
230
1.0
  2
SOLID
 70
     1
 71
     0
 91
        2
 92
        1
 93
        4
 72
     1
 10
72.47826315092546
 20
-142.9624888531481
 11
97.47828306867737
 21
-142.9624888531481
 72
     1
 10
97.47828306867737
 20
-142.9624888531481
 11
97.47828306867737
 21
-117.9626446927316
 72
     1
 10
97.47828306867737
 20
-117.9626446927316
 11
72.47826315092546
 21
-117.9626446927316
 72
     1
 10
72.47826315092546
 20
-117.9626446927316
 11
72.47826315092546
 21
-142.9624888531481
 97
        0
 92
        1
 93
        4
 72
     1
 10
74.47847782211795
 20
-119.9625419144538
 11
95.47842117525366
 21
-119.9625419144538
 72
     1
 10
95.47842117525366
 20
-119.9625419144538
 11
95.47842117525366
 21
-140.9629796869812
 72
     1
 10
95.47842117525366
 20
-140.9629796869812
 11
74.47847782211795
 21
-140.9629796869812
 72
     1
 10
74.47847782211795
 20
-140.9629796869812
 11
74.47847782211795
 21
-119.9625419144538
 97
        0
 75
     2
 76
     1
 98
        0
  0
POLYLINE
  5
50
330
1F
100
AcDbEntity
  8
_U+30EC_U+30A4_U+30E4_U+30FC 1
 62
   179
420
  2234388
370
    25
100
AcDb2dPolyline
 66
     1
 10
0.0
 20
0.0
 30
0.0
  0
VERTEX
  5
51
330
50
100
AcDbEntity
  8
_U+30EC_U+30A4_U+30E4_U+30FC 1
 62
   179
420
  2234388
370
    25
100
AcDbVertex
100
AcDb2dVertex
 10
72.47826315092546
 20
-117.9626446927316
 30
0.0
  0
VERTEX
  5
52
330
50
100
AcDbEntity
  8
_U+30EC_U+30A4_U+30E4_U+30FC 1
 62
   179
420
  2234388
370
    25
100
AcDbVertex
100
AcDb2dVertex
 10
72.47826315092546
 20
-142.9624888531481
 30
0.0
  0
SEQEND
  5
53
330
50
100
AcDbEntity
  8
_U+30EC_U+30A4_U+30E4_U+30FC 1
 62
   179
420
  2234388
370
    25
  0
POLYLINE
  5
54
330
1F
100
AcDbEntity
  8
_U+30EC_U+30A4_U+30E4_U+30FC 1
 62
   179
420
  2234388
370
    25
100
AcDb2dPolyline
 66
     1
 10
0.0
 20
0.0
 30
0.0
  0
VERTEX
  5
55
330
54
100
AcDbEntity
  8
_U+30EC_U+30A4_U+30E4_U+30FC 1
 62
   179
420
  2234388
370
    25
100
AcDbVertex
100
AcDb2dVertex
 10
97.47828306867737
 20
-117.9626446927316
 30
0.0
  0
VERTEX
  5
56
330
54
100
AcDbEntity
  8
_U+30EC_U+30A4_U+30E4_U+30FC 1
 62
   179
420
  2234388
370
    25
100
AcDbVertex
100
AcDb2dVertex
 10
97.47828306867737
 20
-142.9624888531481
 30
0.0
  0
SEQEND
  5
57
330
54
100
AcDbEntity
  8
_U+30EC_U+30A4_U+30E4_U+30FC 1
 62
   179
420
  2234388
370
    25
  0
POLYLINE
  5
58
330
1F
100
AcDbEntity
  8
_U+30EC_U+30A4_U+30E4_U+30FC 1
 62
   179
420
  2234388
370
    25
100
AcDb2dPolyline
 66
     1
 10
0.0
 20
0.0
 30
0.0
  0
VERTEX
  5
59
330
58
100
AcDbEntity
  8
_U+30EC_U+30A4_U+30E4_U+30FC 1
 62
   179
420
  2234388
370
    25
100
AcDbVertex
100
AcDb2dVertex
 10
72.47826315092546
 20
-142.9624888531481
 30
0.0
  0
VERTEX
  5
5A
330
58
100
AcDbEntity
  8
_U+30EC_U+30A4_U+30E4_U+30FC 1
 62
   179
420
  2234388
370
    25
100
AcDbVertex
100
AcDb2dVertex
 10
97.47828306867737
 20
-142.9624888531481
 30
0.0
  0
SEQEND
  5
5B
330
58
100
AcDbEntity
  8
_U+30EC_U+30A4_U+30E4_U+30FC 1
 62
   179
420
  2234388
370
    25
  0
POLYLINE
  5
5C
330
1F
100
AcDbEntity
  8
_U+30EC_U+30A4_U+30E4_U+30FC 1
 62
   179
420
  2234388
370
    25
100
AcDb2dPolyline
 66
     1
 10
0.0
 20
0.0
 30
0.0
  0
VERTEX
  5
5D
330
5C
100
AcDbEntity
  8
_U+30EC_U+30A4_U+30E4_U+30FC 1
 62
   179
420
  2234388
370
    25
100
AcDbVertex
100
AcDb2dVertex
 10
72.47826315092546
 20
-117.9626446927316
 30
0.0
  0
VERTEX
  5
5E
330
5C
100
AcDbEntity
  8
_U+30EC_U+30A4_U+30E4_U+30FC 1
 62
   179
420
  2234388
370
    25
100
AcDbVertex
100
AcDb2dVertex
 10
97.47828306867737
 20
-117.9626446927316
 30
0.0
  0
SEQEND
  5
5F
330
5C
100
AcDbEntity
  8
_U+30EC_U+30A4_U+30E4_U+30FC 1
 62
   179
420
  2234388
370
    25
  0
POLYLINE
  5
60
330
1F
100
AcDbEntity
  8
_U+30EC_U+30A4_U+30E4_U+30FC 1
 62
   179
420
  2234388
370
    25
100
AcDb2dPolyline
 66
     1
 10
0.0
 20
0.0
 30
0.0
  0
VERTEX
  5
61
330
60
100
AcDbEntity
  8
_U+30EC_U+30A4_U+30E4_U+30FC 1
 62
   179
420
  2234388
370
    25
100
AcDbVertex
100
AcDb2dVertex
 10
95.47842117525366
 20
-119.9625419144538
 30
0.0
  0
VERTEX
  5
62
330
60
100
AcDbEntity
  8
_U+30EC_U+30A4_U+30E4_U+30FC 1
 62
   179
420
  2234388
370
    25
100
AcDbVertex
100
AcDb2dVertex
 10
95.47842117525366
 20
-140.9629796869812
 30
0.0
  0
SEQEND
  5
63
330
60
100
AcDbEntity
  8
_U+30EC_U+30A4_U+30E4_U+30FC 1
 62
   179
420
  2234388
370
    25
  0
POLYLINE
  5
64
330
1F
100
AcDbEntity
  8
_U+30EC_U+30A4_U+30E4_U+30FC 1
 62
   179
420
  2234388
370
    25
100
AcDb2dPolyline
 66
     1
 10
0.0
 20
0.0
 30
0.0
  0
VERTEX
  5
65
330
64
100
AcDbEntity
  8
_U+30EC_U+30A4_U+30E4_U+30FC 1
 62
   179
420
  2234388
370
    25
100
AcDbVertex
100
AcDb2dVertex
 10
74.47847782211795
 20
-119.9625419144538
 30
0.0
  0
VERTEX
  5
66
330
64
100
AcDbEntity
  8
_U+30EC_U+30A4_U+30E4_U+30FC 1
 62
   179
420
  2234388
370
    25
100
AcDbVertex
100
AcDb2dVertex
 10
74.47847782211795
 20
-140.9629796869812
 30
0.0
  0
SEQEND
  5
67
330
64
100
AcDbEntity
  8
_U+30EC_U+30A4_U+30E4_U+30FC 1
 62
   179
420
  2234388
370
    25
  0
POLYLINE
  5
68
330
1F
100
AcDbEntity
  8
_U+30EC_U+30A4_U+30E4_U+30FC 1
 62
   179
420
  2234388
370
    25
100
AcDb2dPolyline
 66
     1
 10
0.0
 20
0.0
 30
0.0
  0
VERTEX
  5
69
330
68
100
AcDbEntity
  8
_U+30EC_U+30A4_U+30E4_U+30FC 1
 62
   179
420
  2234388
370
    25
100
AcDbVertex
100
AcDb2dVertex
 10
74.47847782211795
 20
-119.9625419144538
 30
0.0
  0
VERTEX
  5
6A
330
68
100
AcDbEntity
  8
_U+30EC_U+30A4_U+30E4_U+30FC 1
 62
   179
420
  2234388
370
    25
100
AcDbVertex
100
AcDb2dVertex
 10
95.47842117525366
 20
-119.9625419144538
 30
0.0
  0
SEQEND
  5
6B
330
68
100
AcDbEntity
  8
_U+30EC_U+30A4_U+30E4_U+30FC 1
 62
   179
420
  2234388
370
    25
  0
POLYLINE
  5
6C
330
1F
100
AcDbEntity
  8
_U+30EC_U+30A4_U+30E4_U+30FC 1
 62
   179
420
  2234388
370
    25
100
AcDb2dPolyline
 66
     1
 10
0.0
 20
0.0
 30
0.0
  0
VERTEX
  5
6D
330
6C
100
AcDbEntity
  8
_U+30EC_U+30A4_U+30E4_U+30FC 1
 62
   179
420
  2234388
370
    25
100
AcDbVertex
100
AcDb2dVertex
 10
74.47847782211795
 20
-140.9629796869812
 30
0.0
  0
VERTEX
  5
6E
330
6C
100
AcDbEntity
  8
_U+30EC_U+30A4_U+30E4_U+30FC 1
 62
   179
420
  2234388
370
    25
100
AcDbVertex
100
AcDb2dVertex
 10
95.47842117525366
 20
-140.9629796869812
 30
0.0
  0
SEQEND
  5
6F
330
6C
100
AcDbEntity
  8
_U+30EC_U+30A4_U+30E4_U+30FC 1
 62
   179
420
  2234388
370
    25
  0
SPLINE
  5
70
330
1F
100
AcDbEntity
  8
_U+30EC_U+30A4_U+30E4_U+30FC 1
 62
   179
420
  2234388
370
     9
100
AcDbSpline
210
0.0
220
0.0
230
1.0
 70
    11
 71
     3
 72
    17
 73
    13
 74
     0
 42
0.0000000001
 43
0.0000000001
 12
1.0
 22
0.0
 32
0.0
 13
1.0
 23
0.0
 33
0.0
 40
0.0
 40
0.0
 40
0.0
 40
0.0
 40
1.0
 40
1.0
 40
1.0
 40
2.0
 40
2.0
 40
2.0
 40
3.0
 40
3.0
 40
3.0
 40
4.0
 40
4.0
 40
4.0
 40
4.0
 10
101.5783015751883
 20
-142.9624888531481
 30
0.0
 10
101.5783015751883
 20
-142.9073849642732
 30
0.0
 10
101.5334987985535
 20
-142.8625821865065
 30
0.0
 10
101.4783949110705
 20
-142.8625821865065
 30
0.0
 10
101.4229055301997
 20
-142.8625821865065
 30
0.0
 10
101.3781354691838
 20
-142.9073849642732
 30
0.0
 10
101.3781354691838
 20
-142.9624888531481
 30
0.0
 10
101.3781354691838
 20
-143.0176280198012
 30
0.0
 10
101.4229055301997
 20
-143.0624307975679
 30
0.0
 10
101.4783949110705
 20
-143.0624307975679
 30
0.0
 10
101.5334987985535
 20
-143.0624307975679
 30
0.0
 10
101.5783015751883
 20
-143.0176280198012
 30
0.0
 10
101.5783015751883
 20
-142.9624888531481
 30
0.0
  0
SPLINE
  5
71
330
1F
100
AcDbEntity
  8
_U+30EC_U+30A4_U+30E4_U+30FC 1
 62
   179
420
  2234388
370
     9
100
AcDbSpline
210
0.0
220
0.0
230
1.0
 70
    11
 71
     3
 72
    17
 73
    13
 74
     0
 42
0.0000000001
 43
0.0000000001
 12
1.0
 22
0.0
 32
0.0
 13
1.0
 23
0.0
 33
0.0
 40
0.0
 40
0.0
 40
0.0
 40
0.0
 40
1.0
 40
1.0
 40
1.0
 40
2.0
 40
2.0
 40
2.0
 40
3.0
 40
3.0
 40
3.0
 40
4.0
 40
4.0
 40
4.0
 40
4.0
 10
101.5783015751883
 20
-117.9626446927316
 30
0.0
 10
101.5783015751883
 20
-117.9071880260786
 30
0.0
 10
101.5334987985535
 20
-117.8623852483122
 30
0.0
 10
101.4783949110705
 20
-117.8623852483122
 30
0.0
 10
101.4229055301997
 20
-117.8623852483122
 30
0.0
 10
101.3781354691838
 20
-117.9071880260786
 30
0.0
 10
101.3781354691838
 20
-117.9626446927316
 30
0.0
 10
101.3781354691838
 20
-118.0177838593844
 30
0.0
 10
101.4229055301997
 20
-118.0625513593733
 30
0.0
 10
101.4783949110705
 20
-118.0625513593733
 30
0.0
 10
101.5334987985535
 20
-118.0625513593733
 30
0.0
 10
101.5783015751883
 20
-118.0177838593844
 30
0.0
 10
101.5783015751883
 20
-117.9626446927316
 30
0.0
  0
SPLINE
  5
72
330
1F
100
AcDbEntity
  8
_U+30EC_U+30A4_U+30E4_U+30FC 1
 62
   179
420
  2234388
370
     9
100
AcDbSpline
210
0.0
220
0.0
230
1.0
 70
    11
 71
     3
 72
    17
 73
    13
 74
     0
 42
0.0000000001
 43
0.0000000001
 12
1.0
 22
0.0
 32
0.0
 13
1.0
 23
0.0
 33
0.0
 40
0.0
 40
0.0
 40
0.0
 40
0.0
 40
1.0
 40
1.0
 40
1.0
 40
2.0
 40
2.0
 40
2.0
 40
3.0
 40
3.0
 40
3.0
 40
4.0
 40
4.0
 40
4.0
 40
4.0
 10
97.57818973279521
 20
-113.9625680270648
 30
0.0
 10
97.57818973279521
 20
-113.9074288604121
 30
0.0
 10
97.53342223393732
 20
-113.8626613604232
 30
0.0
 10
97.47828306867737
 20
-113.8626613604232
 30
0.0
 10
97.4231791811943
 20
-113.8626613604232
 30
0.0
 10
97.37837640455953
 20
-113.9074288604121
 30
0.0
 10
97.37837640455953
 20
-113.9625680270648
 30
0.0
 10
97.37837640455953
 20
-114.017848304829
 30
0.0
 10
97.4231791811943
 20
-114.0626158048178
 30
0.0
 10
97.47828306867737
 20
-114.0626158048178
 30
0.0
 10
97.53342223393732
 20
-114.0626158048178
 30
0.0
 10
97.57818973279521
 20
-114.017848304829
 30
0.0
 10
97.57818973279521
 20
-113.9625680270648
 30
0.0
  0
SPLINE
  5
73
330
1F
100
AcDbEntity
  8
_U+30EC_U+30A4_U+30E4_U+30FC 1
 62
   179
420
  2234388
370
     9
100
AcDbSpline
210
0.0
220
0.0
230
1.0
 70
    11
 71
     3
 72
    17
 73
    13
 74
     0
 42
0.0000000001
 43
0.0000000001
 12
1.0
 22
0.0
 32
0.0
 13
1.0
 23
0.0
 33
0.0
 40
0.0
 40
0.0
 40
0.0
 40
0.0
 40
1.0
 40
1.0
 40
1.0
 40
2.0
 40
2.0
 40
2.0
 40
3.0
 40
3.0
 40
3.0
 40
4.0
 40
4.0
 40
4.0
 40
4.0
 10
72.5781698150433
 20
-113.9625680270648
 30
0.0
 10
72.5781698150433
 20
-113.9074288604121
 30
0.0
 10
72.53336703840853
 20
-113.8626613604232
 30
0.0
 10
72.47826315092546
 20
-113.8626613604232
 30
0.0
 10
72.42312398566551
 20
-113.8626613604232
 30
0.0
 10
72.37835831523888
 20
-113.9074288604121
 30
0.0
 10
72.37835831523888
 20
-113.9625680270648
 30
0.0
 10
72.37835831523888
 20
-114.017848304829
 30
0.0
 10
72.42312398566551
 20
-114.0626158048178
 30
0.0
 10
72.47826315092546
 20
-114.0626158048178
 30
0.0
 10
72.53336703840853
 20
-114.0626158048178
 30
0.0
 10
72.5781698150433
 20
-114.017848304829
 30
0.0
 10
72.5781698150433
 20
-113.9625680270648
 30
0.0
  0
POLYLINE
  5
74
330
1F
100
AcDbEntity
  8
_U+30EC_U+30A4_U+30E4_U+30FC 1
 62
   179
420
  2234388
370
     9
100
AcDb2dPolyline
 66
     1
 10
0.0
 20
0.0
 30
0.0
  0
VERTEX
  5
75
330
74
100
AcDbEntity
  8
_U+30EC_U+30A4_U+30E4_U+30FC 1
 62
   179
420
  2234388
370
     9
100
AcDbVertex
100
AcDb2dVertex
 10
101.4783949110705
 20
-117.9626446927316
 30
0.0
  0
VERTEX
  5
76
330
74
100
AcDbEntity
  8
_U+30EC_U+30A4_U+30E4_U+30FC 1
 62
   179
420
  2234388
370
     9
100
AcDbVertex
100
AcDb2dVertex
 10
101.4783949110705
 20
-142.9624888531481
 30
0.0
  0
SEQEND
  5
77
330
74
100
AcDbEntity
  8
_U+30EC_U+30A4_U+30E4_U+30FC 1
 62
   179
420
  2234388
370
     9
  0
POLYLINE
  5
78
330
1F
100
AcDbEntity
  8
_U+30EC_U+30A4_U+30E4_U+30FC 1
 62
   179
420
  2234388
370
     9
100
AcDb2dPolyline
 66
     1
 10
0.0
 20
0.0
 30
0.0
  0
VERTEX
  5
79
330
78
100
AcDbEntity
  8
_U+30EC_U+30A4_U+30E4_U+30FC 1
 62
   179
420
  2234388
370
     9
100
AcDbVertex
100
AcDb2dVertex
 10
100.0183535594303
 20
-117.9626446927316
 30
0.0
  0
VERTEX
  5
7A
330
78
100
AcDbEntity
  8
_U+30EC_U+30A4_U+30E4_U+30FC 1
 62
   179
420
  2234388
370
     9
100
AcDbVertex
100
AcDb2dVertex
 10
102.4781671077864
 20
-117.9626446927316
 30
0.0
  0
SEQEND
  5
7B
330
78
100
AcDbEntity
  8
_U+30EC_U+30A4_U+30E4_U+30FC 1
 62
   179
420
  2234388
370
     9
  0
POLYLINE
  5
7C
330
1F
100
AcDbEntity
  8
_U+30EC_U+30A4_U+30E4_U+30FC 1
 62
   179
420
  2234388
370
     9
100
AcDb2dPolyline
 66
     1
 10
0.0
 20
0.0
 30
0.0
  0
VERTEX
  5
7D
330
7C
100
AcDbEntity
  8
_U+30EC_U+30A4_U+30E4_U+30FC 1
 62
   179
420
  2234388
370
     9
100
AcDbVertex
100
AcDb2dVertex
 10
100.0183535594303
 20
-142.9624888531481
 30
0.0
  0
VERTEX
  5
7E
330
7C
100
AcDbEntity
  8
_U+30EC_U+30A4_U+30E4_U+30FC 1
 62
   179
420
  2234388
370
     9
100
AcDbVertex
100
AcDb2dVertex
 10
105.2965792581049
 20
-142.9624888531481
 30
0.0
  0
SEQEND
  5
7F
330
7C
100
AcDbEntity
  8
_U+30EC_U+30A4_U+30E4_U+30FC 1
 62
   179
420
  2234388
370
     9
  0
INSERT
  5
81
330
1F
100
AcDbEntity
  8
_U+30EC_U+30A4_U+30E4_U+30FC 1
100
AcDbBlockReference
  2
block 2
 10
0.0
 20
0.0
 30
0.0
  0
POLYLINE
  5
88
330
1F
100
AcDbEntity
  8
_U+30EC_U+30A4_U+30E4_U+30FC 1
 62
   179
420
  2234388
370
     9
100
AcDb2dPolyline
 66
     1
 10
0.0
 20
0.0
 30
0.0
  0
VERTEX
  5
89
330
88
100
AcDbEntity
  8
_U+30EC_U+30A4_U+30E4_U+30FC 1
 62
   179
420
  2234388
370
     9
100
AcDbVertex
100
AcDb2dVertex
 10
72.47826315092546
 20
-113.9625680270648
 30
0.0
  0
VERTEX
  5
8A
330
88
100
AcDbEntity
  8
_U+30EC_U+30A4_U+30E4_U+30FC 1
 62
   179
420
  2234388
370
     9
100
AcDbVertex
100
AcDb2dVertex
 10
97.47828306867737
 20
-113.9625680270648
 30
0.0
  0
SEQEND
  5
8B
330
88
100
AcDbEntity
  8
_U+30EC_U+30A4_U+30E4_U+30FC 1
 62
   179
420
  2234388
370
     9
  0
POLYLINE
  5
8C
330
1F
100
AcDbEntity
  8
_U+30EC_U+30A4_U+30E4_U+30FC 1
 62
   179
420
  2234388
370
     9
100
AcDb2dPolyline
 66
     1
 10
0.0
 20
0.0
 30
0.0
  0
VERTEX
  5
8D
330
8C
100
AcDbEntity
  8
_U+30EC_U+30A4_U+30E4_U+30FC 1
 62
   179
420
  2234388
370
     9
100
AcDbVertex
100
AcDb2dVertex
 10
72.47826315092546
 20
-115.422574137811
 30
0.0
  0
VERTEX
  5
8E
330
8C
100
AcDbEntity
  8
_U+30EC_U+30A4_U+30E4_U+30FC 1
 62
   179
420
  2234388
370
     9
100
AcDbVertex
100
AcDb2dVertex
 10
72.47826315092546
 20
-112.9626194162037
 30
0.0
  0
SEQEND
  5
8F
330
8C
100
AcDbEntity
  8
_U+30EC_U+30A4_U+30E4_U+30FC 1
 62
   179
420
  2234388
370
     9
  0
POLYLINE
  5
90
330
1F
100
AcDbEntity
  8
_U+30EC_U+30A4_U+30E4_U+30FC 1
 62
   179
420
  2234388
370
     9
100
AcDb2dPolyline
 66
     1
 10
0.0
 20
0.0
 30
0.0
  0
VERTEX
  5
91
330
90
100
AcDbEntity
  8
_U+30EC_U+30A4_U+30E4_U+30FC 1
 62
   179
420
  2234388
370
     9
100
AcDbVertex
100
AcDb2dVertex
 10
97.47828306867737
 20
-115.422574137811
 30
0.0
  0
VERTEX
  5
92
330
90
100
AcDbEntity
  8
_U+30EC_U+30A4_U+30E4_U+30FC 1
 62
   179
420
  2234388
370
     9
100
AcDbVertex
100
AcDb2dVertex
 10
97.47828306867737
 20
-112.9626194162037
 30
0.0
  0
SEQEND
  5
93
330
90
100
AcDbEntity
  8
_U+30EC_U+30A4_U+30E4_U+30FC 1
 62
   179
420
  2234388
370
     9
  0
INSERT
  5
95
330
1F
100
AcDbEntity
  8
_U+30EC_U+30A4_U+30E4_U+30FC 1
100
AcDbBlockReference
  2
block 3
 10
0.0
 20
0.0
 30
0.0
  0
INSERT
  5
9D
330
1F
100
AcDbEntity
  8
_U+30EC_U+30A4_U+30E4_U+30FC 1
100
AcDbBlockReference
  2
block 4
 10
0.0
 20
0.0
 30
0.0
  0
SPLINE
  5
A2
330
1F
100
AcDbEntity
  8
_U+30EC_U+30A4_U+30E4_U+30FC 1
 62
   179
420
  2234388
370
     9
100
AcDbSpline
210
0.0
220
0.0
230
1.0
 70
    11
 71
     3
 72
    17
 73
    13
 74
     0
 42
0.0000000001
 43
0.0000000001
 12
1.0
 22
0.0
 32
0.0
 13
1.0
 23
0.0
 33
0.0
 40
0.0
 40
0.0
 40
0.0
 40
0.0
 40
1.0
 40
1.0
 40
1.0
 40
2.0
 40
2.0
 40
2.0
 40
3.0
 40
3.0
 40
3.0
 40
4.0
 40
4.0
 40
4.0
 40
4.0
 10
103.9974398468043
 20
-140.9250913536577
 30
0.0
 10
103.9974398468043
 20
-140.8699521870046
 30
0.0
 10
103.9526370701695
 20
-140.8251846870161
 30
0.0
 10
103.8975331826864
 20
-140.8251846870161
 30
0.0
 10
103.8420765174346
 20
-140.8251846870161
 30
0.0
 10
103.7976265185686
 20
-140.8699521870046
 30
0.0
 10
103.7976265185686
 20
-140.9250913536577
 30
0.0
 10
103.7976265185686
 20
-140.9801952425326
 30
0.0
 10
103.8420765174346
 20
-141.0249980202994
 30
0.0
 10
103.8975331826864
 20
-141.0249980202994
 30
0.0
 10
103.9526370701695
 20
-141.0249980202994
 30
0.0
 10
103.9974398468043
 20
-140.9801952425326
 30
0.0
 10
103.9974398468043
 20
-140.9250913536577
 30
0.0
  0
SPLINE
  5
A3
330
1F
100
AcDbEntity
  8
_U+30EC_U+30A4_U+30E4_U+30FC 1
 62
   179
420
  2234388
370
     9
100
AcDbSpline
210
0.0
220
0.0
230
1.0
 70
    11
 71
     3
 72
    17
 73
    13
 74
     0
 42
0.0000000001
 43
0.0000000001
 12
1.0
 22
0.0
 32
0.0
 13
1.0
 23
0.0
 33
0.0
 40
0.0
 40
0.0
 40
0.0
 40
0.0
 40
1.0
 40
1.0
 40
1.0
 40
2.0
 40
2.0
 40
2.0
 40
3.0
 40
3.0
 40
3.0
 40
4.0
 40
4.0
 40
4.0
 40
4.0
 10
101.5817235195454
 20
-140.9250913536577
 30
0.0
 10
101.5817235195454
 20
-140.8699521870046
 30
0.0
 10
101.5369560206876
 20
-140.8251846870161
 30
0.0
 10
101.4818194190743
 20
-140.8251846870161
 30
0.0
 10
101.4263601901758
 20
-140.8251846870161
 30
0.0
 10
101.3819101913098
 20
-140.8699521870046
 30
0.0
 10
101.3819101913098
 20
-140.9250913536577
 30
0.0
 10
101.3819101913098
 20
-140.9801952425326
 30
0.0
 10
101.4263601901758
 20
-141.0249980202994
 30
0.0
 10
101.4818194190743
 20
-141.0249980202994
 30
0.0
 10
101.5369560206876
 20
-141.0249980202994
 30
0.0
 10
101.5817235195454
 20
-140.9801952425326
 30
0.0
 10
101.5817235195454
 20
-140.9250913536577
 30
0.0
  0
SPLINE
  5
A4
330
1F
100
AcDbEntity
  8
_U+30EC_U+30A4_U+30E4_U+30FC 1
 62
   179
420
  2234388
370
     9
100
AcDbSpline
210
0.0
220
0.0
230
1.0
 70
    11
 71
     3
 72
    17
 73
    13
 74
     0
 42
0.0000000001
 43
0.0000000001
 12
1.0
 22
0.0
 32
0.0
 13
1.0
 23
0.0
 33
0.0
 40
0.0
 40
0.0
 40
0.0
 40
0.0
 40
1.0
 40
1.0
 40
1.0
 40
2.0
 40
2.0
 40
2.0
 40
3.0
 40
3.0
 40
3.0
 40
4.0
 40
4.0
 40
4.0
 40
4.0
 10
103.9970870690355
 20
-142.9549394087057
 30
0.0
 10
103.9970870690355
 20
-142.8998002420526
 30
0.0
 10
103.952322196234
 20
-142.8550327420641
 30
0.0
 10
103.8971804049177
 20
-142.8550327420641
 30
0.0
 10
103.8417237396658
 20
-142.8550327420641
 30
0.0
 10
103.7972737407998
 20
-142.8998002420526
 30
0.0
 10
103.7972737407998
 20
-142.9549394087057
 30
0.0
 10
103.7972737407998
 20
-143.0100432975806
 30
0.0
 10
103.8417237396658
 20
-143.0548460753473
 30
0.0
 10
103.8971804049177
 20
-143.0548460753473
 30
0.0
 10
103.952322196234
 20
-143.0548460753473
 30
0.0
 10
103.9970870690355
 20
-143.0100432975806
 30
0.0
 10
103.9970870690355
 20
-142.9549394087057
 30
0.0
  0
POLYLINE
  5
A5
330
1F
100
AcDbEntity
  8
_U+30EC_U+30A4_U+30E4_U+30FC 1
 62
   179
420
  2234388
370
     9
100
AcDb2dPolyline
 66
     1
 10
0.0
 20
0.0
 30
0.0
  0
VERTEX
  5
A6
330
A5
100
AcDbEntity
  8
_U+30EC_U+30A4_U+30E4_U+30FC 1
 62
   179
420
  2234388
370
     9
100
AcDbVertex
100
AcDb2dVertex
 10
103.8975331826864
 20
-143.8706446862545
 30
0.0
  0
VERTEX
  5
A7
330
A5
100
AcDbEntity
  8
_U+30EC_U+30A4_U+30E4_U+30FC 1
 62
   179
420
  2234388
370
     9
100
AcDbVertex
100
AcDb2dVertex
 10
103.8975331826864
 20
-139.3444705207197
 30
0.0
  0
SEQEND
  5
A8
330
A5
100
AcDbEntity
  8
_U+30EC_U+30A4_U+30E4_U+30FC 1
 62
   179
420
  2234388
370
     9
  0
POLYLINE
  5
A9
330
1F
100
AcDbEntity
  8
_U+30EC_U+30A4_U+30E4_U+30FC 1
 62
   179
420
  2234388
370
     9
100
AcDb2dPolyline
 66
     1
 10
0.0
 20
0.0
 30
0.0
  0
VERTEX
  5
AA
330
A9
100
AcDbEntity
  8
_U+30EC_U+30A4_U+30E4_U+30FC 1
 62
   179
420
  2234388
370
     9
100
AcDbVertex
100
AcDb2dVertex
 10
98.23414719766396
 20
-140.9326407981002
 30
0.0
  0
VERTEX
  5
AB
330
A9
100
AcDbEntity
  8
_U+30EC_U+30A4_U+30E4_U+30FC 1
 62
   179
420
  2234388
370
     9
100
AcDbVertex
100
AcDb2dVertex
 10
105.2965792581049
 20
-140.9326407981002
 30
0.0
  0
SEQEND
  5
AC
330
A9
100
AcDbEntity
  8
_U+30EC_U+30A4_U+30E4_U+30FC 1
 62
   179
420
  2234388
370
     9
  0
ENDSEC
  0
SECTION
  2
OBJECTS
  0
DICTIONARY
  5
C
330
0
100
AcDbDictionary
281
     1
  3
ACAD_GROUP
350
D
  3
ACAD_LAYOUT
350
1A
  3
ACAD_MATERIAL
350
3B
  3
ACAD_MLEADERSTYLE
350
AE
  3
ACAD_MLINESTYLE
350
17
  3
ACAD_PLOTSETTINGS
350
19
  3
ACAD_PLOTSTYLENAME
350
E
  3
ACAD_TABLESTYLE
350
AD
  3
ACAD_VISUALSTYLE
350
2A
  0
SUN
  5
3F
330
29
100
AcDbSun
 90
        1
290
     0
 63
     7
421
 16777215
 40
1.0
291
     1
 91
  2455826
 92
 54000000
292
     0
 70
     2
 71
   256
280
     1
  0
DICTIONARY
  5
D
102
{ACAD_REACTORS
330
C
102
}
330
C
100
AcDbDictionary
281
     1
  0
DICTIONARY
  5
1A
102
{ACAD_REACTORS
330
C
102
}
330
C
100
AcDbDictionary
281
     1
  3
Layout1
350
1E
  3
Layout2
350
26
  3
Model
350
22
  0
DICTIONARY
  5
3B
102
{ACAD_REACTORS
330
C
102
}
330
C
100
AcDbDictionary
281
     1
  3
ByBlock
350
3D
  3
ByLayer
350
3C
  3
Global
350
3E
  0
DICTIONARY
  5
AE
102
{ACAD_REACTORS
330
C
102
}
330
C
100
AcDbDictionary
281
     1
  0
DICTIONARY
  5
17
102
{ACAD_REACTORS
330
C
102
}
330
C
100
AcDbDictionary
281
     1
  3
Standard
350
18
  0
DICTIONARY
  5
19
102
{ACAD_REACTORS
330
C
102
}
330
C
100
AcDbDictionary
281
     1
  0
ACDBDICTIONARYWDFLT
  5
E
102
{ACAD_REACTORS
330
C
102
}
330
C
100
AcDbDictionary
281
     1
  3
Normal
350
F
100
AcDbDictionaryWithDefault
340
F
  0
DICTIONARY
  5
AD
102
{ACAD_REACTORS
330
C
102
}
330
C
100
AcDbDictionary
281
     1
  0
DICTIONARY
  5
2A
102
{ACAD_REACTORS
330
C
102
}
330
C
100
AcDbDictionary
281
     1
  3
2dWireframe
350
2F
  3
3D Hidden
350
31
  3
3dWireframe
350
30
  3
Basic
350
32
  3
Brighten
350
36
  3
ColorChange
350
3A
  3
Conceptual
350
34
  3
Dim
350
35
  3
Facepattern
350
39
  3
Flat
350
2B
  3
FlatWithEdges
350
2C
  3
Gouraud
350
2D
  3
GouraudWithEdges
350
2E
  3
Linepattern
350
38
  3
Realistic
350
33
  3
Thicken
350
37
  0
LAYOUT
  5
1E
102
{ACAD_REACTORS
330
1A
102
}
330
1A
100
AcDbPlotSettings
  1

  2
none_device
  4

  6

 40
0.0
 41
0.0
 42
0.0
 43
0.0
 44
0.0
 45
0.0
 46
0.0
 47
0.0
 48
0.0
 49
0.0
140
0.0
141
0.0
142
1.0
143
1.0
 70
   688
 72
     0
 73
     0
 74
     5
  7

 75
    16
 76
     0
 77
     2
 78
   300
147
1.0
148
0.0
149
0.0
100
AcDbLayout
  1
Layout1
 70
     1
 71
     1
 10
0.0
 20
0.0
 11
12.0
 21
9.0
 12
0.0
 22
0.0
 32
0.0
 14
1.000000000000000E+20
 24
1.000000000000000E+20
 34
1.000000000000000E+20
 15
-1.000000000000000E+20
 25
-1.000000000000000E+20
 35
-1.000000000000000E+20
146
0.0
 13
0.0
 23
0.0
 33
0.0
 16
1.0
 26
0.0
 36
0.0
 17
0.0
 27
1.0
 37
0.0
 76
     0
330
1B
  0
LAYOUT
  5
26
102
{ACAD_REACTORS
330
1A
102
}
330
1A
100
AcDbPlotSettings
  1

  2
none_device
  4

  6

 40
0.0
 41
0.0
 42
0.0
 43
0.0
 44
0.0
 45
0.0
 46
0.0
 47
0.0
 48
0.0
 49
0.0
140
0.0
141
0.0
142
1.0
143
1.0
 70
   688
 72
     0
 73
     0
 74
     5
  7

 75
    16
 76
     0
 77
     2
 78
   300
147
1.0
148
0.0
149
0.0
100
AcDbLayout
  1
Layout2
 70
     1
 71
     2
 10
0.0
 20
0.0
 11
0.0
 21
0.0
 12
0.0
 22
0.0
 32
0.0
 14
0.0
 24
0.0
 34
0.0
 15
0.0
 25
0.0
 35
0.0
146
0.0
 13
0.0
 23
0.0
 33
0.0
 16
1.0
 26
0.0
 36
0.0
 17
0.0
 27
1.0
 37
0.0
 76
     0
330
23
  0
LAYOUT
  5
22
102
{ACAD_REACTORS
330
1A
102
}
330
1A
100
AcDbPlotSettings
  1

  2
none_device
  4

  6

 40
0.0
 41
0.0
 42
0.0
 43
0.0
 44
0.0
 45
0.0
 46
0.0
 47
0.0
 48
0.0
 49
0.0
140
0.0
141
0.0
142
1.0
143
1.0
 70
  1712
 72
     0
 73
     0
 74
     0
  7

 75
     0
 76
     0
 77
     2
 78
   300
147
1.0
148
0.0
149
0.0
100
AcDbLayout
  1
Model
 70
     1
 71
     0
 10
0.0
 20
0.0
 11
12.0
 21
9.0
 12
0.0
 22
0.0
 32
0.0
 14
1.000000000000000E+20
 24
1.000000000000000E+20
 34
1.000000000000000E+20
 15
-1.000000000000000E+20
 25
-1.000000000000000E+20
 35
-1.000000000000000E+20
146
0.0
 13
0.0
 23
0.0
 33
0.0
 16
1.0
 26
0.0
 36
0.0
 17
0.0
 27
1.0
 37
0.0
 76
     0
330
1F
331
29
  0
MATERIAL
  5
3D
102
{ACAD_REACTORS
330
3B
102
}
330
3B
100
AcDbMaterial
  1
ByBlock
 72
     1
 94
      127
  0
MATERIAL
  5
3C
102
{ACAD_REACTORS
330
3B
102
}
330
3B
100
AcDbMaterial
  1
ByLayer
 72
     1
 94
      127
  0
MATERIAL
  5
3E
102
{ACAD_REACTORS
330
3B
102
}
330
3B
100
AcDbMaterial
  1
Global
 72
     1
 94
      127
  0
MLINESTYLE
  5
18
102
{ACAD_REACTORS
330
17
102
}
330
17
100
AcDbMlineStyle
  2
Standard
 70
     0
  3

 62
   256
 51
90.0
 52
90.0
 71
     2
 49
0.5
 62
   256
  6
BYLAYER
 49
-0.5
 62
   256
  6
BYLAYER
  0
ACDBPLACEHOLDER
  5
F
102
{ACAD_REACTORS
330
E
102
}
330
E
  0
VISUALSTYLE
  5
2F
102
{ACAD_REACTORS
330
2A
102
}
330
2A
100
AcDbVisualStyle
  2
2dWireframe
 70
     4
177
     2
291
     0
 71
     0
176
     1
 72
     2
176
     1
 73
     0
176
     1
 90
        0
176
     1
 40
-0.6
176
     1
 41
-30.0
176
     1
 62
     5
 63
     7
421
 16777215
176
     1
 74
     1
176
     1
 91
        4
176
     1
 64
     7
176
     1
 65
   257
176
     1
 75
     1
176
     1
175
     1
176
     1
 42
1.0
176
     1
 92
        0
176
     1
 66
   257
176
     1
 43
1.0
176
     1
 76
     1
176
     1
 77
     6
176
     1
 78
     2
176
     1
 67
     7
176
     1
 79
     5
176
     1
170
     0
176
     1
171
     0
176
     1
290
     0
176
     1
 93
        1
176
     1
 44
0.0
176
     1
173
     0
176
     1
  0
VISUALSTYLE
  5
31
102
{ACAD_REACTORS
330
2A
102
}
330
2A
100
AcDbVisualStyle
  2
3D Hidden
 70
     6
177
     2
291
     0
 71
     1
176
     1
 72
     2
176
     1
 73
     2
176
     1
 90
        0
176
     1
 40
-0.6
176
     1
 41
-30.0
176
     1
 62
     5
 63
     7
421
 16777215
176
     1
 74
     2
176
     1
 91
        2
176
     1
 64
     7
176
     1
 65
   257
176
     1
 75
     2
176
     1
175
     1
176
     1
 42
40.0
176
     1
 92
        0
176
     1
 66
   257
176
     1
 43
1.0
176
     1
 76
     1
176
     1
 77
     6
176
     1
 78
     2
176
     1
 67
     7
176
     1
 79
     3
176
     1
170
     0
176
     1
171
     0
176
     1
290
     0
176
     1
 93
        1
176
     1
 44
0.0
176
     1
173
     0
176
     1
  0
VISUALSTYLE
  5
30
102
{ACAD_REACTORS
330
2A
102
}
330
2A
100
AcDbVisualStyle
  2
3dWireframe
 70
     5
177
     2
291
     0
 71
     0
176
     1
 72
     2
176
     1
 73
     0
176
     1
 90
        0
176
     1
 40
-0.6
176
     1
 41
-30.0
176
     1
 62
     5
 63
     7
421
 16777215
176
     1
 74
     1
176
     1
 91
        4
176
     1
 64
     7
176
     1
 65
   257
176
     1
 75
     1
176
     1
175
     1
176
     1
 42
1.0
176
     1
 92
        0
176
     1
 66
   257
176
     1
 43
1.0
176
     1
 76
     1
176
     1
 77
     6
176
     1
 78
     2
176
     1
 67
     7
176
     1
 79
     5
176
     1
170
     0
176
     1
171
     0
176
     1
290
     0
176
     1
 93
        1
176
     1
 44
0.0
176
     1
173
     0
176
     1
  0
VISUALSTYLE
  5
32
102
{ACAD_REACTORS
330
2A
102
}
330
2A
100
AcDbVisualStyle
  2
Basic
 70
     7
177
     2
291
     1
 71
     1
176
     1
 72
     0
176
     1
 73
     1
176
     1
 90
        0
176
     1
 40
-0.6
176
     1
 41
-30.0
176
     1
 62
     5
 63
     7
421
 16777215
176
     1
 74
     0
176
     1
 91
        4
176
     1
 64
     7
176
     1
 65
   257
176
     1
 75
     1
176
     1
175
     1
176
     1
 42
1.0
176
     1
 92
        8
176
     1
 66
     7
176
     1
 43
1.0
176
     1
 76
     1
176
     1
 77
     6
176
     1
 78
     2
176
     1
 67
     7
176
     1
 79
     5
176
     1
170
     0
176
     1
171
     0
176
     1
290
     0
176
     1
 93
        1
176
     1
 44
0.0
176
     1
173
     0
176
     1
  0
VISUALSTYLE
  5
36
102
{ACAD_REACTORS
330
2A
102
}
330
2A
100
AcDbVisualStyle
  2
Brighten
 70
    12
177
     2
291
     1
 71
     2
176
     1
 72
     2
176
     1
 73
     0
176
     1
 90
        0
176
     1
 40
-0.6
176
     1
 41
-30.0
176
     1
 62
     5
 63
     7
421
 16777215
176
     1
 74
     1
176
     1
 91
        4
176
     1
 64
     7
176
     1
 65
   257
176
     1
 75
     1
176
     1
175
     1
176
     1
 42
1.0
176
     1
 92
        8
176
     1
 66
     7
176
     1
 43
1.0
176
     1
 76
     1
176
     1
 77
     6
176
     1
 78
     2
176
     1
 67
     7
176
     1
 79
     5
176
     1
170
     0
176
     1
171
     0
176
     1
290
     0
176
     1
 93
        1
176
     1
 44
50.0
176
     1
173
     0
176
     1
  0
VISUALSTYLE
  5
3A
102
{ACAD_REACTORS
330
2A
102
}
330
2A
100
AcDbVisualStyle
  2
ColorChange
 70
    16
177
     2
291
     1
 71
     2
176
     1
 72
     2
176
     1
 73
     3
176
     1
 90
        0
176
     1
 40
-0.6
176
     1
 41
-30.0
176
     1
 62
     5
 63
     8
421
  8421504
176
     1
 74
     1
176
     1
 91
        4
176
     1
 64
     7
176
     1
 65
   257
176
     1
 75
     1
176
     1
175
     1
176
     1
 42
1.0
176
     1
 92
        8
176
     1
 66
     8
424
  8421504
176
     1
 43
1.0
176
     1
 76
     1
176
     1
 77
     6
176
     1
 78
     2
176
     1
 67
     7
176
     1
 79
     5
176
     1
170
     0
176
     1
171
     0
176
     1
290
     0
176
     1
 93
        1
176
     1
 44
0.0
176
     1
173
     0
176
     1
  0
VISUALSTYLE
  5
34
102
{ACAD_REACTORS
330
2A
102
}
330
2A
100
AcDbVisualStyle
  2
Conceptual
 70
     9
177
     2
291
     0
 71
     3
176
     1
 72
     2
176
     1
 73
     0
176
     1
 90
        0
176
     1
 40
-0.6
176
     1
 41
-30.0
176
     1
 62
     5
 63
     7
421
 16777215
176
     1
 74
     2
176
     1
 91
        2
176
     1
 64
     7
176
     1
 65
   257
176
     1
 75
     1
176
     1
175
     1
176
     1
 42
40.0
176
     1
 92
        8
176
     1
 66
     7
176
     1
 43
1.0
176
     1
 76
     1
176
     1
 77
     6
176
     1
 78
     2
176
     1
 67
     7
176
     1
 79
     3
176
     1
170
     0
176
     1
171
     0
176
     1
290
     0
176
     1
 93
        1
176
     1
 44
0.0
176
     1
173
     0
176
     1
  0
VISUALSTYLE
  5
35
102
{ACAD_REACTORS
330
2A
102
}
330
2A
100
AcDbVisualStyle
  2
Dim
 70
    11
177
     2
291
     1
 71
     2
176
     1
 72
     2
176
     1
 73
     0
176
     1
 90
        0
176
     1
 40
-0.6
176
     1
 41
-30.0
176
     1
 62
     5
 63
     7
421
 16777215
176
     1
 74
     1
176
     1
 91
        4
176
     1
 64
     7
176
     1
 65
   257
176
     1
 75
     1
176
     1
175
     1
176
     1
 42
1.0
176
     1
 92
        8
176
     1
 66
     7
176
     1
 43
1.0
176
     1
 76
     1
176
     1
 77
     6
176
     1
 78
     2
176
     1
 67
     7
176
     1
 79
     5
176
     1
170
     0
176
     1
171
     0
176
     1
290
     0
176
     1
 93
        1
176
     1
 44
-50.0
176
     1
173
     0
176
     1
  0
VISUALSTYLE
  5
39
102
{ACAD_REACTORS
330
2A
102
}
330
2A
100
AcDbVisualStyle
  2
Facepattern
 70
    15
177
     2
291
     1
 71
     2
176
     1
 72
     2
176
     1
 73
     0
176
     1
 90
        0
176
     1
 40
-0.6
176
     1
 41
-30.0
176
     1
 62
     5
 63
     7
421
 16777215
176
     1
 74
     1
176
     1
 91
        4
176
     1
 64
     7
176
     1
 65
   257
176
     1
 75
     1
176
     1
175
     1
176
     1
 42
1.0
176
     1
 92
        8
176
     1
 66
     7
176
     1
 43
1.0
176
     1
 76
     1
176
     1
 77
     6
176
     1
 78
     2
176
     1
 67
     7
176
     1
 79
     5
176
     1
170
     0
176
     1
171
     0
176
     1
290
     0
176
     1
 93
        1
176
     1
 44
0.0
176
     1
173
     0
176
     1
  0
VISUALSTYLE
  5
2B
102
{ACAD_REACTORS
330
2A
102
}
330
2A
100
AcDbVisualStyle
  2
Flat
 70
     0
177
     2
291
     1
 71
     2
176
     1
 72
     1
176
     1
 73
     1
176
     1
 90
        2
176
     1
 40
-0.6
176
     1
 41
30.0
176
     1
 62
     5
 63
     7
421
 16777215
176
     1
 74
     0
176
     1
 91
        4
176
     1
 64
     7
176
     1
 65
   257
176
     1
 75
     1
176
     1
175
     1
176
     1
 42
1.0
176
     1
 92
        8
176
     1
 66
     7
176
     1
 43
1.0
176
     1
 76
     1
176
     1
 77
     6
176
     1
 78
     2
176
     1
 67
     7
176
     1
 79
     5
176
     1
170
     0
176
     1
171
     0
176
     1
290
     0
176
     1
 93
       13
176
     1
 44
0.0
176
     1
173
     0
176
     1
  0
VISUALSTYLE
  5
2C
102
{ACAD_REACTORS
330
2A
102
}
330
2A
100
AcDbVisualStyle
  2
FlatWithEdges
 70
     1
177
     2
291
     1
 71
     2
176
     1
 72
     1
176
     1
 73
     1
176
     1
 90
        2
176
     1
 40
-0.6
176
     1
 41
30.0
176
     1
 62
     5
 63
     7
421
 16777215
176
     1
 74
     1
176
     1
 91
        4
176
     1
 64
     7
176
     1
 65
   257
176
     1
 75
     1
176
     1
175
     1
176
     1
 42
1.0
176
     1
 92
        0
176
     1
 66
   257
176
     1
 43
1.0
176
     1
 76
     1
176
     1
 77
     6
176
     1
 78
     2
176
     1
 67
     7
176
     1
 79
     5
176
     1
170
     0
176
     1
171
     0
176
     1
290
     0
176
     1
 93
       13
176
     1
 44
0.0
176
     1
173
     0
176
     1
  0
VISUALSTYLE
  5
2D
102
{ACAD_REACTORS
330
2A
102
}
330
2A
100
AcDbVisualStyle
  2
Gouraud
 70
     2
177
     2
291
     1
 71
     2
176
     1
 72
     2
176
     1
 73
     1
176
     1
 90
        2
176
     1
 40
-0.6
176
     1
 41
30.0
176
     1
 62
     5
 63
     7
421
 16777215
176
     1
 74
     0
176
     1
 91
        4
176
     1
 64
     7
176
     1
 65
   257
176
     1
 75
     1
176
     1
175
     1
176
     1
 42
1.0
176
     1
 92
        0
176
     1
 66
     7
176
     1
 43
1.0
176
     1
 76
     1
176
     1
 77
     6
176
     1
 78
     2
176
     1
 67
     7
176
     1
 79
     5
176
     1
170
     0
176
     1
171
     0
176
     1
290
     0
176
     1
 93
       13
176
     1
 44
0.0
176
     1
173
     0
176
     1
  0
VISUALSTYLE
  5
2E
102
{ACAD_REACTORS
330
2A
102
}
330
2A
100
AcDbVisualStyle
  2
GouraudWithEdges
 70
     3
177
     2
291
     1
 71
     2
176
     1
 72
     2
176
     1
 73
     1
176
     1
 90
        2
176
     1
 40
-0.6
176
     1
 41
30.0
176
     1
 62
     5
 63
     7
421
 16777215
176
     1
 74
     1
176
     1
 91
        4
176
     1
 64
     7
176
     1
 65
   257
176
     1
 75
     1
176
     1
175
     1
176
     1
 42
1.0
176
     1
 92
        0
176
     1
 66
   257
176
     1
 43
1.0
176
     1
 76
     1
176
     1
 77
     6
176
     1
 78
     2
176
     1
 67
     7
176
     1
 79
     5
176
     1
170
     0
176
     1
171
     0
176
     1
290
     0
176
     1
 93
       13
176
     1
 44
0.0
176
     1
173
     0
176
     1
  0
VISUALSTYLE
  5
38
102
{ACAD_REACTORS
330
2A
102
}
330
2A
100
AcDbVisualStyle
  2
Linepattern
 70
    14
177
     2
291
     1
 71
     2
176
     1
 72
     2
176
     1
 73
     0
176
     1
 90
        0
176
     1
 40
-0.6
176
     1
 41
-30.0
176
     1
 62
     5
 63
     7
421
 16777215
176
     1
 74
     1
176
     1
 91
        4
176
     1
 64
     7
176
     1
 65
   257
176
     1
 75
     7
176
     1
175
     7
176
     1
 42
1.0
176
     1
 92
        8
176
     1
 66
     7
176
     1
 43
1.0
176
     1
 76
     1
176
     1
 77
     6
176
     1
 78
     2
176
     1
 67
     7
176
     1
 79
     5
176
     1
170
     0
176
     1
171
     0
176
     1
290
     0
176
     1
 93
        1
176
     1
 44
0.0
176
     1
173
     0
176
     1
  0
VISUALSTYLE
  5
33
102
{ACAD_REACTORS
330
2A
102
}
330
2A
100
AcDbVisualStyle
  2
Realistic
 70
     8
177
     2
291
     0
 71
     2
176
     1
 72
     2
176
     1
 73
     0
176
     1
 90
        0
176
     1
 40
-0.6
176
     1
 41
-30.0
176
     1
 62
     5
 63
     7
421
 16777215
176
     1
 74
     1
176
     1
 91
        0
176
     1
 64
     7
176
     1
 65
   257
176
     1
 75
     1
176
     1
175
     1
176
     1
 42
1.0
176
     1
 92
        8
176
     1
 66
     8
424
  7895160
176
     1
 43
1.0
176
     1
 76
     1
176
     1
 77
     6
176
     1
 78
     2
176
     1
 67
     7
176
     1
 79
     5
176
     1
170
     0
176
     1
171
     0
176
     1
290
     0
176
     1
 93
       13
176
     1
 44
0.0
176
     1
173
     0
176
     1
  0
VISUALSTYLE
  5
37
102
{ACAD_REACTORS
330
2A
102
}
330
2A
100
AcDbVisualStyle
  2
Thicken
 70
    13
177
     2
291
     1
 71
     2
176
     1
 72
     2
176
     1
 73
     0
176
     1
 90
        0
176
     1
 40
-0.6
176
     1
 41
-30.0
176
     1
 62
     5
 63
     7
421
 16777215
176
     1
 74
     1
176
     1
 91
        4
176
     1
 64
     7
176
     1
 65
   257
176
     1
 75
     1
176
     1
175
     1
176
     1
 42
1.0
176
     1
 92
       12
176
     1
 66
     7
176
     1
 43
1.0
176
     1
 76
     1
176
     1
 77
     6
176
     1
 78
     2
176
     1
 67
     7
176
     1
 79
     5
176
     1
170
     0
176
     1
171
     0
176
     1
290
     0
176
     1
 93
        1
176
     1
 44
0.0
176
     1
173
     0
176
     1
  0
ENDSEC
  0
EOF
