  0
SECTION
  2
HEADER
  9
$ACADVER
  1
AC1024
  9
$ACADMAINTVER
 70
     6
  9
$DWGCODEPAGE
  3
UNDEFINED
  9
$INSBASE
 10
0.0
 20
0.0
 30
0.0
  9
$EXTMIN
 10
1.000000000000000E+20
 20
1.000000000000000E+20
 30
1.000000000000000E+20
  9
$EXTMAX
 10
-1.000000000000000E+20
 20
-1.000000000000000E+20
 30
-1.000000000000000E+20
  9
$LIMMIN
 10
0.0
 20
0.0
  9
$LIMMAX
 10
12.0
 20
9.0
  9
$ORTHOMODE
 70
     0
  9
$REGENMODE
 70
     1
  9
$FILLMODE
 70
     1
  9
$QTEXTMODE
 70
     0
  9
$MIRRTEXT
 70
     1
  9
$LTSCALE
 40
1.0
  9
$ATTMODE
 70
     1
  9
$TEXTSIZE
 40
0.2
  9
$TRACEWID
 40
0.05
  9
$TEXTSTYLE
  7
Standard
  9
$CLAYER
  8
0
  9
$CELTYPE
  6
ByLayer
  9
$CECOLOR
 62
   256
  9
$CELTSCALE
 40
1.0
  9
$DISPSILH
 70
     0
  9
$DIMSCALE
 40
1.0
  9
$DIMASZ
 40
0.18
  9
$DIMEXO
 40
0.0625
  9
$DIMDLI
 40
0.38
  9
$DIMRND
 40
0.0
  9
$DIMDLE
 40
0.0
  9
$DIMEXE
 40
0.18
  9
$DIMTP
 40
0.0
  9
$DIMTM
 40
0.0
  9
$DIMTXT
 40
0.18
  9
$DIMCEN
 40
0.09
  9
$DIMTSZ
 40
0.0
  9
$DIMTOL
 70
     0
  9
$DIMLIM
 70
     0
  9
$DIMTIH
 70
     1
  9
$DIMTOH
 70
     1
  9
$DIMSE1
 70
     0
  9
$DIMSE2
 70
     0
  9
$DIMTAD
 70
     0
  9
$DIMZIN
 70
     0
  9
$DIMBLK
  1

  9
$DIMASO
 70
     1
  9
$DIMSHO
 70
     1
  9
$DIMPOST
  1

  9
$DIMAPOST
  1

  9
$DIMALT
 70
     0
  9
$DIMALTD
 70
     2
  9
$DIMALTF
 40
25.4
  9
$DIMLFAC
 40
1.0
  9
$DIMTOFL
 70
     0
  9
$DIMTVP
 40
0.0
  9
$DIMTIX
 70
     0
  9
$DIMSOXD
 70
     0
  9
$DIMSAH
 70
     0
  9
$DIMBLK1
  1

  9
$DIMBLK2
  1

  9
$DIMSTYLE
  2
Standard
  9
$DIMCLRD
 70
     0
  9
$DIMCLRE
 70
     0
  9
$DIMCLRT
 70
     0
  9
$DIMTFAC
 40
1.0
  9
$DIMGAP
 40
0.09
  9
$DIMJUST
 70
     0
  9
$DIMSD1
 70
     0
  9
$DIMSD2
 70
     0
  9
$DIMTOLJ
 70
     1
  9
$DIMTZIN
 70
     0
  9
$DIMALTZ
 70
     0
  9
$DIMALTTZ
 70
     0
  9
$DIMUPT
 70
     0
  9
$DIMDEC
 70
     4
  9
$DIMTDEC
 70
     4
  9
$DIMALTU
 70
     2
  9
$DIMALTTD
 70
     2
  9
$DIMTXSTY
  7
Standard
  9
$DIMAUNIT
 70
     0
  9
$DIMADEC
 70
     0
  9
$DIMALTRND
 40
0.0
  9
$DIMAZIN
 70
     0
  9
$DIMDSEP
 70
    46
  9
$DIMATFIT
 70
     3
  9
$DIMFRAC
 70
     0
  9
$DIMLDRBLK
  1

  9
$DIMLUNIT
 70
     2
  9
$DIMLWD
 70
    -2
  9
$DIMLWE
 70
    -2
  9
$DIMTMOVE
 70
     0
  9
$DIMFXL
 40
1.0
  9
$DIMFXLON
 70
     0
  9
$DIMJOGANG
 40
0.7853981633974483
  9
$DIMTFILL
 70
     0
  9
$DIMTFILLCLR
 70
     0
  9
$DIMARCSYM
 70
     0
  9
$DIMLTYPE
  6

  9
$DIMLTEX1
  6

  9
$DIMLTEX2
  6

  9
$DIMTXTDIRECTION
 70
     0
  9
$LUNITS
 70
     2
  9
$LUPREC
 70
     4
  9
$SKETCHINC
 40
0.1
  9
$FILLETRAD
 40
0.5
  9
$AUNITS
 70
     0
  9
$AUPREC
 70
     0
  9
$MENU
  1
.
  9
$ELEVATION
 40
0.0
  9
$PELEVATION
 40
0.0
  9
$THICKNESS
 40
0.0
  9
$LIMCHECK
 70
     0
  9
$CHAMFERA
 40
0.5
  9
$CHAMFERB
 40
0.5
  9
$CHAMFERC
 40
1.0
  9
$CHAMFERD
 40
0.0
  9
$SKPOLY
 70
     0
  9
$TDCREATE
 40
2457917.624456019
  9
$TDUCREATE
 40
2457917.249456019
  9
$TDUPDATE
 40
2457917.624456019
  9
$TDUUPDATE
 40
2457917.249456019
  9
$TDINDWG
 40
0.0000000116
  9
$TDUSRTIMER
 40
0.0000000116
  9
$USRTIMER
 70
     1
  9
$ANGBASE
 50
0.0
  9
$ANGDIR
 70
     0
  9
$PDMODE
 70
     0
  9
$PDSIZE
 40
0.0
  9
$PLINEWID
 40
0.0
  9
$SPLFRAME
 70
     0
  9
$SPLINETYPE
 70
     6
  9
$SPLINESEGS
 70
     8
  9
$HANDSEED
  5
B9
  9
$SURFTAB1
 70
     6
  9
$SURFTAB2
 70
     6
  9
$SURFTYPE
 70
     6
  9
$SURFU
 70
     6
  9
$SURFV
 70
     6
  9
$UCSBASE
  2

  9
$UCSNAME
  2

  9
$UCSORG
 10
0.0
 20
0.0
 30
0.0
  9
$UCSXDIR
 10
1.0
 20
0.0
 30
0.0
  9
$UCSYDIR
 10
0.0
 20
1.0
 30
0.0
  9
$UCSORTHOREF
  2

  9
$UCSORTHOVIEW
 70
     0
  9
$UCSORGTOP
 10
0.0
 20
0.0
 30
0.0
  9
$UCSORGBOTTOM
 10
0.0
 20
0.0
 30
0.0
  9
$UCSORGLEFT
 10
0.0
 20
0.0
 30
0.0
  9
$UCSORGRIGHT
 10
0.0
 20
0.0
 30
0.0
  9
$UCSORGFRONT
 10
0.0
 20
0.0
 30
0.0
  9
$UCSORGBACK
 10
0.0
 20
0.0
 30
0.0
  9
$PUCSBASE
  2

  9
$PUCSNAME
  2

  9
$PUCSORG
 10
0.0
 20
0.0
 30
0.0
  9
$PUCSXDIR
 10
1.0
 20
0.0
 30
0.0
  9
$PUCSYDIR
 10
0.0
 20
1.0
 30
0.0
  9
$PUCSORTHOREF
  2

  9
$PUCSORTHOVIEW
 70
     0
  9
$PUCSORGTOP
 10
0.0
 20
0.0
 30
0.0
  9
$PUCSORGBOTTOM
 10
0.0
 20
0.0
 30
0.0
  9
$PUCSORGLEFT
 10
0.0
 20
0.0
 30
0.0
  9
$PUCSORGRIGHT
 10
0.0
 20
0.0
 30
0.0
  9
$PUCSORGFRONT
 10
0.0
 20
0.0
 30
0.0
  9
$PUCSORGBACK
 10
0.0
 20
0.0
 30
0.0
  9
$USERI1
 70
     0
  9
$USERI2
 70
     0
  9
$USERI3
 70
     0
  9
$USERI4
 70
     0
  9
$USERI5
 70
     0
  9
$USERR1
 40
0.0
  9
$USERR2
 40
0.0
  9
$USERR3
 40
0.0
  9
$USERR4
 40
0.0
  9
$USERR5
 40
0.0
  9
$WORLDVIEW
 70
     1
  9
$SHADEDGE
 70
     3
  9
$SHADEDIF
 70
    70
  9
$TILEMODE
 70
     1
  9
$MAXACTVP
 70
    64
  9
$PINSBASE
 10
0.0
 20
0.0
 30
0.0
  9
$PLIMCHECK
 70
     0
  9
$PEXTMIN
 10
1.000000000000000E+20
 20
1.000000000000000E+20
 30
1.000000000000000E+20
  9
$PEXTMAX
 10
-1.000000000000000E+20
 20
-1.000000000000000E+20
 30
-1.000000000000000E+20
  9
$PLIMMIN
 10
0.0
 20
0.0
  9
$PLIMMAX
 10
12.0
 20
9.0
  9
$UNITMODE
 70
     0
  9
$VISRETAIN
 70
     1
  9
$PLINEGEN
 70
     0
  9
$PSLTSCALE
 70
     1
  9
$TREEDEPTH
 70
  3020
  9
$CMLSTYLE
  2
Standard
  9
$CMLJUST
 70
     0
  9
$CMLSCALE
 40
1.0
  9
$PROXYGRAPHICS
 70
     1
  9
$MEASUREMENT
 70
     0
  9
$CELWEIGHT
370
    -1
  9
$ENDCAPS
280
     0
  9
$JOINSTYLE
280
     0
  9
$LWDISPLAY
290
     1
  9
$INSUNITS
 70
     1
  9
$HYPERLINKBASE
  1

  9
$STYLESHEET
  1

  9
$XEDIT
290
     1
  9
$CEPSNTYPE
380
     0
  9
$PSTYLEMODE
290
     1
  9
$FINGERPRINTGUID
  2
{B9BFAFD4-7889-1D5B-B02B-523E41220706}
  9
$VERSIONGUID
  2
{FAEB1C32-E019-11D5-929B-00C0DF256EC4}
  9
$EXTNAMES
290
     1
  9
$PSVPSCALE
 40
0.0
  9
$OLESTARTUP
290
     0
  9
$SORTENTS
280
   127
  9
$INDEXCTL
280
     0
  9
$HIDETEXT
280
     1
  9
$XCLIPFRAME
280
     2
  9
$HALOGAP
280
     0
  9
$OBSCOLOR
 70
   257
  9
$OBSLTYPE
280
     0
  9
$INTERSECTIONDISPLAY
280
     0
  9
$INTERSECTIONCOLOR
 70
   257
  9
$DIMASSOC
280
     2
  9
$PROJECTNAME
  1

  9
$CAMERADISPLAY
290
     0
  9
$LENSLENGTH
 40
50.0
  9
$CAMERAHEIGHT
 40
0.0
  9
$STEPSPERSEC
 40
2.0
  9
$STEPSIZE
 40
6.0
  9
$3DDWFPREC
 40
2.0
  9
$PSOLWIDTH
 40
0.25
  9
$PSOLHEIGHT
 40
4.0
  9
$LOFTANG1
 40
1.570796326794897
  9
$LOFTANG2
 40
1.570796326794897
  9
$LOFTMAG1
 40
0.0
  9
$LOFTMAG2
 40
0.0
  9
$LOFTPARAM
 70
     7
  9
$LOFTNORMALS
280
     1
  9
$LATITUDE
 40
37.795
  9
$LONGITUDE
 40
-122.394
  9
$NORTHDIRECTION
 40
0.0
  9
$TIMEZONE
 70
 -8000
  9
$LIGHTGLYPHDISPLAY
280
     1
  9
$TILEMODELIGHTSYNCH
280
     1
  9
$CMATERIAL
347
3C
  9
$SOLIDHIST
280
     1
  9
$SHOWHIST
280
     1
  9
$DWFFRAME
280
     2
  9
$DGNFRAME
280
     2
  9
$REALWORLDSCALE
290
     1
  9
$INTERFERECOLOR
 62
   256
  9
$CSHADOW
280
     0
  9
$SHADOWPLANELOCATION
 40
0.0
  0
ENDSEC
  0
SECTION
  2
CLASSES
  0
CLASS
  1
ACDBDICTIONARYWDFLT
  2
AcDbDictionaryWithDefault
  3
ObjectDBX Classes
 90
        0
 91
        4
280
     0
281
     0
  0
CLASS
  1
VISUALSTYLE
  2
AcDbVisualStyle
  3
ObjectDBX Classes
 90
     4095
 91
        4
280
     0
281
     0
  0
CLASS
  1
MATERIAL
  2
AcDbMaterial
  3
ObjectDBX Classes
 90
     1153
 91
        4
280
     0
281
     0
  0
CLASS
  1
SUN
  2
AcDbSun
  3
SCENEOE
 90
     1024
 91
        4
280
     0
281
     0
  0
ENDSEC
  0
SECTION
  2
TABLES
  0
TABLE
  2
VPORT
  5
8
330
0
100
AcDbSymbolTable
 70
     1
  0
VPORT
  5
29
330
8
100
AcDbSymbolTableRecord
100
AcDbViewportTableRecord
  2
*Active
 70
     0
 10
0.0
 20
0.0
 11
1.0
 21
1.0
 12
0.0
 22
0.0
 13
0.0
 23
0.0
 14
0.5
 24
0.5
 15
0.5
 25
0.5
 16
0.0
 26
0.0
 36
1.0
 17
91.00082462281999
 27
-128.4993055234307
 37
0.0
 40
256.9986110468615
 41
0.7081814508812795
 42
50.0
 43
0.0
 44
0.0
 50
0.0
 51
0.0
 71
     0
 72
   100
 73
     1
 74
     3
 75
     0
 76
     0
 77
     0
 78
     0
281
     0
 65
     1
110
0.0
120
0.0
130
0.0
111
1.0
121
0.0
131
0.0
112
0.0
122
1.0
132
0.0
 79
     0
146
0.0
 60
     3
 61
     5
292
     1
282
     1
141
0.0
142
0.0
 63
   250
361
3F
  0
ENDTAB
  0
TABLE
  2
LTYPE
  5
5
330
0
100
AcDbSymbolTable
 70
     1
  0
LTYPE
  5
14
330
5
100
AcDbSymbolTableRecord
100
AcDbLinetypeTableRecord
  2
ByBlock
 70
     0
  3

 72
    65
 73
     0
 40
0.0
  0
LTYPE
  5
15
330
5
100
AcDbSymbolTableRecord
100
AcDbLinetypeTableRecord
  2
ByLayer
 70
     0
  3

 72
    65
 73
     0
 40
0.0
  0
LTYPE
  5
16
330
5
100
AcDbSymbolTableRecord
100
AcDbLinetypeTableRecord
  2
Continuous
 70
     0
  3
Solid line
 72
    65
 73
     0
 40
0.0
  0
ENDTAB
  0
TABLE
  2
LAYER
  5
2
330
0
100
AcDbSymbolTable
 70
     2
  0
LAYER
  5
10
330
2
100
AcDbSymbolTableRecord
100
AcDbLayerTableRecord
  2
0
 70
     0
 62
     7
  6
Continuous
370
    -3
390
F
347
3E
  0
LAYER
  5
40
330
2
100
AcDbSymbolTableRecord
100
AcDbLayerTableRecord
  2
_U+30EC_U+30A4_U+30E4_U+30FC 1
 70
     0
 62
     7
  6
Continuous
370
    -3
390
F
347
3E
  0
ENDTAB
  0
TABLE
  2
STYLE
  5
3
330
0
100
AcDbSymbolTable
 70
     1
  0
STYLE
  5
11
330
3
100
AcDbSymbolTableRecord
100
AcDbTextStyleTableRecord
  2
Standard
 70
     0
 40
0.0
 41
1.0
 50
0.0
 71
     0
 42
0.2
  3
txt
  4

  0
ENDTAB
  0
TABLE
  2
VIEW
  5
6
330
0
100
AcDbSymbolTable
 70
     0
  0
ENDTAB
  0
TABLE
  2
UCS
  5
7
330
0
100
AcDbSymbolTable
 70
     0
  0
ENDTAB
  0
TABLE
  2
APPID
  5
9
330
0
100
AcDbSymbolTable
 70
     1
  0
APPID
  5
12
330
9
100
AcDbSymbolTableRecord
100
AcDbRegAppTableRecord
  2
ACAD
 70
     0
  0
ENDTAB
  0
TABLE
  2
DIMSTYLE
  5
A
330
0
100
AcDbSymbolTable
 70
     1
100
AcDbDimStyleTable
  0
DIMSTYLE
105
27
330
A
100
AcDbSymbolTableRecord
100
AcDbDimStyleTableRecord
  2
Standard
 70
     0
178
     0
340
11
  0
ENDTAB
  0
TABLE
  2
BLOCK_RECORD
  5
1
330
0
100
AcDbSymbolTable
 70
     4
  0
BLOCK_RECORD
  5
1F
330
1
100
AcDbSymbolTableRecord
100
AcDbBlockTableRecord
  2
*Model_Space
340
22
 70
     0
280
     1
281
     0
  0
BLOCK_RECORD
  5
1B
330
1
100
AcDbSymbolTableRecord
100
AcDbBlockTableRecord
  2
*Paper_Space
340
1E
 70
     0
280
     1
281
     0
  0
BLOCK_RECORD
  5
23
330
1
100
AcDbSymbolTableRecord
100
AcDbBlockTableRecord
  2
*Paper_Space0
340
26
 70
     0
280
     1
281
     0
  0
BLOCK_RECORD
  5
80
330
1
100
AcDbSymbolTableRecord
100
AcDbBlockTableRecord
  2
block 2
340
0
102
{BLKREFS
331
81
102
}
 70
     0
280
     1
281
     0
  0
BLOCK_RECORD
  5
94
330
1
100
AcDbSymbolTableRecord
100
AcDbBlockTableRecord
  2
block 3
340
0
102
{BLKREFS
331
95
102
}
 70
     0
280
     1
281
     0
  0
BLOCK_RECORD
  5
9C
330
1
100
AcDbSymbolTableRecord
100
AcDbBlockTableRecord
  2
block 4
340
0
102
{BLKREFS
331
9D
102
}
 70
     0
280
     1
281
     0
  0
ENDTAB
  0
ENDSEC
  0
SECTION
  2
BLOCKS
  0
BLOCK
  5
20
330
1F
100
AcDbEntity
  8
0
100
AcDbBlockBegin
  2
*Model_Space
 70
     0
 10
0.0
 20
0.0
 30
0.0
  3
*Model_Space
  1

  0
ENDBLK
  5
21
330
1F
100
AcDbEntity
  8
0
100
AcDbBlockEnd
  0
BLOCK
  5
1C
330
1B
100
AcDbEntity
 67
     1
  8
0
100
AcDbBlockBegin
  2
*Paper_Space
 70
     0
 10
0.0
 20
0.0
 30
0.0
  3
*Paper_Space
  1

  0
ENDBLK
  5
1D
330
1B
100
AcDbEntity
 67
     1
  8
0
100
AcDbBlockEnd
  0
BLOCK
  5
24
330
23
100
AcDbEntity
  8
0
100
AcDbBlockBegin
  2
*Paper_Space0
 70
     0
 10
0.0
 20
0.0
 30
0.0
  3
*Paper_Space0
  1

  0
ENDBLK
  5
25
330
23
100
AcDbEntity
  8
0
100
AcDbBlockEnd
  0
BLOCK
  5
82
330
80
100
AcDbEntity
  8
0
100
AcDbBlockBegin
  2
block 2
 70
     0
 10
0.0
 20
0.0
 30
0.0
  3
block 2
  1

  0
SPLINE
  5
84
330
80
100
AcDbEntity
  8
_U+30EC_U+30A4_U+30E4_U+30FC 1
370
     0
100
AcDbSpline
210
0.0
220
0.0
230
1.0
 70
    11
 71
     3
 72
    26
 73
    22
 74
     0
 42
0.0000000001
 43
0.0000000001
 12
1.0
 22
0.0
 32
0.0
 13
1.0
 23
0.0
 33
0.0
 40
0.0
 40
0.0
 40
0.0
 40
0.0
 40
1.0
 40
1.0
 40
1.0
 40
2.0
 40
2.0
 40
2.0
 40
3.0
 40
3.0
 40
3.0
 40
4.0
 40
4.0
 40
4.0
 40
5.0
 40
5.0
 40
5.0
 40
6.0
 40
6.0
 40
6.0
 40
7.0
 40
7.0
 40
7.0
 40
7.0
 10
96.25769040562308
 20
-130.8085530271937
 30
0.0
 10
96.25769040562308
 20
-130.8085530271937
 30
0.0
 10
95.15353730260051
 20
-130.8085530271937
 30
0.0
 10
95.15353730260051
 20
-130.8085530271937
 30
0.0
 10
95.15353730260051
 20
-130.8085530271937
 30
0.0
 10
95.15353730260051
 20
-131.1385931746806
 30
0.0
 10
95.15353730260051
 20
-131.1385931746806
 30
0.0
 10
95.15353730260051
 20
-131.1385931746806
 30
0.0
 10
95.00539819673476
 20
-131.1385931746806
 30
0.0
 10
95.00539819673476
 20
-131.1385931746806
 30
0.0
 10
94.99058428614819
 20
-130.8064859699026
 30
0.0
 10
94.82763126969587
 20
-130.7599771808517
 30
0.0
 10
94.71325409958558
 20
-130.7303493596785
 30
0.0
 10
94.71325409958558
 20
-130.7303493596785
 30
0.0
 10
94.71325409958558
 20
-130.5842773111039
 30
0.0
 10
94.71325409958558
 20
-130.5842773111039
 30
0.0
 10
94.71325409958558
 20
-130.5842773111039
 30
0.0
 10
96.25769040562308
 20
-130.5842773111039
 30
0.0
 10
96.25769040562308
 20
-130.5842773111039
 30
0.0
 10
96.25769040562308
 20
-130.5842773111039
 30
0.0
 10
96.25769040562308
 20
-130.8085530271937
 30
0.0
 10
96.25769040562308
 20
-130.8085530271937
 30
0.0
  0
HATCH
  5
85
330
80
100
AcDbEntity
  8
_U+30EC_U+30A4_U+30E4_U+30FC 1
 62
   179
420
  2234388
100
AcDbHatch
 10
0.0
 20
0.0
 30
0.0
210
0.0
220
0.0
230
1.0
  2
SOLID
 70
     1
 71
     0
 91
        1
 92
        1
 93
        1
 72
     4
 94
        3
 73
     0
 74
     1
 95
       26
 96
       22
 40
0.0
 40
0.0
 40
0.0
 40
0.0
 40
1.0
 40
1.0
 40
1.0
 40
2.0
 40
2.0
 40
2.0
 40
3.0
 40
3.0
 40
3.0
 40
4.0
 40
4.0
 40
4.0
 40
5.0
 40
5.0
 40
5.0
 40
6.0
 40
6.0
 40
6.0
 40
7.0
 40
7.0
 40
7.0
 40
7.0
 10
96.25769040562308
 20
-130.8085530271937
 10
96.25769040562308
 20
-130.8085530271937
 10
95.15353730260051
 20
-130.8085530271937
 10
95.15353730260051
 20
-130.8085530271937
 10
95.15353730260051
 20
-130.8085530271937
 10
95.15353730260051
 20
-131.1385931746806
 10
95.15353730260051
 20
-131.1385931746806
 10
95.15353730260051
 20
-131.1385931746806
 10
95.00539819673476
 20
-131.1385931746806
 10
95.00539819673476
 20
-131.1385931746806
 10
94.99058428614819
 20
-130.8064859699026
 10
94.82763126969587
 20
-130.7599771808517
 10
94.71325409958558
 20
-130.7303493596785
 10
94.71325409958558
 20
-130.7303493596785
 10
94.71325409958558
 20
-130.5842773111039
 10
94.71325409958558
 20
-130.5842773111039
 10
94.71325409958558
 20
-130.5842773111039
 10
96.25769040562308
 20
-130.5842773111039
 10
96.25769040562308
 20
-130.5842773111039
 10
96.25769040562308
 20
-130.5842773111039
 10
96.25769040562308
 20
-130.8085530271937
 10
96.25769040562308
 20
-130.8085530271937
 97
        0
 97
        0
 75
     2
 76
     1
 98
        0
  0
SPLINE
  5
86
330
80
100
AcDbEntity
  8
_U+30EC_U+30A4_U+30E4_U+30FC 1
370
     0
100
AcDbSpline
210
0.0
220
0.0
230
1.0
 70
    11
 71
     3
 72
    53
 73
    49
 74
     0
 42
0.0000000001
 43
0.0000000001
 12
1.0
 22
0.0
 32
0.0
 13
1.0
 23
0.0
 33
0.0
 40
0.0
 40
0.0
 40
0.0
 40
0.0
 40
1.0
 40
1.0
 40
1.0
 40
2.0
 40
2.0
 40
2.0
 40
3.0
 40
3.0
 40
3.0
 40
4.0
 40
4.0
 40
4.0
 40
5.0
 40
5.0
 40
5.0
 40
6.0
 40
6.0
 40
6.0
 40
7.0
 40
7.0
 40
7.0
 40
8.0
 40
8.0
 40
8.0
 40
9.0
 40
9.0
 40
9.0
 40
10.0
 40
10.0
 40
10.0
 40
11.0
 40
11.0
 40
11.0
 40
12.0
 40
12.0
 40
12.0
 40
13.0
 40
13.0
 40
13.0
 40
14.0
 40
14.0
 40
14.0
 40
15.0
 40
15.0
 40
15.0
 40
16.0
 40
16.0
 40
16.0
 40
16.0
 10
96.30833330925626
 20
-129.6020805882592
 30
0.0
 10
96.30833330925626
 20
-129.6802842557744
 30
0.0
 10
96.29145234137853
 20
-129.7819145725892
 30
0.0
 10
96.22806258444993
 20
-129.8835448894041
 30
0.0
 10
96.11816403847047
 20
-130.0568331923122
 30
0.0
 10
95.98690590048244
 20
-130.0781927843207
 30
0.0
 10
95.87907441179412
 20
-130.0971408094896
 30
0.0
 10
95.87907441179412
 20
-130.0971408094896
 30
0.0
 10
95.87907441179412
 20
-129.874932150691
 30
0.0
 10
95.87907441179412
 20
-129.874932150691
 30
0.0
 10
96.07785642129303
 20
-129.8201551324755
 30
0.0
 10
96.10748424246619
 20
-129.6930311090698
 30
0.0
 10
96.10748424246619
 20
-129.6000135309681
 30
0.0
 10
96.10748424246619
 20
-129.4604871638154
 30
0.0
 10
96.00792098294247
 20
-129.3082139433674
 30
0.0
 10
95.7753770376881
 20
-129.3082139433674
 30
0.0
 10
95.51940644313405
 20
-129.3082139433674
 30
0.0
 10
95.44947100478348
 20
-129.4880479276974
 30
0.0
 10
95.44947100478348
 20
-129.6086262696812
 30
0.0
 10
95.44947100478348
 20
-129.6403211481455
 30
0.0
 10
95.44947100478348
 20
-129.7819145725892
 30
0.0
 10
95.57866208548035
 20
-129.8707980361087
 30
0.0
 10
95.57866208548035
 20
-129.8707980361087
 30
0.0
 10
95.55971406031146
 20
-130.0464979058564
 30
0.0
 10
95.55971406031146
 20
-130.0464979058564
 30
0.0
 10
95.55971406031146
 20
-130.0464979058564
 30
0.0
 10
94.71325409958558
 20
-129.9259195638727
 30
0.0
 10
94.71325409958558
 20
-129.9259195638727
 30
0.0
 10
94.71325409958558
 20
-129.9259195638727
 30
0.0
 10
94.71325409958558
 20
-129.1473279842062
 30
0.0
 10
94.71325409958558
 20
-129.1473279842062
 30
0.0
 10
94.71325409958558
 20
-129.1473279842062
 30
0.0
 10
94.9079019945022
 20
-129.1473279842062
 30
0.0
 10
94.9079019945022
 20
-129.1473279842062
 30
0.0
 10
94.9079019945022
 20
-129.1473279842062
 30
0.0
 10
94.9079019945022
 20
-129.7629665474204
 30
0.0
 10
94.9079019945022
 20
-129.7629665474204
 30
0.0
 10
94.9079019945022
 20
-129.7629665474204
 30
0.0
 10
95.33095972009087
 20
-129.8284233616401
 30
0.0
 10
95.33095972009087
 20
-129.8284233616401
 30
0.0
 10
95.29719778433542
 20
-129.7671006620027
 30
0.0
 10
95.256890167158
 20
-129.6847628799052
 30
0.0
 10
95.256890167158
 20
-129.5662515952126
 30
0.0
 10
95.256890167158
 20
-129.3123480579497
 30
0.0
 10
95.44326983291002
 20
-129.0753254885645
 30
0.0
 10
95.75642901251923
 20
-129.0753254885645
 30
0.0
 10
96.07372230671074
 20
-129.0753254885645
 30
0.0
 10
96.30833330925626
 20
-129.2996012046543
 30
0.0
 10
96.30833330925626
 20
-129.6020805882592
 30
0.0
  0
HATCH
  5
87
330
80
100
AcDbEntity
  8
_U+30EC_U+30A4_U+30E4_U+30FC 1
 62
   179
420
  2234388
100
AcDbHatch
 10
0.0
 20
0.0
 30
0.0
210
0.0
220
0.0
230
1.0
  2
SOLID
 70
     1
 71
     0
 91
        1
 92
        1
 93
        1
 72
     4
 94
        3
 73
     0
 74
     1
 95
       53
 96
       49
 40
0.0
 40
0.0
 40
0.0
 40
0.0
 40
1.0
 40
1.0
 40
1.0
 40
2.0
 40
2.0
 40
2.0
 40
3.0
 40
3.0
 40
3.0
 40
4.0
 40
4.0
 40
4.0
 40
5.0
 40
5.0
 40
5.0
 40
6.0
 40
6.0
 40
6.0
 40
7.0
 40
7.0
 40
7.0
 40
8.0
 40
8.0
 40
8.0
 40
9.0
 40
9.0
 40
9.0
 40
10.0
 40
10.0
 40
10.0
 40
11.0
 40
11.0
 40
11.0
 40
12.0
 40
12.0
 40
12.0
 40
13.0
 40
13.0
 40
13.0
 40
14.0
 40
14.0
 40
14.0
 40
15.0
 40
15.0
 40
15.0
 40
16.0
 40
16.0
 40
16.0
 40
16.0
 10
96.30833330925626
 20
-129.6020805882592
 10
96.30833330925626
 20
-129.6802842557744
 10
96.29145234137853
 20
-129.7819145725892
 10
96.22806258444993
 20
-129.8835448894041
 10
96.11816403847047
 20
-130.0568331923122
 10
95.98690590048244
 20
-130.0781927843207
 10
95.87907441179412
 20
-130.0971408094896
 10
95.87907441179412
 20
-130.0971408094896
 10
95.87907441179412
 20
-129.874932150691
 10
95.87907441179412
 20
-129.874932150691
 10
96.07785642129303
 20
-129.8201551324755
 10
96.10748424246619
 20
-129.6930311090698
 10
96.10748424246619
 20
-129.6000135309681
 10
96.10748424246619
 20
-129.4604871638154
 10
96.00792098294247
 20
-129.3082139433674
 10
95.7753770376881
 20
-129.3082139433674
 10
95.51940644313405
 20
-129.3082139433674
 10
95.44947100478348
 20
-129.4880479276974
 10
95.44947100478348
 20
-129.6086262696812
 10
95.44947100478348
 20
-129.6403211481455
 10
95.44947100478348
 20
-129.7819145725892
 10
95.57866208548035
 20
-129.8707980361087
 10
95.57866208548035
 20
-129.8707980361087
 10
95.55971406031146
 20
-130.0464979058564
 10
95.55971406031146
 20
-130.0464979058564
 10
95.55971406031146
 20
-130.0464979058564
 10
94.71325409958558
 20
-129.9259195638727
 10
94.71325409958558
 20
-129.9259195638727
 10
94.71325409958558
 20
-129.9259195638727
 10
94.71325409958558
 20
-129.1473279842062
 10
94.71325409958558
 20
-129.1473279842062
 10
94.71325409958558
 20
-129.1473279842062
 10
94.9079019945022
 20
-129.1473279842062
 10
94.9079019945022
 20
-129.1473279842062
 10
94.9079019945022
 20
-129.1473279842062
 10
94.9079019945022
 20
-129.7629665474204
 10
94.9079019945022
 20
-129.7629665474204
 10
94.9079019945022
 20
-129.7629665474204
 10
95.33095972009087
 20
-129.8284233616401
 10
95.33095972009087
 20
-129.8284233616401
 10
95.29719778433542
 20
-129.7671006620027
 10
95.256890167158
 20
-129.6847628799052
 10
95.256890167158
 20
-129.5662515952126
 10
95.256890167158
 20
-129.3123480579497
 10
95.44326983291002
 20
-129.0753254885645
 10
95.75642901251923
 20
-129.0753254885645
 10
96.07372230671074
 20
-129.0753254885645
 10
96.30833330925626
 20
-129.2996012046543
 10
96.30833330925626
 20
-129.6020805882592
 97
        0
 97
        0
 75
     2
 76
     1
 98
        0
  0
ENDBLK
  5
83
330
80
100
AcDbEntity
  8
0
100
AcDbBlockEnd
  0
BLOCK
  5
96
330
94
100
AcDbEntity
  8
0
100
AcDbBlockBegin
  2
block 3
 70
     0
 10
0.0
 20
0.0
 30
0.0
  3
block 3
  1

  0
SPLINE
  5
98
330
94
100
AcDbEntity
  8
_U+30EC_U+30A4_U+30E4_U+30FC 1
370
     0
100
AcDbSpline
210
0.0
220
0.0
230
1.0
 70
    11
 71
     3
 72
    26
 73
    22
 74
     0
 42
0.0000000001
 43
0.0000000001
 12
1.0
 22
0.0
 32
0.0
 13
1.0
 23
0.0
 33
0.0
 40
0.0
 40
0.0
 40
0.0
 40
0.0
 40
1.0
 40
1.0
 40
1.0
 40
2.0
 40
2.0
 40
2.0
 40
3.0
 40
3.0
 40
3.0
 40
4.0
 40
4.0
 40
4.0
 40
5.0
 40
5.0
 40
5.0
 40
6.0
 40
6.0
 40
6.0
 40
7.0
 40
7.0
 40
7.0
 40
7.0
 10
84.76622990502372
 20
-118.0244927005286
 30
0.0
 10
84.76622990502372
 20
-118.0244927005286
 30
0.0
 10
84.76622990502372
 20
-116.9201673427318
 30
0.0
 10
84.76622990502372
 20
-116.9201673427318
 30
0.0
 10
84.76622990502372
 20
-116.9201673427318
 30
0.0
 10
84.4361897575368
 20
-116.9201673427318
 30
0.0
 10
84.4361897575368
 20
-116.9201673427318
 30
0.0
 10
84.4361897575368
 20
-116.9201673427318
 30
0.0
 10
84.4361897575368
 20
-116.7722004916403
 30
0.0
 10
84.4361897575368
 20
-116.7722004916403
 30
0.0
 10
84.76829696231488
 20
-116.7573865810537
 30
0.0
 10
84.81480575136575
 20
-116.5944335646014
 30
0.0
 10
84.84443357253889
 20
-116.4802286492654
 30
0.0
 10
84.84443357253889
 20
-116.4802286492654
 30
0.0
 10
84.99050562111348
 20
-116.4802286492654
 30
0.0
 10
84.99050562111348
 20
-116.4802286492654
 30
0.0
 10
84.99050562111348
 20
-116.4802286492654
 30
0.0
 10
84.99050562111348
 20
-118.0244927005286
 30
0.0
 10
84.99050562111348
 20
-118.0244927005286
 30
0.0
 10
84.99050562111348
 20
-118.0244927005286
 30
0.0
 10
84.76622990502372
 20
-118.0244927005286
 30
0.0
 10
84.76622990502372
 20
-118.0244927005286
 30
0.0
  0
HATCH
  5
99
330
94
100
AcDbEntity
  8
_U+30EC_U+30A4_U+30E4_U+30FC 1
 62
   179
420
  2234388
100
AcDbHatch
 10
0.0
 20
0.0
 30
0.0
210
0.0
220
0.0
230
1.0
  2
SOLID
 70
     1
 71
     0
 91
        1
 92
        1
 93
        1
 72
     4
 94
        3
 73
     0
 74
     1
 95
       26
 96
       22
 40
0.0
 40
0.0
 40
0.0
 40
0.0
 40
1.0
 40
1.0
 40
1.0
 40
2.0
 40
2.0
 40
2.0
 40
3.0
 40
3.0
 40
3.0
 40
4.0
 40
4.0
 40
4.0
 40
5.0
 40
5.0
 40
5.0
 40
6.0
 40
6.0
 40
6.0
 40
7.0
 40
7.0
 40
7.0
 40
7.0
 10
84.76622990502372
 20
-118.0244927005286
 10
84.76622990502372
 20
-118.0244927005286
 10
84.76622990502372
 20
-116.9201673427318
 10
84.76622990502372
 20
-116.9201673427318
 10
84.76622990502372
 20
-116.9201673427318
 10
84.4361897575368
 20
-116.9201673427318
 10
84.4361897575368
 20
-116.9201673427318
 10
84.4361897575368
 20
-116.9201673427318
 10
84.4361897575368
 20
-116.7722004916403
 10
84.4361897575368
 20
-116.7722004916403
 10
84.76829696231488
 20
-116.7573865810537
 10
84.81480575136575
 20
-116.5944335646014
 10
84.84443357253889
 20
-116.4802286492654
 10
84.84443357253889
 20
-116.4802286492654
 10
84.99050562111348
 20
-116.4802286492654
 10
84.99050562111348
 20
-116.4802286492654
 10
84.99050562111348
 20
-116.4802286492654
 10
84.99050562111348
 20
-118.0244927005286
 10
84.99050562111348
 20
-118.0244927005286
 10
84.99050562111348
 20
-118.0244927005286
 10
84.76622990502372
 20
-118.0244927005286
 10
84.76622990502372
 20
-118.0244927005286
 97
        0
 97
        0
 75
     2
 76
     1
 98
        0
  0
SPLINE
  5
9A
330
94
100
AcDbEntity
  8
_U+30EC_U+30A4_U+30E4_U+30FC 1
370
     0
100
AcDbSpline
210
0.0
220
0.0
230
1.0
 70
    11
 71
     3
 72
    53
 73
    49
 74
     0
 42
0.0000000001
 43
0.0000000001
 12
1.0
 22
0.0
 32
0.0
 13
1.0
 23
0.0
 33
0.0
 40
0.0
 40
0.0
 40
0.0
 40
0.0
 40
1.0
 40
1.0
 40
1.0
 40
2.0
 40
2.0
 40
2.0
 40
3.0
 40
3.0
 40
3.0
 40
4.0
 40
4.0
 40
4.0
 40
5.0
 40
5.0
 40
5.0
 40
6.0
 40
6.0
 40
6.0
 40
7.0
 40
7.0
 40
7.0
 40
8.0
 40
8.0
 40
8.0
 40
9.0
 40
9.0
 40
9.0
 40
10.0
 40
10.0
 40
10.0
 40
11.0
 40
11.0
 40
11.0
 40
12.0
 40
12.0
 40
12.0
 40
13.0
 40
13.0
 40
13.0
 40
14.0
 40
14.0
 40
14.0
 40
15.0
 40
15.0
 40
15.0
 40
16.0
 40
16.0
 40
16.0
 40
16.0
 10
85.97270234395822
 20
-118.075307858936
 30
0.0
 10
85.89449867644305
 20
-118.075307858936
 30
0.0
 10
85.79286835962817
 20
-118.058254636284
 30
0.0
 10
85.69123804281331
 20
-117.9948648793555
 30
0.0
 10
85.51777748513098
 20
-117.8847940786017
 30
0.0
 10
85.49659014789668
 20
-117.753708195388
 30
0.0
 10
85.47764212272781
 20
-117.6458767066997
 30
0.0
 10
85.47764212272781
 20
-117.6458767066997
 30
0.0
 10
85.69967852675217
 20
-117.6458767066997
 30
0.0
 10
85.69967852675217
 20
-117.6458767066997
 30
0.0
 10
85.75480005451617
 20
-117.8446587161986
 30
0.0
 10
85.88175182314762
 20
-117.8742865373717
 30
0.0
 10
85.97476940124936
 20
-117.8742865373717
 30
0.0
 10
86.11429576840199
 20
-117.8742865373717
 30
0.0
 10
86.26656898885003
 20
-117.7748955326223
 30
0.0
 10
86.26656898885003
 20
-117.5421793325936
 30
0.0
 10
86.26656898885003
 20
-117.2862087380396
 30
0.0
 10
86.08673500451998
 20
-117.2164455544632
 30
0.0
 10
85.96615666253624
 20
-117.2164455544632
 30
0.0
 10
85.93446178407194
 20
-117.2164455544632
 30
0.0
 10
85.79286835962817
 20
-117.2164455544632
 30
0.0
 10
85.70398489610874
 20
-117.3454643803859
 30
0.0
 10
85.70398489610874
 20
-117.3454643803859
 30
0.0
 10
85.52845728113525
 20
-117.3263441004427
 30
0.0
 10
85.52845728113525
 20
-117.3263441004427
 30
0.0
 10
85.52845728113525
 20
-117.3263441004427
 30
0.0
 10
85.64903562311899
 20
-116.4802286492654
 30
0.0
 10
85.64903562311899
 20
-116.4802286492654
 30
0.0
 10
85.64903562311899
 20
-116.4802286492654
 30
0.0
 10
86.42745494801119
 20
-116.4802286492654
 30
0.0
 10
86.42745494801119
 20
-116.4802286492654
 30
0.0
 10
86.42745494801119
 20
-116.4802286492654
 30
0.0
 10
86.42745494801119
 20
-116.674876544182
 30
0.0
 10
86.42745494801119
 20
-116.674876544182
 30
0.0
 10
86.42745494801119
 20
-116.674876544182
 30
0.0
 10
85.81181638479705
 20
-116.674876544182
 30
0.0
 10
85.81181638479705
 20
-116.674876544182
 30
0.0
 10
85.81181638479705
 20
-116.674876544182
 30
0.0
 10
85.7463595705773
 20
-117.0979342697707
 30
0.0
 10
85.7463595705773
 20
-117.0979342697707
 30
0.0
 10
85.80768227021476
 20
-117.064000079241
 30
0.0
 10
85.89002005231222
 20
-117.0238647168378
 30
0.0
 10
86.00853133700481
 20
-117.0238647168378
 30
0.0
 10
86.26243487426773
 20
-117.0238647168378
 30
0.0
 10
86.49945744365291
 20
-117.2100721278155
 30
0.0
 10
86.49945744365291
 20
-117.5230590526505
 30
0.0
 10
86.49945744365291
 20
-117.8405246016163
 30
0.0
 10
86.27518172756315
 20
-118.075307858936
 30
0.0
 10
85.97270234395822
 20
-118.075307858936
 30
0.0
  0
HATCH
  5
9B
330
94
100
AcDbEntity
  8
_U+30EC_U+30A4_U+30E4_U+30FC 1
 62
   179
420
  2234388
100
AcDbHatch
 10
0.0
 20
0.0
 30
0.0
210
0.0
220
0.0
230
1.0
  2
SOLID
 70
     1
 71
     0
 91
        1
 92
        1
 93
        1
 72
     4
 94
        3
 73
     0
 74
     1
 95
       53
 96
       49
 40
0.0
 40
0.0
 40
0.0
 40
0.0
 40
1.0
 40
1.0
 40
1.0
 40
2.0
 40
2.0
 40
2.0
 40
3.0
 40
3.0
 40
3.0
 40
4.0
 40
4.0
 40
4.0
 40
5.0
 40
5.0
 40
5.0
 40
6.0
 40
6.0
 40
6.0
 40
7.0
 40
7.0
 40
7.0
 40
8.0
 40
8.0
 40
8.0
 40
9.0
 40
9.0
 40
9.0
 40
10.0
 40
10.0
 40
10.0
 40
11.0
 40
11.0
 40
11.0
 40
12.0
 40
12.0
 40
12.0
 40
13.0
 40
13.0
 40
13.0
 40
14.0
 40
14.0
 40
14.0
 40
15.0
 40
15.0
 40
15.0
 40
16.0
 40
16.0
 40
16.0
 40
16.0
 10
85.97270234395822
 20
-118.075307858936
 10
85.89449867644305
 20
-118.075307858936
 10
85.79286835962817
 20
-118.058254636284
 10
85.69123804281331
 20
-117.9948648793555
 10
85.51777748513098
 20
-117.8847940786017
 10
85.49659014789668
 20
-117.753708195388
 10
85.47764212272781
 20
-117.6458767066997
 10
85.47764212272781
 20
-117.6458767066997
 10
85.69967852675217
 20
-117.6458767066997
 10
85.69967852675217
 20
-117.6458767066997
 10
85.75480005451617
 20
-117.8446587161986
 10
85.88175182314762
 20
-117.8742865373717
 10
85.97476940124936
 20
-117.8742865373717
 10
86.11429576840199
 20
-117.8742865373717
 10
86.26656898885003
 20
-117.7748955326223
 10
86.26656898885003
 20
-117.5421793325936
 10
86.26656898885003
 20
-117.2862087380396
 10
86.08673500451998
 20
-117.2164455544632
 10
85.96615666253624
 20
-117.2164455544632
 10
85.93446178407194
 20
-117.2164455544632
 10
85.79286835962817
 20
-117.2164455544632
 10
85.70398489610874
 20
-117.3454643803859
 10
85.70398489610874
 20
-117.3454643803859
 10
85.52845728113525
 20
-117.3263441004427
 10
85.52845728113525
 20
-117.3263441004427
 10
85.52845728113525
 20
-117.3263441004427
 10
85.64903562311899
 20
-116.4802286492654
 10
85.64903562311899
 20
-116.4802286492654
 10
85.64903562311899
 20
-116.4802286492654
 10
86.42745494801119
 20
-116.4802286492654
 10
86.42745494801119
 20
-116.4802286492654
 10
86.42745494801119
 20
-116.4802286492654
 10
86.42745494801119
 20
-116.674876544182
 10
86.42745494801119
 20
-116.674876544182
 10
86.42745494801119
 20
-116.674876544182
 10
85.81181638479705
 20
-116.674876544182
 10
85.81181638479705
 20
-116.674876544182
 10
85.81181638479705
 20
-116.674876544182
 10
85.7463595705773
 20
-117.0979342697707
 10
85.7463595705773
 20
-117.0979342697707
 10
85.80768227021476
 20
-117.064000079241
 10
85.89002005231222
 20
-117.0238647168378
 10
86.00853133700481
 20
-117.0238647168378
 10
86.26243487426773
 20
-117.0238647168378
 10
86.49945744365291
 20
-117.2100721278155
 10
86.49945744365291
 20
-117.5230590526505
 10
86.49945744365291
 20
-117.8405246016163
 10
86.27518172756315
 20
-118.075307858936
 10
85.97270234395822
 20
-118.075307858936
 97
        0
 97
        0
 75
     2
 76
     1
 98
        0
  0
ENDBLK
  5
97
330
94
100
AcDbEntity
  8
0
100
AcDbBlockEnd
  0
BLOCK
  5
9E
330
9C
100
AcDbEntity
  8
0
100
AcDbBlockBegin
  2
block 4
 70
     0
 10
0.0
 20
0.0
 30
0.0
  3
block 4
  1

  0
SPLINE
  5
A0
330
9C
100
AcDbEntity
  8
_U+30EC_U+30A4_U+30E4_U+30FC 1
370
     0
100
AcDbSpline
210
0.0
220
0.0
230
1.0
 70
    11
 71
     3
 72
    26
 73
    22
 74
     0
 42
0.0000000001
 43
0.0000000001
 12
1.0
 22
0.0
 32
0.0
 13
1.0
 23
0.0
 33
0.0
 40
0.0
 40
0.0
 40
0.0
 40
0.0
 40
1.0
 40
1.0
 40
1.0
 40
2.0
 40
2.0
 40
2.0
 40
3.0
 40
3.0
 40
3.0
 40
4.0
 40
4.0
 40
4.0
 40
5.0
 40
5.0
 40
5.0
 40
6.0
 40
6.0
 40
6.0
 40
7.0
 40
7.0
 40
7.0
 40
7.0
 10
101.6782036421152
 20
-138.2737304341816
 30
0.0
 10
101.6782036421152
 20
-138.2737304341816
 30
0.0
 10
100.5740505390926
 20
-138.2737304341816
 30
0.0
 10
100.5740505390926
 20
-138.2737304341816
 30
0.0
 10
100.5740505390926
 20
-138.2737304341816
 30
0.0
 10
100.5740505390926
 20
-138.6037705816685
 30
0.0
 10
100.5740505390926
 20
-138.6037705816685
 30
0.0
 10
100.5740505390926
 20
-138.6037705816685
 30
0.0
 10
100.4259114332269
 20
-138.6037705816685
 30
0.0
 10
100.4259114332269
 20
-138.6037705816685
 30
0.0
 10
100.4110975226403
 20
-138.2716633768904
 30
0.0
 10
100.248144506188
 20
-138.2251545878395
 30
0.0
 10
100.1337673360777
 20
-138.1955267666664
 30
0.0
 10
100.1337673360777
 20
-138.1955267666664
 30
0.0
 10
100.1337673360777
 20
-138.0494547180918
 30
0.0
 10
100.1337673360777
 20
-138.0494547180918
 30
0.0
 10
100.1337673360777
 20
-138.0494547180918
 30
0.0
 10
101.6782036421152
 20
-138.0494547180918
 30
0.0
 10
101.6782036421152
 20
-138.0494547180918
 30
0.0
 10
101.6782036421152
 20
-138.0494547180918
 30
0.0
 10
101.6782036421152
 20
-138.2737304341816
 30
0.0
 10
101.6782036421152
 20
-138.2737304341816
 30
0.0
  0
HATCH
  5
A1
330
9C
100
AcDbEntity
  8
_U+30EC_U+30A4_U+30E4_U+30FC 1
 62
   179
420
  2234388
100
AcDbHatch
 10
0.0
 20
0.0
 30
0.0
210
0.0
220
0.0
230
1.0
  2
SOLID
 70
     1
 71
     0
 91
        1
 92
        1
 93
        1
 72
     4
 94
        3
 73
     0
 74
     1
 95
       26
 96
       22
 40
0.0
 40
0.0
 40
0.0
 40
0.0
 40
1.0
 40
1.0
 40
1.0
 40
2.0
 40
2.0
 40
2.0
 40
3.0
 40
3.0
 40
3.0
 40
4.0
 40
4.0
 40
4.0
 40
5.0
 40
5.0
 40
5.0
 40
6.0
 40
6.0
 40
6.0
 40
7.0
 40
7.0
 40
7.0
 40
7.0
 10
101.6782036421152
 20
-138.2737304341816
 10
101.6782036421152
 20
-138.2737304341816
 10
100.5740505390926
 20
-138.2737304341816
 10
100.5740505390926
 20
-138.2737304341816
 10
100.5740505390926
 20
-138.2737304341816
 10
100.5740505390926
 20
-138.6037705816685
 10
100.5740505390926
 20
-138.6037705816685
 10
100.5740505390926
 20
-138.6037705816685
 10
100.4259114332269
 20
-138.6037705816685
 10
100.4259114332269
 20
-138.6037705816685
 10
100.4110975226403
 20
-138.2716633768904
 10
100.248144506188
 20
-138.2251545878395
 10
100.1337673360777
 20
-138.1955267666664
 10
100.1337673360777
 20
-138.1955267666664
 10
100.1337673360777
 20
-138.0494547180918
 10
100.1337673360777
 20
-138.0494547180918
 10
100.1337673360777
 20
-138.0494547180918
 10
101.6782036421152
 20
-138.0494547180918
 10
101.6782036421152
 20
-138.0494547180918
 10
101.6782036421152
 20
-138.0494547180918
 10
101.6782036421152
 20
-138.2737304341816
 10
101.6782036421152
 20
-138.2737304341816
 97
        0
 97
        0
 75
     2
 76
     1
 98
        0
  0
POLYLINE
  5
A2
330
9C
100
AcDbEntity
  8
_U+30EC_U+30A4_U+30E4_U+30FC 1
370
     0
100
AcDb2dPolyline
 66
     1
 10
0.0
 20
0.0
 30
0.0
  0
VERTEX
  5
A3
330
A2
100
AcDbEntity
  8
_U+30EC_U+30A4_U+30E4_U+30FC 1
370
     0
100
AcDbVertex
100
AcDb2dVertex
 10
101.6782036421152
 20
-137.4882486635446
 30
0.0
  0
VERTEX
  5
A4
330
A2
100
AcDbEntity
  8
_U+30EC_U+30A4_U+30E4_U+30FC 1
370
     0
100
AcDbVertex
100
AcDb2dVertex
 10
101.4263671621434
 20
-137.4882486635446
 30
0.0
  0
VERTEX
  5
A5
330
A2
100
AcDbEntity
  8
_U+30EC_U+30A4_U+30E4_U+30FC 1
370
     0
100
AcDbVertex
100
AcDb2dVertex
 10
101.4263671621434
 20
-137.2364121835728
 30
0.0
  0
VERTEX
  5
A6
330
A2
100
AcDbEntity
  8
_U+30EC_U+30A4_U+30E4_U+30FC 1
370
     0
100
AcDbVertex
100
AcDb2dVertex
 10
101.6782036421152
 20
-137.2364121835728
 30
0.0
  0
VERTEX
  5
A7
330
A2
100
AcDbEntity
  8
_U+30EC_U+30A4_U+30E4_U+30FC 1
370
     0
100
AcDbVertex
100
AcDb2dVertex
 10
101.6782036421152
 20
-137.4882486635446
 30
0.0
  0
SEQEND
  5
A8
330
A2
100
AcDbEntity
  8
_U+30EC_U+30A4_U+30E4_U+30FC 1
370
     0
  0
HATCH
  5
A9
330
9C
100
AcDbEntity
  8
_U+30EC_U+30A4_U+30E4_U+30FC 1
 62
   179
420
  2234388
100
AcDbHatch
 10
0.0
 20
0.0
 30
0.0
210
0.0
220
0.0
230
1.0
  2
SOLID
 70
     1
 71
     0
 91
        1
 92
        1
 93
        4
 72
     1
 10
101.6782036421152
 20
-137.4882486635446
 11
101.4263671621434
 21
-137.4882486635446
 72
     1
 10
101.4263671621434
 20
-137.4882486635446
 11
101.4263671621434
 21
-137.2364121835728
 72
     1
 10
101.4263671621434
 20
-137.2364121835728
 11
101.6782036421152
 21
-137.2364121835728
 72
     1
 10
101.6782036421152
 20
-137.2364121835728
 11
101.6782036421152
 21
-137.4882486635446
 97
        0
 75
     2
 76
     1
 98
        0
  0
SPLINE
  5
AA
330
9C
100
AcDbEntity
  8
_U+30EC_U+30A4_U+30E4_U+30FC 1
370
     0
100
AcDbSpline
210
0.0
220
0.0
230
1.0
 70
    11
 71
     3
 72
    53
 73
    49
 74
     0
 42
0.0000000001
 43
0.0000000001
 12
1.0
 22
0.0
 32
0.0
 13
1.0
 23
0.0
 33
0.0
 40
0.0
 40
0.0
 40
0.0
 40
0.0
 40
1.0
 40
1.0
 40
1.0
 40
2.0
 40
2.0
 40
2.0
 40
3.0
 40
3.0
 40
3.0
 40
4.0
 40
4.0
 40
4.0
 40
5.0
 40
5.0
 40
5.0
 40
6.0
 40
6.0
 40
6.0
 40
7.0
 40
7.0
 40
7.0
 40
8.0
 40
8.0
 40
8.0
 40
9.0
 40
9.0
 40
9.0
 40
10.0
 40
10.0
 40
10.0
 40
11.0
 40
11.0
 40
11.0
 40
12.0
 40
12.0
 40
12.0
 40
13.0
 40
13.0
 40
13.0
 40
14.0
 40
14.0
 40
14.0
 40
15.0
 40
15.0
 40
15.0
 40
16.0
 40
16.0
 40
16.0
 40
16.0
 10
101.7288465457484
 20
-136.5191433035438
 30
0.0
 10
101.7288465457484
 20
-136.597346971059
 30
0.0
 10
101.7119655778706
 20
-136.6989772878739
 30
0.0
 10
101.648575820942
 20
-136.8006076046887
 30
0.0
 10
101.5386772749626
 20
-136.9738959075968
 30
0.0
 10
101.4074191369745
 20
-136.9952554996053
 30
0.0
 10
101.2995876482862
 20
-137.0142035247742
 30
0.0
 10
101.2995876482862
 20
-137.0142035247742
 30
0.0
 10
101.2995876482862
 20
-136.7919948659756
 30
0.0
 10
101.2995876482862
 20
-136.7919948659756
 30
0.0
 10
101.4983696577851
 20
-136.7372178477601
 30
0.0
 10
101.5279974789583
 20
-136.6100938243544
 30
0.0
 10
101.5279974789583
 20
-136.5170762462527
 30
0.0
 10
101.5279974789583
 20
-136.3775498791001
 30
0.0
 10
101.4284342194346
 20
-136.225276658652
 30
0.0
 10
101.1958902741802
 20
-136.225276658652
 30
0.0
 10
100.9399196796261
 20
-136.225276658652
 30
0.0
 10
100.8699842412756
 20
-136.4051106429821
 30
0.0
 10
100.8699842412756
 20
-136.5256889849658
 30
0.0
 10
100.8699842412756
 20
-136.5573838634301
 30
0.0
 10
100.8699842412756
 20
-136.6989772878739
 30
0.0
 10
100.9991753219724
 20
-136.7878607513933
 30
0.0
 10
100.9991753219724
 20
-136.7878607513933
 30
0.0
 10
100.9802272968036
 20
-136.9635606211411
 30
0.0
 10
100.9802272968036
 20
-136.9635606211411
 30
0.0
 10
100.9802272968036
 20
-136.9635606211411
 30
0.0
 10
100.1337673360777
 20
-136.8429822791573
 30
0.0
 10
100.1337673360777
 20
-136.8429822791573
 30
0.0
 10
100.1337673360777
 20
-136.8429822791573
 30
0.0
 10
100.1337673360777
 20
-136.0643906994908
 30
0.0
 10
100.1337673360777
 20
-136.0643906994908
 30
0.0
 10
100.1337673360777
 20
-136.0643906994908
 30
0.0
 10
100.3284152309943
 20
-136.0643906994908
 30
0.0
 10
100.3284152309943
 20
-136.0643906994908
 30
0.0
 10
100.3284152309943
 20
-136.0643906994908
 30
0.0
 10
100.3284152309943
 20
-136.680029262705
 30
0.0
 10
100.3284152309943
 20
-136.680029262705
 30
0.0
 10
100.3284152309943
 20
-136.680029262705
 30
0.0
 10
100.751472956583
 20
-136.7454860769247
 30
0.0
 10
100.751472956583
 20
-136.7454860769247
 30
0.0
 10
100.7177110208275
 20
-136.6841633772873
 30
0.0
 10
100.6774034036501
 20
-136.6018255951898
 30
0.0
 10
100.6774034036501
 20
-136.4833143104972
 30
0.0
 10
100.6774034036501
 20
-136.2294107732343
 30
0.0
 10
100.8637830694021
 20
-135.9923882038491
 30
0.0
 10
101.1769422490113
 20
-135.9923882038491
 30
0.0
 10
101.4942355432028
 20
-135.9923882038491
 30
0.0
 10
101.7288465457484
 20
-136.2166639199389
 30
0.0
 10
101.7288465457484
 20
-136.5191433035438
 30
0.0
  0
HATCH
  5
AB
330
9C
100
AcDbEntity
  8
_U+30EC_U+30A4_U+30E4_U+30FC 1
 62
   179
420
  2234388
100
AcDbHatch
 10
0.0
 20
0.0
 30
0.0
210
0.0
220
0.0
230
1.0
  2
SOLID
 70
     1
 71
     0
 91
        1
 92
        1
 93
        1
 72
     4
 94
        3
 73
     0
 74
     1
 95
       53
 96
       49
 40
0.0
 40
0.0
 40
0.0
 40
0.0
 40
1.0
 40
1.0
 40
1.0
 40
2.0
 40
2.0
 40
2.0
 40
3.0
 40
3.0
 40
3.0
 40
4.0
 40
4.0
 40
4.0
 40
5.0
 40
5.0
 40
5.0
 40
6.0
 40
6.0
 40
6.0
 40
7.0
 40
7.0
 40
7.0
 40
8.0
 40
8.0
 40
8.0
 40
9.0
 40
9.0
 40
9.0
 40
10.0
 40
10.0
 40
10.0
 40
11.0
 40
11.0
 40
11.0
 40
12.0
 40
12.0
 40
12.0
 40
13.0
 40
13.0
 40
13.0
 40
14.0
 40
14.0
 40
14.0
 40
15.0
 40
15.0
 40
15.0
 40
16.0
 40
16.0
 40
16.0
 40
16.0
 10
101.7288465457484
 20
-136.5191433035438
 10
101.7288465457484
 20
-136.597346971059
 10
101.7119655778706
 20
-136.6989772878739
 10
101.648575820942
 20
-136.8006076046887
 10
101.5386772749626
 20
-136.9738959075968
 10
101.4074191369745
 20
-136.9952554996053
 10
101.2995876482862
 20
-137.0142035247742
 10
101.2995876482862
 20
-137.0142035247742
 10
101.2995876482862
 20
-136.7919948659756
 10
101.2995876482862
 20
-136.7919948659756
 10
101.4983696577851
 20
-136.7372178477601
 10
101.5279974789583
 20
-136.6100938243544
 10
101.5279974789583
 20
-136.5170762462527
 10
101.5279974789583
 20
-136.3775498791001
 10
101.4284342194346
 20
-136.225276658652
 10
101.1958902741802
 20
-136.225276658652
 10
100.9399196796261
 20
-136.225276658652
 10
100.8699842412756
 20
-136.4051106429821
 10
100.8699842412756
 20
-136.5256889849658
 10
100.8699842412756
 20
-136.5573838634301
 10
100.8699842412756
 20
-136.6989772878739
 10
100.9991753219724
 20
-136.7878607513933
 10
100.9991753219724
 20
-136.7878607513933
 10
100.9802272968036
 20
-136.9635606211411
 10
100.9802272968036
 20
-136.9635606211411
 10
100.9802272968036
 20
-136.9635606211411
 10
100.1337673360777
 20
-136.8429822791573
 10
100.1337673360777
 20
-136.8429822791573
 10
100.1337673360777
 20
-136.8429822791573
 10
100.1337673360777
 20
-136.0643906994908
 10
100.1337673360777
 20
-136.0643906994908
 10
100.1337673360777
 20
-136.0643906994908
 10
100.3284152309943
 20
-136.0643906994908
 10
100.3284152309943
 20
-136.0643906994908
 10
100.3284152309943
 20
-136.0643906994908
 10
100.3284152309943
 20
-136.680029262705
 10
100.3284152309943
 20
-136.680029262705
 10
100.3284152309943
 20
-136.680029262705
 10
100.751472956583
 20
-136.7454860769247
 10
100.751472956583
 20
-136.7454860769247
 10
100.7177110208275
 20
-136.6841633772873
 10
100.6774034036501
 20
-136.6018255951898
 10
100.6774034036501
 20
-136.4833143104972
 10
100.6774034036501
 20
-136.2294107732343
 10
100.8637830694021
 20
-135.9923882038491
 10
101.1769422490113
 20
-135.9923882038491
 10
101.4942355432028
 20
-135.9923882038491
 10
101.7288465457484
 20
-136.2166639199389
 10
101.7288465457484
 20
-136.5191433035438
 97
        0
 97
        0
 75
     2
 76
     1
 98
        0
  0
ENDBLK
  5
9F
330
9C
100
AcDbEntity
  8
0
100
AcDbBlockEnd
  0
ENDSEC
  0
SECTION
  2
ENTITIES
  0
POLYLINE
  5
41
330
1F
100
AcDbEntity
  8
_U+30EC_U+30A4_U+30E4_U+30FC 1
370
     0
100
AcDb2dPolyline
 66
     1
 10
0.0
 20
0.0
 30
0.0
  0
VERTEX
  5
42
330
41
100
AcDbEntity
  8
_U+30EC_U+30A4_U+30E4_U+30FC 1
370
     0
100
AcDbVertex
100
AcDb2dVertex
 10
77.90359717918032
 20
-137.6708221878044
 30
0.0
  0
VERTEX
  5
43
330
41
100
AcDbEntity
  8
_U+30EC_U+30A4_U+30E4_U+30FC 1
370
     0
100
AcDbVertex
100
AcDb2dVertex
 10
92.90353151872235
 20
-137.6708221878044
 30
0.0
  0
VERTEX
  5
44
330
41
100
AcDbEntity
  8
_U+30EC_U+30A4_U+30E4_U+30FC 1
370
     0
100
AcDbVertex
100
AcDb2dVertex
 10
92.90353151872235
 20
-122.6707110804435
 30
0.0
  0
VERTEX
  5
45
330
41
100
AcDbEntity
  8
_U+30EC_U+30A4_U+30E4_U+30FC 1
370
     0
100
AcDbVertex
100
AcDb2dVertex
 10
77.90359717918032
 20
-122.6707110804435
 30
0.0
  0
VERTEX
  5
46
330
41
100
AcDbEntity
  8
_U+30EC_U+30A4_U+30E4_U+30FC 1
370
     0
100
AcDbVertex
100
AcDb2dVertex
 10
77.90359717918032
 20
-137.6708221878044
 30
0.0
  0
SEQEND
  5
47
330
41
100
AcDbEntity
  8
_U+30EC_U+30A4_U+30E4_U+30FC 1
370
     0
  0
POLYLINE
  5
48
330
1F
100
AcDbEntity
  8
_U+30EC_U+30A4_U+30E4_U+30FC 1
370
     0
100
AcDb2dPolyline
 66
     1
 10
0.0
 20
0.0
 30
0.0
  0
VERTEX
  5
49
330
48
100
AcDbEntity
  8
_U+30EC_U+30A4_U+30E4_U+30FC 1
370
     0
100
AcDbVertex
100
AcDb2dVertex
 10
79.40360825202296
 20
-124.1707221911794
 30
0.0
  0
VERTEX
  5
4A
330
48
100
AcDbEntity
  8
_U+30EC_U+30A4_U+30E4_U+30FC 1
370
     0
100
AcDbVertex
100
AcDb2dVertex
 10
91.40355572365658
 20
-124.1707221911794
 30
0.0
  0
VERTEX
  5
4B
330
48
100
AcDbEntity
  8
_U+30EC_U+30A4_U+30E4_U+30FC 1
370
     0
100
AcDbVertex
100
AcDb2dVertex
 10
91.40355572365658
 20
-136.1708463548463
 30
0.0
  0
VERTEX
  5
4C
330
48
100
AcDbEntity
  8
_U+30EC_U+30A4_U+30E4_U+30FC 1
370
     0
100
AcDbVertex
100
AcDb2dVertex
 10
79.40360825202296
 20
-136.1708463548463
 30
0.0
  0
VERTEX
  5
4D
330
48
100
AcDbEntity
  8
_U+30EC_U+30A4_U+30E4_U+30FC 1
370
     0
100
AcDbVertex
100
AcDb2dVertex
 10
79.40360825202296
 20
-124.1707221911794
 30
0.0
  0
SEQEND
  5
4E
330
48
100
AcDbEntity
  8
_U+30EC_U+30A4_U+30E4_U+30FC 1
370
     0
  0
HATCH
  5
4F
330
1F
100
AcDbEntity
  8
_U+30EC_U+30A4_U+30E4_U+30FC 1
 62
   253
420
 11711154
100
AcDbHatch
 10
0.0
 20
0.0
 30
0.0
210
0.0
220
0.0
230
1.0
  2
SOLID
 70
     1
 71
     0
 91
        2
 92
        1
 93
        4
 72
     1
 10
77.90359717918032
 20
-137.6708221878044
 11
92.90353151872235
 21
-137.6708221878044
 72
     1
 10
92.90353151872235
 20
-137.6708221878044
 11
92.90353151872235
 21
-122.6707110804435
 72
     1
 10
92.90353151872235
 20
-122.6707110804435
 11
77.90359717918032
 21
-122.6707110804435
 72
     1
 10
77.90359717918032
 20
-122.6707110804435
 11
77.90359717918032
 21
-137.6708221878044
 97
        0
 92
        1
 93
        4
 72
     1
 10
79.40360825202296
 20
-124.1707221911794
 11
91.40355572365658
 21
-124.1707221911794
 72
     1
 10
91.40355572365658
 20
-124.1707221911794
 11
91.40355572365658
 21
-136.1708463548463
 72
     1
 10
91.40355572365658
 20
-136.1708463548463
 11
79.40360825202296
 21
-136.1708463548463
 72
     1
 10
79.40360825202296
 20
-136.1708463548463
 11
79.40360825202296
 21
-124.1707221911794
 97
        0
 75
     2
 76
     1
 98
        0
  0
POLYLINE
  5
50
330
1F
100
AcDbEntity
  8
_U+30EC_U+30A4_U+30E4_U+30FC 1
 62
   179
420
  2234388
370
    25
100
AcDb2dPolyline
 66
     1
 10
0.0
 20
0.0
 30
0.0
  0
VERTEX
  5
51
330
50
100
AcDbEntity
  8
_U+30EC_U+30A4_U+30E4_U+30FC 1
 62
   179
420
  2234388
370
    25
100
AcDbVertex
100
AcDb2dVertex
 10
77.90359717918032
 20
-122.6707110804435
 30
0.0
  0
VERTEX
  5
52
330
50
100
AcDbEntity
  8
_U+30EC_U+30A4_U+30E4_U+30FC 1
 62
   179
420
  2234388
370
    25
100
AcDbVertex
100
AcDb2dVertex
 10
77.90359717918032
 20
-137.6708221878044
 30
0.0
  0
SEQEND
  5
53
330
50
100
AcDbEntity
  8
_U+30EC_U+30A4_U+30E4_U+30FC 1
 62
   179
420
  2234388
370
    25
  0
POLYLINE
  5
54
330
1F
100
AcDbEntity
  8
_U+30EC_U+30A4_U+30E4_U+30FC 1
 62
   179
420
  2234388
370
    25
100
AcDb2dPolyline
 66
     1
 10
0.0
 20
0.0
 30
0.0
  0
VERTEX
  5
55
330
54
100
AcDbEntity
  8
_U+30EC_U+30A4_U+30E4_U+30FC 1
 62
   179
420
  2234388
370
    25
100
AcDbVertex
100
AcDb2dVertex
 10
92.90353151872235
 20
-122.6707110804435
 30
0.0
  0
VERTEX
  5
56
330
54
100
AcDbEntity
  8
_U+30EC_U+30A4_U+30E4_U+30FC 1
 62
   179
420
  2234388
370
    25
100
AcDbVertex
100
AcDb2dVertex
 10
92.90353151872235
 20
-137.6708221878044
 30
0.0
  0
SEQEND
  5
57
330
54
100
AcDbEntity
  8
_U+30EC_U+30A4_U+30E4_U+30FC 1
 62
   179
420
  2234388
370
    25
  0
POLYLINE
  5
58
330
1F
100
AcDbEntity
  8
_U+30EC_U+30A4_U+30E4_U+30FC 1
 62
   179
420
  2234388
370
    25
100
AcDb2dPolyline
 66
     1
 10
0.0
 20
0.0
 30
0.0
  0
VERTEX
  5
59
330
58
100
AcDbEntity
  8
_U+30EC_U+30A4_U+30E4_U+30FC 1
 62
   179
420
  2234388
370
    25
100
AcDbVertex
100
AcDb2dVertex
 10
77.90359717918032
 20
-137.6708221878044
 30
0.0
  0
VERTEX
  5
5A
330
58
100
AcDbEntity
  8
_U+30EC_U+30A4_U+30E4_U+30FC 1
 62
   179
420
  2234388
370
    25
100
AcDbVertex
100
AcDb2dVertex
 10
92.90353151872235
 20
-137.6708221878044
 30
0.0
  0
SEQEND
  5
5B
330
58
100
AcDbEntity
  8
_U+30EC_U+30A4_U+30E4_U+30FC 1
 62
   179
420
  2234388
370
    25
  0
POLYLINE
  5
5C
330
1F
100
AcDbEntity
  8
_U+30EC_U+30A4_U+30E4_U+30FC 1
 62
   179
420
  2234388
370
    25
100
AcDb2dPolyline
 66
     1
 10
0.0
 20
0.0
 30
0.0
  0
VERTEX
  5
5D
330
5C
100
AcDbEntity
  8
_U+30EC_U+30A4_U+30E4_U+30FC 1
 62
   179
420
  2234388
370
    25
100
AcDbVertex
100
AcDb2dVertex
 10
77.90359717918032
 20
-122.6707110804435
 30
0.0
  0
VERTEX
  5
5E
330
5C
100
AcDbEntity
  8
_U+30EC_U+30A4_U+30E4_U+30FC 1
 62
   179
420
  2234388
370
    25
100
AcDbVertex
100
AcDb2dVertex
 10
92.90353151872235
 20
-122.6707110804435
 30
0.0
  0
SEQEND
  5
5F
330
5C
100
AcDbEntity
  8
_U+30EC_U+30A4_U+30E4_U+30FC 1
 62
   179
420
  2234388
370
    25
  0
POLYLINE
  5
60
330
1F
100
AcDbEntity
  8
_U+30EC_U+30A4_U+30E4_U+30FC 1
 62
   179
420
  2234388
370
    25
100
AcDb2dPolyline
 66
     1
 10
0.0
 20
0.0
 30
0.0
  0
VERTEX
  5
61
330
60
100
AcDbEntity
  8
_U+30EC_U+30A4_U+30E4_U+30FC 1
 62
   179
420
  2234388
370
    25
100
AcDbVertex
100
AcDb2dVertex
 10
79.40360825202296
 20
-136.1708463548463
 30
0.0
  0
VERTEX
  5
62
330
60
100
AcDbEntity
  8
_U+30EC_U+30A4_U+30E4_U+30FC 1
 62
   179
420
  2234388
370
    25
100
AcDbVertex
100
AcDb2dVertex
 10
91.40355572365658
 20
-136.1708463548463
 30
0.0
  0
SEQEND
  5
63
330
60
100
AcDbEntity
  8
_U+30EC_U+30A4_U+30E4_U+30FC 1
 62
   179
420
  2234388
370
    25
  0
POLYLINE
  5
64
330
1F
100
AcDbEntity
  8
_U+30EC_U+30A4_U+30E4_U+30FC 1
 62
   179
420
  2234388
370
    25
100
AcDb2dPolyline
 66
     1
 10
0.0
 20
0.0
 30
0.0
  0
VERTEX
  5
65
330
64
100
AcDbEntity
  8
_U+30EC_U+30A4_U+30E4_U+30FC 1
 62
   179
420
  2234388
370
    25
100
AcDbVertex
100
AcDb2dVertex
 10
79.40360825202296
 20
-124.1707221911794
 30
0.0
  0
VERTEX
  5
66
330
64
100
AcDbEntity
  8
_U+30EC_U+30A4_U+30E4_U+30FC 1
 62
   179
420
  2234388
370
    25
100
AcDbVertex
100
AcDb2dVertex
 10
91.40355572365658
 20
-124.1707221911794
 30
0.0
  0
SEQEND
  5
67
330
64
100
AcDbEntity
  8
_U+30EC_U+30A4_U+30E4_U+30FC 1
 62
   179
420
  2234388
370
    25
  0
POLYLINE
  5
68
330
1F
100
AcDbEntity
  8
_U+30EC_U+30A4_U+30E4_U+30FC 1
 62
   179
420
  2234388
370
    25
100
AcDb2dPolyline
 66
     1
 10
0.0
 20
0.0
 30
0.0
  0
VERTEX
  5
69
330
68
100
AcDbEntity
  8
_U+30EC_U+30A4_U+30E4_U+30FC 1
 62
   179
420
  2234388
370
    25
100
AcDbVertex
100
AcDb2dVertex
 10
79.40360825202296
 20
-124.1707221911794
 30
0.0
  0
VERTEX
  5
6A
330
68
100
AcDbEntity
  8
_U+30EC_U+30A4_U+30E4_U+30FC 1
 62
   179
420
  2234388
370
    25
100
AcDbVertex
100
AcDb2dVertex
 10
79.40360825202296
 20
-136.1708463548463
 30
0.0
  0
SEQEND
  5
6B
330
68
100
AcDbEntity
  8
_U+30EC_U+30A4_U+30E4_U+30FC 1
 62
   179
420
  2234388
370
    25
  0
POLYLINE
  5
6C
330
1F
100
AcDbEntity
  8
_U+30EC_U+30A4_U+30E4_U+30FC 1
 62
   179
420
  2234388
370
    25
100
AcDb2dPolyline
 66
     1
 10
0.0
 20
0.0
 30
0.0
  0
VERTEX
  5
6D
330
6C
100
AcDbEntity
  8
_U+30EC_U+30A4_U+30E4_U+30FC 1
 62
   179
420
  2234388
370
    25
100
AcDbVertex
100
AcDb2dVertex
 10
91.40355572365658
 20
-124.1707221911794
 30
0.0
  0
VERTEX
  5
6E
330
6C
100
AcDbEntity
  8
_U+30EC_U+30A4_U+30E4_U+30FC 1
 62
   179
420
  2234388
370
    25
100
AcDbVertex
100
AcDb2dVertex
 10
91.40355572365658
 20
-136.1708463548463
 30
0.0
  0
SEQEND
  5
6F
330
6C
100
AcDbEntity
  8
_U+30EC_U+30A4_U+30E4_U+30FC 1
 62
   179
420
  2234388
370
    25
  0
SPLINE
  5
70
330
1F
100
AcDbEntity
  8
_U+30EC_U+30A4_U+30E4_U+30FC 1
 62
   179
420
  2234388
370
     9
100
AcDbSpline
210
0.0
220
0.0
230
1.0
 70
    11
 71
     3
 72
    17
 73
    13
 74
     0
 42
0.0000000001
 43
0.0000000001
 12
1.0
 22
0.0
 32
0.0
 13
1.0
 23
0.0
 33
0.0
 40
0.0
 40
0.0
 40
0.0
 40
0.0
 40
1.0
 40
1.0
 40
1.0
 40
2.0
 40
2.0
 40
2.0
 40
3.0
 40
3.0
 40
3.0
 40
4.0
 40
4.0
 40
4.0
 40
4.0
 10
97.00355002523327
 20
-137.6708221878044
 30
0.0
 10
97.00355002523327
 20
-137.6157182989295
 30
0.0
 10
96.95878252637537
 20
-137.5709155211627
 30
0.0
 10
96.90364336111543
 20
-137.5709155211627
 30
0.0
 10
96.84853947363236
 20
-137.5709155211627
 30
0.0
 10
96.80373669699759
 20
-137.6157182989295
 30
0.0
 10
96.80373669699759
 20
-137.6708221878044
 30
0.0
 10
96.80373669699759
 20
-137.7259613544575
 30
0.0
 10
96.84853947363236
 20
-137.7707641322242
 30
0.0
 10
96.90364336111543
 20
-137.7707641322242
 30
0.0
 10
96.95878252637537
 20
-137.7707641322242
 30
0.0
 10
97.00355002523327
 20
-137.7259613544575
 30
0.0
 10
97.00355002523327
 20
-137.6708221878044
 30
0.0
  0
SPLINE
  5
71
330
1F
100
AcDbEntity
  8
_U+30EC_U+30A4_U+30E4_U+30FC 1
 62
   179
420
  2234388
370
     9
100
AcDbSpline
210
0.0
220
0.0
230
1.0
 70
    11
 71
     3
 72
    17
 73
    13
 74
     0
 42
0.0000000001
 43
0.0000000001
 12
1.0
 22
0.0
 32
0.0
 13
1.0
 23
0.0
 33
0.0
 40
0.0
 40
0.0
 40
0.0
 40
0.0
 40
1.0
 40
1.0
 40
1.0
 40
2.0
 40
2.0
 40
2.0
 40
3.0
 40
3.0
 40
3.0
 40
4.0
 40
4.0
 40
4.0
 40
4.0
 10
97.00355002523327
 20
-122.6707110804435
 30
0.0
 10
97.00355002523327
 20
-122.6156071915682
 30
0.0
 10
96.95878252637537
 20
-122.5708044138018
 30
0.0
 10
96.90364336111543
 20
-122.5708044138018
 30
0.0
 10
96.84853947363236
 20
-122.5708044138018
 30
0.0
 10
96.80373669699759
 20
-122.6156071915682
 30
0.0
 10
96.80373669699759
 20
-122.6707110804435
 30
0.0
 10
96.80373669699759
 20
-122.7258502470962
 30
0.0
 10
96.84853947363236
 20
-122.7706177470851
 30
0.0
 10
96.90364336111543
 20
-122.7706177470851
 30
0.0
 10
96.95878252637537
 20
-122.7706177470851
 30
0.0
 10
97.00355002523327
 20
-122.7258502470962
 30
0.0
 10
97.00355002523327
 20
-122.6707110804435
 30
0.0
  0
SPLINE
  5
72
330
1F
100
AcDbEntity
  8
_U+30EC_U+30A4_U+30E4_U+30FC 1
 62
   179
420
  2234388
370
     9
100
AcDbSpline
210
0.0
220
0.0
230
1.0
 70
    11
 71
     3
 72
    17
 73
    13
 74
     0
 42
0.0000000001
 43
0.0000000001
 12
1.0
 22
0.0
 32
0.0
 13
1.0
 23
0.0
 33
0.0
 40
0.0
 40
0.0
 40
0.0
 40
0.0
 40
1.0
 40
1.0
 40
1.0
 40
2.0
 40
2.0
 40
2.0
 40
3.0
 40
3.0
 40
3.0
 40
4.0
 40
4.0
 40
4.0
 40
4.0
 10
93.00379096060895
 20
-118.6709519147766
 30
0.0
 10
93.00379096060895
 20
-118.6158480259017
 30
0.0
 10
92.95902346175107
 20
-118.5710452481349
 30
0.0
 10
92.90353151872235
 20
-118.5710452481349
 30
0.0
 10
92.84842763123926
 20
-118.5710452481349
 30
0.0
 10
92.80362485460451
 20
-118.6158480259017
 30
0.0
 10
92.80362485460451
 20
-118.6709519147766
 30
0.0
 10
92.80362485460451
 20
-118.7260910814297
 30
0.0
 10
92.84842763123926
 20
-118.7708585814185
 30
0.0
 10
92.90353151872235
 20
-118.7708585814185
 30
0.0
 10
92.95902346175107
 20
-118.7708585814185
 30
0.0
 10
93.00379096060895
 20
-118.7260910814297
 30
0.0
 10
93.00379096060895
 20
-118.6709519147766
 30
0.0
  0
SPLINE
  5
73
330
1F
100
AcDbEntity
  8
_U+30EC_U+30A4_U+30E4_U+30FC 1
 62
   179
420
  2234388
370
     9
100
AcDbSpline
210
0.0
220
0.0
230
1.0
 70
    11
 71
     3
 72
    17
 73
    13
 74
     0
 42
0.0000000001
 43
0.0000000001
 12
1.0
 22
0.0
 32
0.0
 13
1.0
 23
0.0
 33
0.0
 40
0.0
 40
0.0
 40
0.0
 40
0.0
 40
1.0
 40
1.0
 40
1.0
 40
2.0
 40
2.0
 40
2.0
 40
3.0
 40
3.0
 40
3.0
 40
4.0
 40
4.0
 40
4.0
 40
4.0
 10
78.00368023218255
 20
-118.6709519147766
 30
0.0
 10
78.00368023218255
 20
-118.6158480259017
 30
0.0
 10
77.95887745554778
 20
-118.5710452481349
 30
0.0
 10
77.90359717918032
 20
-118.5710452481349
 30
0.0
 10
77.84849329169725
 20
-118.5710452481349
 30
0.0
 10
77.80369051506248
 20
-118.6158480259017
 30
0.0
 10
77.80369051506248
 20
-118.6709519147766
 30
0.0
 10
77.80369051506248
 20
-118.7260910814297
 30
0.0
 10
77.84849329169725
 20
-118.7708585814185
 30
0.0
 10
77.90359717918032
 20
-118.7708585814185
 30
0.0
 10
77.95887745554778
 20
-118.7708585814185
 30
0.0
 10
78.00368023218255
 20
-118.7260910814297
 30
0.0
 10
78.00368023218255
 20
-118.6709519147766
 30
0.0
  0
POLYLINE
  5
74
330
1F
100
AcDbEntity
  8
_U+30EC_U+30A4_U+30E4_U+30FC 1
 62
   179
420
  2234388
370
     9
100
AcDb2dPolyline
 66
     1
 10
0.0
 20
0.0
 30
0.0
  0
VERTEX
  5
75
330
74
100
AcDbEntity
  8
_U+30EC_U+30A4_U+30E4_U+30FC 1
 62
   179
420
  2234388
370
     9
100
AcDbVertex
100
AcDb2dVertex
 10
96.90364336111543
 20
-122.6707110804435
 30
0.0
  0
VERTEX
  5
76
330
74
100
AcDbEntity
  8
_U+30EC_U+30A4_U+30E4_U+30FC 1
 62
   179
420
  2234388
370
     9
100
AcDbVertex
100
AcDb2dVertex
 10
96.90364336111543
 20
-137.6708221878044
 30
0.0
  0
SEQEND
  5
77
330
74
100
AcDbEntity
  8
_U+30EC_U+30A4_U+30E4_U+30FC 1
 62
   179
420
  2234388
370
     9
  0
POLYLINE
  5
78
330
1F
100
AcDbEntity
  8
_U+30EC_U+30A4_U+30E4_U+30FC 1
 62
   179
420
  2234388
370
     9
100
AcDb2dPolyline
 66
     1
 10
0.0
 20
0.0
 30
0.0
  0
VERTEX
  5
79
330
78
100
AcDbEntity
  8
_U+30EC_U+30A4_U+30E4_U+30FC 1
 62
   179
420
  2234388
370
     9
100
AcDbVertex
100
AcDb2dVertex
 10
95.4436020094753
 20
-122.6707110804435
 30
0.0
  0
VERTEX
  5
7A
330
78
100
AcDbEntity
  8
_U+30EC_U+30A4_U+30E4_U+30FC 1
 62
   179
420
  2234388
370
     9
100
AcDbVertex
100
AcDb2dVertex
 10
97.90376833560012
 20
-122.6707110804435
 30
0.0
  0
SEQEND
  5
7B
330
78
100
AcDbEntity
  8
_U+30EC_U+30A4_U+30E4_U+30FC 1
 62
   179
420
  2234388
370
     9
  0
POLYLINE
  5
7C
330
1F
100
AcDbEntity
  8
_U+30EC_U+30A4_U+30E4_U+30FC 1
 62
   179
420
  2234388
370
     9
100
AcDb2dPolyline
 66
     1
 10
0.0
 20
0.0
 30
0.0
  0
VERTEX
  5
7D
330
7C
100
AcDbEntity
  8
_U+30EC_U+30A4_U+30E4_U+30FC 1
 62
   179
420
  2234388
370
     9
100
AcDbVertex
100
AcDb2dVertex
 10
95.4436020094753
 20
-137.6708221878044
 30
0.0
  0
VERTEX
  5
7E
330
7C
100
AcDbEntity
  8
_U+30EC_U+30A4_U+30E4_U+30FC 1
 62
   179
420
  2234388
370
     9
100
AcDbVertex
100
AcDb2dVertex
 10
99.64938329106576
 20
-137.6708221878044
 30
0.0
  0
SEQEND
  5
7F
330
7C
100
AcDbEntity
  8
_U+30EC_U+30A4_U+30E4_U+30FC 1
 62
   179
420
  2234388
370
     9
  0
INSERT
  5
81
330
1F
100
AcDbEntity
  8
_U+30EC_U+30A4_U+30E4_U+30FC 1
100
AcDbBlockReference
  2
block 2
 10
0.0
 20
0.0
 30
0.0
  0
POLYLINE
  5
88
330
1F
100
AcDbEntity
  8
_U+30EC_U+30A4_U+30E4_U+30FC 1
 62
   179
420
  2234388
370
     9
100
AcDb2dPolyline
 66
     1
 10
0.0
 20
0.0
 30
0.0
  0
VERTEX
  5
89
330
88
100
AcDbEntity
  8
_U+30EC_U+30A4_U+30E4_U+30FC 1
 62
   179
420
  2234388
370
     9
100
AcDbVertex
100
AcDb2dVertex
 10
77.90359717918032
 20
-118.6709519147766
 30
0.0
  0
VERTEX
  5
8A
330
88
100
AcDbEntity
  8
_U+30EC_U+30A4_U+30E4_U+30FC 1
 62
   179
420
  2234388
370
     9
100
AcDbVertex
100
AcDb2dVertex
 10
92.90353151872235
 20
-118.6709519147766
 30
0.0
  0
SEQEND
  5
8B
330
88
100
AcDbEntity
  8
_U+30EC_U+30A4_U+30E4_U+30FC 1
 62
   179
420
  2234388
370
     9
  0
POLYLINE
  5
8C
330
1F
100
AcDbEntity
  8
_U+30EC_U+30A4_U+30E4_U+30FC 1
 62
   179
420
  2234388
370
     9
100
AcDb2dPolyline
 66
     1
 10
0.0
 20
0.0
 30
0.0
  0
VERTEX
  5
8D
330
8C
100
AcDbEntity
  8
_U+30EC_U+30A4_U+30E4_U+30FC 1
 62
   179
420
  2234388
370
     9
100
AcDbVertex
100
AcDb2dVertex
 10
77.90359717918032
 20
-120.1309933033006
 30
0.0
  0
VERTEX
  5
8E
330
8C
100
AcDbEntity
  8
_U+30EC_U+30A4_U+30E4_U+30FC 1
 62
   179
420
  2234388
370
     9
100
AcDbVertex
100
AcDb2dVertex
 10
77.90359717918032
 20
-117.6708621928044
 30
0.0
  0
SEQEND
  5
8F
330
8C
100
AcDbEntity
  8
_U+30EC_U+30A4_U+30E4_U+30FC 1
 62
   179
420
  2234388
370
     9
  0
POLYLINE
  5
90
330
1F
100
AcDbEntity
  8
_U+30EC_U+30A4_U+30E4_U+30FC 1
 62
   179
420
  2234388
370
     9
100
AcDb2dPolyline
 66
     1
 10
0.0
 20
0.0
 30
0.0
  0
VERTEX
  5
91
330
90
100
AcDbEntity
  8
_U+30EC_U+30A4_U+30E4_U+30FC 1
 62
   179
420
  2234388
370
     9
100
AcDbVertex
100
AcDb2dVertex
 10
92.90353151872235
 20
-120.1309933033006
 30
0.0
  0
VERTEX
  5
92
330
90
100
AcDbEntity
  8
_U+30EC_U+30A4_U+30E4_U+30FC 1
 62
   179
420
  2234388
370
     9
100
AcDbVertex
100
AcDb2dVertex
 10
92.90353151872235
 20
-117.6708621928044
 30
0.0
  0
SEQEND
  5
93
330
90
100
AcDbEntity
  8
_U+30EC_U+30A4_U+30E4_U+30FC 1
 62
   179
420
  2234388
370
     9
  0
INSERT
  5
95
330
1F
100
AcDbEntity
  8
_U+30EC_U+30A4_U+30E4_U+30FC 1
100
AcDbBlockReference
  2
block 3
 10
0.0
 20
0.0
 30
0.0
  0
INSERT
  5
9D
330
1F
100
AcDbEntity
  8
_U+30EC_U+30A4_U+30E4_U+30FC 1
100
AcDbBlockReference
  2
block 4
 10
0.0
 20
0.0
 30
0.0
  0
SPLINE
  5
AC
330
1F
100
AcDbEntity
  8
_U+30EC_U+30A4_U+30E4_U+30FC 1
 62
   179
420
  2234388
370
     9
100
AcDbSpline
210
0.0
220
0.0
230
1.0
 70
    11
 71
     3
 72
    17
 73
    13
 74
     0
 42
0.0000000001
 43
0.0000000001
 12
1.0
 22
0.0
 32
0.0
 13
1.0
 23
0.0
 33
0.0
 40
0.0
 40
0.0
 40
0.0
 40
0.0
 40
1.0
 40
1.0
 40
1.0
 40
2.0
 40
2.0
 40
2.0
 40
3.0
 40
3.0
 40
3.0
 40
4.0
 40
4.0
 40
4.0
 40
4.0
 10
98.32198886430858
 20
-136.135004132633
 30
0.0
 10
98.32198886430858
 20
-136.0799002437581
 30
0.0
 10
98.27721888162816
 20
-136.0350974659914
 30
0.0
 10
98.2220797163682
 20
-136.0350974659914
 30
0.0
 10
98.16662305111636
 20
-136.0350974659914
 30
0.0
 10
98.12217305225037
 20
-136.0799002437581
 30
0.0
 10
98.12217305225037
 20
-136.135004132633
 30
0.0
 10
98.12217305225037
 20
-136.1901432992861
 30
0.0
 10
98.16662305111636
 20
-136.2349107992747
 30
0.0
 10
98.2220797163682
 20
-136.2349107992747
 30
0.0
 10
98.27721888162816
 20
-136.2349107992747
 30
0.0
 10
98.32198886430858
 20
-136.1901432992861
 30
0.0
 10
98.32198886430858
 20
-136.135004132633
 30
0.0
  0
SPLINE
  5
AD
330
1F
100
AcDbEntity
  8
_U+30EC_U+30A4_U+30E4_U+30FC 1
 62
   179
420
  2234388
370
     9
100
AcDbSpline
210
0.0
220
0.0
230
1.0
 70
    11
 71
     3
 72
    17
 73
    13
 74
     0
 42
0.0000000001
 43
0.0000000001
 12
1.0
 22
0.0
 32
0.0
 13
1.0
 23
0.0
 33
0.0
 40
0.0
 40
0.0
 40
0.0
 40
0.0
 40
1.0
 40
1.0
 40
1.0
 40
2.0
 40
2.0
 40
2.0
 40
3.0
 40
3.0
 40
3.0
 40
4.0
 40
4.0
 40
4.0
 40
4.0
 10
96.99942497575042
 20
-136.135004132633
 30
0.0
 10
96.99942497575042
 20
-136.0799002437581
 30
0.0
 10
96.9546221979837
 20
-136.0350974659914
 30
0.0
 10
96.89951586122073
 20
-136.0350974659914
 30
0.0
 10
96.84405919596888
 20
-136.0350974659914
 30
0.0
 10
96.7996091971029
 20
-136.0799002437581
 30
0.0
 10
96.7996091971029
 20
-136.135004132633
 30
0.0
 10
96.7996091971029
 20
-136.1901432992861
 30
0.0
 10
96.84405919596888
 20
-136.2349107992747
 30
0.0
 10
96.89951586122073
 20
-136.2349107992747
 30
0.0
 10
96.9546221979837
 20
-136.2349107992747
 30
0.0
 10
96.99942497575042
 20
-136.1901432992861
 30
0.0
 10
96.99942497575042
 20
-136.135004132633
 30
0.0
  0
SPLINE
  5
AE
330
1F
100
AcDbEntity
  8
_U+30EC_U+30A4_U+30E4_U+30FC 1
 62
   179
420
  2234388
370
     9
100
AcDbSpline
210
0.0
220
0.0
230
1.0
 70
    11
 71
     3
 72
    17
 73
    13
 74
     0
 42
0.0000000001
 43
0.0000000001
 12
1.0
 22
0.0
 32
0.0
 13
1.0
 23
0.0
 33
0.0
 40
0.0
 40
0.0
 40
0.0
 40
0.0
 40
1.0
 40
1.0
 40
1.0
 40
2.0
 40
2.0
 40
2.0
 40
3.0
 40
3.0
 40
3.0
 40
4.0
 40
4.0
 40
4.0
 40
4.0
 10
98.32198886430858
 20
-137.6687760766941
 30
0.0
 10
98.32198886430858
 20
-137.6136369100411
 30
0.0
 10
98.27721888162816
 20
-137.5688694100525
 30
0.0
 10
98.2220797163682
 20
-137.5688694100525
 30
0.0
 10
98.16662305111636
 20
-137.5688694100525
 30
0.0
 10
98.12217305225037
 20
-137.6136369100411
 30
0.0
 10
98.12217305225037
 20
-137.6687760766941
 30
0.0
 10
98.12217305225037
 20
-137.723879965569
 30
0.0
 10
98.16662305111636
 20
-137.7686827433358
 30
0.0
 10
98.2220797163682
 20
-137.7686827433358
 30
0.0
 10
98.27721888162816
 20
-137.7686827433358
 30
0.0
 10
98.32198886430858
 20
-137.723879965569
 30
0.0
 10
98.32198886430858
 20
-137.6687760766941
 30
0.0
  0
POLYLINE
  5
AF
330
1F
100
AcDbEntity
  8
_U+30EC_U+30A4_U+30E4_U+30FC 1
 62
   179
420
  2234388
370
     9
100
AcDb2dPolyline
 66
     1
 10
0.0
 20
0.0
 30
0.0
  0
VERTEX
  5
B0
330
AF
100
AcDbEntity
  8
_U+30EC_U+30A4_U+30E4_U+30FC 1
 62
   179
420
  2234388
370
     9
100
AcDbVertex
100
AcDb2dVertex
 10
98.2220797163682
 20
-138.5548480209168
 30
0.0
  0
VERTEX
  5
B1
330
AF
100
AcDbEntity
  8
_U+30EC_U+30A4_U+30E4_U+30FC 1
 62
   179
420
  2234388
370
     9
100
AcDbVertex
100
AcDb2dVertex
 10
98.2220797163682
 20
-134.5547360774727
 30
0.0
  0
SEQEND
  5
B2
330
AF
100
AcDbEntity
  8
_U+30EC_U+30A4_U+30E4_U+30FC 1
 62
   179
420
  2234388
370
     9
  0
POLYLINE
  5
B3
330
1F
100
AcDbEntity
  8
_U+30EC_U+30A4_U+30E4_U+30FC 1
 62
   179
420
  2234388
370
     9
100
AcDb2dPolyline
 66
     1
 10
0.0
 20
0.0
 30
0.0
  0
VERTEX
  5
B4
330
B3
100
AcDbEntity
  8
_U+30EC_U+30A4_U+30E4_U+30FC 1
 62
   179
420
  2234388
370
     9
100
AcDbVertex
100
AcDb2dVertex
 10
93.55913608772146
 20
-136.142588854853
 30
0.0
  0
VERTEX
  5
B5
330
B3
100
AcDbEntity
  8
_U+30EC_U+30A4_U+30E4_U+30FC 1
 62
   179
420
  2234388
370
     9
100
AcDbVertex
100
AcDb2dVertex
 10
99.64938329106576
 20
-136.142588854853
 30
0.0
  0
SEQEND
  5
B6
330
B3
100
AcDbEntity
  8
_U+30EC_U+30A4_U+30E4_U+30FC 1
 62
   179
420
  2234388
370
     9
  0
ENDSEC
  0
SECTION
  2
OBJECTS
  0
DICTIONARY
  5
C
330
0
100
AcDbDictionary
281
     1
  3
ACAD_GROUP
350
D
  3
ACAD_LAYOUT
350
1A
  3
ACAD_MATERIAL
350
3B
  3
ACAD_MLEADERSTYLE
350
B8
  3
ACAD_MLINESTYLE
350
17
  3
ACAD_PLOTSETTINGS
350
19
  3
ACAD_PLOTSTYLENAME
350
E
  3
ACAD_TABLESTYLE
350
B7
  3
ACAD_VISUALSTYLE
350
2A
  0
SUN
  5
3F
330
29
100
AcDbSun
 90
        1
290
     0
 63
     7
421
 16777215
 40
1.0
291
     1
 91
  2455826
 92
 54000000
292
     0
 70
     2
 71
   256
280
     1
  0
DICTIONARY
  5
D
102
{ACAD_REACTORS
330
C
102
}
330
C
100
AcDbDictionary
281
     1
  0
DICTIONARY
  5
1A
102
{ACAD_REACTORS
330
C
102
}
330
C
100
AcDbDictionary
281
     1
  3
Layout1
350
1E
  3
Layout2
350
26
  3
Model
350
22
  0
DICTIONARY
  5
3B
102
{ACAD_REACTORS
330
C
102
}
330
C
100
AcDbDictionary
281
     1
  3
ByBlock
350
3D
  3
ByLayer
350
3C
  3
Global
350
3E
  0
DICTIONARY
  5
B8
102
{ACAD_REACTORS
330
C
102
}
330
C
100
AcDbDictionary
281
     1
  0
DICTIONARY
  5
17
102
{ACAD_REACTORS
330
C
102
}
330
C
100
AcDbDictionary
281
     1
  3
Standard
350
18
  0
DICTIONARY
  5
19
102
{ACAD_REACTORS
330
C
102
}
330
C
100
AcDbDictionary
281
     1
  0
ACDBDICTIONARYWDFLT
  5
E
102
{ACAD_REACTORS
330
C
102
}
330
C
100
AcDbDictionary
281
     1
  3
Normal
350
F
100
AcDbDictionaryWithDefault
340
F
  0
DICTIONARY
  5
B7
102
{ACAD_REACTORS
330
C
102
}
330
C
100
AcDbDictionary
281
     1
  0
DICTIONARY
  5
2A
102
{ACAD_REACTORS
330
C
102
}
330
C
100
AcDbDictionary
281
     1
  3
2dWireframe
350
2F
  3
3D Hidden
350
31
  3
3dWireframe
350
30
  3
Basic
350
32
  3
Brighten
350
36
  3
ColorChange
350
3A
  3
Conceptual
350
34
  3
Dim
350
35
  3
Facepattern
350
39
  3
Flat
350
2B
  3
FlatWithEdges
350
2C
  3
Gouraud
350
2D
  3
GouraudWithEdges
350
2E
  3
Linepattern
350
38
  3
Realistic
350
33
  3
Thicken
350
37
  0
LAYOUT
  5
1E
102
{ACAD_REACTORS
330
1A
102
}
330
1A
100
AcDbPlotSettings
  1

  2
none_device
  4

  6

 40
0.0
 41
0.0
 42
0.0
 43
0.0
 44
0.0
 45
0.0
 46
0.0
 47
0.0
 48
0.0
 49
0.0
140
0.0
141
0.0
142
1.0
143
1.0
 70
   688
 72
     0
 73
     0
 74
     5
  7

 75
    16
 76
     0
 77
     2
 78
   300
147
1.0
148
0.0
149
0.0
100
AcDbLayout
  1
Layout1
 70
     1
 71
     1
 10
0.0
 20
0.0
 11
12.0
 21
9.0
 12
0.0
 22
0.0
 32
0.0
 14
1.000000000000000E+20
 24
1.000000000000000E+20
 34
1.000000000000000E+20
 15
-1.000000000000000E+20
 25
-1.000000000000000E+20
 35
-1.000000000000000E+20
146
0.0
 13
0.0
 23
0.0
 33
0.0
 16
1.0
 26
0.0
 36
0.0
 17
0.0
 27
1.0
 37
0.0
 76
     0
330
1B
  0
LAYOUT
  5
26
102
{ACAD_REACTORS
330
1A
102
}
330
1A
100
AcDbPlotSettings
  1

  2
none_device
  4

  6

 40
0.0
 41
0.0
 42
0.0
 43
0.0
 44
0.0
 45
0.0
 46
0.0
 47
0.0
 48
0.0
 49
0.0
140
0.0
141
0.0
142
1.0
143
1.0
 70
   688
 72
     0
 73
     0
 74
     5
  7

 75
    16
 76
     0
 77
     2
 78
   300
147
1.0
148
0.0
149
0.0
100
AcDbLayout
  1
Layout2
 70
     1
 71
     2
 10
0.0
 20
0.0
 11
0.0
 21
0.0
 12
0.0
 22
0.0
 32
0.0
 14
0.0
 24
0.0
 34
0.0
 15
0.0
 25
0.0
 35
0.0
146
0.0
 13
0.0
 23
0.0
 33
0.0
 16
1.0
 26
0.0
 36
0.0
 17
0.0
 27
1.0
 37
0.0
 76
     0
330
23
  0
LAYOUT
  5
22
102
{ACAD_REACTORS
330
1A
102
}
330
1A
100
AcDbPlotSettings
  1

  2
none_device
  4

  6

 40
0.0
 41
0.0
 42
0.0
 43
0.0
 44
0.0
 45
0.0
 46
0.0
 47
0.0
 48
0.0
 49
0.0
140
0.0
141
0.0
142
1.0
143
1.0
 70
  1712
 72
     0
 73
     0
 74
     0
  7

 75
     0
 76
     0
 77
     2
 78
   300
147
1.0
148
0.0
149
0.0
100
AcDbLayout
  1
Model
 70
     1
 71
     0
 10
0.0
 20
0.0
 11
12.0
 21
9.0
 12
0.0
 22
0.0
 32
0.0
 14
1.000000000000000E+20
 24
1.000000000000000E+20
 34
1.000000000000000E+20
 15
-1.000000000000000E+20
 25
-1.000000000000000E+20
 35
-1.000000000000000E+20
146
0.0
 13
0.0
 23
0.0
 33
0.0
 16
1.0
 26
0.0
 36
0.0
 17
0.0
 27
1.0
 37
0.0
 76
     0
330
1F
331
29
  0
MATERIAL
  5
3D
102
{ACAD_REACTORS
330
3B
102
}
330
3B
100
AcDbMaterial
  1
ByBlock
 72
     1
 94
      127
  0
MATERIAL
  5
3C
102
{ACAD_REACTORS
330
3B
102
}
330
3B
100
AcDbMaterial
  1
ByLayer
 72
     1
 94
      127
  0
MATERIAL
  5
3E
102
{ACAD_REACTORS
330
3B
102
}
330
3B
100
AcDbMaterial
  1
Global
 72
     1
 94
      127
  0
MLINESTYLE
  5
18
102
{ACAD_REACTORS
330
17
102
}
330
17
100
AcDbMlineStyle
  2
Standard
 70
     0
  3

 62
   256
 51
90.0
 52
90.0
 71
     2
 49
0.5
 62
   256
  6
BYLAYER
 49
-0.5
 62
   256
  6
BYLAYER
  0
ACDBPLACEHOLDER
  5
F
102
{ACAD_REACTORS
330
E
102
}
330
E
  0
VISUALSTYLE
  5
2F
102
{ACAD_REACTORS
330
2A
102
}
330
2A
100
AcDbVisualStyle
  2
2dWireframe
 70
     4
177
     2
291
     0
 71
     0
176
     1
 72
     2
176
     1
 73
     0
176
     1
 90
        0
176
     1
 40
-0.6
176
     1
 41
-30.0
176
     1
 62
     5
 63
     7
421
 16777215
176
     1
 74
     1
176
     1
 91
        4
176
     1
 64
     7
176
     1
 65
   257
176
     1
 75
     1
176
     1
175
     1
176
     1
 42
1.0
176
     1
 92
        0
176
     1
 66
   257
176
     1
 43
1.0
176
     1
 76
     1
176
     1
 77
     6
176
     1
 78
     2
176
     1
 67
     7
176
     1
 79
     5
176
     1
170
     0
176
     1
171
     0
176
     1
290
     0
176
     1
 93
        1
176
     1
 44
0.0
176
     1
173
     0
176
     1
  0
VISUALSTYLE
  5
31
102
{ACAD_REACTORS
330
2A
102
}
330
2A
100
AcDbVisualStyle
  2
3D Hidden
 70
     6
177
     2
291
     0
 71
     1
176
     1
 72
     2
176
     1
 73
     2
176
     1
 90
        0
176
     1
 40
-0.6
176
     1
 41
-30.0
176
     1
 62
     5
 63
     7
421
 16777215
176
     1
 74
     2
176
     1
 91
        2
176
     1
 64
     7
176
     1
 65
   257
176
     1
 75
     2
176
     1
175
     1
176
     1
 42
40.0
176
     1
 92
        0
176
     1
 66
   257
176
     1
 43
1.0
176
     1
 76
     1
176
     1
 77
     6
176
     1
 78
     2
176
     1
 67
     7
176
     1
 79
     3
176
     1
170
     0
176
     1
171
     0
176
     1
290
     0
176
     1
 93
        1
176
     1
 44
0.0
176
     1
173
     0
176
     1
  0
VISUALSTYLE
  5
30
102
{ACAD_REACTORS
330
2A
102
}
330
2A
100
AcDbVisualStyle
  2
3dWireframe
 70
     5
177
     2
291
     0
 71
     0
176
     1
 72
     2
176
     1
 73
     0
176
     1
 90
        0
176
     1
 40
-0.6
176
     1
 41
-30.0
176
     1
 62
     5
 63
     7
421
 16777215
176
     1
 74
     1
176
     1
 91
        4
176
     1
 64
     7
176
     1
 65
   257
176
     1
 75
     1
176
     1
175
     1
176
     1
 42
1.0
176
     1
 92
        0
176
     1
 66
   257
176
     1
 43
1.0
176
     1
 76
     1
176
     1
 77
     6
176
     1
 78
     2
176
     1
 67
     7
176
     1
 79
     5
176
     1
170
     0
176
     1
171
     0
176
     1
290
     0
176
     1
 93
        1
176
     1
 44
0.0
176
     1
173
     0
176
     1
  0
VISUALSTYLE
  5
32
102
{ACAD_REACTORS
330
2A
102
}
330
2A
100
AcDbVisualStyle
  2
Basic
 70
     7
177
     2
291
     1
 71
     1
176
     1
 72
     0
176
     1
 73
     1
176
     1
 90
        0
176
     1
 40
-0.6
176
     1
 41
-30.0
176
     1
 62
     5
 63
     7
421
 16777215
176
     1
 74
     0
176
     1
 91
        4
176
     1
 64
     7
176
     1
 65
   257
176
     1
 75
     1
176
     1
175
     1
176
     1
 42
1.0
176
     1
 92
        8
176
     1
 66
     7
176
     1
 43
1.0
176
     1
 76
     1
176
     1
 77
     6
176
     1
 78
     2
176
     1
 67
     7
176
     1
 79
     5
176
     1
170
     0
176
     1
171
     0
176
     1
290
     0
176
     1
 93
        1
176
     1
 44
0.0
176
     1
173
     0
176
     1
  0
VISUALSTYLE
  5
36
102
{ACAD_REACTORS
330
2A
102
}
330
2A
100
AcDbVisualStyle
  2
Brighten
 70
    12
177
     2
291
     1
 71
     2
176
     1
 72
     2
176
     1
 73
     0
176
     1
 90
        0
176
     1
 40
-0.6
176
     1
 41
-30.0
176
     1
 62
     5
 63
     7
421
 16777215
176
     1
 74
     1
176
     1
 91
        4
176
     1
 64
     7
176
     1
 65
   257
176
     1
 75
     1
176
     1
175
     1
176
     1
 42
1.0
176
     1
 92
        8
176
     1
 66
     7
176
     1
 43
1.0
176
     1
 76
     1
176
     1
 77
     6
176
     1
 78
     2
176
     1
 67
     7
176
     1
 79
     5
176
     1
170
     0
176
     1
171
     0
176
     1
290
     0
176
     1
 93
        1
176
     1
 44
50.0
176
     1
173
     0
176
     1
  0
VISUALSTYLE
  5
3A
102
{ACAD_REACTORS
330
2A
102
}
330
2A
100
AcDbVisualStyle
  2
ColorChange
 70
    16
177
     2
291
     1
 71
     2
176
     1
 72
     2
176
     1
 73
     3
176
     1
 90
        0
176
     1
 40
-0.6
176
     1
 41
-30.0
176
     1
 62
     5
 63
     8
421
  8421504
176
     1
 74
     1
176
     1
 91
        4
176
     1
 64
     7
176
     1
 65
   257
176
     1
 75
     1
176
     1
175
     1
176
     1
 42
1.0
176
     1
 92
        8
176
     1
 66
     8
424
  8421504
176
     1
 43
1.0
176
     1
 76
     1
176
     1
 77
     6
176
     1
 78
     2
176
     1
 67
     7
176
     1
 79
     5
176
     1
170
     0
176
     1
171
     0
176
     1
290
     0
176
     1
 93
        1
176
     1
 44
0.0
176
     1
173
     0
176
     1
  0
VISUALSTYLE
  5
34
102
{ACAD_REACTORS
330
2A
102
}
330
2A
100
AcDbVisualStyle
  2
Conceptual
 70
     9
177
     2
291
     0
 71
     3
176
     1
 72
     2
176
     1
 73
     0
176
     1
 90
        0
176
     1
 40
-0.6
176
     1
 41
-30.0
176
     1
 62
     5
 63
     7
421
 16777215
176
     1
 74
     2
176
     1
 91
        2
176
     1
 64
     7
176
     1
 65
   257
176
     1
 75
     1
176
     1
175
     1
176
     1
 42
40.0
176
     1
 92
        8
176
     1
 66
     7
176
     1
 43
1.0
176
     1
 76
     1
176
     1
 77
     6
176
     1
 78
     2
176
     1
 67
     7
176
     1
 79
     3
176
     1
170
     0
176
     1
171
     0
176
     1
290
     0
176
     1
 93
        1
176
     1
 44
0.0
176
     1
173
     0
176
     1
  0
VISUALSTYLE
  5
35
102
{ACAD_REACTORS
330
2A
102
}
330
2A
100
AcDbVisualStyle
  2
Dim
 70
    11
177
     2
291
     1
 71
     2
176
     1
 72
     2
176
     1
 73
     0
176
     1
 90
        0
176
     1
 40
-0.6
176
     1
 41
-30.0
176
     1
 62
     5
 63
     7
421
 16777215
176
     1
 74
     1
176
     1
 91
        4
176
     1
 64
     7
176
     1
 65
   257
176
     1
 75
     1
176
     1
175
     1
176
     1
 42
1.0
176
     1
 92
        8
176
     1
 66
     7
176
     1
 43
1.0
176
     1
 76
     1
176
     1
 77
     6
176
     1
 78
     2
176
     1
 67
     7
176
     1
 79
     5
176
     1
170
     0
176
     1
171
     0
176
     1
290
     0
176
     1
 93
        1
176
     1
 44
-50.0
176
     1
173
     0
176
     1
  0
VISUALSTYLE
  5
39
102
{ACAD_REACTORS
330
2A
102
}
330
2A
100
AcDbVisualStyle
  2
Facepattern
 70
    15
177
     2
291
     1
 71
     2
176
     1
 72
     2
176
     1
 73
     0
176
     1
 90
        0
176
     1
 40
-0.6
176
     1
 41
-30.0
176
     1
 62
     5
 63
     7
421
 16777215
176
     1
 74
     1
176
     1
 91
        4
176
     1
 64
     7
176
     1
 65
   257
176
     1
 75
     1
176
     1
175
     1
176
     1
 42
1.0
176
     1
 92
        8
176
     1
 66
     7
176
     1
 43
1.0
176
     1
 76
     1
176
     1
 77
     6
176
     1
 78
     2
176
     1
 67
     7
176
     1
 79
     5
176
     1
170
     0
176
     1
171
     0
176
     1
290
     0
176
     1
 93
        1
176
     1
 44
0.0
176
     1
173
     0
176
     1
  0
VISUALSTYLE
  5
2B
102
{ACAD_REACTORS
330
2A
102
}
330
2A
100
AcDbVisualStyle
  2
Flat
 70
     0
177
     2
291
     1
 71
     2
176
     1
 72
     1
176
     1
 73
     1
176
     1
 90
        2
176
     1
 40
-0.6
176
     1
 41
30.0
176
     1
 62
     5
 63
     7
421
 16777215
176
     1
 74
     0
176
     1
 91
        4
176
     1
 64
     7
176
     1
 65
   257
176
     1
 75
     1
176
     1
175
     1
176
     1
 42
1.0
176
     1
 92
        8
176
     1
 66
     7
176
     1
 43
1.0
176
     1
 76
     1
176
     1
 77
     6
176
     1
 78
     2
176
     1
 67
     7
176
     1
 79
     5
176
     1
170
     0
176
     1
171
     0
176
     1
290
     0
176
     1
 93
       13
176
     1
 44
0.0
176
     1
173
     0
176
     1
  0
VISUALSTYLE
  5
2C
102
{ACAD_REACTORS
330
2A
102
}
330
2A
100
AcDbVisualStyle
  2
FlatWithEdges
 70
     1
177
     2
291
     1
 71
     2
176
     1
 72
     1
176
     1
 73
     1
176
     1
 90
        2
176
     1
 40
-0.6
176
     1
 41
30.0
176
     1
 62
     5
 63
     7
421
 16777215
176
     1
 74
     1
176
     1
 91
        4
176
     1
 64
     7
176
     1
 65
   257
176
     1
 75
     1
176
     1
175
     1
176
     1
 42
1.0
176
     1
 92
        0
176
     1
 66
   257
176
     1
 43
1.0
176
     1
 76
     1
176
     1
 77
     6
176
     1
 78
     2
176
     1
 67
     7
176
     1
 79
     5
176
     1
170
     0
176
     1
171
     0
176
     1
290
     0
176
     1
 93
       13
176
     1
 44
0.0
176
     1
173
     0
176
     1
  0
VISUALSTYLE
  5
2D
102
{ACAD_REACTORS
330
2A
102
}
330
2A
100
AcDbVisualStyle
  2
Gouraud
 70
     2
177
     2
291
     1
 71
     2
176
     1
 72
     2
176
     1
 73
     1
176
     1
 90
        2
176
     1
 40
-0.6
176
     1
 41
30.0
176
     1
 62
     5
 63
     7
421
 16777215
176
     1
 74
     0
176
     1
 91
        4
176
     1
 64
     7
176
     1
 65
   257
176
     1
 75
     1
176
     1
175
     1
176
     1
 42
1.0
176
     1
 92
        0
176
     1
 66
     7
176
     1
 43
1.0
176
     1
 76
     1
176
     1
 77
     6
176
     1
 78
     2
176
     1
 67
     7
176
     1
 79
     5
176
     1
170
     0
176
     1
171
     0
176
     1
290
     0
176
     1
 93
       13
176
     1
 44
0.0
176
     1
173
     0
176
     1
  0
VISUALSTYLE
  5
2E
102
{ACAD_REACTORS
330
2A
102
}
330
2A
100
AcDbVisualStyle
  2
GouraudWithEdges
 70
     3
177
     2
291
     1
 71
     2
176
     1
 72
     2
176
     1
 73
     1
176
     1
 90
        2
176
     1
 40
-0.6
176
     1
 41
30.0
176
     1
 62
     5
 63
     7
421
 16777215
176
     1
 74
     1
176
     1
 91
        4
176
     1
 64
     7
176
     1
 65
   257
176
     1
 75
     1
176
     1
175
     1
176
     1
 42
1.0
176
     1
 92
        0
176
     1
 66
   257
176
     1
 43
1.0
176
     1
 76
     1
176
     1
 77
     6
176
     1
 78
     2
176
     1
 67
     7
176
     1
 79
     5
176
     1
170
     0
176
     1
171
     0
176
     1
290
     0
176
     1
 93
       13
176
     1
 44
0.0
176
     1
173
     0
176
     1
  0
VISUALSTYLE
  5
38
102
{ACAD_REACTORS
330
2A
102
}
330
2A
100
AcDbVisualStyle
  2
Linepattern
 70
    14
177
     2
291
     1
 71
     2
176
     1
 72
     2
176
     1
 73
     0
176
     1
 90
        0
176
     1
 40
-0.6
176
     1
 41
-30.0
176
     1
 62
     5
 63
     7
421
 16777215
176
     1
 74
     1
176
     1
 91
        4
176
     1
 64
     7
176
     1
 65
   257
176
     1
 75
     7
176
     1
175
     7
176
     1
 42
1.0
176
     1
 92
        8
176
     1
 66
     7
176
     1
 43
1.0
176
     1
 76
     1
176
     1
 77
     6
176
     1
 78
     2
176
     1
 67
     7
176
     1
 79
     5
176
     1
170
     0
176
     1
171
     0
176
     1
290
     0
176
     1
 93
        1
176
     1
 44
0.0
176
     1
173
     0
176
     1
  0
VISUALSTYLE
  5
33
102
{ACAD_REACTORS
330
2A
102
}
330
2A
100
AcDbVisualStyle
  2
Realistic
 70
     8
177
     2
291
     0
 71
     2
176
     1
 72
     2
176
     1
 73
     0
176
     1
 90
        0
176
     1
 40
-0.6
176
     1
 41
-30.0
176
     1
 62
     5
 63
     7
421
 16777215
176
     1
 74
     1
176
     1
 91
        0
176
     1
 64
     7
176
     1
 65
   257
176
     1
 75
     1
176
     1
175
     1
176
     1
 42
1.0
176
     1
 92
        8
176
     1
 66
     8
424
  7895160
176
     1
 43
1.0
176
     1
 76
     1
176
     1
 77
     6
176
     1
 78
     2
176
     1
 67
     7
176
     1
 79
     5
176
     1
170
     0
176
     1
171
     0
176
     1
290
     0
176
     1
 93
       13
176
     1
 44
0.0
176
     1
173
     0
176
     1
  0
VISUALSTYLE
  5
37
102
{ACAD_REACTORS
330
2A
102
}
330
2A
100
AcDbVisualStyle
  2
Thicken
 70
    13
177
     2
291
     1
 71
     2
176
     1
 72
     2
176
     1
 73
     0
176
     1
 90
        0
176
     1
 40
-0.6
176
     1
 41
-30.0
176
     1
 62
     5
 63
     7
421
 16777215
176
     1
 74
     1
176
     1
 91
        4
176
     1
 64
     7
176
     1
 65
   257
176
     1
 75
     1
176
     1
175
     1
176
     1
 42
1.0
176
     1
 92
       12
176
     1
 66
     7
176
     1
 43
1.0
176
     1
 76
     1
176
     1
 77
     6
176
     1
 78
     2
176
     1
 67
     7
176
     1
 79
     5
176
     1
170
     0
176
     1
171
     0
176
     1
290
     0
176
     1
 93
        1
176
     1
 44
0.0
176
     1
173
     0
176
     1
  0
ENDSEC
  0
EOF
