  0
SECTION
  2
HEADER
  9
$ACADVER
  1
AC1024
  9
$ACADMAINTVER
 70
     6
  9
$DWGCODEPAGE
  3
UNDEFINED
  9
$INSBASE
 10
0.0
 20
0.0
 30
0.0
  9
$EXTMIN
 10
1.000000000000000E+20
 20
1.000000000000000E+20
 30
1.000000000000000E+20
  9
$EXTMAX
 10
-1.000000000000000E+20
 20
-1.000000000000000E+20
 30
-1.000000000000000E+20
  9
$LIMMIN
 10
0.0
 20
0.0
  9
$LIMMAX
 10
12.0
 20
9.0
  9
$ORTHOMODE
 70
     0
  9
$REGENMODE
 70
     1
  9
$FILLMODE
 70
     1
  9
$QTEXTMODE
 70
     0
  9
$MIRRTEXT
 70
     1
  9
$LTSCALE
 40
1.0
  9
$ATTMODE
 70
     1
  9
$TEXTSIZE
 40
0.2
  9
$TRACEWID
 40
0.05
  9
$TEXTSTYLE
  7
Standard
  9
$CLAYER
  8
0
  9
$CELTYPE
  6
ByLayer
  9
$CECOLOR
 62
   256
  9
$CELTSCALE
 40
1.0
  9
$DISPSILH
 70
     0
  9
$DIMSCALE
 40
1.0
  9
$DIMASZ
 40
0.18
  9
$DIMEXO
 40
0.0625
  9
$DIMDLI
 40
0.38
  9
$DIMRND
 40
0.0
  9
$DIMDLE
 40
0.0
  9
$DIMEXE
 40
0.18
  9
$DIMTP
 40
0.0
  9
$DIMTM
 40
0.0
  9
$DIMTXT
 40
0.18
  9
$DIMCEN
 40
0.09
  9
$DIMTSZ
 40
0.0
  9
$DIMTOL
 70
     0
  9
$DIMLIM
 70
     0
  9
$DIMTIH
 70
     1
  9
$DIMTOH
 70
     1
  9
$DIMSE1
 70
     0
  9
$DIMSE2
 70
     0
  9
$DIMTAD
 70
     0
  9
$DIMZIN
 70
     0
  9
$DIMBLK
  1

  9
$DIMASO
 70
     1
  9
$DIMSHO
 70
     1
  9
$DIMPOST
  1

  9
$DIMAPOST
  1

  9
$DIMALT
 70
     0
  9
$DIMALTD
 70
     2
  9
$DIMALTF
 40
25.4
  9
$DIMLFAC
 40
1.0
  9
$DIMTOFL
 70
     0
  9
$DIMTVP
 40
0.0
  9
$DIMTIX
 70
     0
  9
$DIMSOXD
 70
     0
  9
$DIMSAH
 70
     0
  9
$DIMBLK1
  1

  9
$DIMBLK2
  1

  9
$DIMSTYLE
  2
Standard
  9
$DIMCLRD
 70
     0
  9
$DIMCLRE
 70
     0
  9
$DIMCLRT
 70
     0
  9
$DIMTFAC
 40
1.0
  9
$DIMGAP
 40
0.09
  9
$DIMJUST
 70
     0
  9
$DIMSD1
 70
     0
  9
$DIMSD2
 70
     0
  9
$DIMTOLJ
 70
     1
  9
$DIMTZIN
 70
     0
  9
$DIMALTZ
 70
     0
  9
$DIMALTTZ
 70
     0
  9
$DIMUPT
 70
     0
  9
$DIMDEC
 70
     4
  9
$DIMTDEC
 70
     4
  9
$DIMALTU
 70
     2
  9
$DIMALTTD
 70
     2
  9
$DIMTXSTY
  7
Standard
  9
$DIMAUNIT
 70
     0
  9
$DIMADEC
 70
     0
  9
$DIMALTRND
 40
0.0
  9
$DIMAZIN
 70
     0
  9
$DIMDSEP
 70
    46
  9
$DIMATFIT
 70
     3
  9
$DIMFRAC
 70
     0
  9
$DIMLDRBLK
  1

  9
$DIMLUNIT
 70
     2
  9
$DIMLWD
 70
    -2
  9
$DIMLWE
 70
    -2
  9
$DIMTMOVE
 70
     0
  9
$DIMFXL
 40
1.0
  9
$DIMFXLON
 70
     0
  9
$DIMJOGANG
 40
0.7853981633974483
  9
$DIMTFILL
 70
     0
  9
$DIMTFILLCLR
 70
     0
  9
$DIMARCSYM
 70
     0
  9
$DIMLTYPE
  6

  9
$DIMLTEX1
  6

  9
$DIMLTEX2
  6

  9
$DIMTXTDIRECTION
 70
     0
  9
$LUNITS
 70
     2
  9
$LUPREC
 70
     4
  9
$SKETCHINC
 40
0.1
  9
$FILLETRAD
 40
0.5
  9
$AUNITS
 70
     0
  9
$AUPREC
 70
     0
  9
$MENU
  1
.
  9
$ELEVATION
 40
0.0
  9
$PELEVATION
 40
0.0
  9
$THICKNESS
 40
0.0
  9
$LIMCHECK
 70
     0
  9
$CHAMFERA
 40
0.5
  9
$CHAMFERB
 40
0.5
  9
$CHAMFERC
 40
1.0
  9
$CHAMFERD
 40
0.0
  9
$SKPOLY
 70
     0
  9
$TDCREATE
 40
2457917.624236099
  9
$TDUCREATE
 40
2457917.249236111
  9
$TDUPDATE
 40
2457917.624236099
  9
$TDUUPDATE
 40
2457917.249236111
  9
$TDINDWG
 40
0.0000000116
  9
$TDUSRTIMER
 40
0.0000000116
  9
$USRTIMER
 70
     1
  9
$ANGBASE
 50
0.0
  9
$ANGDIR
 70
     0
  9
$PDMODE
 70
     0
  9
$PDSIZE
 40
0.0
  9
$PLINEWID
 40
0.0
  9
$SPLFRAME
 70
     0
  9
$SPLINETYPE
 70
     6
  9
$SPLINESEGS
 70
     8
  9
$HANDSEED
  5
10C
  9
$SURFTAB1
 70
     6
  9
$SURFTAB2
 70
     6
  9
$SURFTYPE
 70
     6
  9
$SURFU
 70
     6
  9
$SURFV
 70
     6
  9
$UCSBASE
  2

  9
$UCSNAME
  2

  9
$UCSORG
 10
0.0
 20
0.0
 30
0.0
  9
$UCSXDIR
 10
1.0
 20
0.0
 30
0.0
  9
$UCSYDIR
 10
0.0
 20
1.0
 30
0.0
  9
$UCSORTHOREF
  2

  9
$UCSORTHOVIEW
 70
     0
  9
$UCSORGTOP
 10
0.0
 20
0.0
 30
0.0
  9
$UCSORGBOTTOM
 10
0.0
 20
0.0
 30
0.0
  9
$UCSORGLEFT
 10
0.0
 20
0.0
 30
0.0
  9
$UCSORGRIGHT
 10
0.0
 20
0.0
 30
0.0
  9
$UCSORGFRONT
 10
0.0
 20
0.0
 30
0.0
  9
$UCSORGBACK
 10
0.0
 20
0.0
 30
0.0
  9
$PUCSBASE
  2

  9
$PUCSNAME
  2

  9
$PUCSORG
 10
0.0
 20
0.0
 30
0.0
  9
$PUCSXDIR
 10
1.0
 20
0.0
 30
0.0
  9
$PUCSYDIR
 10
0.0
 20
1.0
 30
0.0
  9
$PUCSORTHOREF
  2

  9
$PUCSORTHOVIEW
 70
     0
  9
$PUCSORGTOP
 10
0.0
 20
0.0
 30
0.0
  9
$PUCSORGBOTTOM
 10
0.0
 20
0.0
 30
0.0
  9
$PUCSORGLEFT
 10
0.0
 20
0.0
 30
0.0
  9
$PUCSORGRIGHT
 10
0.0
 20
0.0
 30
0.0
  9
$PUCSORGFRONT
 10
0.0
 20
0.0
 30
0.0
  9
$PUCSORGBACK
 10
0.0
 20
0.0
 30
0.0
  9
$USERI1
 70
     0
  9
$USERI2
 70
     0
  9
$USERI3
 70
     0
  9
$USERI4
 70
     0
  9
$USERI5
 70
     0
  9
$USERR1
 40
0.0
  9
$USERR2
 40
0.0
  9
$USERR3
 40
0.0
  9
$USERR4
 40
0.0
  9
$USERR5
 40
0.0
  9
$WORLDVIEW
 70
     1
  9
$SHADEDGE
 70
     3
  9
$SHADEDIF
 70
    70
  9
$TILEMODE
 70
     1
  9
$MAXACTVP
 70
    64
  9
$PINSBASE
 10
0.0
 20
0.0
 30
0.0
  9
$PLIMCHECK
 70
     0
  9
$PEXTMIN
 10
1.000000000000000E+20
 20
1.000000000000000E+20
 30
1.000000000000000E+20
  9
$PEXTMAX
 10
-1.000000000000000E+20
 20
-1.000000000000000E+20
 30
-1.000000000000000E+20
  9
$PLIMMIN
 10
0.0
 20
0.0
  9
$PLIMMAX
 10
12.0
 20
9.0
  9
$UNITMODE
 70
     0
  9
$VISRETAIN
 70
     1
  9
$PLINEGEN
 70
     0
  9
$PSLTSCALE
 70
     1
  9
$TREEDEPTH
 70
  3020
  9
$CMLSTYLE
  2
Standard
  9
$CMLJUST
 70
     0
  9
$CMLSCALE
 40
1.0
  9
$PROXYGRAPHICS
 70
     1
  9
$MEASUREMENT
 70
     0
  9
$CELWEIGHT
370
    -1
  9
$ENDCAPS
280
     0
  9
$JOINSTYLE
280
     0
  9
$LWDISPLAY
290
     1
  9
$INSUNITS
 70
     1
  9
$HYPERLINKBASE
  1

  9
$STYLESHEET
  1

  9
$XEDIT
290
     1
  9
$CEPSNTYPE
380
     0
  9
$PSTYLEMODE
290
     1
  9
$FINGERPRINTGUID
  2
{A0D0958D-9D59-012E-D37D-5692986954C5}
  9
$VERSIONGUID
  2
{FAEB1C32-E019-11D5-929B-00C0DF256EC4}
  9
$EXTNAMES
290
     1
  9
$PSVPSCALE
 40
0.0
  9
$OLESTARTUP
290
     0
  9
$SORTENTS
280
   127
  9
$INDEXCTL
280
     0
  9
$HIDETEXT
280
     1
  9
$XCLIPFRAME
280
     2
  9
$HALOGAP
280
     0
  9
$OBSCOLOR
 70
   257
  9
$OBSLTYPE
280
     0
  9
$INTERSECTIONDISPLAY
280
     0
  9
$INTERSECTIONCOLOR
 70
   257
  9
$DIMASSOC
280
     2
  9
$PROJECTNAME
  1

  9
$CAMERADISPLAY
290
     0
  9
$LENSLENGTH
 40
50.0
  9
$CAMERAHEIGHT
 40
0.0
  9
$STEPSPERSEC
 40
2.0
  9
$STEPSIZE
 40
6.0
  9
$3DDWFPREC
 40
2.0
  9
$PSOLWIDTH
 40
0.25
  9
$PSOLHEIGHT
 40
4.0
  9
$LOFTANG1
 40
1.570796326794897
  9
$LOFTANG2
 40
1.570796326794897
  9
$LOFTMAG1
 40
0.0
  9
$LOFTMAG2
 40
0.0
  9
$LOFTPARAM
 70
     7
  9
$LOFTNORMALS
280
     1
  9
$LATITUDE
 40
37.795
  9
$LONGITUDE
 40
-122.394
  9
$NORTHDIRECTION
 40
0.0
  9
$TIMEZONE
 70
 -8000
  9
$LIGHTGLYPHDISPLAY
280
     1
  9
$TILEMODELIGHTSYNCH
280
     1
  9
$CMATERIAL
347
3C
  9
$SOLIDHIST
280
     1
  9
$SHOWHIST
280
     1
  9
$DWFFRAME
280
     2
  9
$DGNFRAME
280
     2
  9
$REALWORLDSCALE
290
     1
  9
$INTERFERECOLOR
 62
   256
  9
$CSHADOW
280
     0
  9
$SHADOWPLANELOCATION
 40
0.0
  0
ENDSEC
  0
SECTION
  2
CLASSES
  0
CLASS
  1
ACDBDICTIONARYWDFLT
  2
AcDbDictionaryWithDefault
  3
ObjectDBX Classes
 90
        0
 91
        4
280
     0
281
     0
  0
CLASS
  1
VISUALSTYLE
  2
AcDbVisualStyle
  3
ObjectDBX Classes
 90
     4095
 91
        4
280
     0
281
     0
  0
CLASS
  1
MATERIAL
  2
AcDbMaterial
  3
ObjectDBX Classes
 90
     1153
 91
        4
280
     0
281
     0
  0
CLASS
  1
SUN
  2
AcDbSun
  3
SCENEOE
 90
     1024
 91
        4
280
     0
281
     0
  0
ENDSEC
  0
SECTION
  2
TABLES
  0
TABLE
  2
VPORT
  5
8
330
0
100
AcDbSymbolTable
 70
     1
  0
VPORT
  5
29
330
8
100
AcDbSymbolTableRecord
100
AcDbViewportTableRecord
  2
*Active
 70
     0
 10
0.0
 20
0.0
 11
1.0
 21
1.0
 12
0.0
 22
0.0
 13
0.0
 23
0.0
 14
0.5
 24
0.5
 15
0.5
 25
0.5
 16
0.0
 26
0.0
 36
1.0
 17
91.00082462281999
 27
-128.4993055234307
 37
0.0
 40
256.9986110468615
 41
0.7081814508812795
 42
50.0
 43
0.0
 44
0.0
 50
0.0
 51
0.0
 71
     0
 72
   100
 73
     1
 74
     3
 75
     0
 76
     0
 77
     0
 78
     0
281
     0
 65
     1
110
0.0
120
0.0
130
0.0
111
1.0
121
0.0
131
0.0
112
0.0
122
1.0
132
0.0
 79
     0
146
0.0
 60
     3
 61
     5
292
     1
282
     1
141
0.0
142
0.0
 63
   250
361
3F
  0
ENDTAB
  0
TABLE
  2
LTYPE
  5
5
330
0
100
AcDbSymbolTable
 70
     1
  0
LTYPE
  5
14
330
5
100
AcDbSymbolTableRecord
100
AcDbLinetypeTableRecord
  2
ByBlock
 70
     0
  3

 72
    65
 73
     0
 40
0.0
  0
LTYPE
  5
15
330
5
100
AcDbSymbolTableRecord
100
AcDbLinetypeTableRecord
  2
ByLayer
 70
     0
  3

 72
    65
 73
     0
 40
0.0
  0
LTYPE
  5
16
330
5
100
AcDbSymbolTableRecord
100
AcDbLinetypeTableRecord
  2
Continuous
 70
     0
  3
Solid line
 72
    65
 73
     0
 40
0.0
  0
ENDTAB
  0
TABLE
  2
LAYER
  5
2
330
0
100
AcDbSymbolTable
 70
     2
  0
LAYER
  5
10
330
2
100
AcDbSymbolTableRecord
100
AcDbLayerTableRecord
  2
0
 70
     0
 62
     7
  6
Continuous
370
    -3
390
F
347
3E
  0
LAYER
  5
40
330
2
100
AcDbSymbolTableRecord
100
AcDbLayerTableRecord
  2
_U+30EC_U+30A4_U+30E4_U+30FC 1
 70
     0
 62
     7
  6
Continuous
370
    -3
390
F
347
3E
  0
ENDTAB
  0
TABLE
  2
STYLE
  5
3
330
0
100
AcDbSymbolTable
 70
     1
  0
STYLE
  5
11
330
3
100
AcDbSymbolTableRecord
100
AcDbTextStyleTableRecord
  2
Standard
 70
     0
 40
0.0
 41
1.0
 50
0.0
 71
     0
 42
0.2
  3
txt
  4

  0
ENDTAB
  0
TABLE
  2
VIEW
  5
6
330
0
100
AcDbSymbolTable
 70
     0
  0
ENDTAB
  0
TABLE
  2
UCS
  5
7
330
0
100
AcDbSymbolTable
 70
     0
  0
ENDTAB
  0
TABLE
  2
APPID
  5
9
330
0
100
AcDbSymbolTable
 70
     1
  0
APPID
  5
12
330
9
100
AcDbSymbolTableRecord
100
AcDbRegAppTableRecord
  2
ACAD
 70
     0
  0
ENDTAB
  0
TABLE
  2
DIMSTYLE
  5
A
330
0
100
AcDbSymbolTable
 70
     1
100
AcDbDimStyleTable
  0
DIMSTYLE
105
27
330
A
100
AcDbSymbolTableRecord
100
AcDbDimStyleTableRecord
  2
Standard
 70
     0
178
     0
340
11
  0
ENDTAB
  0
TABLE
  2
BLOCK_RECORD
  5
1
330
0
100
AcDbSymbolTable
 70
     7
  0
BLOCK_RECORD
  5
1F
330
1
100
AcDbSymbolTableRecord
100
AcDbBlockTableRecord
  2
*Model_Space
340
22
 70
     0
280
     1
281
     0
  0
BLOCK_RECORD
  5
1B
330
1
100
AcDbSymbolTableRecord
100
AcDbBlockTableRecord
  2
*Paper_Space
340
1E
 70
     0
280
     1
281
     0
  0
BLOCK_RECORD
  5
23
330
1
100
AcDbSymbolTableRecord
100
AcDbBlockTableRecord
  2
*Paper_Space0
340
26
 70
     0
280
     1
281
     0
  0
BLOCK_RECORD
  5
5C
330
1
100
AcDbSymbolTableRecord
100
AcDbBlockTableRecord
  2
block 2
340
0
102
{BLKREFS
331
5D
102
}
 70
     0
280
     1
281
     0
  0
BLOCK_RECORD
  5
74
330
1
100
AcDbSymbolTableRecord
100
AcDbBlockTableRecord
  2
block 3
340
0
102
{BLKREFS
331
75
102
}
 70
     0
280
     1
281
     0
  0
BLOCK_RECORD
  5
8A
330
1
100
AcDbSymbolTableRecord
100
AcDbBlockTableRecord
  2
block 4
340
0
102
{BLKREFS
331
8B
102
}
 70
     0
280
     1
281
     0
  0
BLOCK_RECORD
  5
D4
330
1
100
AcDbSymbolTableRecord
100
AcDbBlockTableRecord
  2
block 5
340
0
102
{BLKREFS
331
D5
102
}
 70
     0
280
     1
281
     0
  0
BLOCK_RECORD
  5
DD
330
1
100
AcDbSymbolTableRecord
100
AcDbBlockTableRecord
  2
block 6
340
0
102
{BLKREFS
331
DE
102
}
 70
     0
280
     1
281
     0
  0
BLOCK_RECORD
  5
101
330
1
100
AcDbSymbolTableRecord
100
AcDbBlockTableRecord
  2
block 7
340
0
102
{BLKREFS
331
102
102
}
 70
     0
280
     1
281
     0
  0
ENDTAB
  0
ENDSEC
  0
SECTION
  2
BLOCKS
  0
BLOCK
  5
20
330
1F
100
AcDbEntity
  8
0
100
AcDbBlockBegin
  2
*Model_Space
 70
     0
 10
0.0
 20
0.0
 30
0.0
  3
*Model_Space
  1

  0
ENDBLK
  5
21
330
1F
100
AcDbEntity
  8
0
100
AcDbBlockEnd
  0
BLOCK
  5
1C
330
1B
100
AcDbEntity
 67
     1
  8
0
100
AcDbBlockBegin
  2
*Paper_Space
 70
     0
 10
0.0
 20
0.0
 30
0.0
  3
*Paper_Space
  1

  0
ENDBLK
  5
1D
330
1B
100
AcDbEntity
 67
     1
  8
0
100
AcDbBlockEnd
  0
BLOCK
  5
24
330
23
100
AcDbEntity
  8
0
100
AcDbBlockBegin
  2
*Paper_Space0
 70
     0
 10
0.0
 20
0.0
 30
0.0
  3
*Paper_Space0
  1

  0
ENDBLK
  5
25
330
23
100
AcDbEntity
  8
0
100
AcDbBlockEnd
  0
BLOCK
  5
5E
330
5C
100
AcDbEntity
  8
0
100
AcDbBlockBegin
  2
block 2
 70
     0
 10
0.0
 20
0.0
 30
0.0
  3
block 2
  1

  0
SPLINE
  5
60
330
5C
100
AcDbEntity
  8
_U+30EC_U+30A4_U+30E4_U+30FC 1
370
     0
100
AcDbSpline
210
0.0
220
0.0
230
1.0
 70
    11
 71
     3
 72
    26
 73
    22
 74
     0
 42
0.0000000001
 43
0.0000000001
 12
1.0
 22
0.0
 32
0.0
 13
1.0
 23
0.0
 33
0.0
 40
0.0
 40
0.0
 40
0.0
 40
0.0
 40
1.0
 40
1.0
 40
1.0
 40
2.0
 40
2.0
 40
2.0
 40
3.0
 40
3.0
 40
3.0
 40
4.0
 40
4.0
 40
4.0
 40
5.0
 40
5.0
 40
5.0
 40
6.0
 40
6.0
 40
6.0
 40
7.0
 40
7.0
 40
7.0
 40
7.0
 10
113.0976616470728
 20
-142.6011148732039
 30
0.0
 10
113.0976616470728
 20
-142.6011148732039
 30
0.0
 10
111.9935085440502
 20
-142.6011148732039
 30
0.0
 10
111.9935085440502
 20
-142.6011148732039
 30
0.0
 10
111.9935085440502
 20
-142.6011148732039
 30
0.0
 10
111.9935085440502
 20
-142.9311550206908
 30
0.0
 10
111.9935085440502
 20
-142.9311550206908
 30
0.0
 10
111.9935085440502
 20
-142.9311550206908
 30
0.0
 10
111.8453694381845
 20
-142.9311550206908
 30
0.0
 10
111.8453694381845
 20
-142.9311550206908
 30
0.0
 10
111.8305555275979
 20
-142.5990478159127
 30
0.0
 10
111.6676025111456
 20
-142.5525390268619
 30
0.0
 10
111.5532253410353
 20
-142.5229112056887
 30
0.0
 10
111.5532253410353
 20
-142.5229112056887
 30
0.0
 10
111.5532253410353
 20
-142.3768391571141
 30
0.0
 10
111.5532253410353
 20
-142.3768391571141
 30
0.0
 10
111.5532253410353
 20
-142.3768391571141
 30
0.0
 10
113.0976616470728
 20
-142.3768391571141
 30
0.0
 10
113.0976616470728
 20
-142.3768391571141
 30
0.0
 10
113.0976616470728
 20
-142.3768391571141
 30
0.0
 10
113.0976616470728
 20
-142.6011148732039
 30
0.0
 10
113.0976616470728
 20
-142.6011148732039
 30
0.0
  0
HATCH
  5
61
330
5C
100
AcDbEntity
  8
_U+30EC_U+30A4_U+30E4_U+30FC 1
 62
     7
420
 16777215
100
AcDbHatch
 10
0.0
 20
0.0
 30
0.0
210
0.0
220
0.0
230
1.0
  2
SOLID
 70
     1
 71
     0
 91
        1
 92
        1
 93
        1
 72
     4
 94
        3
 73
     0
 74
     1
 95
       26
 96
       22
 40
0.0
 40
0.0
 40
0.0
 40
0.0
 40
1.0
 40
1.0
 40
1.0
 40
2.0
 40
2.0
 40
2.0
 40
3.0
 40
3.0
 40
3.0
 40
4.0
 40
4.0
 40
4.0
 40
5.0
 40
5.0
 40
5.0
 40
6.0
 40
6.0
 40
6.0
 40
7.0
 40
7.0
 40
7.0
 40
7.0
 10
113.0976616470728
 20
-142.6011148732039
 10
113.0976616470728
 20
-142.6011148732039
 10
111.9935085440502
 20
-142.6011148732039
 10
111.9935085440502
 20
-142.6011148732039
 10
111.9935085440502
 20
-142.6011148732039
 10
111.9935085440502
 20
-142.9311550206908
 10
111.9935085440502
 20
-142.9311550206908
 10
111.9935085440502
 20
-142.9311550206908
 10
111.8453694381845
 20
-142.9311550206908
 10
111.8453694381845
 20
-142.9311550206908
 10
111.8305555275979
 20
-142.5990478159127
 10
111.6676025111456
 20
-142.5525390268619
 10
111.5532253410353
 20
-142.5229112056887
 10
111.5532253410353
 20
-142.5229112056887
 10
111.5532253410353
 20
-142.3768391571141
 10
111.5532253410353
 20
-142.3768391571141
 10
111.5532253410353
 20
-142.3768391571141
 10
113.0976616470728
 20
-142.3768391571141
 10
113.0976616470728
 20
-142.3768391571141
 10
113.0976616470728
 20
-142.3768391571141
 10
113.0976616470728
 20
-142.6011148732039
 10
113.0976616470728
 20
-142.6011148732039
 97
        0
 97
        0
 75
     2
 76
     1
 98
        0
  0
POLYLINE
  5
62
330
5C
100
AcDbEntity
  8
_U+30EC_U+30A4_U+30E4_U+30FC 1
370
     0
100
AcDb2dPolyline
 66
     1
 10
0.0
 20
0.0
 30
0.0
  0
VERTEX
  5
63
330
62
100
AcDbEntity
  8
_U+30EC_U+30A4_U+30E4_U+30FC 1
370
     0
100
AcDbVertex
100
AcDb2dVertex
 10
113.0976616470728
 20
-141.8156331025669
 30
0.0
  0
VERTEX
  5
64
330
62
100
AcDbEntity
  8
_U+30EC_U+30A4_U+30E4_U+30FC 1
370
     0
100
AcDbVertex
100
AcDb2dVertex
 10
112.8458251671011
 20
-141.8156331025669
 30
0.0
  0
VERTEX
  5
65
330
62
100
AcDbEntity
  8
_U+30EC_U+30A4_U+30E4_U+30FC 1
370
     0
100
AcDbVertex
100
AcDb2dVertex
 10
112.8458251671011
 20
-141.5637966225952
 30
0.0
  0
VERTEX
  5
66
330
62
100
AcDbEntity
  8
_U+30EC_U+30A4_U+30E4_U+30FC 1
370
     0
100
AcDbVertex
100
AcDb2dVertex
 10
113.0976616470728
 20
-141.5637966225952
 30
0.0
  0
VERTEX
  5
67
330
62
100
AcDbEntity
  8
_U+30EC_U+30A4_U+30E4_U+30FC 1
370
     0
100
AcDbVertex
100
AcDb2dVertex
 10
113.0976616470728
 20
-141.8156331025669
 30
0.0
  0
SEQEND
  5
68
330
62
100
AcDbEntity
  8
_U+30EC_U+30A4_U+30E4_U+30FC 1
370
     0
  0
HATCH
  5
69
330
5C
100
AcDbEntity
  8
_U+30EC_U+30A4_U+30E4_U+30FC 1
 62
     7
420
 16777215
100
AcDbHatch
 10
0.0
 20
0.0
 30
0.0
210
0.0
220
0.0
230
1.0
  2
SOLID
 70
     1
 71
     0
 91
        1
 92
        1
 93
        4
 72
     1
 10
113.0976616470728
 20
-141.8156331025669
 11
112.8458251671011
 21
-141.8156331025669
 72
     1
 10
112.8458251671011
 20
-141.8156331025669
 11
112.8458251671011
 21
-141.5637966225952
 72
     1
 10
112.8458251671011
 20
-141.5637966225952
 11
113.0976616470728
 21
-141.5637966225952
 72
     1
 10
113.0976616470728
 20
-141.5637966225952
 11
113.0976616470728
 21
-141.8156331025669
 97
        0
 75
     2
 76
     1
 98
        0
  0
SPLINE
  5
6A
330
5C
100
AcDbEntity
  8
_U+30EC_U+30A4_U+30E4_U+30FC 1
370
     0
100
AcDbSpline
210
0.0
220
0.0
230
1.0
 70
    11
 71
     3
 72
    44
 73
    40
 74
     0
 42
0.0000000001
 43
0.0000000001
 12
1.0
 22
0.0
 32
0.0
 13
1.0
 23
0.0
 33
0.0
 40
0.0
 40
0.0
 40
0.0
 40
0.0
 40
1.0
 40
1.0
 40
1.0
 40
2.0
 40
2.0
 40
2.0
 40
3.0
 40
3.0
 40
3.0
 40
4.0
 40
4.0
 40
4.0
 40
5.0
 40
5.0
 40
5.0
 40
6.0
 40
6.0
 40
6.0
 40
7.0
 40
7.0
 40
7.0
 40
8.0
 40
8.0
 40
8.0
 40
9.0
 40
9.0
 40
9.0
 40
10.0
 40
10.0
 40
10.0
 40
11.0
 40
11.0
 40
11.0
 40
12.0
 40
12.0
 40
12.0
 40
13.0
 40
13.0
 40
13.0
 40
13.0
 10
112.5157850196141
 20
-140.7345621392955
 30
0.0
 10
112.6746039214841
 20
-140.9522921739633
 30
0.0
 10
112.748673474417
 20
-141.0453097520651
 30
0.0
 10
112.8923339561519
 20
-141.0942301079556
 30
0.0
 10
112.8923339561519
 20
-141.0942301079556
 30
0.0
 10
112.8923339561519
 20
-140.3156385282892
 30
0.0
 10
112.8923339561519
 20
-140.3156385282892
 30
0.0
 10
112.8923339561519
 20
-140.3156385282892
 30
0.0
 10
113.0976616470728
 20
-140.3156385282892
 30
0.0
 10
113.0976616470728
 20
-140.3156385282892
 30
0.0
 10
113.0976616470728
 20
-140.3156385282892
 30
0.0
 10
113.0976616470728
 20
-141.3436550210877
 30
0.0
 10
113.0976616470728
 20
-141.3436550210877
 30
0.0
 10
112.7400607357039
 20
-141.3119601426234
 30
0.0
 10
112.6618570681887
 20
-141.2465033284037
 30
0.0
 10
112.3635117991661
 20
-140.8613416531527
 30
0.0
 10
112.1647297896671
 20
-140.6053710585987
 30
0.0
 10
112.0968614086077
 20
-140.5399142443789
 30
0.0
 10
111.9594020987463
 20
-140.5399142443789
 30
0.0
 10
111.8408908140537
 20
-140.5399142443789
 30
0.0
 10
111.7099771856142
 20
-140.6119167400206
 30
0.0
 10
111.7099771856142
 20
-140.8086316922284
 30
0.0
 10
111.7099771856142
 20
-141.0687364013648
 30
0.0
 10
111.9404540735774
 20
-141.0773491400779
 30
0.0
 10
112.0568983009788
 20
-141.0814832546602
 30
0.0
 10
112.0568983009788
 20
-141.0814832546602
 30
0.0
 10
112.0568983009788
 20
-141.30575897075
 30
0.0
 10
112.0568983009788
 20
-141.30575897075
 30
0.0
 10
111.9297742775731
 20
-141.2971462320368
 30
0.0
 10
111.8178086743025
 20
-141.2864664360326
 30
0.0
 10
111.6992973896099
 20
-141.2061957112262
 30
0.0
 10
111.5384114304487
 20
-141.0962971652468
 30
0.0
 10
111.5046494946933
 20
-140.9099174994948
 30
0.0
 10
111.5046494946933
 20
-140.7938177816418
 30
0.0
 10
111.5046494946933
 20
-140.5164875950792
 30
0.0
 10
111.6886175936056
 20
-140.3090928468672
 30
0.0
 10
111.9614691560374
 20
-140.3090928468672
 30
0.0
 10
112.190223496258
 20
-140.3090928468672
 30
0.0
 10
112.2894422462332
 20
-140.4255370742686
 30
0.0
 10
112.5157850196141
 20
-140.7345621392955
 30
0.0
  0
HATCH
  5
6B
330
5C
100
AcDbEntity
  8
_U+30EC_U+30A4_U+30E4_U+30FC 1
 62
     7
420
 16777215
100
AcDbHatch
 10
0.0
 20
0.0
 30
0.0
210
0.0
220
0.0
230
1.0
  2
SOLID
 70
     1
 71
     0
 91
        1
 92
        1
 93
        1
 72
     4
 94
        3
 73
     0
 74
     1
 95
       44
 96
       40
 40
0.0
 40
0.0
 40
0.0
 40
0.0
 40
1.0
 40
1.0
 40
1.0
 40
2.0
 40
2.0
 40
2.0
 40
3.0
 40
3.0
 40
3.0
 40
4.0
 40
4.0
 40
4.0
 40
5.0
 40
5.0
 40
5.0
 40
6.0
 40
6.0
 40
6.0
 40
7.0
 40
7.0
 40
7.0
 40
8.0
 40
8.0
 40
8.0
 40
9.0
 40
9.0
 40
9.0
 40
10.0
 40
10.0
 40
10.0
 40
11.0
 40
11.0
 40
11.0
 40
12.0
 40
12.0
 40
12.0
 40
13.0
 40
13.0
 40
13.0
 40
13.0
 10
112.5157850196141
 20
-140.7345621392955
 10
112.6746039214841
 20
-140.9522921739633
 10
112.748673474417
 20
-141.0453097520651
 10
112.8923339561519
 20
-141.0942301079556
 10
112.8923339561519
 20
-141.0942301079556
 10
112.8923339561519
 20
-140.3156385282892
 10
112.8923339561519
 20
-140.3156385282892
 10
112.8923339561519
 20
-140.3156385282892
 10
113.0976616470728
 20
-140.3156385282892
 10
113.0976616470728
 20
-140.3156385282892
 10
113.0976616470728
 20
-140.3156385282892
 10
113.0976616470728
 20
-141.3436550210877
 10
113.0976616470728
 20
-141.3436550210877
 10
112.7400607357039
 20
-141.3119601426234
 10
112.6618570681887
 20
-141.2465033284037
 10
112.3635117991661
 20
-140.8613416531527
 10
112.1647297896671
 20
-140.6053710585987
 10
112.0968614086077
 20
-140.5399142443789
 10
111.9594020987463
 20
-140.5399142443789
 10
111.8408908140537
 20
-140.5399142443789
 10
111.7099771856142
 20
-140.6119167400206
 10
111.7099771856142
 20
-140.8086316922284
 10
111.7099771856142
 20
-141.0687364013648
 10
111.9404540735774
 20
-141.0773491400779
 10
112.0568983009788
 20
-141.0814832546602
 10
112.0568983009788
 20
-141.0814832546602
 10
112.0568983009788
 20
-141.30575897075
 10
112.0568983009788
 20
-141.30575897075
 10
111.9297742775731
 20
-141.2971462320368
 10
111.8178086743025
 20
-141.2864664360326
 10
111.6992973896099
 20
-141.2061957112262
 10
111.5384114304487
 20
-141.0962971652468
 10
111.5046494946933
 20
-140.9099174994948
 10
111.5046494946933
 20
-140.7938177816418
 10
111.5046494946933
 20
-140.5164875950792
 10
111.6886175936056
 20
-140.3090928468672
 10
111.9614691560374
 20
-140.3090928468672
 10
112.190223496258
 20
-140.3090928468672
 10
112.2894422462332
 20
-140.4255370742686
 10
112.5157850196141
 20
-140.7345621392955
 97
        0
 97
        0
 75
     2
 76
     1
 98
        0
  0
ENDBLK
  5
5F
330
5C
100
AcDbEntity
  8
0
100
AcDbBlockEnd
  0
BLOCK
  5
76
330
74
100
AcDbEntity
  8
0
100
AcDbBlockBegin
  2
block 3
 70
     0
 10
0.0
 20
0.0
 30
0.0
  3
block 3
  1

  0
SPLINE
  5
78
330
74
100
AcDbEntity
  8
_U+30EC_U+30A4_U+30E4_U+30FC 1
370
     0
100
AcDbSpline
210
0.0
220
0.0
230
1.0
 70
    11
 71
     3
 72
    44
 73
    40
 74
     0
 42
0.0000000001
 43
0.0000000001
 12
1.0
 22
0.0
 32
0.0
 13
1.0
 23
0.0
 33
0.0
 40
0.0
 40
0.0
 40
0.0
 40
0.0
 40
1.0
 40
1.0
 40
1.0
 40
2.0
 40
2.0
 40
2.0
 40
3.0
 40
3.0
 40
3.0
 40
4.0
 40
4.0
 40
4.0
 40
5.0
 40
5.0
 40
5.0
 40
6.0
 40
6.0
 40
6.0
 40
7.0
 40
7.0
 40
7.0
 40
8.0
 40
8.0
 40
8.0
 40
9.0
 40
9.0
 40
9.0
 40
10.0
 40
10.0
 40
10.0
 40
11.0
 40
11.0
 40
11.0
 40
12.0
 40
12.0
 40
12.0
 40
13.0
 40
13.0
 40
13.0
 40
13.0
 10
113.7511962606247
 20
-128.9847194773024
 30
0.0
 10
113.9100151624947
 20
-129.2024495119702
 30
0.0
 10
113.9840847154276
 20
-129.295467090072
 30
0.0
 10
114.1277451971625
 20
-129.3443874459625
 30
0.0
 10
114.1277451971625
 20
-129.3443874459625
 30
0.0
 10
114.1277451971625
 20
-128.5657958662961
 30
0.0
 10
114.1277451971625
 20
-128.5657958662961
 30
0.0
 10
114.1277451971625
 20
-128.5657958662961
 30
0.0
 10
114.3330728880834
 20
-128.5657958662961
 30
0.0
 10
114.3330728880834
 20
-128.5657958662961
 30
0.0
 10
114.3330728880834
 20
-128.5657958662961
 30
0.0
 10
114.3330728880834
 20
-129.5938123590946
 30
0.0
 10
114.3330728880834
 20
-129.5938123590946
 30
0.0
 10
113.9754719767145
 20
-129.5621174806303
 30
0.0
 10
113.8972683091993
 20
-129.4966606664106
 30
0.0
 10
113.5989230401767
 20
-129.1114989911596
 30
0.0
 10
113.4001410306777
 20
-128.8555283966056
 30
0.0
 10
113.3322726496183
 20
-128.7900715823858
 30
0.0
 10
113.1948133397569
 20
-128.7900715823858
 30
0.0
 10
113.0763020550643
 20
-128.7900715823858
 30
0.0
 10
112.9453884266248
 20
-128.8620740780275
 30
0.0
 10
112.9453884266248
 20
-129.0587890302353
 30
0.0
 10
112.9453884266248
 20
-129.3188937393717
 30
0.0
 10
113.175865314588
 20
-129.3275064780848
 30
0.0
 10
113.2923095419894
 20
-129.3316405926671
 30
0.0
 10
113.2923095419894
 20
-129.3316405926671
 30
0.0
 10
113.2923095419894
 20
-129.5559163087568
 30
0.0
 10
113.2923095419894
 20
-129.5559163087568
 30
0.0
 10
113.1651855185837
 20
-129.5473035700437
 30
0.0
 10
113.0532199153131
 20
-129.5366237740395
 30
0.0
 10
112.9347086306205
 20
-129.4563530492331
 30
0.0
 10
112.7738226714593
 20
-129.3464545032537
 30
0.0
 10
112.7400607357039
 20
-129.1600748375017
 30
0.0
 10
112.7400607357039
 20
-129.0439751196487
 30
0.0
 10
112.7400607357039
 20
-128.7666449330861
 30
0.0
 10
112.9240288346162
 20
-128.5592501848741
 30
0.0
 10
113.196880397048
 20
-128.5592501848741
 30
0.0
 10
113.4256347372686
 20
-128.5592501848741
 30
0.0
 10
113.5248534872438
 20
-128.6756944122755
 30
0.0
 10
113.7511962606247
 20
-128.9847194773024
 30
0.0
  0
HATCH
  5
79
330
74
100
AcDbEntity
  8
_U+30EC_U+30A4_U+30E4_U+30FC 1
 62
     7
420
 16777215
100
AcDbHatch
 10
0.0
 20
0.0
 30
0.0
210
0.0
220
0.0
230
1.0
  2
SOLID
 70
     1
 71
     0
 91
        1
 92
        1
 93
        1
 72
     4
 94
        3
 73
     0
 74
     1
 95
       44
 96
       40
 40
0.0
 40
0.0
 40
0.0
 40
0.0
 40
1.0
 40
1.0
 40
1.0
 40
2.0
 40
2.0
 40
2.0
 40
3.0
 40
3.0
 40
3.0
 40
4.0
 40
4.0
 40
4.0
 40
5.0
 40
5.0
 40
5.0
 40
6.0
 40
6.0
 40
6.0
 40
7.0
 40
7.0
 40
7.0
 40
8.0
 40
8.0
 40
8.0
 40
9.0
 40
9.0
 40
9.0
 40
10.0
 40
10.0
 40
10.0
 40
11.0
 40
11.0
 40
11.0
 40
12.0
 40
12.0
 40
12.0
 40
13.0
 40
13.0
 40
13.0
 40
13.0
 10
113.7511962606247
 20
-128.9847194773024
 10
113.9100151624947
 20
-129.2024495119702
 10
113.9840847154276
 20
-129.295467090072
 10
114.1277451971625
 20
-129.3443874459625
 10
114.1277451971625
 20
-129.3443874459625
 10
114.1277451971625
 20
-128.5657958662961
 10
114.1277451971625
 20
-128.5657958662961
 10
114.1277451971625
 20
-128.5657958662961
 10
114.3330728880834
 20
-128.5657958662961
 10
114.3330728880834
 20
-128.5657958662961
 10
114.3330728880834
 20
-128.5657958662961
 10
114.3330728880834
 20
-129.5938123590946
 10
114.3330728880834
 20
-129.5938123590946
 10
113.9754719767145
 20
-129.5621174806303
 10
113.8972683091993
 20
-129.4966606664106
 10
113.5989230401767
 20
-129.1114989911596
 10
113.4001410306777
 20
-128.8555283966056
 10
113.3322726496183
 20
-128.7900715823858
 10
113.1948133397569
 20
-128.7900715823858
 10
113.0763020550643
 20
-128.7900715823858
 10
112.9453884266248
 20
-128.8620740780275
 10
112.9453884266248
 20
-129.0587890302353
 10
112.9453884266248
 20
-129.3188937393717
 10
113.175865314588
 20
-129.3275064780848
 10
113.2923095419894
 20
-129.3316405926671
 10
113.2923095419894
 20
-129.3316405926671
 10
113.2923095419894
 20
-129.5559163087568
 10
113.2923095419894
 20
-129.5559163087568
 10
113.1651855185837
 20
-129.5473035700437
 10
113.0532199153131
 20
-129.5366237740395
 10
112.9347086306205
 20
-129.4563530492331
 10
112.7738226714593
 20
-129.3464545032537
 10
112.7400607357039
 20
-129.1600748375017
 10
112.7400607357039
 20
-129.0439751196487
 10
112.7400607357039
 20
-128.7666449330861
 10
112.9240288346162
 20
-128.5592501848741
 10
113.196880397048
 20
-128.5592501848741
 10
113.4256347372686
 20
-128.5592501848741
 10
113.5248534872438
 20
-128.6756944122755
 10
113.7511962606247
 20
-128.9847194773024
 97
        0
 97
        0
 75
     2
 76
     1
 98
        0
  0
SPLINE
  5
7A
330
74
100
AcDbEntity
  8
_U+30EC_U+30A4_U+30E4_U+30FC 1
370
     0
100
AcDbSpline
210
0.0
220
0.0
230
1.0
 70
    11
 71
     3
 72
    53
 73
    49
 74
     0
 42
0.0000000001
 43
0.0000000001
 12
1.0
 22
0.0
 32
0.0
 13
1.0
 23
0.0
 33
0.0
 40
0.0
 40
0.0
 40
0.0
 40
0.0
 40
1.0
 40
1.0
 40
1.0
 40
2.0
 40
2.0
 40
2.0
 40
3.0
 40
3.0
 40
3.0
 40
4.0
 40
4.0
 40
4.0
 40
5.0
 40
5.0
 40
5.0
 40
6.0
 40
6.0
 40
6.0
 40
7.0
 40
7.0
 40
7.0
 40
8.0
 40
8.0
 40
8.0
 40
9.0
 40
9.0
 40
9.0
 40
10.0
 40
10.0
 40
10.0
 40
11.0
 40
11.0
 40
11.0
 40
12.0
 40
12.0
 40
12.0
 40
13.0
 40
13.0
 40
13.0
 40
14.0
 40
14.0
 40
14.0
 40
15.0
 40
15.0
 40
15.0
 40
16.0
 40
16.0
 40
16.0
 40
16.0
 10
114.3837157917166
 20
-127.9198404628117
 30
0.0
 10
114.3837157917166
 20
-127.9980441303269
 30
0.0
 10
114.3668348238389
 20
-128.0996744471418
 30
0.0
 10
114.3034450669103
 20
-128.2013047639566
 30
0.0
 10
114.1935465209308
 20
-128.3745930668647
 30
0.0
 10
114.0622883829428
 20
-128.3959526588732
 30
0.0
 10
113.9544568942544
 20
-128.4149006840421
 30
0.0
 10
113.9544568942544
 20
-128.4149006840421
 30
0.0
 10
113.9544568942544
 20
-128.1926920252435
 30
0.0
 10
113.9544568942544
 20
-128.1926920252435
 30
0.0
 10
114.1532389037534
 20
-128.137915007028
 30
0.0
 10
114.1828667249265
 20
-128.0107909836223
 30
0.0
 10
114.1828667249265
 20
-127.9177734055206
 30
0.0
 10
114.1828667249265
 20
-127.778247038368
 30
0.0
 10
114.0833034654028
 20
-127.6259738179199
 30
0.0
 10
113.8507595201484
 20
-127.6259738179199
 30
0.0
 10
113.5947889255944
 20
-127.6259738179199
 30
0.0
 10
113.5248534872438
 20
-127.8058078022499
 30
0.0
 10
113.5248534872438
 20
-127.9263861442337
 30
0.0
 10
113.5248534872438
 20
-127.958081022698
 30
0.0
 10
113.5248534872438
 20
-128.0996744471418
 30
0.0
 10
113.6540445679407
 20
-128.1885579106612
 30
0.0
 10
113.6540445679407
 20
-128.1885579106612
 30
0.0
 10
113.6350965427718
 20
-128.3642577804089
 30
0.0
 10
113.6350965427718
 20
-128.3642577804089
 30
0.0
 10
113.6350965427718
 20
-128.3642577804089
 30
0.0
 10
112.7886365820459
 20
-128.2436794384252
 30
0.0
 10
112.7886365820459
 20
-128.2436794384252
 30
0.0
 10
112.7886365820459
 20
-128.2436794384252
 30
0.0
 10
112.7886365820459
 20
-127.4650878587587
 30
0.0
 10
112.7886365820459
 20
-127.4650878587587
 30
0.0
 10
112.7886365820459
 20
-127.4650878587587
 30
0.0
 10
112.9832844769625
 20
-127.4650878587587
 30
0.0
 10
112.9832844769625
 20
-127.4650878587587
 30
0.0
 10
112.9832844769625
 20
-127.4650878587587
 30
0.0
 10
112.9832844769625
 20
-128.0807264219729
 30
0.0
 10
112.9832844769625
 20
-128.0807264219729
 30
0.0
 10
112.9832844769625
 20
-128.0807264219729
 30
0.0
 10
113.4063422025512
 20
-128.1461832361926
 30
0.0
 10
113.4063422025512
 20
-128.1461832361926
 30
0.0
 10
113.3725802667958
 20
-128.0848605365552
 30
0.0
 10
113.3322726496183
 20
-128.0025227544577
 30
0.0
 10
113.3322726496183
 20
-127.8840114697651
 30
0.0
 10
113.3322726496183
 20
-127.6301079325022
 30
0.0
 10
113.5186523153703
 20
-127.393085363117
 30
0.0
 10
113.8318114949795
 20
-127.393085363117
 30
0.0
 10
114.1491047891711
 20
-127.393085363117
 30
0.0
 10
114.3837157917166
 20
-127.6173610792068
 30
0.0
 10
114.3837157917166
 20
-127.9198404628117
 30
0.0
  0
HATCH
  5
7B
330
74
100
AcDbEntity
  8
_U+30EC_U+30A4_U+30E4_U+30FC 1
 62
     7
420
 16777215
100
AcDbHatch
 10
0.0
 20
0.0
 30
0.0
210
0.0
220
0.0
230
1.0
  2
SOLID
 70
     1
 71
     0
 91
        1
 92
        1
 93
        1
 72
     4
 94
        3
 73
     0
 74
     1
 95
       53
 96
       49
 40
0.0
 40
0.0
 40
0.0
 40
0.0
 40
1.0
 40
1.0
 40
1.0
 40
2.0
 40
2.0
 40
2.0
 40
3.0
 40
3.0
 40
3.0
 40
4.0
 40
4.0
 40
4.0
 40
5.0
 40
5.0
 40
5.0
 40
6.0
 40
6.0
 40
6.0
 40
7.0
 40
7.0
 40
7.0
 40
8.0
 40
8.0
 40
8.0
 40
9.0
 40
9.0
 40
9.0
 40
10.0
 40
10.0
 40
10.0
 40
11.0
 40
11.0
 40
11.0
 40
12.0
 40
12.0
 40
12.0
 40
13.0
 40
13.0
 40
13.0
 40
14.0
 40
14.0
 40
14.0
 40
15.0
 40
15.0
 40
15.0
 40
16.0
 40
16.0
 40
16.0
 40
16.0
 10
114.3837157917166
 20
-127.9198404628117
 10
114.3837157917166
 20
-127.9980441303269
 10
114.3668348238389
 20
-128.0996744471418
 10
114.3034450669103
 20
-128.2013047639566
 10
114.1935465209308
 20
-128.3745930668647
 10
114.0622883829428
 20
-128.3959526588732
 10
113.9544568942544
 20
-128.4149006840421
 10
113.9544568942544
 20
-128.4149006840421
 10
113.9544568942544
 20
-128.1926920252435
 10
113.9544568942544
 20
-128.1926920252435
 10
114.1532389037534
 20
-128.137915007028
 10
114.1828667249265
 20
-128.0107909836223
 10
114.1828667249265
 20
-127.9177734055206
 10
114.1828667249265
 20
-127.778247038368
 10
114.0833034654028
 20
-127.6259738179199
 10
113.8507595201484
 20
-127.6259738179199
 10
113.5947889255944
 20
-127.6259738179199
 10
113.5248534872438
 20
-127.8058078022499
 10
113.5248534872438
 20
-127.9263861442337
 10
113.5248534872438
 20
-127.958081022698
 10
113.5248534872438
 20
-128.0996744471418
 10
113.6540445679407
 20
-128.1885579106612
 10
113.6540445679407
 20
-128.1885579106612
 10
113.6350965427718
 20
-128.3642577804089
 10
113.6350965427718
 20
-128.3642577804089
 10
113.6350965427718
 20
-128.3642577804089
 10
112.7886365820459
 20
-128.2436794384252
 10
112.7886365820459
 20
-128.2436794384252
 10
112.7886365820459
 20
-128.2436794384252
 10
112.7886365820459
 20
-127.4650878587587
 10
112.7886365820459
 20
-127.4650878587587
 10
112.7886365820459
 20
-127.4650878587587
 10
112.9832844769625
 20
-127.4650878587587
 10
112.9832844769625
 20
-127.4650878587587
 10
112.9832844769625
 20
-127.4650878587587
 10
112.9832844769625
 20
-128.0807264219729
 10
112.9832844769625
 20
-128.0807264219729
 10
112.9832844769625
 20
-128.0807264219729
 10
113.4063422025512
 20
-128.1461832361926
 10
113.4063422025512
 20
-128.1461832361926
 10
113.3725802667958
 20
-128.0848605365552
 10
113.3322726496183
 20
-128.0025227544577
 10
113.3322726496183
 20
-127.8840114697651
 10
113.3322726496183
 20
-127.6301079325022
 10
113.5186523153703
 20
-127.393085363117
 10
113.8318114949795
 20
-127.393085363117
 10
114.1491047891711
 20
-127.393085363117
 10
114.3837157917166
 20
-127.6173610792068
 10
114.3837157917166
 20
-127.9198404628117
 97
        0
 97
        0
 75
     2
 76
     1
 98
        0
  0
ENDBLK
  5
77
330
74
100
AcDbEntity
  8
0
100
AcDbBlockEnd
  0
BLOCK
  5
8C
330
8A
100
AcDbEntity
  8
0
100
AcDbBlockBegin
  2
block 4
 70
     0
 10
0.0
 20
0.0
 30
0.0
  3
block 4
  1

  0
SPLINE
  5
8E
330
8A
100
AcDbEntity
  8
_U+30EC_U+30A4_U+30E4_U+30FC 1
370
     0
100
AcDbSpline
210
0.0
220
0.0
230
1.0
 70
    11
 71
     3
 72
    44
 73
    40
 74
     0
 42
0.0000000001
 43
0.0000000001
 12
1.0
 22
0.0
 32
0.0
 13
1.0
 23
0.0
 33
0.0
 40
0.0
 40
0.0
 40
0.0
 40
0.0
 40
1.0
 40
1.0
 40
1.0
 40
2.0
 40
2.0
 40
2.0
 40
3.0
 40
3.0
 40
3.0
 40
4.0
 40
4.0
 40
4.0
 40
5.0
 40
5.0
 40
5.0
 40
6.0
 40
6.0
 40
6.0
 40
7.0
 40
7.0
 40
7.0
 40
8.0
 40
8.0
 40
8.0
 40
9.0
 40
9.0
 40
9.0
 40
10.0
 40
10.0
 40
10.0
 40
11.0
 40
11.0
 40
11.0
 40
12.0
 40
12.0
 40
12.0
 40
13.0
 40
13.0
 40
13.0
 40
13.0
 10
67.9992946878613
 20
-130.7475748371048
 30
0.0
 10
68.15811358973131
 20
-130.9653048717726
 30
0.0
 10
68.23218314266418
 20
-131.0583224498743
 30
0.0
 10
68.3758436243991
 20
-131.1072428057649
 30
0.0
 10
68.3758436243991
 20
-131.1072428057649
 30
0.0
 10
68.3758436243991
 20
-130.3286512260984
 30
0.0
 10
68.3758436243991
 20
-130.3286512260984
 30
0.0
 10
68.3758436243991
 20
-130.3286512260984
 30
0.0
 10
68.58117131531999
 20
-130.3286512260984
 30
0.0
 10
68.58117131531999
 20
-130.3286512260984
 30
0.0
 10
68.58117131531999
 20
-130.3286512260984
 30
0.0
 10
68.58117131531999
 20
-131.3566677188969
 30
0.0
 10
68.58117131531999
 20
-131.3566677188969
 30
0.0
 10
68.22357040395106
 20
-131.3249728404327
 30
0.0
 10
68.14536673643589
 20
-131.2595160262129
 30
0.0
 10
67.84702146741324
 20
-130.874354350962
 30
0.0
 10
67.64823945791433
 20
-130.6183837564079
 30
0.0
 10
67.58037107685492
 20
-130.5529269421882
 30
0.0
 10
67.44291176699345
 20
-130.5529269421882
 30
0.0
 10
67.32440048230085
 20
-130.5529269421882
 30
0.0
 10
67.19348685386136
 20
-130.6249294378299
 30
0.0
 10
67.19348685386136
 20
-130.8216443900376
 30
0.0
 10
67.19348685386136
 20
-131.081749099174
 30
0.0
 10
67.42396374182456
 20
-131.0900173283386
 30
0.0
 10
67.54040796922601
 20
-131.0944959524694
 30
0.0
 10
67.54040796922601
 20
-131.0944959524694
 30
0.0
 10
67.54040796922601
 20
-131.3187716685592
 30
0.0
 10
67.54040796922601
 20
-131.3187716685592
 30
0.0
 10
67.4132839458203
 20
-131.3101589298461
 30
0.0
 10
67.30131834254968
 20
-131.2994791338418
 30
0.0
 10
67.18280705785708
 20
-131.2192084090355
 30
0.0
 10
67.02192109869591
 20
-131.109309863056
 30
0.0
 10
66.98815916294046
 20
-130.922930197304
 30
0.0
 10
66.98815916294046
 20
-130.8068304794511
 30
0.0
 10
66.98815916294046
 20
-130.5295002928885
 30
0.0
 10
67.17212726185281
 20
-130.3221055446764
 30
0.0
 10
67.44497882428459
 20
-130.3221055446764
 30
0.0
 10
67.67373316450518
 20
-130.3221055446764
 30
0.0
 10
67.77295191448037
 20
-130.4385497720779
 30
0.0
 10
67.9992946878613
 20
-130.7475748371048
 30
0.0
  0
HATCH
  5
8F
330
8A
100
AcDbEntity
  8
_U+30EC_U+30A4_U+30E4_U+30FC 1
 62
     7
420
 16777215
100
AcDbHatch
 10
0.0
 20
0.0
 30
0.0
210
0.0
220
0.0
230
1.0
  2
SOLID
 70
     1
 71
     0
 91
        1
 92
        1
 93
        1
 72
     4
 94
        3
 73
     0
 74
     1
 95
       44
 96
       40
 40
0.0
 40
0.0
 40
0.0
 40
0.0
 40
1.0
 40
1.0
 40
1.0
 40
2.0
 40
2.0
 40
2.0
 40
3.0
 40
3.0
 40
3.0
 40
4.0
 40
4.0
 40
4.0
 40
5.0
 40
5.0
 40
5.0
 40
6.0
 40
6.0
 40
6.0
 40
7.0
 40
7.0
 40
7.0
 40
8.0
 40
8.0
 40
8.0
 40
9.0
 40
9.0
 40
9.0
 40
10.0
 40
10.0
 40
10.0
 40
11.0
 40
11.0
 40
11.0
 40
12.0
 40
12.0
 40
12.0
 40
13.0
 40
13.0
 40
13.0
 40
13.0
 10
67.9992946878613
 20
-130.7475748371048
 10
68.15811358973131
 20
-130.9653048717726
 10
68.23218314266418
 20
-131.0583224498743
 10
68.3758436243991
 20
-131.1072428057649
 10
68.3758436243991
 20
-131.1072428057649
 10
68.3758436243991
 20
-130.3286512260984
 10
68.3758436243991
 20
-130.3286512260984
 10
68.3758436243991
 20
-130.3286512260984
 10
68.58117131531999
 20
-130.3286512260984
 10
68.58117131531999
 20
-130.3286512260984
 10
68.58117131531999
 20
-130.3286512260984
 10
68.58117131531999
 20
-131.3566677188969
 10
68.58117131531999
 20
-131.3566677188969
 10
68.22357040395106
 20
-131.3249728404327
 10
68.14536673643589
 20
-131.2595160262129
 10
67.84702146741324
 20
-130.874354350962
 10
67.64823945791433
 20
-130.6183837564079
 10
67.58037107685492
 20
-130.5529269421882
 10
67.44291176699345
 20
-130.5529269421882
 10
67.32440048230085
 20
-130.5529269421882
 10
67.19348685386136
 20
-130.6249294378299
 10
67.19348685386136
 20
-130.8216443900376
 10
67.19348685386136
 20
-131.081749099174
 10
67.42396374182456
 20
-131.0900173283386
 10
67.54040796922601
 20
-131.0944959524694
 10
67.54040796922601
 20
-131.0944959524694
 10
67.54040796922601
 20
-131.3187716685592
 10
67.54040796922601
 20
-131.3187716685592
 10
67.4132839458203
 20
-131.3101589298461
 10
67.30131834254968
 20
-131.2994791338418
 10
67.18280705785708
 20
-131.2192084090355
 10
67.02192109869591
 20
-131.109309863056
 10
66.98815916294046
 20
-130.922930197304
 10
66.98815916294046
 20
-130.8068304794511
 10
66.98815916294046
 20
-130.5295002928885
 10
67.17212726185281
 20
-130.3221055446764
 10
67.44497882428459
 20
-130.3221055446764
 10
67.67373316450518
 20
-130.3221055446764
 10
67.77295191448037
 20
-130.4385497720779
 10
67.9992946878613
 20
-130.7475748371048
 97
        0
 97
        0
 75
     2
 76
     1
 98
        0
  0
SPLINE
  5
90
330
8A
100
AcDbEntity
  8
_U+30EC_U+30A4_U+30E4_U+30FC 1
370
     0
100
AcDbSpline
210
0.0
220
0.0
230
1.0
 70
    11
 71
     3
 72
    32
 73
    28
 74
     0
 42
0.0000000001
 43
0.0000000001
 12
1.0
 22
0.0
 32
0.0
 13
1.0
 23
0.0
 33
0.0
 40
0.0
 40
0.0
 40
0.0
 40
0.0
 40
1.0
 40
1.0
 40
1.0
 40
2.0
 40
2.0
 40
2.0
 40
3.0
 40
3.0
 40
3.0
 40
4.0
 40
4.0
 40
4.0
 40
5.0
 40
5.0
 40
5.0
 40
6.0
 40
6.0
 40
6.0
 40
7.0
 40
7.0
 40
7.0
 40
8.0
 40
8.0
 40
8.0
 40
9.0
 40
9.0
 40
9.0
 40
9.0
 10
68.63181421895317
 20
-129.6596136828629
 30
0.0
 10
68.63181421895317
 20
-130.1756889865533
 30
0.0
 10
68.07784286492499
 20
-130.1839572157179
 30
0.0
 10
67.86390243529097
 20
-130.1839572157179
 30
0.0
 10
67.63342554732776
 20
-130.1839572157179
 30
0.0
 10
66.98609210564932
 20
-130.165009190549
 30
0.0
 10
66.98609210564932
 20
-129.6213731229766
 30
0.0
 10
66.98609210564932
 20
-129.4480848200685
 30
0.0
 10
67.05602754399989
 20
-129.2024495119702
 30
0.0
 10
67.38813474877797
 20
-129.1645534616325
 30
0.0
 10
67.38813474877797
 20
-129.1645534616325
 30
0.0
 10
67.38813474877797
 20
-129.378149381718
 30
0.0
 10
67.38813474877797
 20
-129.378149381718
 30
0.0
 10
67.33094616372283
 20
-129.3888291777222
 30
0.0
 10
67.18280705785708
 20
-129.4205240561865
 30
0.0
 10
67.18280705785708
 20
-129.6234401802677
 30
0.0
 10
67.18280705785708
 20
-129.9155842774169
 30
0.0
 10
67.51078014805286
 20
-129.9555473850458
 30
0.0
 10
67.71576332942523
 20
-129.9682942383413
 30
0.0
 10
67.63755966191006
 20
-129.8752766602395
 30
0.0
 10
67.57830401956376
 20
-129.8074082791801
 30
0.0
 10
67.57830401956376
 20
-129.6255072375589
 30
0.0
 10
67.57830401956376
 20
-129.4456732532289
 30
0.0
 10
67.6864800178006
 20
-129.1431938696239
 30
0.0
 10
68.09265677551156
 20
-129.1431938696239
 30
0.0
 10
68.41201712699421
 20
-129.1431938696239
 30
0.0
 10
68.63181421895317
 20
-129.3423203886714
 30
0.0
 10
68.63181421895317
 20
-129.6596136828629
 30
0.0
  0
SPLINE
  5
91
330
8A
100
AcDbEntity
  8
_U+30EC_U+30A4_U+30E4_U+30FC 1
370
     0
100
AcDbSpline
210
0.0
220
0.0
230
1.0
 70
    11
 71
     3
 72
    17
 73
    13
 74
     0
 42
0.0000000001
 43
0.0000000001
 12
1.0
 22
0.0
 32
0.0
 13
1.0
 23
0.0
 33
0.0
 40
0.0
 40
0.0
 40
0.0
 40
0.0
 40
1.0
 40
1.0
 40
1.0
 40
2.0
 40
2.0
 40
2.0
 40
3.0
 40
3.0
 40
3.0
 40
4.0
 40
4.0
 40
4.0
 40
4.0
 10
67.77295191448037
 20
-129.6423882054366
 30
0.0
 10
67.77295191448037
 20
-129.9049044814127
 30
0.0
 10
67.98448077727471
 20
-129.9428005317504
 30
0.0
 10
68.10092500467616
 20
-129.9428005317504
 30
0.0
 10
68.2766248744239
 20
-129.9428005317504
 30
0.0
 10
68.43957789087622
 20
-129.8477158963575
 30
0.0
 10
68.43957789087622
 20
-129.6637477974452
 30
0.0
 10
68.43957789087622
 20
-129.5431694554614
 30
0.0
 10
68.38032224852992
 20
-129.3674695857137
 30
0.0
 10
68.09472383280271
 20
-129.3674695857137
 30
0.0
 10
67.87044811671295
 20
-129.3674695857137
 30
0.0
 10
67.77295191448037
 20
-129.5073404624148
 30
0.0
 10
67.77295191448037
 20
-129.6423882054366
 30
0.0
  0
HATCH
  5
92
330
8A
100
AcDbEntity
  8
_U+30EC_U+30A4_U+30E4_U+30FC 1
 62
     7
420
 16777215
100
AcDbHatch
 10
0.0
 20
0.0
 30
0.0
210
0.0
220
0.0
230
1.0
  2
SOLID
 70
     1
 71
     0
 91
        2
 92
        1
 93
        1
 72
     4
 94
        3
 73
     0
 74
     1
 95
       32
 96
       28
 40
0.0
 40
0.0
 40
0.0
 40
0.0
 40
1.0
 40
1.0
 40
1.0
 40
2.0
 40
2.0
 40
2.0
 40
3.0
 40
3.0
 40
3.0
 40
4.0
 40
4.0
 40
4.0
 40
5.0
 40
5.0
 40
5.0
 40
6.0
 40
6.0
 40
6.0
 40
7.0
 40
7.0
 40
7.0
 40
8.0
 40
8.0
 40
8.0
 40
9.0
 40
9.0
 40
9.0
 40
9.0
 10
68.63181421895317
 20
-129.6596136828629
 10
68.63181421895317
 20
-130.1756889865533
 10
68.07784286492499
 20
-130.1839572157179
 10
67.86390243529097
 20
-130.1839572157179
 10
67.63342554732776
 20
-130.1839572157179
 10
66.98609210564932
 20
-130.165009190549
 10
66.98609210564932
 20
-129.6213731229766
 10
66.98609210564932
 20
-129.4480848200685
 10
67.05602754399989
 20
-129.2024495119702
 10
67.38813474877797
 20
-129.1645534616325
 10
67.38813474877797
 20
-129.1645534616325
 10
67.38813474877797
 20
-129.378149381718
 10
67.38813474877797
 20
-129.378149381718
 10
67.33094616372283
 20
-129.3888291777222
 10
67.18280705785708
 20
-129.4205240561865
 10
67.18280705785708
 20
-129.6234401802677
 10
67.18280705785708
 20
-129.9155842774169
 10
67.51078014805286
 20
-129.9555473850458
 10
67.71576332942523
 20
-129.9682942383413
 10
67.63755966191006
 20
-129.8752766602395
 10
67.57830401956376
 20
-129.8074082791801
 10
67.57830401956376
 20
-129.6255072375589
 10
67.57830401956376
 20
-129.4456732532289
 10
67.6864800178006
 20
-129.1431938696239
 10
68.09265677551156
 20
-129.1431938696239
 10
68.41201712699421
 20
-129.1431938696239
 10
68.63181421895317
 20
-129.3423203886714
 10
68.63181421895317
 20
-129.6596136828629
 97
        0
 97
        0
 92
        1
 93
        1
 72
     4
 94
        3
 73
     0
 74
     1
 95
       17
 96
       13
 40
0.0
 40
0.0
 40
0.0
 40
0.0
 40
1.0
 40
1.0
 40
1.0
 40
2.0
 40
2.0
 40
2.0
 40
3.0
 40
3.0
 40
3.0
 40
4.0
 40
4.0
 40
4.0
 40
4.0
 10
67.77295191448037
 20
-129.6423882054366
 10
67.77295191448037
 20
-129.9049044814127
 10
67.98448077727471
 20
-129.9428005317504
 10
68.10092500467616
 20
-129.9428005317504
 10
68.2766248744239
 20
-129.9428005317504
 10
68.43957789087622
 20
-129.8477158963575
 10
68.43957789087622
 20
-129.6637477974452
 10
68.43957789087622
 20
-129.5431694554614
 10
68.38032224852992
 20
-129.3674695857137
 10
68.09472383280271
 20
-129.3674695857137
 10
67.87044811671295
 20
-129.3674695857137
 10
67.77295191448037
 20
-129.5073404624148
 10
67.77295191448037
 20
-129.6423882054366
 97
        0
 97
        0
 75
     2
 76
     1
 98
        0
  0
POLYLINE
  5
93
330
8A
100
AcDbEntity
  8
_U+30EC_U+30A4_U+30E4_U+30FC 1
370
     0
100
AcDb2dPolyline
 66
     1
 10
0.0
 20
0.0
 30
0.0
  0
VERTEX
  5
94
330
93
100
AcDbEntity
  8
_U+30EC_U+30A4_U+30E4_U+30FC 1
370
     0
100
AcDbVertex
100
AcDb2dVertex
 10
68.58117131531999
 20
-128.9268418731502
 30
0.0
  0
VERTEX
  5
95
330
93
100
AcDbEntity
  8
_U+30EC_U+30A4_U+30E4_U+30FC 1
370
     0
100
AcDbVertex
100
AcDb2dVertex
 10
68.32933483534822
 20
-128.9268418731502
 30
0.0
  0
VERTEX
  5
96
330
93
100
AcDbEntity
  8
_U+30EC_U+30A4_U+30E4_U+30FC 1
370
     0
100
AcDbVertex
100
AcDb2dVertex
 10
68.32933483534822
 20
-128.6750053931785
 30
0.0
  0
VERTEX
  5
97
330
93
100
AcDbEntity
  8
_U+30EC_U+30A4_U+30E4_U+30FC 1
370
     0
100
AcDbVertex
100
AcDb2dVertex
 10
68.58117131531999
 20
-128.6750053931785
 30
0.0
  0
VERTEX
  5
98
330
93
100
AcDbEntity
  8
_U+30EC_U+30A4_U+30E4_U+30FC 1
370
     0
100
AcDbVertex
100
AcDb2dVertex
 10
68.58117131531999
 20
-128.9268418731502
 30
0.0
  0
SEQEND
  5
99
330
93
100
AcDbEntity
  8
_U+30EC_U+30A4_U+30E4_U+30FC 1
370
     0
  0
HATCH
  5
9A
330
8A
100
AcDbEntity
  8
_U+30EC_U+30A4_U+30E4_U+30FC 1
 62
     7
420
 16777215
100
AcDbHatch
 10
0.0
 20
0.0
 30
0.0
210
0.0
220
0.0
230
1.0
  2
SOLID
 70
     1
 71
     0
 91
        1
 92
        1
 93
        4
 72
     1
 10
68.58117131531999
 20
-128.9268418731502
 11
68.32933483534822
 21
-128.9268418731502
 72
     1
 10
68.32933483534822
 20
-128.9268418731502
 11
68.32933483534822
 21
-128.6750053931785
 72
     1
 10
68.32933483534822
 20
-128.6750053931785
 11
68.58117131531999
 21
-128.6750053931785
 72
     1
 10
68.58117131531999
 20
-128.6750053931785
 11
68.58117131531999
 21
-128.9268418731502
 97
        0
 75
     2
 76
     1
 98
        0
  0
SPLINE
  5
9B
330
8A
100
AcDbEntity
  8
_U+30EC_U+30A4_U+30E4_U+30FC 1
370
     0
100
AcDbSpline
210
0.0
220
0.0
230
1.0
 70
    11
 71
     3
 72
    44
 73
    40
 74
     0
 42
0.0000000001
 43
0.0000000001
 12
1.0
 22
0.0
 32
0.0
 13
1.0
 23
0.0
 33
0.0
 40
0.0
 40
0.0
 40
0.0
 40
0.0
 40
1.0
 40
1.0
 40
1.0
 40
2.0
 40
2.0
 40
2.0
 40
3.0
 40
3.0
 40
3.0
 40
4.0
 40
4.0
 40
4.0
 40
5.0
 40
5.0
 40
5.0
 40
6.0
 40
6.0
 40
6.0
 40
7.0
 40
7.0
 40
7.0
 40
8.0
 40
8.0
 40
8.0
 40
9.0
 40
9.0
 40
9.0
 40
10.0
 40
10.0
 40
10.0
 40
11.0
 40
11.0
 40
11.0
 40
12.0
 40
12.0
 40
12.0
 40
13.0
 40
13.0
 40
13.0
 40
13.0
 10
67.9992946878613
 20
-127.8457709098788
 30
0.0
 10
68.15811358973131
 20
-128.0635009445466
 30
0.0
 10
68.23218314266418
 20
-128.1565185226484
 30
0.0
 10
68.3758436243991
 20
-128.2054388785389
 30
0.0
 10
68.3758436243991
 20
-128.2054388785389
 30
0.0
 10
68.3758436243991
 20
-127.4268472988725
 30
0.0
 10
68.3758436243991
 20
-127.4268472988725
 30
0.0
 10
68.3758436243991
 20
-127.4268472988725
 30
0.0
 10
68.58117131531999
 20
-127.4268472988725
 30
0.0
 10
68.58117131531999
 20
-127.4268472988725
 30
0.0
 10
68.58117131531999
 20
-127.4268472988725
 30
0.0
 10
68.58117131531999
 20
-128.454863791671
 30
0.0
 10
68.58117131531999
 20
-128.454863791671
 30
0.0
 10
68.22357040395106
 20
-128.4231689132067
 30
0.0
 10
68.14536673643589
 20
-128.357712098987
 30
0.0
 10
67.84702146741324
 20
-127.972550423736
 30
0.0
 10
67.64823945791433
 20
-127.716579829182
 30
0.0
 10
67.58037107685492
 20
-127.6511230149622
 30
0.0
 10
67.44291176699345
 20
-127.6511230149622
 30
0.0
 10
67.32440048230085
 20
-127.6511230149622
 30
0.0
 10
67.19348685386136
 20
-127.7231255106039
 30
0.0
 10
67.19348685386136
 20
-127.9198404628117
 30
0.0
 10
67.19348685386136
 20
-128.1799451719481
 30
0.0
 10
67.42396374182456
 20
-128.1885579106612
 30
0.0
 10
67.54040796922601
 20
-128.1926920252435
 30
0.0
 10
67.54040796922601
 20
-128.1926920252435
 30
0.0
 10
67.54040796922601
 20
-128.4169677413333
 30
0.0
 10
67.54040796922601
 20
-128.4169677413333
 30
0.0
 10
67.4132839458203
 20
-128.4083550026201
 30
0.0
 10
67.30131834254968
 20
-128.3976752066159
 30
0.0
 10
67.18280705785708
 20
-128.3174044818095
 30
0.0
 10
67.02192109869591
 20
-128.2075059358301
 30
0.0
 10
66.98815916294046
 20
-128.0211262700781
 30
0.0
 10
66.98815916294046
 20
-127.9050265522251
 30
0.0
 10
66.98815916294046
 20
-127.6276963656625
 30
0.0
 10
67.17212726185281
 20
-127.4203016174505
 30
0.0
 10
67.44497882428459
 20
-127.4203016174505
 30
0.0
 10
67.67373316450518
 20
-127.4203016174505
 30
0.0
 10
67.77295191448037
 20
-127.5367458448519
 30
0.0
 10
67.9992946878613
 20
-127.8457709098788
 30
0.0
  0
HATCH
  5
9C
330
8A
100
AcDbEntity
  8
_U+30EC_U+30A4_U+30E4_U+30FC 1
 62
     7
420
 16777215
100
AcDbHatch
 10
0.0
 20
0.0
 30
0.0
210
0.0
220
0.0
230
1.0
  2
SOLID
 70
     1
 71
     0
 91
        1
 92
        1
 93
        1
 72
     4
 94
        3
 73
     0
 74
     1
 95
       44
 96
       40
 40
0.0
 40
0.0
 40
0.0
 40
0.0
 40
1.0
 40
1.0
 40
1.0
 40
2.0
 40
2.0
 40
2.0
 40
3.0
 40
3.0
 40
3.0
 40
4.0
 40
4.0
 40
4.0
 40
5.0
 40
5.0
 40
5.0
 40
6.0
 40
6.0
 40
6.0
 40
7.0
 40
7.0
 40
7.0
 40
8.0
 40
8.0
 40
8.0
 40
9.0
 40
9.0
 40
9.0
 40
10.0
 40
10.0
 40
10.0
 40
11.0
 40
11.0
 40
11.0
 40
12.0
 40
12.0
 40
12.0
 40
13.0
 40
13.0
 40
13.0
 40
13.0
 10
67.9992946878613
 20
-127.8457709098788
 10
68.15811358973131
 20
-128.0635009445466
 10
68.23218314266418
 20
-128.1565185226484
 10
68.3758436243991
 20
-128.2054388785389
 10
68.3758436243991
 20
-128.2054388785389
 10
68.3758436243991
 20
-127.4268472988725
 10
68.3758436243991
 20
-127.4268472988725
 10
68.3758436243991
 20
-127.4268472988725
 10
68.58117131531999
 20
-127.4268472988725
 10
68.58117131531999
 20
-127.4268472988725
 10
68.58117131531999
 20
-127.4268472988725
 10
68.58117131531999
 20
-128.454863791671
 10
68.58117131531999
 20
-128.454863791671
 10
68.22357040395106
 20
-128.4231689132067
 10
68.14536673643589
 20
-128.357712098987
 10
67.84702146741324
 20
-127.972550423736
 10
67.64823945791433
 20
-127.716579829182
 10
67.58037107685492
 20
-127.6511230149622
 10
67.44291176699345
 20
-127.6511230149622
 10
67.32440048230085
 20
-127.6511230149622
 10
67.19348685386136
 20
-127.7231255106039
 10
67.19348685386136
 20
-127.9198404628117
 10
67.19348685386136
 20
-128.1799451719481
 10
67.42396374182456
 20
-128.1885579106612
 10
67.54040796922601
 20
-128.1926920252435
 10
67.54040796922601
 20
-128.1926920252435
 10
67.54040796922601
 20
-128.4169677413333
 10
67.54040796922601
 20
-128.4169677413333
 10
67.4132839458203
 20
-128.4083550026201
 10
67.30131834254968
 20
-128.3976752066159
 10
67.18280705785708
 20
-128.3174044818095
 10
67.02192109869591
 20
-128.2075059358301
 10
66.98815916294046
 20
-128.0211262700781
 10
66.98815916294046
 20
-127.9050265522251
 10
66.98815916294046
 20
-127.6276963656625
 10
67.17212726185281
 20
-127.4203016174505
 10
67.44497882428459
 20
-127.4203016174505
 10
67.67373316450518
 20
-127.4203016174505
 10
67.77295191448037
 20
-127.5367458448519
 10
67.9992946878613
 20
-127.8457709098788
 97
        0
 97
        0
 75
     2
 76
     1
 98
        0
  0
ENDBLK
  5
8D
330
8A
100
AcDbEntity
  8
0
100
AcDbBlockEnd
  0
BLOCK
  5
D6
330
D4
100
AcDbEntity
  8
0
100
AcDbBlockBegin
  2
block 5
 70
     0
 10
0.0
 20
0.0
 30
0.0
  3
block 5
  1

  0
SPLINE
  5
D8
330
D4
100
AcDbEntity
  8
_U+30EC_U+30A4_U+30E4_U+30FC 1
370
     0
100
AcDbSpline
210
0.0
220
0.0
230
1.0
 70
    11
 71
     3
 72
    44
 73
    40
 74
     0
 42
0.0000000001
 43
0.0000000001
 12
1.0
 22
0.0
 32
0.0
 13
1.0
 23
0.0
 33
0.0
 40
0.0
 40
0.0
 40
0.0
 40
0.0
 40
1.0
 40
1.0
 40
1.0
 40
2.0
 40
2.0
 40
2.0
 40
3.0
 40
3.0
 40
3.0
 40
4.0
 40
4.0
 40
4.0
 40
5.0
 40
5.0
 40
5.0
 40
6.0
 40
6.0
 40
6.0
 40
7.0
 40
7.0
 40
7.0
 40
8.0
 40
8.0
 40
8.0
 40
9.0
 40
9.0
 40
9.0
 40
10.0
 40
10.0
 40
10.0
 40
11.0
 40
11.0
 40
11.0
 40
12.0
 40
12.0
 40
12.0
 40
13.0
 40
13.0
 40
13.0
 40
13.0
 10
99.82646481879338
 20
-145.5384032839279
 30
0.0
 10
99.6087347841256
 20
-145.6972221857979
 30
0.0
 10
99.51571720602385
 20
-145.7712917387308
 30
0.0
 10
99.4667968501333
 20
-145.9149522204657
 30
0.0
 10
99.4667968501333
 20
-145.9149522204657
 30
0.0
 10
100.2453884297998
 20
-145.9149522204657
 30
0.0
 10
100.2453884297998
 20
-145.9149522204657
 30
0.0
 10
100.2453884297998
 20
-145.9149522204657
 30
0.0
 10
100.2453884297998
 20
-146.1202799113866
 30
0.0
 10
100.2453884297998
 20
-146.1202799113866
 30
0.0
 10
100.2453884297998
 20
-146.1202799113866
 30
0.0
 10
99.21737193700122
 20
-146.1202799113866
 30
0.0
 10
99.21737193700122
 20
-146.1202799113866
 30
0.0
 10
99.24906681546551
 20
-145.7626790000177
 30
0.0
 10
99.31452362968527
 20
-145.6844753325025
 30
0.0
 10
99.6996853049362
 20
-145.3861300634799
 30
0.0
 10
99.95565589949025
 20
-145.1873480539809
 30
0.0
 10
100.02111271371
 20
-145.1194796729215
 30
0.0
 10
100.02111271371
 20
-144.9820203630601
 30
0.0
 10
100.02111271371
 20
-144.8635090783675
 30
0.0
 10
99.94911021806828
 20
-144.732595449928
 30
0.0
 10
99.75239526586051
 20
-144.732595449928
 30
0.0
 10
99.49229055672416
 20
-144.732595449928
 30
0.0
 10
99.48367781801103
 20
-144.9630723378912
 30
0.0
 10
99.47954370342873
 20
-145.0795165652926
 30
0.0
 10
99.47954370342873
 20
-145.0795165652926
 30
0.0
 10
99.25526798733897
 20
-145.0795165652926
 30
0.0
 10
99.25526798733897
 20
-145.0795165652926
 30
0.0
 10
99.2638807260521
 20
-144.9523925418869
 30
0.0
 10
99.27456052205636
 20
-144.8404269386163
 30
0.0
 10
99.35483124686269
 20
-144.7219156539237
 30
0.0
 10
99.46472979284215
 20
-144.5610296947625
 30
0.0
 10
99.65110945859418
 20
-144.5272677590071
 30
0.0
 10
99.7672091764471
 20
-144.5272677590071
 30
0.0
 10
100.0445393630097
 20
-144.5272677590071
 30
0.0
 10
100.2519341112217
 20
-144.7112358579194
 30
0.0
 10
100.2519341112217
 20
-144.9840874203512
 30
0.0
 10
100.2519341112217
 20
-145.2128417605718
 30
0.0
 10
100.1354898838203
 20
-145.312060510547
 30
0.0
 10
99.82646481879338
 20
-145.5384032839279
 30
0.0
  0
HATCH
  5
D9
330
D4
100
AcDbEntity
  8
_U+30EC_U+30A4_U+30E4_U+30FC 1
 62
     7
420
 16777215
100
AcDbHatch
 10
0.0
 20
0.0
 30
0.0
210
0.0
220
0.0
230
1.0
  2
SOLID
 70
     1
 71
     0
 91
        1
 92
        1
 93
        1
 72
     4
 94
        3
 73
     0
 74
     1
 95
       44
 96
       40
 40
0.0
 40
0.0
 40
0.0
 40
0.0
 40
1.0
 40
1.0
 40
1.0
 40
2.0
 40
2.0
 40
2.0
 40
3.0
 40
3.0
 40
3.0
 40
4.0
 40
4.0
 40
4.0
 40
5.0
 40
5.0
 40
5.0
 40
6.0
 40
6.0
 40
6.0
 40
7.0
 40
7.0
 40
7.0
 40
8.0
 40
8.0
 40
8.0
 40
9.0
 40
9.0
 40
9.0
 40
10.0
 40
10.0
 40
10.0
 40
11.0
 40
11.0
 40
11.0
 40
12.0
 40
12.0
 40
12.0
 40
13.0
 40
13.0
 40
13.0
 40
13.0
 10
99.82646481879338
 20
-145.5384032839279
 10
99.6087347841256
 20
-145.6972221857979
 10
99.51571720602385
 20
-145.7712917387308
 10
99.4667968501333
 20
-145.9149522204657
 10
99.4667968501333
 20
-145.9149522204657
 10
100.2453884297998
 20
-145.9149522204657
 10
100.2453884297998
 20
-145.9149522204657
 10
100.2453884297998
 20
-145.9149522204657
 10
100.2453884297998
 20
-146.1202799113866
 10
100.2453884297998
 20
-146.1202799113866
 10
100.2453884297998
 20
-146.1202799113866
 10
99.21737193700122
 20
-146.1202799113866
 10
99.21737193700122
 20
-146.1202799113866
 10
99.24906681546551
 20
-145.7626790000177
 10
99.31452362968527
 20
-145.6844753325025
 10
99.6996853049362
 20
-145.3861300634799
 10
99.95565589949025
 20
-145.1873480539809
 10
100.02111271371
 20
-145.1194796729215
 10
100.02111271371
 20
-144.9820203630601
 10
100.02111271371
 20
-144.8635090783675
 10
99.94911021806828
 20
-144.732595449928
 10
99.75239526586051
 20
-144.732595449928
 10
99.49229055672416
 20
-144.732595449928
 10
99.48367781801103
 20
-144.9630723378912
 10
99.47954370342873
 20
-145.0795165652926
 10
99.47954370342873
 20
-145.0795165652926
 10
99.25526798733897
 20
-145.0795165652926
 10
99.25526798733897
 20
-145.0795165652926
 10
99.2638807260521
 20
-144.9523925418869
 10
99.27456052205636
 20
-144.8404269386163
 10
99.35483124686269
 20
-144.7219156539237
 10
99.46472979284215
 20
-144.5610296947625
 10
99.65110945859418
 20
-144.5272677590071
 10
99.7672091764471
 20
-144.5272677590071
 10
100.0445393630097
 20
-144.5272677590071
 10
100.2519341112217
 20
-144.7112358579194
 10
100.2519341112217
 20
-144.9840874203512
 10
100.2519341112217
 20
-145.2128417605718
 10
100.1354898838203
 20
-145.312060510547
 10
99.82646481879338
 20
-145.5384032839279
 97
        0
 97
        0
 75
     2
 76
     1
 98
        0
  0
SPLINE
  5
DA
330
D4
100
AcDbEntity
  8
_U+30EC_U+30A4_U+30E4_U+30FC 1
370
     0
100
AcDbSpline
210
0.0
220
0.0
230
1.0
 70
    11
 71
     3
 72
    29
 73
    25
 74
     0
 42
0.0000000001
 43
0.0000000001
 12
1.0
 22
0.0
 32
0.0
 13
1.0
 23
0.0
 33
0.0
 40
0.0
 40
0.0
 40
0.0
 40
0.0
 40
1.0
 40
1.0
 40
1.0
 40
2.0
 40
2.0
 40
2.0
 40
3.0
 40
3.0
 40
3.0
 40
4.0
 40
4.0
 40
4.0
 40
5.0
 40
5.0
 40
5.0
 40
6.0
 40
6.0
 40
6.0
 40
7.0
 40
7.0
 40
7.0
 40
8.0
 40
8.0
 40
8.0
 40
8.0
 10
101.3082003869993
 20
-145.9425129843477
 30
0.0
 10
101.2000243887625
 20
-146.1519747898509
 30
0.0
 10
101.0267360858544
 20
-146.1709228150198
 30
0.0
 10
100.910291858453
 20
-146.1709228150198
 30
0.0
 10
100.7494058992918
 20
-146.1709228150198
 30
0.0
 10
100.607812474848
 20
-146.1244140259689
 30
0.0
 10
100.5127278394552
 20
-145.9425129843477
 30
0.0
 10
100.4090304653491
 20
-145.7478650894311
 30
0.0
 10
100.3897379306317
 20
-145.5108425200459
 30
0.0
 10
100.3897379306317
 20
-145.3482340131421
 30
0.0
 10
100.3897379306317
 20
-145.2042290218587
 30
0.0
 10
100.406963408058
 20
-144.9523925418869
 30
0.0
 10
100.5127278394552
 20
-144.753610532388
 30
0.0
 10
100.6205593281435
 20
-144.5506944083068
 30
0.0
 10
100.7814452873046
 20
-144.5272677590071
 30
0.0
 10
100.910291858453
 20
-144.5272677590071
 30
0.0
 10
101.069110760323
 20
-144.5272677590071
 30
0.0
 10
101.2127712420579
 20
-144.5717094907668
 30
0.0
 10
101.3082003869993
 20
-144.753610532388
 30
0.0
 10
101.4074191369745
 20
-144.9461913700135
 30
0.0
 10
101.4308457862742
 20
-145.1746012006855
 30
0.0
 10
101.4308457862742
 20
-145.3482340131421
 30
0.0
 10
101.4308457862742
 20
-145.519455258759
 30
0.0
 10
101.4094861942657
 20
-145.7499321467222
 30
0.0
 10
101.3082003869993
 20
-145.9425129843477
 30
0.0
  0
SPLINE
  5
DB
330
D4
100
AcDbEntity
  8
_U+30EC_U+30A4_U+30E4_U+30FC 1
370
     0
100
AcDbSpline
210
0.0
220
0.0
230
1.0
 70
    11
 71
     3
 72
    17
 73
    13
 74
     0
 42
0.0000000001
 43
0.0000000001
 12
1.0
 22
0.0
 32
0.0
 13
1.0
 23
0.0
 33
0.0
 40
0.0
 40
0.0
 40
0.0
 40
0.0
 40
1.0
 40
1.0
 40
1.0
 40
2.0
 40
2.0
 40
2.0
 40
3.0
 40
3.0
 40
3.0
 40
4.0
 40
4.0
 40
4.0
 40
4.0
 10
100.910291858453
 20
-144.7198485966325
 30
0.0
 10
100.6605224357724
 20
-144.7198485966325
 30
0.0
 10
100.6140136467215
 20
-145.0033799550686
 30
0.0
 10
100.6140136467215
 20
-145.3482340131421
 30
0.0
 10
100.6140136467215
 20
-145.6675943646248
 30
0.0
 10
100.6501871493166
 20
-145.9762749201032
 30
0.0
 10
100.910291858453
 20
-145.9762749201032
 30
0.0
 10
101.1579942238425
 20
-145.9762749201032
 30
0.0
 10
101.2065700701845
 20
-145.6951551285068
 30
0.0
 10
101.2065700701845
 20
-145.3482340131421
 30
0.0
 10
101.2065700701845
 20
-145.0285291521109
 30
0.0
 10
101.1683295102982
 20
-144.7198485966325
 30
0.0
 10
100.910291858453
 20
-144.7198485966325
 30
0.0
  0
HATCH
  5
DC
330
D4
100
AcDbEntity
  8
_U+30EC_U+30A4_U+30E4_U+30FC 1
 62
     7
420
 16777215
100
AcDbHatch
 10
0.0
 20
0.0
 30
0.0
210
0.0
220
0.0
230
1.0
  2
SOLID
 70
     1
 71
     0
 91
        2
 92
        1
 93
        1
 72
     4
 94
        3
 73
     0
 74
     1
 95
       29
 96
       25
 40
0.0
 40
0.0
 40
0.0
 40
0.0
 40
1.0
 40
1.0
 40
1.0
 40
2.0
 40
2.0
 40
2.0
 40
3.0
 40
3.0
 40
3.0
 40
4.0
 40
4.0
 40
4.0
 40
5.0
 40
5.0
 40
5.0
 40
6.0
 40
6.0
 40
6.0
 40
7.0
 40
7.0
 40
7.0
 40
8.0
 40
8.0
 40
8.0
 40
8.0
 10
101.3082003869993
 20
-145.9425129843477
 10
101.2000243887625
 20
-146.1519747898509
 10
101.0267360858544
 20
-146.1709228150198
 10
100.910291858453
 20
-146.1709228150198
 10
100.7494058992918
 20
-146.1709228150198
 10
100.607812474848
 20
-146.1244140259689
 10
100.5127278394552
 20
-145.9425129843477
 10
100.4090304653491
 20
-145.7478650894311
 10
100.3897379306317
 20
-145.5108425200459
 10
100.3897379306317
 20
-145.3482340131421
 10
100.3897379306317
 20
-145.2042290218587
 10
100.406963408058
 20
-144.9523925418869
 10
100.5127278394552
 20
-144.753610532388
 10
100.6205593281435
 20
-144.5506944083068
 10
100.7814452873046
 20
-144.5272677590071
 10
100.910291858453
 20
-144.5272677590071
 10
101.069110760323
 20
-144.5272677590071
 10
101.2127712420579
 20
-144.5717094907668
 10
101.3082003869993
 20
-144.753610532388
 10
101.4074191369745
 20
-144.9461913700135
 10
101.4308457862742
 20
-145.1746012006855
 10
101.4308457862742
 20
-145.3482340131421
 10
101.4308457862742
 20
-145.519455258759
 10
101.4094861942657
 20
-145.7499321467222
 10
101.3082003869993
 20
-145.9425129843477
 97
        0
 97
        0
 92
        1
 93
        1
 72
     4
 94
        3
 73
     0
 74
     1
 95
       17
 96
       13
 40
0.0
 40
0.0
 40
0.0
 40
0.0
 40
1.0
 40
1.0
 40
1.0
 40
2.0
 40
2.0
 40
2.0
 40
3.0
 40
3.0
 40
3.0
 40
4.0
 40
4.0
 40
4.0
 40
4.0
 10
100.910291858453
 20
-144.7198485966325
 10
100.6605224357724
 20
-144.7198485966325
 10
100.6140136467215
 20
-145.0033799550686
 10
100.6140136467215
 20
-145.3482340131421
 10
100.6140136467215
 20
-145.6675943646248
 10
100.6501871493166
 20
-145.9762749201032
 10
100.910291858453
 20
-145.9762749201032
 10
101.1579942238425
 20
-145.9762749201032
 10
101.2065700701845
 20
-145.6951551285068
 10
101.2065700701845
 20
-145.3482340131421
 10
101.2065700701845
 20
-145.0285291521109
 10
101.1683295102982
 20
-144.7198485966325
 10
100.910291858453
 20
-144.7198485966325
 97
        0
 97
        0
 75
     2
 76
     1
 98
        0
  0
ENDBLK
  5
D7
330
D4
100
AcDbEntity
  8
0
100
AcDbBlockEnd
  0
BLOCK
  5
DF
330
DD
100
AcDbEntity
  8
0
100
AcDbBlockBegin
  2
block 6
 70
     0
 10
0.0
 20
0.0
 30
0.0
  3
block 6
  1

  0
SPLINE
  5
E1
330
DD
100
AcDbEntity
  8
_U+30EC_U+30A4_U+30E4_U+30FC 1
370
     0
100
AcDbSpline
210
0.0
220
0.0
230
1.0
 70
    11
 71
     3
 72
    26
 73
    22
 74
     0
 42
0.0000000001
 43
0.0000000001
 12
1.0
 22
0.0
 32
0.0
 13
1.0
 23
0.0
 33
0.0
 40
0.0
 40
0.0
 40
0.0
 40
0.0
 40
1.0
 40
1.0
 40
1.0
 40
2.0
 40
2.0
 40
2.0
 40
3.0
 40
3.0
 40
3.0
 40
4.0
 40
4.0
 40
4.0
 40
5.0
 40
5.0
 40
5.0
 40
6.0
 40
6.0
 40
6.0
 40
7.0
 40
7.0
 40
7.0
 40
7.0
 10
79.42237004307844
 20
-146.1202799113866
 30
0.0
 10
79.42237004307844
 20
-146.1202799113866
 30
0.0
 10
79.42237004307844
 20
-145.016126808364
 30
0.0
 10
79.42237004307844
 20
-145.016126808364
 30
0.0
 10
79.42237004307844
 20
-145.016126808364
 30
0.0
 10
79.0923298955915
 20
-145.016126808364
 30
0.0
 10
79.0923298955915
 20
-145.016126808364
 30
0.0
 10
79.0923298955915
 20
-145.016126808364
 30
0.0
 10
79.0923298955915
 20
-144.8679877024983
 30
0.0
 10
79.0923298955915
 20
-144.8679877024983
 30
0.0
 10
79.42443710036959
 20
-144.8531737919117
 30
0.0
 10
79.47094588942046
 20
-144.6902207754594
 30
0.0
 10
79.50057371059361
 20
-144.5758436053491
 30
0.0
 10
79.50057371059361
 20
-144.5758436053491
 30
0.0
 10
79.64664575916821
 20
-144.5758436053491
 30
0.0
 10
79.64664575916821
 20
-144.5758436053491
 30
0.0
 10
79.64664575916821
 20
-144.5758436053491
 30
0.0
 10
79.64664575916821
 20
-146.1202799113866
 30
0.0
 10
79.64664575916821
 20
-146.1202799113866
 30
0.0
 10
79.64664575916821
 20
-146.1202799113866
 30
0.0
 10
79.42237004307844
 20
-146.1202799113866
 30
0.0
 10
79.42237004307844
 20
-146.1202799113866
 30
0.0
  0
HATCH
  5
E2
330
DD
100
AcDbEntity
  8
_U+30EC_U+30A4_U+30E4_U+30FC 1
 62
     7
420
 16777215
100
AcDbHatch
 10
0.0
 20
0.0
 30
0.0
210
0.0
220
0.0
230
1.0
  2
SOLID
 70
     1
 71
     0
 91
        1
 92
        1
 93
        1
 72
     4
 94
        3
 73
     0
 74
     1
 95
       26
 96
       22
 40
0.0
 40
0.0
 40
0.0
 40
0.0
 40
1.0
 40
1.0
 40
1.0
 40
2.0
 40
2.0
 40
2.0
 40
3.0
 40
3.0
 40
3.0
 40
4.0
 40
4.0
 40
4.0
 40
5.0
 40
5.0
 40
5.0
 40
6.0
 40
6.0
 40
6.0
 40
7.0
 40
7.0
 40
7.0
 40
7.0
 10
79.42237004307844
 20
-146.1202799113866
 10
79.42237004307844
 20
-146.1202799113866
 10
79.42237004307844
 20
-145.016126808364
 10
79.42237004307844
 20
-145.016126808364
 10
79.42237004307844
 20
-145.016126808364
 10
79.0923298955915
 20
-145.016126808364
 10
79.0923298955915
 20
-145.016126808364
 10
79.0923298955915
 20
-145.016126808364
 10
79.0923298955915
 20
-144.8679877024983
 10
79.0923298955915
 20
-144.8679877024983
 10
79.42443710036959
 20
-144.8531737919117
 10
79.47094588942046
 20
-144.6902207754594
 10
79.50057371059361
 20
-144.5758436053491
 10
79.50057371059361
 20
-144.5758436053491
 10
79.64664575916821
 20
-144.5758436053491
 10
79.64664575916821
 20
-144.5758436053491
 10
79.64664575916821
 20
-144.5758436053491
 10
79.64664575916821
 20
-146.1202799113866
 10
79.64664575916821
 20
-146.1202799113866
 10
79.64664575916821
 20
-146.1202799113866
 10
79.42237004307844
 20
-146.1202799113866
 10
79.42237004307844
 20
-146.1202799113866
 97
        0
 97
        0
 75
     2
 76
     1
 98
        0
  0
SPLINE
  5
E3
330
DD
100
AcDbEntity
  8
_U+30EC_U+30A4_U+30E4_U+30FC 1
370
     0
100
AcDbSpline
210
0.0
220
0.0
230
1.0
 70
    11
 71
     3
 72
    29
 73
    25
 74
     0
 42
0.0000000001
 43
0.0000000001
 12
1.0
 22
0.0
 32
0.0
 13
1.0
 23
0.0
 33
0.0
 40
0.0
 40
0.0
 40
0.0
 40
0.0
 40
1.0
 40
1.0
 40
1.0
 40
2.0
 40
2.0
 40
2.0
 40
3.0
 40
3.0
 40
3.0
 40
4.0
 40
4.0
 40
4.0
 40
5.0
 40
5.0
 40
5.0
 40
6.0
 40
6.0
 40
6.0
 40
7.0
 40
7.0
 40
7.0
 40
8.0
 40
8.0
 40
8.0
 40
8.0
 10
80.64779050718181
 20
-146.1709228150198
 30
0.0
 10
80.38114011662347
 20
-146.1709228150198
 30
0.0
 10
80.12758108890908
 20
-146.0334635051583
 30
0.0
 10
80.12758108890908
 20
-145.6844753325025
 30
0.0
 10
80.12758108890908
 20
-145.4285047379484
 30
0.0
 10
80.26917451335285
 20
-145.3334201025556
 30
0.0
 10
80.37493894475001
 20
-145.2720974029181
 30
0.0
 10
80.25022648818397
 20
-145.2128417605718
 30
0.0
 10
80.17408987795996
 20
-145.0984645904615
 30
0.0
 10
80.17408987795996
 20
-144.9375786313003
 30
0.0
 10
80.17408987795996
 20
-144.6626600115774
 30
0.0
 10
80.37287188745887
 20
-144.5272677590071
 30
0.0
 10
80.64779050718181
 20
-144.5272677590071
 30
0.0
 10
80.93132186561787
 20
-144.5272677590071
 30
0.0
 10
81.12183564595219
 20
-144.6712727502905
 30
0.0
 10
81.12183564595219
 20
-144.9375786313003
 30
0.0
 10
81.12183564595219
 20
-145.0984645904615
 30
0.0
 10
81.0432874688885
 20
-145.2128417605718
 30
0.0
 10
80.91857501232245
 20
-145.2720974029181
 30
0.0
 10
81.00745847584189
 20
-145.3227403065513
 30
0.0
 10
81.1662773777119
 20
-145.4178249419442
 30
0.0
 10
81.1662773777119
 20
-145.6803412179202
 30
0.0
 10
81.1662773777119
 20
-146.0548230971669
 30
0.0
 10
80.88688013385814
 20
-146.1709228150198
 30
0.0
 10
80.64779050718181
 20
-146.1709228150198
 30
0.0
  0
SPLINE
  5
E4
330
DD
100
AcDbEntity
  8
_U+30EC_U+30A4_U+30E4_U+30FC 1
370
     0
100
AcDbSpline
210
0.0
220
0.0
230
1.0
 70
    11
 71
     3
 72
    17
 73
    13
 74
     0
 42
0.0000000001
 43
0.0000000001
 12
1.0
 22
0.0
 32
0.0
 13
1.0
 23
0.0
 33
0.0
 40
0.0
 40
0.0
 40
0.0
 40
0.0
 40
1.0
 40
1.0
 40
1.0
 40
2.0
 40
2.0
 40
2.0
 40
3.0
 40
3.0
 40
3.0
 40
4.0
 40
4.0
 40
4.0
 40
4.0
 10
80.64779050718181
 20
-145.3799288916064
 30
0.0
 10
80.50413002544688
 20
-145.3799288916064
 30
0.0
 10
80.35151229545032
 20
-145.4667452978347
 30
0.0
 10
80.35151229545032
 20
-145.6696614219159
 30
0.0
 10
80.35151229545032
 20
-145.8749891128368
 30
0.0
 10
80.47863631885603
 20
-145.9762749201032
 30
0.0
 10
80.64779050718181
 20
-145.9762749201032
 30
0.0
 10
80.8338256633853
 20
-145.9762749201032
 30
0.0
 10
80.94406871891329
 20
-145.8536295208283
 30
0.0
 10
80.94406871891329
 20
-145.6758625937894
 30
0.0
 10
80.94406871891329
 20
-145.4539984445393
 30
0.0
 10
80.78111570246098
 20
-145.3799288916064
 30
0.0
 10
80.64779050718181
 20
-145.3799288916064
 30
0.0
  0
SPLINE
  5
E5
330
DD
100
AcDbEntity
  8
_U+30EC_U+30A4_U+30E4_U+30FC 1
370
     0
100
AcDbSpline
210
0.0
220
0.0
230
1.0
 70
    11
 71
     3
 72
    17
 73
    13
 74
     0
 42
0.0000000001
 43
0.0000000001
 12
1.0
 22
0.0
 32
0.0
 13
1.0
 23
0.0
 33
0.0
 40
0.0
 40
0.0
 40
0.0
 40
0.0
 40
1.0
 40
1.0
 40
1.0
 40
2.0
 40
2.0
 40
2.0
 40
3.0
 40
3.0
 40
3.0
 40
4.0
 40
4.0
 40
4.0
 40
4.0
 10
80.64779050718181
 20
-144.7198485966325
 30
0.0
 10
80.48277043343833
 20
-144.7198485966325
 30
0.0
 10
80.39836559404972
 20
-144.8149332320255
 30
0.0
 10
80.39836559404972
 20
-144.9503254845958
 30
0.0
 10
80.39836559404972
 20
-145.0729708838707
 30
0.0
 10
80.47002358014291
 20
-145.1914821685633
 30
0.0
 10
80.64779050718181
 20
-145.1914821685633
 30
0.0
 10
80.8255574342207
 20
-145.1914821685633
 30
0.0
 10
80.89755992986242
 20
-145.0729708838707
 30
0.0
 10
80.89755992986242
 20
-144.9503254845958
 30
0.0
 10
80.89755992986242
 20
-144.8149332320255
 30
0.0
 10
80.81074352363413
 20
-144.7198485966325
 30
0.0
 10
80.64779050718181
 20
-144.7198485966325
 30
0.0
  0
HATCH
  5
E6
330
DD
100
AcDbEntity
  8
_U+30EC_U+30A4_U+30E4_U+30FC 1
 62
     7
420
 16777215
100
AcDbHatch
 10
0.0
 20
0.0
 30
0.0
210
0.0
220
0.0
230
1.0
  2
SOLID
 70
     1
 71
     0
 91
        3
 92
        1
 93
        1
 72
     4
 94
        3
 73
     0
 74
     1
 95
       29
 96
       25
 40
0.0
 40
0.0
 40
0.0
 40
0.0
 40
1.0
 40
1.0
 40
1.0
 40
2.0
 40
2.0
 40
2.0
 40
3.0
 40
3.0
 40
3.0
 40
4.0
 40
4.0
 40
4.0
 40
5.0
 40
5.0
 40
5.0
 40
6.0
 40
6.0
 40
6.0
 40
7.0
 40
7.0
 40
7.0
 40
8.0
 40
8.0
 40
8.0
 40
8.0
 10
80.64779050718181
 20
-146.1709228150198
 10
80.38114011662347
 20
-146.1709228150198
 10
80.12758108890908
 20
-146.0334635051583
 10
80.12758108890908
 20
-145.6844753325025
 10
80.12758108890908
 20
-145.4285047379484
 10
80.26917451335285
 20
-145.3334201025556
 10
80.37493894475001
 20
-145.2720974029181
 10
80.25022648818397
 20
-145.2128417605718
 10
80.17408987795996
 20
-145.0984645904615
 10
80.17408987795996
 20
-144.9375786313003
 10
80.17408987795996
 20
-144.6626600115774
 10
80.37287188745887
 20
-144.5272677590071
 10
80.64779050718181
 20
-144.5272677590071
 10
80.93132186561787
 20
-144.5272677590071
 10
81.12183564595219
 20
-144.6712727502905
 10
81.12183564595219
 20
-144.9375786313003
 10
81.12183564595219
 20
-145.0984645904615
 10
81.0432874688885
 20
-145.2128417605718
 10
80.91857501232245
 20
-145.2720974029181
 10
81.00745847584189
 20
-145.3227403065513
 10
81.1662773777119
 20
-145.4178249419442
 10
81.1662773777119
 20
-145.6803412179202
 10
81.1662773777119
 20
-146.0548230971669
 10
80.88688013385814
 20
-146.1709228150198
 10
80.64779050718181
 20
-146.1709228150198
 97
        0
 97
        0
 92
        1
 93
        1
 72
     4
 94
        3
 73
     0
 74
     1
 95
       17
 96
       13
 40
0.0
 40
0.0
 40
0.0
 40
0.0
 40
1.0
 40
1.0
 40
1.0
 40
2.0
 40
2.0
 40
2.0
 40
3.0
 40
3.0
 40
3.0
 40
4.0
 40
4.0
 40
4.0
 40
4.0
 10
80.64779050718181
 20
-145.3799288916064
 10
80.50413002544688
 20
-145.3799288916064
 10
80.35151229545032
 20
-145.4667452978347
 10
80.35151229545032
 20
-145.6696614219159
 10
80.35151229545032
 20
-145.8749891128368
 10
80.47863631885603
 20
-145.9762749201032
 10
80.64779050718181
 20
-145.9762749201032
 10
80.8338256633853
 20
-145.9762749201032
 10
80.94406871891329
 20
-145.8536295208283
 10
80.94406871891329
 20
-145.6758625937894
 10
80.94406871891329
 20
-145.4539984445393
 10
80.78111570246098
 20
-145.3799288916064
 10
80.64779050718181
 20
-145.3799288916064
 97
        0
 97
        0
 92
        1
 93
        1
 72
     4
 94
        3
 73
     0
 74
     1
 95
       17
 96
       13
 40
0.0
 40
0.0
 40
0.0
 40
0.0
 40
1.0
 40
1.0
 40
1.0
 40
2.0
 40
2.0
 40
2.0
 40
3.0
 40
3.0
 40
3.0
 40
4.0
 40
4.0
 40
4.0
 40
4.0
 10
80.64779050718181
 20
-144.7198485966325
 10
80.48277043343833
 20
-144.7198485966325
 10
80.39836559404972
 20
-144.8149332320255
 10
80.39836559404972
 20
-144.9503254845958
 10
80.39836559404972
 20
-145.0729708838707
 10
80.47002358014291
 20
-145.1914821685633
 10
80.64779050718181
 20
-145.1914821685633
 10
80.8255574342207
 20
-145.1914821685633
 10
80.89755992986242
 20
-145.0729708838707
 10
80.89755992986242
 20
-144.9503254845958
 10
80.89755992986242
 20
-144.8149332320255
 10
80.81074352363413
 20
-144.7198485966325
 10
80.64779050718181
 20
-144.7198485966325
 97
        0
 97
        0
 75
     2
 76
     1
 98
        0
  0
POLYLINE
  5
E7
330
DD
100
AcDbEntity
  8
_U+30EC_U+30A4_U+30E4_U+30FC 1
370
     0
100
AcDb2dPolyline
 66
     1
 10
0.0
 20
0.0
 30
0.0
  0
VERTEX
  5
E8
330
E7
100
AcDbEntity
  8
_U+30EC_U+30A4_U+30E4_U+30FC 1
370
     0
100
AcDbVertex
100
AcDb2dVertex
 10
81.38469643147674
 20
-146.1202799113866
 30
0.0
  0
VERTEX
  5
E9
330
E7
100
AcDbEntity
  8
_U+30EC_U+30A4_U+30E4_U+30FC 1
370
     0
100
AcDbVertex
100
AcDb2dVertex
 10
81.38469643147674
 20
-145.8684434314148
 30
0.0
  0
VERTEX
  5
EA
330
E7
100
AcDbEntity
  8
_U+30EC_U+30A4_U+30E4_U+30FC 1
370
     0
100
AcDbVertex
100
AcDb2dVertex
 10
81.63653291144851
 20
-145.8684434314148
 30
0.0
  0
VERTEX
  5
EB
330
E7
100
AcDbEntity
  8
_U+30EC_U+30A4_U+30E4_U+30FC 1
370
     0
100
AcDbVertex
100
AcDb2dVertex
 10
81.63653291144851
 20
-146.1202799113866
 30
0.0
  0
VERTEX
  5
EC
330
E7
100
AcDbEntity
  8
_U+30EC_U+30A4_U+30E4_U+30FC 1
370
     0
100
AcDbVertex
100
AcDb2dVertex
 10
81.38469643147674
 20
-146.1202799113866
 30
0.0
  0
SEQEND
  5
ED
330
E7
100
AcDbEntity
  8
_U+30EC_U+30A4_U+30E4_U+30FC 1
370
     0
  0
HATCH
  5
EE
330
DD
100
AcDbEntity
  8
_U+30EC_U+30A4_U+30E4_U+30FC 1
 62
     7
420
 16777215
100
AcDbHatch
 10
0.0
 20
0.0
 30
0.0
210
0.0
220
0.0
230
1.0
  2
SOLID
 70
     1
 71
     0
 91
        1
 92
        1
 93
        4
 72
     1
 10
81.38469643147674
 20
-146.1202799113866
 11
81.38469643147674
 21
-145.8684434314148
 72
     1
 10
81.38469643147674
 20
-145.8684434314148
 11
81.63653291144851
 21
-145.8684434314148
 72
     1
 10
81.63653291144851
 20
-145.8684434314148
 11
81.63653291144851
 21
-146.1202799113866
 72
     1
 10
81.63653291144851
 20
-146.1202799113866
 11
81.38469643147674
 21
-146.1202799113866
 97
        0
 75
     2
 76
     1
 98
        0
  0
SPLINE
  5
EF
330
DD
100
AcDbEntity
  8
_U+30EC_U+30A4_U+30E4_U+30FC 1
370
     0
100
AcDbSpline
210
0.0
220
0.0
230
1.0
 70
    11
 71
     3
 72
    29
 73
    25
 74
     0
 42
0.0000000001
 43
0.0000000001
 12
1.0
 22
0.0
 32
0.0
 13
1.0
 23
0.0
 33
0.0
 40
0.0
 40
0.0
 40
0.0
 40
0.0
 40
1.0
 40
1.0
 40
1.0
 40
2.0
 40
2.0
 40
2.0
 40
3.0
 40
3.0
 40
3.0
 40
4.0
 40
4.0
 40
4.0
 40
5.0
 40
5.0
 40
5.0
 40
6.0
 40
6.0
 40
6.0
 40
7.0
 40
7.0
 40
7.0
 40
8.0
 40
8.0
 40
8.0
 40
8.0
 10
82.3727498166464
 20
-146.1709228150198
 30
0.0
 10
82.10609942608806
 20
-146.1709228150198
 30
0.0
 10
81.85219588882515
 20
-146.0334635051583
 30
0.0
 10
81.85219588882515
 20
-145.6844753325025
 30
0.0
 10
81.85219588882515
 20
-145.4285047379484
 30
0.0
 10
81.99413382281745
 20
-145.3334201025556
 30
0.0
 10
82.09989825421461
 20
-145.2720974029181
 30
0.0
 10
81.97518579764856
 20
-145.2128417605718
 30
0.0
 10
81.89904918742455
 20
-145.0984645904615
 30
0.0
 10
81.89904918742455
 20
-144.9375786313003
 30
0.0
 10
81.89904918742455
 20
-144.6626600115774
 30
0.0
 10
82.09783119692347
 20
-144.5272677590071
 30
0.0
 10
82.3727498166464
 20
-144.5272677590071
 30
0.0
 10
82.65628117508246
 20
-144.5272677590071
 30
0.0
 10
82.84679495541678
 20
-144.6712727502905
 30
0.0
 10
82.84679495541678
 20
-144.9375786313003
 30
0.0
 10
82.84679495541678
 20
-145.0984645904615
 30
0.0
 10
82.76824677835307
 20
-145.2128417605718
 30
0.0
 10
82.64353432178704
 20
-145.2720974029181
 30
0.0
 10
82.73241778530648
 20
-145.3227403065513
 30
0.0
 10
82.8912366871765
 20
-145.4178249419442
 30
0.0
 10
82.8912366871765
 20
-145.6803412179202
 30
0.0
 10
82.8912366871765
 20
-146.0548230971669
 30
0.0
 10
82.61183944332274
 20
-146.1709228150198
 30
0.0
 10
82.3727498166464
 20
-146.1709228150198
 30
0.0
  0
SPLINE
  5
F0
330
DD
100
AcDbEntity
  8
_U+30EC_U+30A4_U+30E4_U+30FC 1
370
     0
100
AcDbSpline
210
0.0
220
0.0
230
1.0
 70
    11
 71
     3
 72
    17
 73
    13
 74
     0
 42
0.0000000001
 43
0.0000000001
 12
1.0
 22
0.0
 32
0.0
 13
1.0
 23
0.0
 33
0.0
 40
0.0
 40
0.0
 40
0.0
 40
0.0
 40
1.0
 40
1.0
 40
1.0
 40
2.0
 40
2.0
 40
2.0
 40
3.0
 40
3.0
 40
3.0
 40
4.0
 40
4.0
 40
4.0
 40
4.0
 10
82.3727498166464
 20
-145.3799288916064
 30
0.0
 10
82.22908933491148
 20
-145.3799288916064
 30
0.0
 10
82.07647160491491
 20
-145.4667452978347
 30
0.0
 10
82.07647160491491
 20
-145.6696614219159
 30
0.0
 10
82.07647160491491
 20
-145.8749891128368
 30
0.0
 10
82.20359562832063
 20
-145.9762749201032
 30
0.0
 10
82.3727498166464
 20
-145.9762749201032
 30
0.0
 10
82.55878497284989
 20
-145.9762749201032
 30
0.0
 10
82.66902802837788
 20
-145.8536295208283
 30
0.0
 10
82.66902802837788
 20
-145.6758625937894
 30
0.0
 10
82.66902802837788
 20
-145.4539984445393
 30
0.0
 10
82.50607501192557
 20
-145.3799288916064
 30
0.0
 10
82.3727498166464
 20
-145.3799288916064
 30
0.0
  0
SPLINE
  5
F1
330
DD
100
AcDbEntity
  8
_U+30EC_U+30A4_U+30E4_U+30FC 1
370
     0
100
AcDbSpline
210
0.0
220
0.0
230
1.0
 70
    11
 71
     3
 72
    17
 73
    13
 74
     0
 42
0.0000000001
 43
0.0000000001
 12
1.0
 22
0.0
 32
0.0
 13
1.0
 23
0.0
 33
0.0
 40
0.0
 40
0.0
 40
0.0
 40
0.0
 40
1.0
 40
1.0
 40
1.0
 40
2.0
 40
2.0
 40
2.0
 40
3.0
 40
3.0
 40
3.0
 40
4.0
 40
4.0
 40
4.0
 40
4.0
 10
82.3727498166464
 20
-144.7198485966325
 30
0.0
 10
82.20772974290293
 20
-144.7198485966325
 30
0.0
 10
82.12298039396579
 20
-144.8149332320255
 30
0.0
 10
82.12298039396579
 20
-144.9503254845958
 30
0.0
 10
82.12298039396579
 20
-145.0729708838707
 30
0.0
 10
82.1949828896075
 20
-145.1914821685633
 30
0.0
 10
82.3727498166464
 20
-145.1914821685633
 30
0.0
 10
82.5505167436853
 20
-145.1914821685633
 30
0.0
 10
82.62251923932702
 20
-145.0729708838707
 30
0.0
 10
82.62251923932702
 20
-144.9503254845958
 30
0.0
 10
82.62251923932702
 20
-144.8149332320255
 30
0.0
 10
82.53570283309871
 20
-144.7198485966325
 30
0.0
 10
82.3727498166464
 20
-144.7198485966325
 30
0.0
  0
HATCH
  5
F2
330
DD
100
AcDbEntity
  8
_U+30EC_U+30A4_U+30E4_U+30FC 1
 62
     7
420
 16777215
100
AcDbHatch
 10
0.0
 20
0.0
 30
0.0
210
0.0
220
0.0
230
1.0
  2
SOLID
 70
     1
 71
     0
 91
        3
 92
        1
 93
        1
 72
     4
 94
        3
 73
     0
 74
     1
 95
       29
 96
       25
 40
0.0
 40
0.0
 40
0.0
 40
0.0
 40
1.0
 40
1.0
 40
1.0
 40
2.0
 40
2.0
 40
2.0
 40
3.0
 40
3.0
 40
3.0
 40
4.0
 40
4.0
 40
4.0
 40
5.0
 40
5.0
 40
5.0
 40
6.0
 40
6.0
 40
6.0
 40
7.0
 40
7.0
 40
7.0
 40
8.0
 40
8.0
 40
8.0
 40
8.0
 10
82.3727498166464
 20
-146.1709228150198
 10
82.10609942608806
 20
-146.1709228150198
 10
81.85219588882515
 20
-146.0334635051583
 10
81.85219588882515
 20
-145.6844753325025
 10
81.85219588882515
 20
-145.4285047379484
 10
81.99413382281745
 20
-145.3334201025556
 10
82.09989825421461
 20
-145.2720974029181
 10
81.97518579764856
 20
-145.2128417605718
 10
81.89904918742455
 20
-145.0984645904615
 10
81.89904918742455
 20
-144.9375786313003
 10
81.89904918742455
 20
-144.6626600115774
 10
82.09783119692347
 20
-144.5272677590071
 10
82.3727498166464
 20
-144.5272677590071
 10
82.65628117508246
 20
-144.5272677590071
 10
82.84679495541678
 20
-144.6712727502905
 10
82.84679495541678
 20
-144.9375786313003
 10
82.84679495541678
 20
-145.0984645904615
 10
82.76824677835307
 20
-145.2128417605718
 10
82.64353432178704
 20
-145.2720974029181
 10
82.73241778530648
 20
-145.3227403065513
 10
82.8912366871765
 20
-145.4178249419442
 10
82.8912366871765
 20
-145.6803412179202
 10
82.8912366871765
 20
-146.0548230971669
 10
82.61183944332274
 20
-146.1709228150198
 10
82.3727498166464
 20
-146.1709228150198
 97
        0
 97
        0
 92
        1
 93
        1
 72
     4
 94
        3
 73
     0
 74
     1
 95
       17
 96
       13
 40
0.0
 40
0.0
 40
0.0
 40
0.0
 40
1.0
 40
1.0
 40
1.0
 40
2.0
 40
2.0
 40
2.0
 40
3.0
 40
3.0
 40
3.0
 40
4.0
 40
4.0
 40
4.0
 40
4.0
 10
82.3727498166464
 20
-145.3799288916064
 10
82.22908933491148
 20
-145.3799288916064
 10
82.07647160491491
 20
-145.4667452978347
 10
82.07647160491491
 20
-145.6696614219159
 10
82.07647160491491
 20
-145.8749891128368
 10
82.20359562832063
 20
-145.9762749201032
 10
82.3727498166464
 20
-145.9762749201032
 10
82.55878497284989
 20
-145.9762749201032
 10
82.66902802837788
 20
-145.8536295208283
 10
82.66902802837788
 20
-145.6758625937894
 10
82.66902802837788
 20
-145.4539984445393
 10
82.50607501192557
 20
-145.3799288916064
 10
82.3727498166464
 20
-145.3799288916064
 97
        0
 97
        0
 92
        1
 93
        1
 72
     4
 94
        3
 73
     0
 74
     1
 95
       17
 96
       13
 40
0.0
 40
0.0
 40
0.0
 40
0.0
 40
1.0
 40
1.0
 40
1.0
 40
2.0
 40
2.0
 40
2.0
 40
3.0
 40
3.0
 40
3.0
 40
4.0
 40
4.0
 40
4.0
 40
4.0
 10
82.3727498166464
 20
-144.7198485966325
 10
82.20772974290293
 20
-144.7198485966325
 10
82.12298039396579
 20
-144.8149332320255
 10
82.12298039396579
 20
-144.9503254845958
 10
82.12298039396579
 20
-145.0729708838707
 10
82.1949828896075
 20
-145.1914821685633
 10
82.3727498166464
 20
-145.1914821685633
 10
82.5505167436853
 20
-145.1914821685633
 10
82.62251923932702
 20
-145.0729708838707
 10
82.62251923932702
 20
-144.9503254845958
 10
82.62251923932702
 20
-144.8149332320255
 10
82.53570283309871
 20
-144.7198485966325
 10
82.3727498166464
 20
-144.7198485966325
 97
        0
 97
        0
 75
     2
 76
     1
 98
        0
  0
ENDBLK
  5
E0
330
DD
100
AcDbEntity
  8
0
100
AcDbBlockEnd
  0
BLOCK
  5
103
330
101
100
AcDbEntity
  8
0
100
AcDbBlockBegin
  2
block 7
 70
     0
 10
0.0
 20
0.0
 30
0.0
  3
block 7
  1

  0
SPLINE
  5
105
330
101
100
AcDbEntity
  8
_U+30EC_U+30A4_U+30E4_U+30FC 1
370
     0
100
AcDbSpline
210
0.0
220
0.0
230
1.0
 70
    11
 71
     3
 72
    44
 73
    40
 74
     0
 42
0.0000000001
 43
0.0000000001
 12
1.0
 22
0.0
 32
0.0
 13
1.0
 23
0.0
 33
0.0
 40
0.0
 40
0.0
 40
0.0
 40
0.0
 40
1.0
 40
1.0
 40
1.0
 40
2.0
 40
2.0
 40
2.0
 40
3.0
 40
3.0
 40
3.0
 40
4.0
 40
4.0
 40
4.0
 40
5.0
 40
5.0
 40
5.0
 40
6.0
 40
6.0
 40
6.0
 40
7.0
 40
7.0
 40
7.0
 40
8.0
 40
8.0
 40
8.0
 40
9.0
 40
9.0
 40
9.0
 40
10.0
 40
10.0
 40
10.0
 40
11.0
 40
11.0
 40
11.0
 40
12.0
 40
12.0
 40
12.0
 40
13.0
 40
13.0
 40
13.0
 40
13.0
 10
81.22587752960673
 20
-111.8467474763786
 30
0.0
 10
81.00814749493894
 20
-112.0055663782486
 30
0.0
 10
80.91512991683719
 20
-112.0796359311815
 30
0.0
 10
80.86620956094664
 20
-112.2232964129164
 30
0.0
 10
80.86620956094664
 20
-112.2232964129164
 30
0.0
 10
81.64480114061311
 20
-112.2232964129164
 30
0.0
 10
81.64480114061311
 20
-112.2232964129164
 30
0.0
 10
81.64480114061311
 20
-112.2232964129164
 30
0.0
 10
81.64480114061311
 20
-112.4286241038373
 30
0.0
 10
81.64480114061311
 20
-112.4286241038373
 30
0.0
 10
81.64480114061311
 20
-112.4286241038373
 30
0.0
 10
80.61678464781455
 20
-112.4286241038373
 30
0.0
 10
80.61678464781455
 20
-112.4286241038373
 30
0.0
 10
80.64847952627886
 20
-112.0710231924684
 30
0.0
 10
80.7139363404986
 20
-111.9928195249532
 30
0.0
 10
81.09909801574953
 20
-111.6944742559306
 30
0.0
 10
81.3550686103036
 20
-111.4956922464316
 30
0.0
 10
81.42052542452335
 20
-111.4278238653722
 30
0.0
 10
81.42052542452335
 20
-111.2903645555107
 30
0.0
 10
81.42052542452335
 20
-111.1718532708181
 30
0.0
 10
81.34852292888162
 20
-111.0409396423787
 30
0.0
 10
81.15180797667385
 20
-111.0409396423787
 30
0.0
 10
80.8917032675375
 20
-111.0409396423787
 30
0.0
 10
80.88309052882437
 20
-111.2714165303419
 30
0.0
 10
80.87895641424207
 20
-111.3878607577433
 30
0.0
 10
80.87895641424207
 20
-111.3878607577433
 30
0.0
 10
80.6546806981523
 20
-111.3878607577433
 30
0.0
 10
80.6546806981523
 20
-111.3878607577433
 30
0.0
 10
80.66329343686543
 20
-111.2607367343376
 30
0.0
 10
80.6739732328697
 20
-111.148771131067
 30
0.0
 10
80.75424395767602
 20
-111.0302598463744
 30
0.0
 10
80.8641425036555
 20
-110.8693738872132
 30
0.0
 10
81.05052216940751
 20
-110.8356119514578
 30
0.0
 10
81.16662188726043
 20
-110.8356119514578
 30
0.0
 10
81.44395207382304
 20
-110.8356119514578
 30
0.0
 10
81.65134682203508
 20
-111.0195800503701
 30
0.0
 10
81.65134682203508
 20
-111.2924316128019
 30
0.0
 10
81.65134682203508
 20
-111.5211859530225
 30
0.0
 10
81.53490259463364
 20
-111.6204047029977
 30
0.0
 10
81.22587752960673
 20
-111.8467474763786
 30
0.0
  0
HATCH
  5
106
330
101
100
AcDbEntity
  8
_U+30EC_U+30A4_U+30E4_U+30FC 1
 62
     7
420
 16777215
100
AcDbHatch
 10
0.0
 20
0.0
 30
0.0
210
0.0
220
0.0
230
1.0
  2
SOLID
 70
     1
 71
     0
 91
        1
 92
        1
 93
        1
 72
     4
 94
        3
 73
     0
 74
     1
 95
       44
 96
       40
 40
0.0
 40
0.0
 40
0.0
 40
0.0
 40
1.0
 40
1.0
 40
1.0
 40
2.0
 40
2.0
 40
2.0
 40
3.0
 40
3.0
 40
3.0
 40
4.0
 40
4.0
 40
4.0
 40
5.0
 40
5.0
 40
5.0
 40
6.0
 40
6.0
 40
6.0
 40
7.0
 40
7.0
 40
7.0
 40
8.0
 40
8.0
 40
8.0
 40
9.0
 40
9.0
 40
9.0
 40
10.0
 40
10.0
 40
10.0
 40
11.0
 40
11.0
 40
11.0
 40
12.0
 40
12.0
 40
12.0
 40
13.0
 40
13.0
 40
13.0
 40
13.0
 10
81.22587752960673
 20
-111.8467474763786
 10
81.00814749493894
 20
-112.0055663782486
 10
80.91512991683719
 20
-112.0796359311815
 10
80.86620956094664
 20
-112.2232964129164
 10
80.86620956094664
 20
-112.2232964129164
 10
81.64480114061311
 20
-112.2232964129164
 10
81.64480114061311
 20
-112.2232964129164
 10
81.64480114061311
 20
-112.2232964129164
 10
81.64480114061311
 20
-112.4286241038373
 10
81.64480114061311
 20
-112.4286241038373
 10
81.64480114061311
 20
-112.4286241038373
 10
80.61678464781455
 20
-112.4286241038373
 10
80.61678464781455
 20
-112.4286241038373
 10
80.64847952627886
 20
-112.0710231924684
 10
80.7139363404986
 20
-111.9928195249532
 10
81.09909801574953
 20
-111.6944742559306
 10
81.3550686103036
 20
-111.4956922464316
 10
81.42052542452335
 20
-111.4278238653722
 10
81.42052542452335
 20
-111.2903645555107
 10
81.42052542452335
 20
-111.1718532708181
 10
81.34852292888162
 20
-111.0409396423787
 10
81.15180797667385
 20
-111.0409396423787
 10
80.8917032675375
 20
-111.0409396423787
 10
80.88309052882437
 20
-111.2714165303419
 10
80.87895641424207
 20
-111.3878607577433
 10
80.87895641424207
 20
-111.3878607577433
 10
80.6546806981523
 20
-111.3878607577433
 10
80.6546806981523
 20
-111.3878607577433
 10
80.66329343686543
 20
-111.2607367343376
 10
80.6739732328697
 20
-111.148771131067
 10
80.75424395767602
 20
-111.0302598463744
 10
80.8641425036555
 20
-110.8693738872132
 10
81.05052216940751
 20
-110.8356119514578
 10
81.16662188726043
 20
-110.8356119514578
 10
81.44395207382304
 20
-110.8356119514578
 10
81.65134682203508
 20
-111.0195800503701
 10
81.65134682203508
 20
-111.2924316128019
 10
81.65134682203508
 20
-111.5211859530225
 10
81.53490259463364
 20
-111.6204047029977
 10
81.22587752960673
 20
-111.8467474763786
 97
        0
 97
        0
 75
     2
 76
     1
 98
        0
  0
SPLINE
  5
107
330
101
100
AcDbEntity
  8
_U+30EC_U+30A4_U+30E4_U+30FC 1
370
     0
100
AcDbSpline
210
0.0
220
0.0
230
1.0
 70
    11
 71
     3
 72
    29
 73
    25
 74
     0
 42
0.0000000001
 43
0.0000000001
 12
1.0
 22
0.0
 32
0.0
 13
1.0
 23
0.0
 33
0.0
 40
0.0
 40
0.0
 40
0.0
 40
0.0
 40
1.0
 40
1.0
 40
1.0
 40
2.0
 40
2.0
 40
2.0
 40
3.0
 40
3.0
 40
3.0
 40
4.0
 40
4.0
 40
4.0
 40
5.0
 40
5.0
 40
5.0
 40
6.0
 40
6.0
 40
6.0
 40
7.0
 40
7.0
 40
7.0
 40
8.0
 40
8.0
 40
8.0
 40
8.0
 10
82.70761309781268
 20
-112.2508571767984
 30
0.0
 10
82.59943709957584
 20
-112.4603189823016
 30
0.0
 10
82.42614879666777
 20
-112.4792670074705
 30
0.0
 10
82.30970456926633
 20
-112.4792670074705
 30
0.0
 10
82.14881861010517
 20
-112.4792670074705
 30
0.0
 10
82.0072251856614
 20
-112.4327582184196
 30
0.0
 10
81.91214055026849
 20
-112.2508571767984
 30
0.0
 10
81.80844317616247
 20
-112.0562092818818
 30
0.0
 10
81.78915064144508
 20
-111.8191867124966
 30
0.0
 10
81.78915064144508
 20
-111.6565782055928
 30
0.0
 10
81.78915064144508
 20
-111.5125732143094
 30
0.0
 10
81.80637611887133
 20
-111.2607367343376
 30
0.0
 10
81.91214055026849
 20
-111.0619547248387
 30
0.0
 10
82.01997203895682
 20
-110.8590386007575
 30
0.0
 10
82.18085799811799
 20
-110.8356119514578
 30
0.0
 10
82.30970456926633
 20
-110.8356119514578
 30
0.0
 10
82.46852347113635
 20
-110.8356119514578
 30
0.0
 10
82.61218395287126
 20
-110.8800536832175
 30
0.0
 10
82.70761309781268
 20
-111.0619547248387
 30
0.0
 10
82.80683184778788
 20
-111.2545355624642
 30
0.0
 10
82.83025849708758
 20
-111.4829453931362
 30
0.0
 10
82.83025849708758
 20
-111.6565782055928
 30
0.0
 10
82.83025849708758
 20
-111.8277994512097
 30
0.0
 10
82.80889890507903
 20
-112.0582763391729
 30
0.0
 10
82.70761309781268
 20
-112.2508571767984
 30
0.0
  0
SPLINE
  5
108
330
101
100
AcDbEntity
  8
_U+30EC_U+30A4_U+30E4_U+30FC 1
370
     0
100
AcDbSpline
210
0.0
220
0.0
230
1.0
 70
    11
 71
     3
 72
    17
 73
    13
 74
     0
 42
0.0000000001
 43
0.0000000001
 12
1.0
 22
0.0
 32
0.0
 13
1.0
 23
0.0
 33
0.0
 40
0.0
 40
0.0
 40
0.0
 40
0.0
 40
1.0
 40
1.0
 40
1.0
 40
2.0
 40
2.0
 40
2.0
 40
3.0
 40
3.0
 40
3.0
 40
4.0
 40
4.0
 40
4.0
 40
4.0
 10
82.30970456926633
 20
-111.0281927890832
 30
0.0
 10
82.05993514658572
 20
-111.0281927890832
 30
0.0
 10
82.01342635753484
 20
-111.3117241475193
 30
0.0
 10
82.01342635753484
 20
-111.6565782055928
 30
0.0
 10
82.01342635753484
 20
-111.9759385570755
 30
0.0
 10
82.04959986012996
 20
-112.2846191125539
 30
0.0
 10
82.30970456926633
 20
-112.2846191125539
 30
0.0
 10
82.55740693465579
 20
-112.2846191125539
 30
0.0
 10
82.60598278099782
 20
-112.0034993209575
 30
0.0
 10
82.60598278099782
 20
-111.6565782055928
 30
0.0
 10
82.60598278099782
 20
-111.3368733445616
 30
0.0
 10
82.56774222111154
 20
-111.0281927890832
 30
0.0
 10
82.30970456926633
 20
-111.0281927890832
 30
0.0
  0
HATCH
  5
109
330
101
100
AcDbEntity
  8
_U+30EC_U+30A4_U+30E4_U+30FC 1
 62
     7
420
 16777215
100
AcDbHatch
 10
0.0
 20
0.0
 30
0.0
210
0.0
220
0.0
230
1.0
  2
SOLID
 70
     1
 71
     0
 91
        2
 92
        1
 93
        1
 72
     4
 94
        3
 73
     0
 74
     1
 95
       29
 96
       25
 40
0.0
 40
0.0
 40
0.0
 40
0.0
 40
1.0
 40
1.0
 40
1.0
 40
2.0
 40
2.0
 40
2.0
 40
3.0
 40
3.0
 40
3.0
 40
4.0
 40
4.0
 40
4.0
 40
5.0
 40
5.0
 40
5.0
 40
6.0
 40
6.0
 40
6.0
 40
7.0
 40
7.0
 40
7.0
 40
8.0
 40
8.0
 40
8.0
 40
8.0
 10
82.70761309781268
 20
-112.2508571767984
 10
82.59943709957584
 20
-112.4603189823016
 10
82.42614879666777
 20
-112.4792670074705
 10
82.30970456926633
 20
-112.4792670074705
 10
82.14881861010517
 20
-112.4792670074705
 10
82.0072251856614
 20
-112.4327582184196
 10
81.91214055026849
 20
-112.2508571767984
 10
81.80844317616247
 20
-112.0562092818818
 10
81.78915064144508
 20
-111.8191867124966
 10
81.78915064144508
 20
-111.6565782055928
 10
81.78915064144508
 20
-111.5125732143094
 10
81.80637611887133
 20
-111.2607367343376
 10
81.91214055026849
 20
-111.0619547248387
 10
82.01997203895682
 20
-110.8590386007575
 10
82.18085799811799
 20
-110.8356119514578
 10
82.30970456926633
 20
-110.8356119514578
 10
82.46852347113635
 20
-110.8356119514578
 10
82.61218395287126
 20
-110.8800536832175
 10
82.70761309781268
 20
-111.0619547248387
 10
82.80683184778788
 20
-111.2545355624642
 10
82.83025849708758
 20
-111.4829453931362
 10
82.83025849708758
 20
-111.6565782055928
 10
82.83025849708758
 20
-111.8277994512097
 10
82.80889890507903
 20
-112.0582763391729
 10
82.70761309781268
 20
-112.2508571767984
 97
        0
 97
        0
 92
        1
 93
        1
 72
     4
 94
        3
 73
     0
 74
     1
 95
       17
 96
       13
 40
0.0
 40
0.0
 40
0.0
 40
0.0
 40
1.0
 40
1.0
 40
1.0
 40
2.0
 40
2.0
 40
2.0
 40
3.0
 40
3.0
 40
3.0
 40
4.0
 40
4.0
 40
4.0
 40
4.0
 10
82.30970456926633
 20
-111.0281927890832
 10
82.05993514658572
 20
-111.0281927890832
 10
82.01342635753484
 20
-111.3117241475193
 10
82.01342635753484
 20
-111.6565782055928
 10
82.01342635753484
 20
-111.9759385570755
 10
82.04959986012996
 20
-112.2846191125539
 10
82.30970456926633
 20
-112.2846191125539
 10
82.55740693465579
 20
-112.2846191125539
 10
82.60598278099782
 20
-112.0034993209575
 10
82.60598278099782
 20
-111.6565782055928
 10
82.60598278099782
 20
-111.3368733445616
 10
82.56774222111154
 20
-111.0281927890832
 10
82.30970456926633
 20
-111.0281927890832
 97
        0
 97
        0
 75
     2
 76
     1
 98
        0
  0
ENDBLK
  5
104
330
101
100
AcDbEntity
  8
0
100
AcDbBlockEnd
  0
ENDSEC
  0
SECTION
  2
ENTITIES
  0
POLYLINE
  5
41
330
1F
100
AcDbEntity
  8
_U+30EC_U+30A4_U+30E4_U+30FC 1
370
     0
100
AcDb2dPolyline
 66
     1
 10
0.0
 20
0.0
 30
0.0
  0
VERTEX
  5
42
330
41
100
AcDbEntity
  8
_U+30EC_U+30A4_U+30E4_U+30FC 1
370
     0
100
AcDbVertex
100
AcDb2dVertex
 10
71.62164998209457
 20
-116.2482152487157
 30
0.0
  0
VERTEX
  5
43
330
41
100
AcDbEntity
  8
_U+30EC_U+30A4_U+30E4_U+30FC 1
370
     0
100
AcDbVertex
100
AcDb2dVertex
 10
71.62164998209457
 20
-117.3657799706587
 30
0.0
  0
VERTEX
  5
44
330
41
100
AcDbEntity
  8
_U+30EC_U+30A4_U+30E4_U+30FC 1
370
     0
100
AcDbVertex
100
AcDb2dVertex
 10
90.35227797269913
 20
-117.3657799706587
 30
0.0
  0
VERTEX
  5
45
330
41
100
AcDbEntity
  8
_U+30EC_U+30A4_U+30E4_U+30FC 1
370
     0
100
AcDbVertex
100
AcDb2dVertex
 10
90.35227797269913
 20
-142.3551466310781
 30
0.0
  0
VERTEX
  5
46
330
41
100
AcDbEntity
  8
_U+30EC_U+30A4_U+30E4_U+30FC 1
370
     0
100
AcDbVertex
100
AcDb2dVertex
 10
110.4352813492279
 20
-142.3551466310781
 30
0.0
  0
VERTEX
  5
47
330
41
100
AcDbEntity
  8
_U+30EC_U+30A4_U+30E4_U+30FC 1
370
     0
100
AcDbVertex
100
AcDb2dVertex
 10
110.4352813492279
 20
-141.2968132980094
 30
0.0
  0
VERTEX
  5
48
330
41
100
AcDbEntity
  8
_U+30EC_U+30A4_U+30E4_U+30FC 1
370
     0
100
AcDbVertex
100
AcDb2dVertex
 10
91.58717655230535
 20
-141.2968132980094
 30
0.0
  0
VERTEX
  5
49
330
41
100
AcDbEntity
  8
_U+30EC_U+30A4_U+30E4_U+30FC 1
370
     0
100
AcDbVertex
100
AcDb2dVertex
 10
91.58717655230535
 20
-116.1896188598414
 30
0.0
  0
VERTEX
  5
4A
330
41
100
AcDbEntity
  8
_U+30EC_U+30A4_U+30E4_U+30FC 1
370
     0
100
AcDbVertex
100
AcDb2dVertex
 10
71.62164998209457
 20
-116.2482152487157
 30
0.0
  0
SEQEND
  5
4C
330
41
100
AcDbEntity
  8
_U+30EC_U+30A4_U+30E4_U+30FC 1
370
     0
  0
HATCH
  5
4B
330
1F
100
AcDbEntity
  8
_U+30EC_U+30A4_U+30E4_U+30FC 1
 62
   253
420
 11711154
100
AcDbHatch
 10
0.0
 20
0.0
 30
0.0
210
0.0
220
0.0
230
1.0
  2
SOLID
 70
     1
 71
     0
 91
        1
 92
        1
 93
        8
 72
     1
 10
71.62164998209457
 20
-116.2482152487157
 11
71.62164998209457
 21
-117.3657799706587
 72
     1
 10
71.62164998209457
 20
-117.3657799706587
 11
90.35227797269913
 21
-117.3657799706587
 72
     1
 10
90.35227797269913
 20
-117.3657799706587
 11
90.35227797269913
 21
-142.3551466310781
 72
     1
 10
90.35227797269913
 20
-142.3551466310781
 11
110.4352813492279
 21
-142.3551466310781
 72
     1
 10
110.4352813492279
 20
-142.3551466310781
 11
110.4352813492279
 21
-141.2968132980094
 72
     1
 10
110.4352813492279
 20
-141.2968132980094
 11
91.58717655230535
 21
-141.2968132980094
 72
     1
 10
91.58717655230535
 20
-141.2968132980094
 11
91.58717655230535
 21
-116.1896188598414
 72
     1
 10
91.58717655230535
 20
-116.1896188598414
 11
71.62164998209457
 21
-116.2482152487157
 97
        0
 75
     2
 76
     1
 98
        0
  0
SPLINE
  5
4D
330
1F
100
AcDbEntity
  8
_U+30EC_U+30A4_U+30E4_U+30FC 1
 62
     7
420
 16777215
370
     9
100
AcDbSpline
210
0.0
220
0.0
230
1.0
 70
    11
 71
     3
 72
    17
 73
    13
 74
     0
 42
0.0000000001
 43
0.0000000001
 12
1.0
 22
0.0
 32
0.0
 13
1.0
 23
0.0
 33
0.0
 40
0.0
 40
0.0
 40
0.0
 40
0.0
 40
1.0
 40
1.0
 40
1.0
 40
2.0
 40
2.0
 40
2.0
 40
3.0
 40
3.0
 40
3.0
 40
4.0
 40
4.0
 40
4.0
 40
4.0
 10
115.0789333045638
 20
-142.2896710755387
 30
0.0
 10
115.0789333045638
 20
-142.2345671866638
 30
0.0
 10
115.0341628985673
 20
-142.189764408897
 30
0.0
 10
114.9786709555386
 20
-142.189764408897
 30
0.0
 10
114.9235670680555
 20
-142.189764408897
 30
0.0
 10
114.8787642914208
 20
-142.2345671866638
 30
0.0
 10
114.8787642914208
 20
-142.2896710755387
 30
0.0
 10
114.8787642914208
 20
-142.3448102421918
 30
0.0
 10
114.9235670680555
 20
-142.3895777421803
 30
0.0
 10
114.9786709555386
 20
-142.3895777421803
 30
0.0
 10
115.0341628985673
 20
-142.3895777421803
 30
0.0
 10
115.0789333045638
 20
-142.3448102421918
 30
0.0
 10
115.0789333045638
 20
-142.2896710755387
 30
0.0
  0
SPLINE
  5
4E
330
1F
100
AcDbEntity
  8
_U+30EC_U+30A4_U+30E4_U+30FC 1
 62
     7
420
 16777215
370
     9
100
AcDbSpline
210
0.0
220
0.0
230
1.0
 70
    11
 71
     3
 72
    17
 73
    13
 74
     0
 42
0.0000000001
 43
0.0000000001
 12
1.0
 22
0.0
 32
0.0
 13
1.0
 23
0.0
 33
0.0
 40
0.0
 40
0.0
 40
0.0
 40
0.0
 40
1.0
 40
1.0
 40
1.0
 40
2.0
 40
2.0
 40
2.0
 40
3.0
 40
3.0
 40
3.0
 40
4.0
 40
4.0
 40
4.0
 40
4.0
 10
115.0789333045638
 20
-140.9895085758639
 30
0.0
 10
115.0789333045638
 20
-140.9343694092108
 30
0.0
 10
115.0341628985673
 20
-140.8896019092222
 30
0.0
 10
114.9786709555386
 20
-140.8896019092222
 30
0.0
 10
114.9235670680555
 20
-140.8896019092222
 30
0.0
 10
114.8787642914208
 20
-140.9343694092108
 30
0.0
 10
114.8787642914208
 20
-140.9895085758639
 30
0.0
 10
114.8787642914208
 20
-141.0446124647388
 30
0.0
 10
114.9235670680555
 20
-141.0894152425055
 30
0.0
 10
114.9786709555386
 20
-141.0894152425055
 30
0.0
 10
115.0341628985673
 20
-141.0894152425055
 30
0.0
 10
115.0789333045638
 20
-141.0446124647388
 30
0.0
 10
115.0789333045638
 20
-140.9895085758639
 30
0.0
  0
SPLINE
  5
4F
330
1F
100
AcDbEntity
  8
_U+30EC_U+30A4_U+30E4_U+30FC 1
 62
     7
420
 16777215
370
     9
100
AcDbSpline
210
0.0
220
0.0
230
1.0
 70
    11
 71
     3
 72
    17
 73
    13
 74
     0
 42
0.0000000001
 43
0.0000000001
 12
1.0
 22
0.0
 32
0.0
 13
1.0
 23
0.0
 33
0.0
 40
0.0
 40
0.0
 40
0.0
 40
0.0
 40
1.0
 40
1.0
 40
1.0
 40
2.0
 40
2.0
 40
2.0
 40
3.0
 40
3.0
 40
3.0
 40
4.0
 40
4.0
 40
4.0
 40
4.0
 10
115.0789333045638
 20
-115.9891352487804
 30
0.0
 10
115.0789333045638
 20
-115.9339960821277
 30
0.0
 10
115.0341628985673
 20
-115.8892285821388
 30
0.0
 10
114.9786709555386
 20
-115.8892285821388
 30
0.0
 10
114.9235670680555
 20
-115.8892285821388
 30
0.0
 10
114.8787642914208
 20
-115.9339960821277
 30
0.0
 10
114.8787642914208
 20
-115.9891352487804
 30
0.0
 10
114.8787642914208
 20
-116.0449446932109
 30
0.0
 10
114.9235670680555
 20
-116.0890419154221
 30
0.0
 10
114.9786709555386
 20
-116.0890419154221
 30
0.0
 10
115.0341628985673
 20
-116.0890419154221
 30
0.0
 10
115.0789333045638
 20
-116.0449446932109
 30
0.0
 10
115.0789333045638
 20
-115.9891352487804
 30
0.0
  0
POLYLINE
  5
50
330
1F
100
AcDbEntity
  8
_U+30EC_U+30A4_U+30E4_U+30FC 1
 62
     7
420
 16777215
370
     9
100
AcDb2dPolyline
 66
     1
 10
0.0
 20
0.0
 30
0.0
  0
VERTEX
  5
51
330
50
100
AcDbEntity
  8
_U+30EC_U+30A4_U+30E4_U+30FC 1
 62
     7
420
 16777215
370
     9
100
AcDbVertex
100
AcDb2dVertex
 10
114.9786709555386
 20
-141.0894152425055
 30
0.0
  0
VERTEX
  5
52
330
50
100
AcDbEntity
  8
_U+30EC_U+30A4_U+30E4_U+30FC 1
 62
     7
420
 16777215
370
     9
100
AcDbVertex
100
AcDb2dVertex
 10
114.9786709555386
 20
-142.2896710755387
 30
0.0
  0
SEQEND
  5
53
330
50
100
AcDbEntity
  8
_U+30EC_U+30A4_U+30E4_U+30FC 1
 62
     7
420
 16777215
370
     9
  0
POLYLINE
  5
54
330
1F
100
AcDbEntity
  8
_U+30EC_U+30A4_U+30E4_U+30FC 1
 62
     7
420
 16777215
370
     9
100
AcDb2dPolyline
 66
     1
 10
0.0
 20
0.0
 30
0.0
  0
VERTEX
  5
55
330
54
100
AcDbEntity
  8
_U+30EC_U+30A4_U+30E4_U+30FC 1
 62
     7
420
 16777215
370
     9
100
AcDbVertex
100
AcDb2dVertex
 10
113.5186648816754
 20
-140.9895085758639
 30
0.0
  0
VERTEX
  5
56
330
54
100
AcDbEntity
  8
_U+30EC_U+30A4_U+30E4_U+30FC 1
 62
     7
420
 16777215
370
     9
100
AcDbVertex
100
AcDb2dVertex
 10
115.9787959300233
 20
-140.9895085758639
 30
0.0
  0
SEQEND
  5
57
330
54
100
AcDbEntity
  8
_U+30EC_U+30A4_U+30E4_U+30FC 1
 62
     7
420
 16777215
370
     9
  0
POLYLINE
  5
58
330
1F
100
AcDbEntity
  8
_U+30EC_U+30A4_U+30E4_U+30FC 1
 62
     7
420
 16777215
370
     9
100
AcDb2dPolyline
 66
     1
 10
0.0
 20
0.0
 30
0.0
  0
VERTEX
  5
59
330
58
100
AcDbEntity
  8
_U+30EC_U+30A4_U+30E4_U+30FC 1
 62
     7
420
 16777215
370
     9
100
AcDbVertex
100
AcDb2dVertex
 10
113.5186648816754
 20
-142.2896710755387
 30
0.0
  0
VERTEX
  5
5A
330
58
100
AcDbEntity
  8
_U+30EC_U+30A4_U+30E4_U+30FC 1
 62
     7
420
 16777215
370
     9
100
AcDbVertex
100
AcDb2dVertex
 10
115.9787959300233
 20
-142.2896710755387
 30
0.0
  0
SEQEND
  5
5B
330
58
100
AcDbEntity
  8
_U+30EC_U+30A4_U+30E4_U+30FC 1
 62
     7
420
 16777215
370
     9
  0
INSERT
  5
5D
330
1F
100
AcDbEntity
  8
_U+30EC_U+30A4_U+30E4_U+30FC 1
100
AcDbBlockReference
  2
block 2
 10
0.0
 20
0.0
 30
0.0
  0
POLYLINE
  5
6C
330
1F
100
AcDbEntity
  8
_U+30EC_U+30A4_U+30E4_U+30FC 1
 62
     7
420
 16777215
370
     9
100
AcDb2dPolyline
 66
     1
 10
0.0
 20
0.0
 30
0.0
  0
VERTEX
  5
6D
330
6C
100
AcDbEntity
  8
_U+30EC_U+30A4_U+30E4_U+30FC 1
 62
     7
420
 16777215
370
     9
100
AcDbVertex
100
AcDb2dVertex
 10
114.9786709555386
 20
-140.9895085758639
 30
0.0
  0
VERTEX
  5
6E
330
6C
100
AcDbEntity
  8
_U+30EC_U+30A4_U+30E4_U+30FC 1
 62
     7
420
 16777215
370
     9
100
AcDbVertex
100
AcDb2dVertex
 10
114.9786709555386
 20
-115.9891352487804
 30
0.0
  0
SEQEND
  5
6F
330
6C
100
AcDbEntity
  8
_U+30EC_U+30A4_U+30E4_U+30FC 1
 62
     7
420
 16777215
370
     9
  0
POLYLINE
  5
70
330
1F
100
AcDbEntity
  8
_U+30EC_U+30A4_U+30E4_U+30FC 1
 62
     7
420
 16777215
370
     9
100
AcDb2dPolyline
 66
     1
 10
0.0
 20
0.0
 30
0.0
  0
VERTEX
  5
71
330
70
100
AcDbEntity
  8
_U+30EC_U+30A4_U+30E4_U+30FC 1
 62
     7
420
 16777215
370
     9
100
AcDbVertex
100
AcDb2dVertex
 10
95.51803811868739
 20
-115.9891352487804
 30
0.0
  0
VERTEX
  5
72
330
70
100
AcDbEntity
  8
_U+30EC_U+30A4_U+30E4_U+30FC 1
 62
     7
420
 16777215
370
     9
100
AcDbVertex
100
AcDb2dVertex
 10
115.9787959300233
 20
-115.9891352487804
 30
0.0
  0
SEQEND
  5
73
330
70
100
AcDbEntity
  8
_U+30EC_U+30A4_U+30E4_U+30FC 1
 62
     7
420
 16777215
370
     9
  0
INSERT
  5
75
330
1F
100
AcDbEntity
  8
_U+30EC_U+30A4_U+30E4_U+30FC 1
100
AcDbBlockReference
  2
block 3
 10
0.0
 20
0.0
 30
0.0
  0
SPLINE
  5
7C
330
1F
100
AcDbEntity
  8
_U+30EC_U+30A4_U+30E4_U+30FC 1
 62
     7
420
 16777215
370
     9
100
AcDbSpline
210
0.0
220
0.0
230
1.0
 70
    11
 71
     3
 72
    17
 73
    13
 74
     0
 42
0.0000000001
 43
0.0000000001
 12
1.0
 22
0.0
 32
0.0
 13
1.0
 23
0.0
 33
0.0
 40
0.0
 40
0.0
 40
0.0
 40
0.0
 40
1.0
 40
1.0
 40
1.0
 40
2.0
 40
2.0
 40
2.0
 40
3.0
 40
3.0
 40
3.0
 40
4.0
 40
4.0
 40
4.0
 40
4.0
 10
69.3969610073138
 20
-116.2895255264833
 30
0.0
 10
69.3969610073138
 20
-116.3446646931361
 30
0.0
 10
69.44176378394857
 20
-116.3894674709025
 30
0.0
 10
69.49722220484792
 20
-116.3894674709025
 30
0.0
 10
69.55235961446037
 20
-116.3894674709025
 30
0.0
 10
69.59712711331825
 20
-116.3446646931361
 30
0.0
 10
69.59712711331825
 20
-116.2895255264833
 30
0.0
 10
69.59712711331825
 20
-116.2344216376081
 30
0.0
 10
69.55235961446037
 20
-116.1896188598414
 30
0.0
 10
69.49722220484792
 20
-116.1896188598414
 30
0.0
 10
69.44176378394857
 20
-116.1896188598414
 30
0.0
 10
69.3969610073138
 20
-116.2344216376081
 30
0.0
 10
69.3969610073138
 20
-116.2895255264833
 30
0.0
  0
SPLINE
  5
7D
330
1F
100
AcDbEntity
  8
_U+30EC_U+30A4_U+30E4_U+30FC 1
 62
     7
420
 16777215
370
     9
100
AcDbSpline
210
0.0
220
0.0
230
1.0
 70
    11
 71
     3
 72
    17
 73
    13
 74
     0
 42
0.0000000001
 43
0.0000000001
 12
1.0
 22
0.0
 32
0.0
 13
1.0
 23
0.0
 33
0.0
 40
0.0
 40
0.0
 40
0.0
 40
0.0
 40
1.0
 40
1.0
 40
1.0
 40
2.0
 40
2.0
 40
2.0
 40
3.0
 40
3.0
 40
3.0
 40
4.0
 40
4.0
 40
4.0
 40
4.0
 10
69.3969610073138
 20
-142.489484408822
 30
0.0
 10
69.3969610073138
 20
-142.544623575475
 30
0.0
 10
69.44176378394857
 20
-142.5893910754636
 30
0.0
 10
69.49722220484792
 20
-142.5893910754636
 30
0.0
 10
69.55235961446037
 20
-142.5893910754636
 30
0.0
 10
69.59712711331825
 20
-142.544623575475
 30
0.0
 10
69.59712711331825
 20
-142.489484408822
 30
0.0
 10
69.59712711331825
 20
-142.434380519947
 30
0.0
 10
69.55235961446037
 20
-142.3895777421803
 30
0.0
 10
69.49722220484792
 20
-142.3895777421803
 30
0.0
 10
69.44176378394857
 20
-142.3895777421803
 30
0.0
 10
69.3969610073138
 20
-142.434380519947
 30
0.0
 10
69.3969610073138
 20
-142.489484408822
 30
0.0
  0
POLYLINE
  5
7E
330
1F
100
AcDbEntity
  8
_U+30EC_U+30A4_U+30E4_U+30FC 1
 62
     7
420
 16777215
370
     9
100
AcDb2dPolyline
 66
     1
 10
0.0
 20
0.0
 30
0.0
  0
VERTEX
  5
7F
330
7E
100
AcDbEntity
  8
_U+30EC_U+30A4_U+30E4_U+30FC 1
 62
     7
420
 16777215
370
     9
100
AcDbVertex
100
AcDb2dVertex
 10
70.95726180084054
 20
-116.2895255264833
 30
0.0
  0
VERTEX
  5
80
330
7E
100
AcDbEntity
  8
_U+30EC_U+30A4_U+30E4_U+30FC 1
 62
     7
420
 16777215
370
     9
100
AcDbVertex
100
AcDb2dVertex
 10
68.49709720509794
 20
-116.2895255264833
 30
0.0
  0
SEQEND
  5
81
330
7E
100
AcDbEntity
  8
_U+30EC_U+30A4_U+30E4_U+30FC 1
 62
     7
420
 16777215
370
     9
  0
POLYLINE
  5
82
330
1F
100
AcDbEntity
  8
_U+30EC_U+30A4_U+30E4_U+30FC 1
 62
     7
420
 16777215
370
     9
100
AcDb2dPolyline
 66
     1
 10
0.0
 20
0.0
 30
0.0
  0
VERTEX
  5
83
330
82
100
AcDbEntity
  8
_U+30EC_U+30A4_U+30E4_U+30FC 1
 62
     7
420
 16777215
370
     9
100
AcDbVertex
100
AcDb2dVertex
 10
69.49722220484792
 20
-116.2895255264833
 30
0.0
  0
VERTEX
  5
84
330
82
100
AcDbEntity
  8
_U+30EC_U+30A4_U+30E4_U+30FC 1
 62
     7
420
 16777215
370
     9
100
AcDbVertex
100
AcDb2dVertex
 10
69.49722220484792
 20
-142.489484408822
 30
0.0
  0
SEQEND
  5
85
330
82
100
AcDbEntity
  8
_U+30EC_U+30A4_U+30E4_U+30FC 1
 62
     7
420
 16777215
370
     9
  0
POLYLINE
  5
86
330
1F
100
AcDbEntity
  8
_U+30EC_U+30A4_U+30E4_U+30FC 1
 62
     7
420
 16777215
370
     9
100
AcDb2dPolyline
 66
     1
 10
0.0
 20
0.0
 30
0.0
  0
VERTEX
  5
87
330
86
100
AcDbEntity
  8
_U+30EC_U+30A4_U+30E4_U+30FC 1
 62
     7
420
 16777215
370
     9
100
AcDbVertex
100
AcDb2dVertex
 10
88.95788856382852
 20
-142.489484408822
 30
0.0
  0
VERTEX
  5
88
330
86
100
AcDbEntity
  8
_U+30EC_U+30A4_U+30E4_U+30FC 1
 62
     7
420
 16777215
370
     9
100
AcDbVertex
100
AcDb2dVertex
 10
68.49709720509794
 20
-142.489484408822
 30
0.0
  0
SEQEND
  5
89
330
86
100
AcDbEntity
  8
_U+30EC_U+30A4_U+30E4_U+30FC 1
 62
     7
420
 16777215
370
     9
  0
INSERT
  5
8B
330
1F
100
AcDbEntity
  8
_U+30EC_U+30A4_U+30E4_U+30FC 1
100
AcDbBlockReference
  2
block 4
 10
0.0
 20
0.0
 30
0.0
  0
POLYLINE
  5
9D
330
1F
100
AcDbEntity
  8
_U+30EC_U+30A4_U+30E4_U+30FC 1
 62
     7
420
 16777215
370
    25
100
AcDb2dPolyline
 66
     1
 10
0.0
 20
0.0
 30
0.0
  0
VERTEX
  5
9E
330
9D
100
AcDbEntity
  8
_U+30EC_U+30A4_U+30E4_U+30FC 1
 62
     7
420
 16777215
370
    25
100
AcDbVertex
100
AcDb2dVertex
 10
71.62164998209457
 20
-116.1896188598414
 30
0.0
  0
VERTEX
  5
9F
330
9D
100
AcDbEntity
  8
_U+30EC_U+30A4_U+30E4_U+30FC 1
 62
     7
420
 16777215
370
    25
100
AcDbVertex
100
AcDb2dVertex
 10
71.62164998209457
 20
-117.3899099706524
 30
0.0
  0
SEQEND
  5
A0
330
9D
100
AcDbEntity
  8
_U+30EC_U+30A4_U+30E4_U+30FC 1
 62
     7
420
 16777215
370
    25
  0
POLYLINE
  5
A1
330
1F
100
AcDbEntity
  8
_U+30EC_U+30A4_U+30E4_U+30FC 1
 62
     7
420
 16777215
370
    25
100
AcDb2dPolyline
 66
     1
 10
0.0
 20
0.0
 30
0.0
  0
VERTEX
  5
A2
330
A1
100
AcDbEntity
  8
_U+30EC_U+30A4_U+30E4_U+30FC 1
 62
     7
420
 16777215
370
    25
100
AcDbVertex
100
AcDb2dVertex
 10
71.62164998209457
 20
-116.1896188598414
 30
0.0
  0
VERTEX
  5
A3
330
A1
100
AcDbEntity
  8
_U+30EC_U+30A4_U+30E4_U+30FC 1
 62
     7
420
 16777215
370
    25
100
AcDbVertex
100
AcDb2dVertex
 10
91.62160766253805
 20
-116.1896188598414
 30
0.0
  0
SEQEND
  5
A4
330
A1
100
AcDbEntity
  8
_U+30EC_U+30A4_U+30E4_U+30FC 1
 62
     7
420
 16777215
370
    25
  0
POLYLINE
  5
A5
330
1F
100
AcDbEntity
  8
_U+30EC_U+30A4_U+30E4_U+30FC 1
 62
     7
420
 16777215
370
    25
100
AcDb2dPolyline
 66
     1
 10
0.0
 20
0.0
 30
0.0
  0
VERTEX
  5
A6
330
A5
100
AcDbEntity
  8
_U+30EC_U+30A4_U+30E4_U+30FC 1
 62
     7
420
 16777215
370
    25
100
AcDbVertex
100
AcDb2dVertex
 10
91.62160766253805
 20
-141.1899921869245
 30
0.0
  0
VERTEX
  5
A7
330
A5
100
AcDbEntity
  8
_U+30EC_U+30A4_U+30E4_U+30FC 1
 62
     7
420
 16777215
370
    25
100
AcDbVertex
100
AcDb2dVertex
 10
91.62160766253805
 20
-116.1896188598414
 30
0.0
  0
SEQEND
  5
A8
330
A5
100
AcDbEntity
  8
_U+30EC_U+30A4_U+30E4_U+30FC 1
 62
     7
420
 16777215
370
    25
  0
POLYLINE
  5
A9
330
1F
100
AcDbEntity
  8
_U+30EC_U+30A4_U+30E4_U+30FC 1
 62
     7
420
 16777215
370
    25
100
AcDb2dPolyline
 66
     1
 10
0.0
 20
0.0
 30
0.0
  0
VERTEX
  5
AA
330
A9
100
AcDbEntity
  8
_U+30EC_U+30A4_U+30E4_U+30FC 1
 62
     7
420
 16777215
370
    25
100
AcDbVertex
100
AcDb2dVertex
 10
90.42188331072798
 20
-142.3895777421803
 30
0.0
  0
VERTEX
  5
AB
330
A9
100
AcDbEntity
  8
_U+30EC_U+30A4_U+30E4_U+30FC 1
 62
     7
420
 16777215
370
    25
100
AcDbVertex
100
AcDb2dVertex
 10
90.42188331072798
 20
-117.3899099706524
 30
0.0
  0
SEQEND
  5
AC
330
A9
100
AcDbEntity
  8
_U+30EC_U+30A4_U+30E4_U+30FC 1
 62
     7
420
 16777215
370
    25
  0
POLYLINE
  5
AD
330
1F
100
AcDbEntity
  8
_U+30EC_U+30A4_U+30E4_U+30FC 1
 62
     7
420
 16777215
370
    25
100
AcDb2dPolyline
 66
     1
 10
0.0
 20
0.0
 30
0.0
  0
VERTEX
  5
AE
330
AD
100
AcDbEntity
  8
_U+30EC_U+30A4_U+30E4_U+30FC 1
 62
     7
420
 16777215
370
    25
100
AcDbVertex
100
AcDb2dVertex
 10
71.62164998209457
 20
-117.3899099706524
 30
0.0
  0
VERTEX
  5
AF
330
AD
100
AcDbEntity
  8
_U+30EC_U+30A4_U+30E4_U+30FC 1
 62
     7
420
 16777215
370
    25
100
AcDbVertex
100
AcDb2dVertex
 10
90.42188331072798
 20
-117.3899099706524
 30
0.0
  0
SEQEND
  5
B0
330
AD
100
AcDbEntity
  8
_U+30EC_U+30A4_U+30E4_U+30FC 1
 62
     7
420
 16777215
370
    25
  0
POLYLINE
  5
B1
330
1F
100
AcDbEntity
  8
_U+30EC_U+30A4_U+30E4_U+30FC 1
 62
     7
420
 16777215
370
    25
100
AcDb2dPolyline
 66
     1
 10
0.0
 20
0.0
 30
0.0
  0
VERTEX
  5
B2
330
B1
100
AcDbEntity
  8
_U+30EC_U+30A4_U+30E4_U+30FC 1
 62
     7
420
 16777215
370
    25
100
AcDbVertex
100
AcDb2dVertex
 10
110.4221932940063
 20
-142.3895777421803
 30
0.0
  0
VERTEX
  5
B3
330
B1
100
AcDbEntity
  8
_U+30EC_U+30A4_U+30E4_U+30FC 1
 62
     7
420
 16777215
370
    25
100
AcDbVertex
100
AcDb2dVertex
 10
110.4221932940063
 20
-141.1899921869245
 30
0.0
  0
SEQEND
  5
B4
330
B1
100
AcDbEntity
  8
_U+30EC_U+30A4_U+30E4_U+30FC 1
 62
     7
420
 16777215
370
    25
  0
POLYLINE
  5
B5
330
1F
100
AcDbEntity
  8
_U+30EC_U+30A4_U+30E4_U+30FC 1
 62
     7
420
 16777215
370
    25
100
AcDb2dPolyline
 66
     1
 10
0.0
 20
0.0
 30
0.0
  0
VERTEX
  5
B6
330
B5
100
AcDbEntity
  8
_U+30EC_U+30A4_U+30E4_U+30FC 1
 62
     7
420
 16777215
370
    25
100
AcDbVertex
100
AcDb2dVertex
 10
110.4221932940063
 20
-142.3895777421803
 30
0.0
  0
VERTEX
  5
B7
330
B5
100
AcDbEntity
  8
_U+30EC_U+30A4_U+30E4_U+30FC 1
 62
     7
420
 16777215
370
    25
100
AcDbVertex
100
AcDb2dVertex
 10
90.42188331072798
 20
-142.3895777421803
 30
0.0
  0
SEQEND
  5
B8
330
B5
100
AcDbEntity
  8
_U+30EC_U+30A4_U+30E4_U+30FC 1
 62
     7
420
 16777215
370
    25
  0
POLYLINE
  5
B9
330
1F
100
AcDbEntity
  8
_U+30EC_U+30A4_U+30E4_U+30FC 1
 62
     7
420
 16777215
370
    25
100
AcDb2dPolyline
 66
     1
 10
0.0
 20
0.0
 30
0.0
  0
VERTEX
  5
BA
330
B9
100
AcDbEntity
  8
_U+30EC_U+30A4_U+30E4_U+30FC 1
 62
     7
420
 16777215
370
    25
100
AcDbVertex
100
AcDb2dVertex
 10
110.4221932940063
 20
-141.1899921869245
 30
0.0
  0
VERTEX
  5
BB
330
B9
100
AcDbEntity
  8
_U+30EC_U+30A4_U+30E4_U+30FC 1
 62
     7
420
 16777215
370
    25
100
AcDbVertex
100
AcDb2dVertex
 10
91.62160766253805
 20
-141.1899921869245
 30
0.0
  0
SEQEND
  5
BC
330
B9
100
AcDbEntity
  8
_U+30EC_U+30A4_U+30E4_U+30FC 1
 62
     7
420
 16777215
370
    25
  0
SPLINE
  5
BD
330
1F
100
AcDbEntity
  8
_U+30EC_U+30A4_U+30E4_U+30FC 1
 62
     7
420
 16777215
370
     9
100
AcDbSpline
210
0.0
220
0.0
230
1.0
 70
    11
 71
     3
 72
    17
 73
    13
 74
     0
 42
0.0000000001
 43
0.0000000001
 12
1.0
 22
0.0
 32
0.0
 13
1.0
 23
0.0
 33
0.0
 40
0.0
 40
0.0
 40
0.0
 40
0.0
 40
1.0
 40
1.0
 40
1.0
 40
2.0
 40
2.0
 40
2.0
 40
3.0
 40
3.0
 40
3.0
 40
4.0
 40
4.0
 40
4.0
 40
4.0
 10
90.42188331072798
 20
-146.7669149633082
 30
0.0
 10
90.42188331072798
 20
-146.7118110744332
 30
0.0
 10
90.37708053296126
 20
-146.6670082966665
 30
0.0
 10
90.32197436236113
 20
-146.6670082966665
 30
0.0
 10
90.26683519710117
 20
-146.6670082966665
 30
0.0
 10
90.2220676982433
 20
-146.7118110744332
 30
0.0
 10
90.2220676982433
 20
-146.7669149633082
 30
0.0
 10
90.2220676982433
 20
-146.8220541299612
 30
0.0
 10
90.26683519710117
 20
-146.8668216299498
 30
0.0
 10
90.32197436236113
 20
-146.8668216299498
 30
0.0
 10
90.37708053296126
 20
-146.8668216299498
 30
0.0
 10
90.42188331072798
 20
-146.8220541299612
 30
0.0
 10
90.42188331072798
 20
-146.7669149633082
 30
0.0
  0
SPLINE
  5
BE
330
1F
100
AcDbEntity
  8
_U+30EC_U+30A4_U+30E4_U+30FC 1
 62
     7
420
 16777215
370
     9
100
AcDbSpline
210
0.0
220
0.0
230
1.0
 70
    11
 71
     3
 72
    17
 73
    13
 74
     0
 42
0.0000000001
 43
0.0000000001
 12
1.0
 22
0.0
 32
0.0
 13
1.0
 23
0.0
 33
0.0
 40
0.0
 40
0.0
 40
0.0
 40
0.0
 40
1.0
 40
1.0
 40
1.0
 40
2.0
 40
2.0
 40
2.0
 40
3.0
 40
3.0
 40
3.0
 40
4.0
 40
4.0
 40
4.0
 40
4.0
 10
110.4221932940063
 20
-146.7669149633082
 30
0.0
 10
110.4221932940063
 20
-146.7118110744332
 30
0.0
 10
110.3774257951484
 20
-146.6670082966665
 30
0.0
 10
110.3222866298884
 20
-146.6670082966665
 30
0.0
 10
110.2664771868678
 20
-146.6670082966665
 30
0.0
 10
110.2217096880099
 20
-146.7118110744332
 30
0.0
 10
110.2217096880099
 20
-146.7669149633082
 30
0.0
 10
110.2217096880099
 20
-146.8220541299612
 30
0.0
 10
110.2664771868678
 20
-146.8668216299498
 30
0.0
 10
110.3222866298884
 20
-146.8668216299498
 30
0.0
 10
110.3774257951484
 20
-146.8668216299498
 30
0.0
 10
110.4221932940063
 20
-146.8220541299612
 30
0.0
 10
110.4221932940063
 20
-146.7669149633082
 30
0.0
  0
POLYLINE
  5
BF
330
1F
100
AcDbEntity
  8
_U+30EC_U+30A4_U+30E4_U+30FC 1
 62
     7
420
 16777215
370
     9
100
AcDb2dPolyline
 66
     1
 10
0.0
 20
0.0
 30
0.0
  0
VERTEX
  5
C0
330
BF
100
AcDbEntity
  8
_U+30EC_U+30A4_U+30E4_U+30FC 1
 62
     7
420
 16777215
370
     9
100
AcDbVertex
100
AcDb2dVertex
 10
90.32197436236113
 20
-146.7669149633082
 30
0.0
  0
VERTEX
  5
C1
330
BF
100
AcDbEntity
  8
_U+30EC_U+30A4_U+30E4_U+30FC 1
 62
     7
420
 16777215
370
     9
100
AcDbVertex
100
AcDb2dVertex
 10
110.3222866298884
 20
-146.7669149633082
 30
0.0
  0
SEQEND
  5
C2
330
BF
100
AcDbEntity
  8
_U+30EC_U+30A4_U+30E4_U+30FC 1
 62
     7
420
 16777215
370
     9
  0
POLYLINE
  5
C3
330
1F
100
AcDbEntity
  8
_U+30EC_U+30A4_U+30E4_U+30FC 1
 62
     7
420
 16777215
370
     9
100
AcDb2dPolyline
 66
     1
 10
0.0
 20
0.0
 30
0.0
  0
VERTEX
  5
C4
330
C3
100
AcDbEntity
  8
_U+30EC_U+30A4_U+30E4_U+30FC 1
 62
     7
420
 16777215
370
     9
100
AcDbVertex
100
AcDb2dVertex
 10
90.32197436236113
 20
-145.306908852562
 30
0.0
  0
VERTEX
  5
C5
330
C3
100
AcDbEntity
  8
_U+30EC_U+30A4_U+30E4_U+30FC 1
 62
     7
420
 16777215
370
     9
100
AcDbVertex
100
AcDb2dVertex
 10
90.32197436236113
 20
-147.7666871852807
 30
0.0
  0
SEQEND
  5
C6
330
C3
100
AcDbEntity
  8
_U+30EC_U+30A4_U+30E4_U+30FC 1
 62
     7
420
 16777215
370
     9
  0
SPLINE
  5
C7
330
1F
100
AcDbEntity
  8
_U+30EC_U+30A4_U+30E4_U+30FC 1
 62
     7
420
 16777215
370
     9
100
AcDbSpline
210
0.0
220
0.0
230
1.0
 70
    11
 71
     3
 72
    17
 73
    13
 74
     0
 42
0.0000000001
 43
0.0000000001
 12
1.0
 22
0.0
 32
0.0
 13
1.0
 23
0.0
 33
0.0
 40
0.0
 40
0.0
 40
0.0
 40
0.0
 40
1.0
 40
1.0
 40
1.0
 40
2.0
 40
2.0
 40
2.0
 40
3.0
 40
3.0
 40
3.0
 40
4.0
 40
4.0
 40
4.0
 40
4.0
 10
71.62182456166391
 20
-146.7669149633082
 30
0.0
 10
71.62182456166391
 20
-146.7118110744332
 30
0.0
 10
71.57702178502916
 20
-146.6670082966665
 30
0.0
 10
71.52191789754607
 20
-146.6670082966665
 30
0.0
 10
71.46678053768873
 20
-146.6670082966665
 30
0.0
 10
71.42201123342825
 20
-146.7118110744332
 30
0.0
 10
71.42201123342825
 20
-146.7669149633082
 30
0.0
 10
71.42201123342825
 20
-146.8220541299612
 30
0.0
 10
71.46678053768873
 20
-146.8668216299498
 30
0.0
 10
71.52191789754607
 20
-146.8668216299498
 30
0.0
 10
71.57702178502916
 20
-146.8668216299498
 30
0.0
 10
71.62182456166391
 20
-146.8220541299612
 30
0.0
 10
71.62182456166391
 20
-146.7669149633082
 30
0.0
  0
POLYLINE
  5
C8
330
1F
100
AcDbEntity
  8
_U+30EC_U+30A4_U+30E4_U+30FC 1
 62
     7
420
 16777215
370
     9
100
AcDb2dPolyline
 66
     1
 10
0.0
 20
0.0
 30
0.0
  0
VERTEX
  5
C9
330
C8
100
AcDbEntity
  8
_U+30EC_U+30A4_U+30E4_U+30FC 1
 62
     7
420
 16777215
370
     9
100
AcDbVertex
100
AcDb2dVertex
 10
71.52191789754607
 20
-146.7669149633082
 30
0.0
  0
VERTEX
  5
CA
330
C8
100
AcDbEntity
  8
_U+30EC_U+30A4_U+30E4_U+30FC 1
 62
     7
420
 16777215
370
     9
100
AcDbVertex
100
AcDb2dVertex
 10
90.32215075124552
 20
-146.7669149633082
 30
0.0
  0
SEQEND
  5
CB
330
C8
100
AcDbEntity
  8
_U+30EC_U+30A4_U+30E4_U+30FC 1
 62
     7
420
 16777215
370
     9
  0
POLYLINE
  5
CC
330
1F
100
AcDbEntity
  8
_U+30EC_U+30A4_U+30E4_U+30FC 1
 62
     7
420
 16777215
370
     9
100
AcDb2dPolyline
 66
     1
 10
0.0
 20
0.0
 30
0.0
  0
VERTEX
  5
CD
330
CC
100
AcDbEntity
  8
_U+30EC_U+30A4_U+30E4_U+30FC 1
 62
     7
420
 16777215
370
     9
100
AcDbVertex
100
AcDb2dVertex
 10
71.52191789754607
 20
-145.306908852562
 30
0.0
  0
VERTEX
  5
CE
330
CC
100
AcDbEntity
  8
_U+30EC_U+30A4_U+30E4_U+30FC 1
 62
     7
420
 16777215
370
     9
100
AcDbVertex
100
AcDb2dVertex
 10
71.52191789754607
 20
-147.7666871852807
 30
0.0
  0
SEQEND
  5
CF
330
CC
100
AcDbEntity
  8
_U+30EC_U+30A4_U+30E4_U+30FC 1
 62
     7
420
 16777215
370
     9
  0
POLYLINE
  5
D0
330
1F
100
AcDbEntity
  8
_U+30EC_U+30A4_U+30E4_U+30FC 1
 62
     7
420
 16777215
370
     9
100
AcDb2dPolyline
 66
     1
 10
0.0
 20
0.0
 30
0.0
  0
VERTEX
  5
D1
330
D0
100
AcDbEntity
  8
_U+30EC_U+30A4_U+30E4_U+30FC 1
 62
     7
420
 16777215
370
     9
100
AcDbVertex
100
AcDb2dVertex
 10
110.3222866298884
 20
-145.306908852562
 30
0.0
  0
VERTEX
  5
D2
330
D0
100
AcDbEntity
  8
_U+30EC_U+30A4_U+30E4_U+30FC 1
 62
     7
420
 16777215
370
     9
100
AcDbVertex
100
AcDb2dVertex
 10
110.3222866298884
 20
-147.7666871852807
 30
0.0
  0
SEQEND
  5
D3
330
D0
100
AcDbEntity
  8
_U+30EC_U+30A4_U+30E4_U+30FC 1
 62
     7
420
 16777215
370
     9
  0
INSERT
  5
D5
330
1F
100
AcDbEntity
  8
_U+30EC_U+30A4_U+30E4_U+30FC 1
100
AcDbBlockReference
  2
block 5
 10
0.0
 20
0.0
 30
0.0
  0
INSERT
  5
DE
330
1F
100
AcDbEntity
  8
_U+30EC_U+30A4_U+30E4_U+30FC 1
100
AcDbBlockReference
  2
block 6
 10
0.0
 20
0.0
 30
0.0
  0
SPLINE
  5
F3
330
1F
100
AcDbEntity
  8
_U+30EC_U+30A4_U+30E4_U+30FC 1
 62
     7
420
 16777215
370
     9
100
AcDbSpline
210
0.0
220
0.0
230
1.0
 70
    11
 71
     3
 72
    17
 73
    13
 74
     0
 42
0.0000000001
 43
0.0000000001
 12
1.0
 22
0.0
 32
0.0
 13
1.0
 23
0.0
 33
0.0
 40
0.0
 40
0.0
 40
0.0
 40
0.0
 40
1.0
 40
1.0
 40
1.0
 40
2.0
 40
2.0
 40
2.0
 40
3.0
 40
3.0
 40
3.0
 40
4.0
 40
4.0
 40
4.0
 40
4.0
 10
71.8214615010152
 20
-113.0752613606201
 30
0.0
 10
71.8214615010152
 20
-113.0201574717448
 30
0.0
 10
71.77665872438044
 20
-112.9753546939784
 30
0.0
 10
71.72155483689737
 20
-112.9753546939784
 30
0.0
 10
71.66641567163741
 20
-112.9753546939784
 30
0.0
 10
71.62164998209457
 20
-113.0201574717448
 30
0.0
 10
71.62164998209457
 20
-113.0752613606201
 30
0.0
 10
71.62164998209457
 20
-113.1304005272728
 30
0.0
 10
71.66641567163741
 20
-113.1751680272617
 30
0.0
 10
71.72155483689737
 20
-113.1751680272617
 30
0.0
 10
71.77665872438044
 20
-113.1751680272617
 30
0.0
 10
71.8214615010152
 20
-113.1304005272728
 30
0.0
 10
71.8214615010152
 20
-113.0752613606201
 30
0.0
  0
SPLINE
  5
F4
330
1F
100
AcDbEntity
  8
_U+30EC_U+30A4_U+30E4_U+30FC 1
 62
     7
420
 16777215
370
     9
100
AcDbSpline
210
0.0
220
0.0
230
1.0
 70
    11
 71
     3
 72
    17
 73
    13
 74
     0
 42
0.0000000001
 43
0.0000000001
 12
1.0
 22
0.0
 32
0.0
 13
1.0
 23
0.0
 33
0.0
 40
0.0
 40
0.0
 40
0.0
 40
0.0
 40
1.0
 40
1.0
 40
1.0
 40
2.0
 40
2.0
 40
2.0
 40
3.0
 40
3.0
 40
3.0
 40
4.0
 40
4.0
 40
4.0
 40
4.0
 10
91.8214562685506
 20
-113.0752613606201
 30
0.0
 10
91.8214562685506
 20
-113.0201574717448
 30
0.0
 10
91.77665349191584
 20
-112.9753546939784
 30
0.0
 10
91.72151664373615
 20
-112.9753546939784
 30
0.0
 10
91.66641043917282
 20
-112.9753546939784
 30
0.0
 10
91.62160766253805
 20
-113.0201574717448
 30
0.0
 10
91.62160766253805
 20
-113.0752613606201
 30
0.0
 10
91.62160766253805
 20
-113.1304005272728
 30
0.0
 10
91.66641043917282
 20
-113.1751680272617
 30
0.0
 10
91.72151664373615
 20
-113.1751680272617
 30
0.0
 10
91.77665349191584
 20
-113.1751680272617
 30
0.0
 10
91.8214562685506
 20
-113.1304005272728
 30
0.0
 10
91.8214562685506
 20
-113.0752613606201
 30
0.0
  0
POLYLINE
  5
F5
330
1F
100
AcDbEntity
  8
_U+30EC_U+30A4_U+30E4_U+30FC 1
 62
     7
420
 16777215
370
     9
100
AcDb2dPolyline
 66
     1
 10
0.0
 20
0.0
 30
0.0
  0
VERTEX
  5
F6
330
F5
100
AcDbEntity
  8
_U+30EC_U+30A4_U+30E4_U+30FC 1
 62
     7
420
 16777215
370
     9
100
AcDbVertex
100
AcDb2dVertex
 10
71.72155483689737
 20
-113.0752613606201
 30
0.0
  0
VERTEX
  5
F7
330
F5
100
AcDbEntity
  8
_U+30EC_U+30A4_U+30E4_U+30FC 1
 62
     7
420
 16777215
370
     9
100
AcDbVertex
100
AcDb2dVertex
 10
91.72151664373615
 20
-113.0752613606201
 30
0.0
  0
SEQEND
  5
F8
330
F5
100
AcDbEntity
  8
_U+30EC_U+30A4_U+30E4_U+30FC 1
 62
     7
420
 16777215
370
     9
  0
POLYLINE
  5
F9
330
1F
100
AcDbEntity
  8
_U+30EC_U+30A4_U+30E4_U+30FC 1
 62
     7
420
 16777215
370
     9
100
AcDb2dPolyline
 66
     1
 10
0.0
 20
0.0
 30
0.0
  0
VERTEX
  5
FA
330
F9
100
AcDbEntity
  8
_U+30EC_U+30A4_U+30E4_U+30FC 1
 62
     7
420
 16777215
370
     9
100
AcDbVertex
100
AcDb2dVertex
 10
71.72155483689737
 20
-111.6152199720964
 30
0.0
  0
VERTEX
  5
FB
330
F9
100
AcDbEntity
  8
_U+30EC_U+30A4_U+30E4_U+30FC 1
 62
     7
420
 16777215
370
     9
100
AcDbVertex
100
AcDb2dVertex
 10
71.72155483689737
 20
-114.0750335825923
 30
0.0
  0
SEQEND
  5
FC
330
F9
100
AcDbEntity
  8
_U+30EC_U+30A4_U+30E4_U+30FC 1
 62
     7
420
 16777215
370
     9
  0
POLYLINE
  5
FD
330
1F
100
AcDbEntity
  8
_U+30EC_U+30A4_U+30E4_U+30FC 1
 62
     7
420
 16777215
370
     9
100
AcDb2dPolyline
 66
     1
 10
0.0
 20
0.0
 30
0.0
  0
VERTEX
  5
FE
330
FD
100
AcDbEntity
  8
_U+30EC_U+30A4_U+30E4_U+30FC 1
 62
     7
420
 16777215
370
     9
100
AcDbVertex
100
AcDb2dVertex
 10
91.72151664373615
 20
-111.6152199720964
 30
0.0
  0
VERTEX
  5
FF
330
FD
100
AcDbEntity
  8
_U+30EC_U+30A4_U+30E4_U+30FC 1
 62
     7
420
 16777215
370
     9
100
AcDbVertex
100
AcDb2dVertex
 10
91.72151664373615
 20
-114.0750335825923
 30
0.0
  0
SEQEND
  5
100
330
FD
100
AcDbEntity
  8
_U+30EC_U+30A4_U+30E4_U+30FC 1
 62
     7
420
 16777215
370
     9
  0
INSERT
  5
102
330
1F
100
AcDbEntity
  8
_U+30EC_U+30A4_U+30E4_U+30FC 1
100
AcDbBlockReference
  2
block 7
 10
0.0
 20
0.0
 30
0.0
  0
ENDSEC
  0
SECTION
  2
OBJECTS
  0
DICTIONARY
  5
C
330
0
100
AcDbDictionary
281
     1
  3
ACAD_GROUP
350
D
  3
ACAD_LAYOUT
350
1A
  3
ACAD_MATERIAL
350
3B
  3
ACAD_MLEADERSTYLE
350
10B
  3
ACAD_MLINESTYLE
350
17
  3
ACAD_PLOTSETTINGS
350
19
  3
ACAD_PLOTSTYLENAME
350
E
  3
ACAD_TABLESTYLE
350
10A
  3
ACAD_VISUALSTYLE
350
2A
  0
SUN
  5
3F
330
29
100
AcDbSun
 90
        1
290
     0
 63
     7
421
 16777215
 40
1.0
291
     1
 91
  2455826
 92
 54000000
292
     0
 70
     2
 71
   256
280
     1
  0
DICTIONARY
  5
D
102
{ACAD_REACTORS
330
C
102
}
330
C
100
AcDbDictionary
281
     1
  0
DICTIONARY
  5
1A
102
{ACAD_REACTORS
330
C
102
}
330
C
100
AcDbDictionary
281
     1
  3
Layout1
350
1E
  3
Layout2
350
26
  3
Model
350
22
  0
DICTIONARY
  5
3B
102
{ACAD_REACTORS
330
C
102
}
330
C
100
AcDbDictionary
281
     1
  3
ByBlock
350
3D
  3
ByLayer
350
3C
  3
Global
350
3E
  0
DICTIONARY
  5
10B
102
{ACAD_REACTORS
330
C
102
}
330
C
100
AcDbDictionary
281
     1
  0
DICTIONARY
  5
17
102
{ACAD_REACTORS
330
C
102
}
330
C
100
AcDbDictionary
281
     1
  3
Standard
350
18
  0
DICTIONARY
  5
19
102
{ACAD_REACTORS
330
C
102
}
330
C
100
AcDbDictionary
281
     1
  0
ACDBDICTIONARYWDFLT
  5
E
102
{ACAD_REACTORS
330
C
102
}
330
C
100
AcDbDictionary
281
     1
  3
Normal
350
F
100
AcDbDictionaryWithDefault
340
F
  0
DICTIONARY
  5
10A
102
{ACAD_REACTORS
330
C
102
}
330
C
100
AcDbDictionary
281
     1
  0
DICTIONARY
  5
2A
102
{ACAD_REACTORS
330
C
102
}
330
C
100
AcDbDictionary
281
     1
  3
2dWireframe
350
2F
  3
3D Hidden
350
31
  3
3dWireframe
350
30
  3
Basic
350
32
  3
Brighten
350
36
  3
ColorChange
350
3A
  3
Conceptual
350
34
  3
Dim
350
35
  3
Facepattern
350
39
  3
Flat
350
2B
  3
FlatWithEdges
350
2C
  3
Gouraud
350
2D
  3
GouraudWithEdges
350
2E
  3
Linepattern
350
38
  3
Realistic
350
33
  3
Thicken
350
37
  0
LAYOUT
  5
1E
102
{ACAD_REACTORS
330
1A
102
}
330
1A
100
AcDbPlotSettings
  1

  2
none_device
  4

  6

 40
0.0
 41
0.0
 42
0.0
 43
0.0
 44
0.0
 45
0.0
 46
0.0
 47
0.0
 48
0.0
 49
0.0
140
0.0
141
0.0
142
1.0
143
1.0
 70
   688
 72
     0
 73
     0
 74
     5
  7

 75
    16
 76
     0
 77
     2
 78
   300
147
1.0
148
0.0
149
0.0
100
AcDbLayout
  1
Layout1
 70
     1
 71
     1
 10
0.0
 20
0.0
 11
12.0
 21
9.0
 12
0.0
 22
0.0
 32
0.0
 14
1.000000000000000E+20
 24
1.000000000000000E+20
 34
1.000000000000000E+20
 15
-1.000000000000000E+20
 25
-1.000000000000000E+20
 35
-1.000000000000000E+20
146
0.0
 13
0.0
 23
0.0
 33
0.0
 16
1.0
 26
0.0
 36
0.0
 17
0.0
 27
1.0
 37
0.0
 76
     0
330
1B
  0
LAYOUT
  5
26
102
{ACAD_REACTORS
330
1A
102
}
330
1A
100
AcDbPlotSettings
  1

  2
none_device
  4

  6

 40
0.0
 41
0.0
 42
0.0
 43
0.0
 44
0.0
 45
0.0
 46
0.0
 47
0.0
 48
0.0
 49
0.0
140
0.0
141
0.0
142
1.0
143
1.0
 70
   688
 72
     0
 73
     0
 74
     5
  7

 75
    16
 76
     0
 77
     2
 78
   300
147
1.0
148
0.0
149
0.0
100
AcDbLayout
  1
Layout2
 70
     1
 71
     2
 10
0.0
 20
0.0
 11
0.0
 21
0.0
 12
0.0
 22
0.0
 32
0.0
 14
0.0
 24
0.0
 34
0.0
 15
0.0
 25
0.0
 35
0.0
146
0.0
 13
0.0
 23
0.0
 33
0.0
 16
1.0
 26
0.0
 36
0.0
 17
0.0
 27
1.0
 37
0.0
 76
     0
330
23
  0
LAYOUT
  5
22
102
{ACAD_REACTORS
330
1A
102
}
330
1A
100
AcDbPlotSettings
  1

  2
none_device
  4

  6

 40
0.0
 41
0.0
 42
0.0
 43
0.0
 44
0.0
 45
0.0
 46
0.0
 47
0.0
 48
0.0
 49
0.0
140
0.0
141
0.0
142
1.0
143
1.0
 70
  1712
 72
     0
 73
     0
 74
     0
  7

 75
     0
 76
     0
 77
     2
 78
   300
147
1.0
148
0.0
149
0.0
100
AcDbLayout
  1
Model
 70
     1
 71
     0
 10
0.0
 20
0.0
 11
12.0
 21
9.0
 12
0.0
 22
0.0
 32
0.0
 14
1.000000000000000E+20
 24
1.000000000000000E+20
 34
1.000000000000000E+20
 15
-1.000000000000000E+20
 25
-1.000000000000000E+20
 35
-1.000000000000000E+20
146
0.0
 13
0.0
 23
0.0
 33
0.0
 16
1.0
 26
0.0
 36
0.0
 17
0.0
 27
1.0
 37
0.0
 76
     0
330
1F
331
29
  0
MATERIAL
  5
3D
102
{ACAD_REACTORS
330
3B
102
}
330
3B
100
AcDbMaterial
  1
ByBlock
 72
     1
 94
      127
  0
MATERIAL
  5
3C
102
{ACAD_REACTORS
330
3B
102
}
330
3B
100
AcDbMaterial
  1
ByLayer
 72
     1
 94
      127
  0
MATERIAL
  5
3E
102
{ACAD_REACTORS
330
3B
102
}
330
3B
100
AcDbMaterial
  1
Global
 72
     1
 94
      127
  0
MLINESTYLE
  5
18
102
{ACAD_REACTORS
330
17
102
}
330
17
100
AcDbMlineStyle
  2
Standard
 70
     0
  3

 62
   256
 51
90.0
 52
90.0
 71
     2
 49
0.5
 62
   256
  6
BYLAYER
 49
-0.5
 62
   256
  6
BYLAYER
  0
ACDBPLACEHOLDER
  5
F
102
{ACAD_REACTORS
330
E
102
}
330
E
  0
VISUALSTYLE
  5
2F
102
{ACAD_REACTORS
330
2A
102
}
330
2A
100
AcDbVisualStyle
  2
2dWireframe
 70
     4
177
     2
291
     0
 71
     0
176
     1
 72
     2
176
     1
 73
     0
176
     1
 90
        0
176
     1
 40
-0.6
176
     1
 41
-30.0
176
     1
 62
     5
 63
     7
421
 16777215
176
     1
 74
     1
176
     1
 91
        4
176
     1
 64
     7
176
     1
 65
   257
176
     1
 75
     1
176
     1
175
     1
176
     1
 42
1.0
176
     1
 92
        0
176
     1
 66
   257
176
     1
 43
1.0
176
     1
 76
     1
176
     1
 77
     6
176
     1
 78
     2
176
     1
 67
     7
176
     1
 79
     5
176
     1
170
     0
176
     1
171
     0
176
     1
290
     0
176
     1
 93
        1
176
     1
 44
0.0
176
     1
173
     0
176
     1
  0
VISUALSTYLE
  5
31
102
{ACAD_REACTORS
330
2A
102
}
330
2A
100
AcDbVisualStyle
  2
3D Hidden
 70
     6
177
     2
291
     0
 71
     1
176
     1
 72
     2
176
     1
 73
     2
176
     1
 90
        0
176
     1
 40
-0.6
176
     1
 41
-30.0
176
     1
 62
     5
 63
     7
421
 16777215
176
     1
 74
     2
176
     1
 91
        2
176
     1
 64
     7
176
     1
 65
   257
176
     1
 75
     2
176
     1
175
     1
176
     1
 42
40.0
176
     1
 92
        0
176
     1
 66
   257
176
     1
 43
1.0
176
     1
 76
     1
176
     1
 77
     6
176
     1
 78
     2
176
     1
 67
     7
176
     1
 79
     3
176
     1
170
     0
176
     1
171
     0
176
     1
290
     0
176
     1
 93
        1
176
     1
 44
0.0
176
     1
173
     0
176
     1
  0
VISUALSTYLE
  5
30
102
{ACAD_REACTORS
330
2A
102
}
330
2A
100
AcDbVisualStyle
  2
3dWireframe
 70
     5
177
     2
291
     0
 71
     0
176
     1
 72
     2
176
     1
 73
     0
176
     1
 90
        0
176
     1
 40
-0.6
176
     1
 41
-30.0
176
     1
 62
     5
 63
     7
421
 16777215
176
     1
 74
     1
176
     1
 91
        4
176
     1
 64
     7
176
     1
 65
   257
176
     1
 75
     1
176
     1
175
     1
176
     1
 42
1.0
176
     1
 92
        0
176
     1
 66
   257
176
     1
 43
1.0
176
     1
 76
     1
176
     1
 77
     6
176
     1
 78
     2
176
     1
 67
     7
176
     1
 79
     5
176
     1
170
     0
176
     1
171
     0
176
     1
290
     0
176
     1
 93
        1
176
     1
 44
0.0
176
     1
173
     0
176
     1
  0
VISUALSTYLE
  5
32
102
{ACAD_REACTORS
330
2A
102
}
330
2A
100
AcDbVisualStyle
  2
Basic
 70
     7
177
     2
291
     1
 71
     1
176
     1
 72
     0
176
     1
 73
     1
176
     1
 90
        0
176
     1
 40
-0.6
176
     1
 41
-30.0
176
     1
 62
     5
 63
     7
421
 16777215
176
     1
 74
     0
176
     1
 91
        4
176
     1
 64
     7
176
     1
 65
   257
176
     1
 75
     1
176
     1
175
     1
176
     1
 42
1.0
176
     1
 92
        8
176
     1
 66
     7
176
     1
 43
1.0
176
     1
 76
     1
176
     1
 77
     6
176
     1
 78
     2
176
     1
 67
     7
176
     1
 79
     5
176
     1
170
     0
176
     1
171
     0
176
     1
290
     0
176
     1
 93
        1
176
     1
 44
0.0
176
     1
173
     0
176
     1
  0
VISUALSTYLE
  5
36
102
{ACAD_REACTORS
330
2A
102
}
330
2A
100
AcDbVisualStyle
  2
Brighten
 70
    12
177
     2
291
     1
 71
     2
176
     1
 72
     2
176
     1
 73
     0
176
     1
 90
        0
176
     1
 40
-0.6
176
     1
 41
-30.0
176
     1
 62
     5
 63
     7
421
 16777215
176
     1
 74
     1
176
     1
 91
        4
176
     1
 64
     7
176
     1
 65
   257
176
     1
 75
     1
176
     1
175
     1
176
     1
 42
1.0
176
     1
 92
        8
176
     1
 66
     7
176
     1
 43
1.0
176
     1
 76
     1
176
     1
 77
     6
176
     1
 78
     2
176
     1
 67
     7
176
     1
 79
     5
176
     1
170
     0
176
     1
171
     0
176
     1
290
     0
176
     1
 93
        1
176
     1
 44
50.0
176
     1
173
     0
176
     1
  0
VISUALSTYLE
  5
3A
102
{ACAD_REACTORS
330
2A
102
}
330
2A
100
AcDbVisualStyle
  2
ColorChange
 70
    16
177
     2
291
     1
 71
     2
176
     1
 72
     2
176
     1
 73
     3
176
     1
 90
        0
176
     1
 40
-0.6
176
     1
 41
-30.0
176
     1
 62
     5
 63
     8
421
  8421504
176
     1
 74
     1
176
     1
 91
        4
176
     1
 64
     7
176
     1
 65
   257
176
     1
 75
     1
176
     1
175
     1
176
     1
 42
1.0
176
     1
 92
        8
176
     1
 66
     8
424
  8421504
176
     1
 43
1.0
176
     1
 76
     1
176
     1
 77
     6
176
     1
 78
     2
176
     1
 67
     7
176
     1
 79
     5
176
     1
170
     0
176
     1
171
     0
176
     1
290
     0
176
     1
 93
        1
176
     1
 44
0.0
176
     1
173
     0
176
     1
  0
VISUALSTYLE
  5
34
102
{ACAD_REACTORS
330
2A
102
}
330
2A
100
AcDbVisualStyle
  2
Conceptual
 70
     9
177
     2
291
     0
 71
     3
176
     1
 72
     2
176
     1
 73
     0
176
     1
 90
        0
176
     1
 40
-0.6
176
     1
 41
-30.0
176
     1
 62
     5
 63
     7
421
 16777215
176
     1
 74
     2
176
     1
 91
        2
176
     1
 64
     7
176
     1
 65
   257
176
     1
 75
     1
176
     1
175
     1
176
     1
 42
40.0
176
     1
 92
        8
176
     1
 66
     7
176
     1
 43
1.0
176
     1
 76
     1
176
     1
 77
     6
176
     1
 78
     2
176
     1
 67
     7
176
     1
 79
     3
176
     1
170
     0
176
     1
171
     0
176
     1
290
     0
176
     1
 93
        1
176
     1
 44
0.0
176
     1
173
     0
176
     1
  0
VISUALSTYLE
  5
35
102
{ACAD_REACTORS
330
2A
102
}
330
2A
100
AcDbVisualStyle
  2
Dim
 70
    11
177
     2
291
     1
 71
     2
176
     1
 72
     2
176
     1
 73
     0
176
     1
 90
        0
176
     1
 40
-0.6
176
     1
 41
-30.0
176
     1
 62
     5
 63
     7
421
 16777215
176
     1
 74
     1
176
     1
 91
        4
176
     1
 64
     7
176
     1
 65
   257
176
     1
 75
     1
176
     1
175
     1
176
     1
 42
1.0
176
     1
 92
        8
176
     1
 66
     7
176
     1
 43
1.0
176
     1
 76
     1
176
     1
 77
     6
176
     1
 78
     2
176
     1
 67
     7
176
     1
 79
     5
176
     1
170
     0
176
     1
171
     0
176
     1
290
     0
176
     1
 93
        1
176
     1
 44
-50.0
176
     1
173
     0
176
     1
  0
VISUALSTYLE
  5
39
102
{ACAD_REACTORS
330
2A
102
}
330
2A
100
AcDbVisualStyle
  2
Facepattern
 70
    15
177
     2
291
     1
 71
     2
176
     1
 72
     2
176
     1
 73
     0
176
     1
 90
        0
176
     1
 40
-0.6
176
     1
 41
-30.0
176
     1
 62
     5
 63
     7
421
 16777215
176
     1
 74
     1
176
     1
 91
        4
176
     1
 64
     7
176
     1
 65
   257
176
     1
 75
     1
176
     1
175
     1
176
     1
 42
1.0
176
     1
 92
        8
176
     1
 66
     7
176
     1
 43
1.0
176
     1
 76
     1
176
     1
 77
     6
176
     1
 78
     2
176
     1
 67
     7
176
     1
 79
     5
176
     1
170
     0
176
     1
171
     0
176
     1
290
     0
176
     1
 93
        1
176
     1
 44
0.0
176
     1
173
     0
176
     1
  0
VISUALSTYLE
  5
2B
102
{ACAD_REACTORS
330
2A
102
}
330
2A
100
AcDbVisualStyle
  2
Flat
 70
     0
177
     2
291
     1
 71
     2
176
     1
 72
     1
176
     1
 73
     1
176
     1
 90
        2
176
     1
 40
-0.6
176
     1
 41
30.0
176
     1
 62
     5
 63
     7
421
 16777215
176
     1
 74
     0
176
     1
 91
        4
176
     1
 64
     7
176
     1
 65
   257
176
     1
 75
     1
176
     1
175
     1
176
     1
 42
1.0
176
     1
 92
        8
176
     1
 66
     7
176
     1
 43
1.0
176
     1
 76
     1
176
     1
 77
     6
176
     1
 78
     2
176
     1
 67
     7
176
     1
 79
     5
176
     1
170
     0
176
     1
171
     0
176
     1
290
     0
176
     1
 93
       13
176
     1
 44
0.0
176
     1
173
     0
176
     1
  0
VISUALSTYLE
  5
2C
102
{ACAD_REACTORS
330
2A
102
}
330
2A
100
AcDbVisualStyle
  2
FlatWithEdges
 70
     1
177
     2
291
     1
 71
     2
176
     1
 72
     1
176
     1
 73
     1
176
     1
 90
        2
176
     1
 40
-0.6
176
     1
 41
30.0
176
     1
 62
     5
 63
     7
421
 16777215
176
     1
 74
     1
176
     1
 91
        4
176
     1
 64
     7
176
     1
 65
   257
176
     1
 75
     1
176
     1
175
     1
176
     1
 42
1.0
176
     1
 92
        0
176
     1
 66
   257
176
     1
 43
1.0
176
     1
 76
     1
176
     1
 77
     6
176
     1
 78
     2
176
     1
 67
     7
176
     1
 79
     5
176
     1
170
     0
176
     1
171
     0
176
     1
290
     0
176
     1
 93
       13
176
     1
 44
0.0
176
     1
173
     0
176
     1
  0
VISUALSTYLE
  5
2D
102
{ACAD_REACTORS
330
2A
102
}
330
2A
100
AcDbVisualStyle
  2
Gouraud
 70
     2
177
     2
291
     1
 71
     2
176
     1
 72
     2
176
     1
 73
     1
176
     1
 90
        2
176
     1
 40
-0.6
176
     1
 41
30.0
176
     1
 62
     5
 63
     7
421
 16777215
176
     1
 74
     0
176
     1
 91
        4
176
     1
 64
     7
176
     1
 65
   257
176
     1
 75
     1
176
     1
175
     1
176
     1
 42
1.0
176
     1
 92
        0
176
     1
 66
     7
176
     1
 43
1.0
176
     1
 76
     1
176
     1
 77
     6
176
     1
 78
     2
176
     1
 67
     7
176
     1
 79
     5
176
     1
170
     0
176
     1
171
     0
176
     1
290
     0
176
     1
 93
       13
176
     1
 44
0.0
176
     1
173
     0
176
     1
  0
VISUALSTYLE
  5
2E
102
{ACAD_REACTORS
330
2A
102
}
330
2A
100
AcDbVisualStyle
  2
GouraudWithEdges
 70
     3
177
     2
291
     1
 71
     2
176
     1
 72
     2
176
     1
 73
     1
176
     1
 90
        2
176
     1
 40
-0.6
176
     1
 41
30.0
176
     1
 62
     5
 63
     7
421
 16777215
176
     1
 74
     1
176
     1
 91
        4
176
     1
 64
     7
176
     1
 65
   257
176
     1
 75
     1
176
     1
175
     1
176
     1
 42
1.0
176
     1
 92
        0
176
     1
 66
   257
176
     1
 43
1.0
176
     1
 76
     1
176
     1
 77
     6
176
     1
 78
     2
176
     1
 67
     7
176
     1
 79
     5
176
     1
170
     0
176
     1
171
     0
176
     1
290
     0
176
     1
 93
       13
176
     1
 44
0.0
176
     1
173
     0
176
     1
  0
VISUALSTYLE
  5
38
102
{ACAD_REACTORS
330
2A
102
}
330
2A
100
AcDbVisualStyle
  2
Linepattern
 70
    14
177
     2
291
     1
 71
     2
176
     1
 72
     2
176
     1
 73
     0
176
     1
 90
        0
176
     1
 40
-0.6
176
     1
 41
-30.0
176
     1
 62
     5
 63
     7
421
 16777215
176
     1
 74
     1
176
     1
 91
        4
176
     1
 64
     7
176
     1
 65
   257
176
     1
 75
     7
176
     1
175
     7
176
     1
 42
1.0
176
     1
 92
        8
176
     1
 66
     7
176
     1
 43
1.0
176
     1
 76
     1
176
     1
 77
     6
176
     1
 78
     2
176
     1
 67
     7
176
     1
 79
     5
176
     1
170
     0
176
     1
171
     0
176
     1
290
     0
176
     1
 93
        1
176
     1
 44
0.0
176
     1
173
     0
176
     1
  0
VISUALSTYLE
  5
33
102
{ACAD_REACTORS
330
2A
102
}
330
2A
100
AcDbVisualStyle
  2
Realistic
 70
     8
177
     2
291
     0
 71
     2
176
     1
 72
     2
176
     1
 73
     0
176
     1
 90
        0
176
     1
 40
-0.6
176
     1
 41
-30.0
176
     1
 62
     5
 63
     7
421
 16777215
176
     1
 74
     1
176
     1
 91
        0
176
     1
 64
     7
176
     1
 65
   257
176
     1
 75
     1
176
     1
175
     1
176
     1
 42
1.0
176
     1
 92
        8
176
     1
 66
     8
424
  7895160
176
     1
 43
1.0
176
     1
 76
     1
176
     1
 77
     6
176
     1
 78
     2
176
     1
 67
     7
176
     1
 79
     5
176
     1
170
     0
176
     1
171
     0
176
     1
290
     0
176
     1
 93
       13
176
     1
 44
0.0
176
     1
173
     0
176
     1
  0
VISUALSTYLE
  5
37
102
{ACAD_REACTORS
330
2A
102
}
330
2A
100
AcDbVisualStyle
  2
Thicken
 70
    13
177
     2
291
     1
 71
     2
176
     1
 72
     2
176
     1
 73
     0
176
     1
 90
        0
176
     1
 40
-0.6
176
     1
 41
-30.0
176
     1
 62
     5
 63
     7
421
 16777215
176
     1
 74
     1
176
     1
 91
        4
176
     1
 64
     7
176
     1
 65
   257
176
     1
 75
     1
176
     1
175
     1
176
     1
 42
1.0
176
     1
 92
       12
176
     1
 66
     7
176
     1
 43
1.0
176
     1
 76
     1
176
     1
 77
     6
176
     1
 78
     2
176
     1
 67
     7
176
     1
 79
     5
176
     1
170
     0
176
     1
171
     0
176
     1
290
     0
176
     1
 93
        1
176
     1
 44
0.0
176
     1
173
     0
176
     1
  0
ENDSEC
  0
EOF
