  0
SECTION
  2
HEADER
  9
$ACADVER
  1
AC1024
  9
$ACADMAINTVER
 70
     6
  9
$DWGCODEPAGE
  3
UNDEFINED
  9
$INSBASE
 10
0.0
 20
0.0
 30
0.0
  9
$EXTMIN
 10
1.000000000000000E+20
 20
1.000000000000000E+20
 30
1.000000000000000E+20
  9
$EXTMAX
 10
-1.000000000000000E+20
 20
-1.000000000000000E+20
 30
-1.000000000000000E+20
  9
$LIMMIN
 10
0.0
 20
0.0
  9
$LIMMAX
 10
12.0
 20
9.0
  9
$ORTHOMODE
 70
     0
  9
$REGENMODE
 70
     1
  9
$FILLMODE
 70
     1
  9
$QTEXTMODE
 70
     0
  9
$MIRRTEXT
 70
     1
  9
$LTSCALE
 40
1.0
  9
$ATTMODE
 70
     1
  9
$TEXTSIZE
 40
0.2
  9
$TRACEWID
 40
0.05
  9
$TEXTSTYLE
  7
Standard
  9
$CLAYER
  8
0
  9
$CELTYPE
  6
ByLayer
  9
$CECOLOR
 62
   256
  9
$CELTSCALE
 40
1.0
  9
$DISPSILH
 70
     0
  9
$DIMSCALE
 40
1.0
  9
$DIMASZ
 40
0.18
  9
$DIMEXO
 40
0.0625
  9
$DIMDLI
 40
0.38
  9
$DIMRND
 40
0.0
  9
$DIMDLE
 40
0.0
  9
$DIMEXE
 40
0.18
  9
$DIMTP
 40
0.0
  9
$DIMTM
 40
0.0
  9
$DIMTXT
 40
0.18
  9
$DIMCEN
 40
0.09
  9
$DIMTSZ
 40
0.0
  9
$DIMTOL
 70
     0
  9
$DIMLIM
 70
     0
  9
$DIMTIH
 70
     1
  9
$DIMTOH
 70
     1
  9
$DIMSE1
 70
     0
  9
$DIMSE2
 70
     0
  9
$DIMTAD
 70
     0
  9
$DIMZIN
 70
     0
  9
$DIMBLK
  1

  9
$DIMASO
 70
     1
  9
$DIMSHO
 70
     1
  9
$DIMPOST
  1

  9
$DIMAPOST
  1

  9
$DIMALT
 70
     0
  9
$DIMALTD
 70
     2
  9
$DIMALTF
 40
25.4
  9
$DIMLFAC
 40
1.0
  9
$DIMTOFL
 70
     0
  9
$DIMTVP
 40
0.0
  9
$DIMTIX
 70
     0
  9
$DIMSOXD
 70
     0
  9
$DIMSAH
 70
     0
  9
$DIMBLK1
  1

  9
$DIMBLK2
  1

  9
$DIMSTYLE
  2
Standard
  9
$DIMCLRD
 70
     0
  9
$DIMCLRE
 70
     0
  9
$DIMCLRT
 70
     0
  9
$DIMTFAC
 40
1.0
  9
$DIMGAP
 40
0.09
  9
$DIMJUST
 70
     0
  9
$DIMSD1
 70
     0
  9
$DIMSD2
 70
     0
  9
$DIMTOLJ
 70
     1
  9
$DIMTZIN
 70
     0
  9
$DIMALTZ
 70
     0
  9
$DIMALTTZ
 70
     0
  9
$DIMUPT
 70
     0
  9
$DIMDEC
 70
     4
  9
$DIMTDEC
 70
     4
  9
$DIMALTU
 70
     2
  9
$DIMALTTD
 70
     2
  9
$DIMTXSTY
  7
Standard
  9
$DIMAUNIT
 70
     0
  9
$DIMADEC
 70
     0
  9
$DIMALTRND
 40
0.0
  9
$DIMAZIN
 70
     0
  9
$DIMDSEP
 70
    46
  9
$DIMATFIT
 70
     3
  9
$DIMFRAC
 70
     0
  9
$DIMLDRBLK
  1

  9
$DIMLUNIT
 70
     2
  9
$DIMLWD
 70
    -2
  9
$DIMLWE
 70
    -2
  9
$DIMTMOVE
 70
     0
  9
$DIMFXL
 40
1.0
  9
$DIMFXLON
 70
     0
  9
$DIMJOGANG
 40
0.7853981633974483
  9
$DIMTFILL
 70
     0
  9
$DIMTFILLCLR
 70
     0
  9
$DIMARCSYM
 70
     0
  9
$DIMLTYPE
  6

  9
$DIMLTEX1
  6

  9
$DIMLTEX2
  6

  9
$DIMTXTDIRECTION
 70
     0
  9
$LUNITS
 70
     2
  9
$LUPREC
 70
     4
  9
$SKETCHINC
 40
0.1
  9
$FILLETRAD
 40
0.5
  9
$AUNITS
 70
     0
  9
$AUPREC
 70
     0
  9
$MENU
  1
.
  9
$ELEVATION
 40
0.0
  9
$PELEVATION
 40
0.0
  9
$THICKNESS
 40
0.0
  9
$LIMCHECK
 70
     0
  9
$CHAMFERA
 40
0.5
  9
$CHAMFERB
 40
0.5
  9
$CHAMFERC
 40
1.0
  9
$CHAMFERD
 40
0.0
  9
$SKPOLY
 70
     0
  9
$TDCREATE
 40
2457917.624155081
  9
$TDUCREATE
 40
2457917.249155093
  9
$TDUPDATE
 40
2457917.624155081
  9
$TDUUPDATE
 40
2457917.249155093
  9
$TDINDWG
 40
0.0000000116
  9
$TDUSRTIMER
 40
0.0000000116
  9
$USRTIMER
 70
     1
  9
$ANGBASE
 50
0.0
  9
$ANGDIR
 70
     0
  9
$PDMODE
 70
     0
  9
$PDSIZE
 40
0.0
  9
$PLINEWID
 40
0.0
  9
$SPLFRAME
 70
     0
  9
$SPLINETYPE
 70
     6
  9
$SPLINESEGS
 70
     8
  9
$HANDSEED
  5
B7
  9
$SURFTAB1
 70
     6
  9
$SURFTAB2
 70
     6
  9
$SURFTYPE
 70
     6
  9
$SURFU
 70
     6
  9
$SURFV
 70
     6
  9
$UCSBASE
  2

  9
$UCSNAME
  2

  9
$UCSORG
 10
0.0
 20
0.0
 30
0.0
  9
$UCSXDIR
 10
1.0
 20
0.0
 30
0.0
  9
$UCSYDIR
 10
0.0
 20
1.0
 30
0.0
  9
$UCSORTHOREF
  2

  9
$UCSORTHOVIEW
 70
     0
  9
$UCSORGTOP
 10
0.0
 20
0.0
 30
0.0
  9
$UCSORGBOTTOM
 10
0.0
 20
0.0
 30
0.0
  9
$UCSORGLEFT
 10
0.0
 20
0.0
 30
0.0
  9
$UCSORGRIGHT
 10
0.0
 20
0.0
 30
0.0
  9
$UCSORGFRONT
 10
0.0
 20
0.0
 30
0.0
  9
$UCSORGBACK
 10
0.0
 20
0.0
 30
0.0
  9
$PUCSBASE
  2

  9
$PUCSNAME
  2

  9
$PUCSORG
 10
0.0
 20
0.0
 30
0.0
  9
$PUCSXDIR
 10
1.0
 20
0.0
 30
0.0
  9
$PUCSYDIR
 10
0.0
 20
1.0
 30
0.0
  9
$PUCSORTHOREF
  2

  9
$PUCSORTHOVIEW
 70
     0
  9
$PUCSORGTOP
 10
0.0
 20
0.0
 30
0.0
  9
$PUCSORGBOTTOM
 10
0.0
 20
0.0
 30
0.0
  9
$PUCSORGLEFT
 10
0.0
 20
0.0
 30
0.0
  9
$PUCSORGRIGHT
 10
0.0
 20
0.0
 30
0.0
  9
$PUCSORGFRONT
 10
0.0
 20
0.0
 30
0.0
  9
$PUCSORGBACK
 10
0.0
 20
0.0
 30
0.0
  9
$USERI1
 70
     0
  9
$USERI2
 70
     0
  9
$USERI3
 70
     0
  9
$USERI4
 70
     0
  9
$USERI5
 70
     0
  9
$USERR1
 40
0.0
  9
$USERR2
 40
0.0
  9
$USERR3
 40
0.0
  9
$USERR4
 40
0.0
  9
$USERR5
 40
0.0
  9
$WORLDVIEW
 70
     1
  9
$SHADEDGE
 70
     3
  9
$SHADEDIF
 70
    70
  9
$TILEMODE
 70
     1
  9
$MAXACTVP
 70
    64
  9
$PINSBASE
 10
0.0
 20
0.0
 30
0.0
  9
$PLIMCHECK
 70
     0
  9
$PEXTMIN
 10
1.000000000000000E+20
 20
1.000000000000000E+20
 30
1.000000000000000E+20
  9
$PEXTMAX
 10
-1.000000000000000E+20
 20
-1.000000000000000E+20
 30
-1.000000000000000E+20
  9
$PLIMMIN
 10
0.0
 20
0.0
  9
$PLIMMAX
 10
12.0
 20
9.0
  9
$UNITMODE
 70
     0
  9
$VISRETAIN
 70
     1
  9
$PLINEGEN
 70
     0
  9
$PSLTSCALE
 70
     1
  9
$TREEDEPTH
 70
  3020
  9
$CMLSTYLE
  2
Standard
  9
$CMLJUST
 70
     0
  9
$CMLSCALE
 40
1.0
  9
$PROXYGRAPHICS
 70
     1
  9
$MEASUREMENT
 70
     0
  9
$CELWEIGHT
370
    -1
  9
$ENDCAPS
280
     0
  9
$JOINSTYLE
280
     0
  9
$LWDISPLAY
290
     1
  9
$INSUNITS
 70
     1
  9
$HYPERLINKBASE
  1

  9
$STYLESHEET
  1

  9
$XEDIT
290
     1
  9
$CEPSNTYPE
380
     0
  9
$PSTYLEMODE
290
     1
  9
$FINGERPRINTGUID
  2
{7AE11E03-FB17-F7F8-62B7-105D20B0756B}
  9
$VERSIONGUID
  2
{FAEB1C32-E019-11D5-929B-00C0DF256EC4}
  9
$EXTNAMES
290
     1
  9
$PSVPSCALE
 40
0.0
  9
$OLESTARTUP
290
     0
  9
$SORTENTS
280
   127
  9
$INDEXCTL
280
     0
  9
$HIDETEXT
280
     1
  9
$XCLIPFRAME
280
     2
  9
$HALOGAP
280
     0
  9
$OBSCOLOR
 70
   257
  9
$OBSLTYPE
280
     0
  9
$INTERSECTIONDISPLAY
280
     0
  9
$INTERSECTIONCOLOR
 70
   257
  9
$DIMASSOC
280
     2
  9
$PROJECTNAME
  1

  9
$CAMERADISPLAY
290
     0
  9
$LENSLENGTH
 40
50.0
  9
$CAMERAHEIGHT
 40
0.0
  9
$STEPSPERSEC
 40
2.0
  9
$STEPSIZE
 40
6.0
  9
$3DDWFPREC
 40
2.0
  9
$PSOLWIDTH
 40
0.25
  9
$PSOLHEIGHT
 40
4.0
  9
$LOFTANG1
 40
1.570796326794897
  9
$LOFTANG2
 40
1.570796326794897
  9
$LOFTMAG1
 40
0.0
  9
$LOFTMAG2
 40
0.0
  9
$LOFTPARAM
 70
     7
  9
$LOFTNORMALS
280
     1
  9
$LATITUDE
 40
37.795
  9
$LONGITUDE
 40
-122.394
  9
$NORTHDIRECTION
 40
0.0
  9
$TIMEZONE
 70
 -8000
  9
$LIGHTGLYPHDISPLAY
280
     1
  9
$TILEMODELIGHTSYNCH
280
     1
  9
$CMATERIAL
347
3C
  9
$SOLIDHIST
280
     1
  9
$SHOWHIST
280
     1
  9
$DWFFRAME
280
     2
  9
$DGNFRAME
280
     2
  9
$REALWORLDSCALE
290
     1
  9
$INTERFERECOLOR
 62
   256
  9
$CSHADOW
280
     0
  9
$SHADOWPLANELOCATION
 40
0.0
  0
ENDSEC
  0
SECTION
  2
CLASSES
  0
CLASS
  1
ACDBDICTIONARYWDFLT
  2
AcDbDictionaryWithDefault
  3
ObjectDBX Classes
 90
        0
 91
        4
280
     0
281
     0
  0
CLASS
  1
VISUALSTYLE
  2
AcDbVisualStyle
  3
ObjectDBX Classes
 90
     4095
 91
        4
280
     0
281
     0
  0
CLASS
  1
MATERIAL
  2
AcDbMaterial
  3
ObjectDBX Classes
 90
     1153
 91
        4
280
     0
281
     0
  0
CLASS
  1
SUN
  2
AcDbSun
  3
SCENEOE
 90
     1024
 91
        4
280
     0
281
     0
  0
ENDSEC
  0
SECTION
  2
TABLES
  0
TABLE
  2
VPORT
  5
8
330
0
100
AcDbSymbolTable
 70
     1
  0
VPORT
  5
29
330
8
100
AcDbSymbolTableRecord
100
AcDbViewportTableRecord
  2
*Active
 70
     0
 10
0.0
 20
0.0
 11
1.0
 21
1.0
 12
0.0
 22
0.0
 13
0.0
 23
0.0
 14
0.5
 24
0.5
 15
0.5
 25
0.5
 16
0.0
 26
0.0
 36
1.0
 17
91.00082462281999
 27
-128.4993055234307
 37
0.0
 40
256.9986110468615
 41
0.7081814508812795
 42
50.0
 43
0.0
 44
0.0
 50
0.0
 51
0.0
 71
     0
 72
   100
 73
     1
 74
     3
 75
     0
 76
     0
 77
     0
 78
     0
281
     0
 65
     1
110
0.0
120
0.0
130
0.0
111
1.0
121
0.0
131
0.0
112
0.0
122
1.0
132
0.0
 79
     0
146
0.0
 60
     3
 61
     5
292
     1
282
     1
141
0.0
142
0.0
 63
   250
361
3F
  0
ENDTAB
  0
TABLE
  2
LTYPE
  5
5
330
0
100
AcDbSymbolTable
 70
     1
  0
LTYPE
  5
14
330
5
100
AcDbSymbolTableRecord
100
AcDbLinetypeTableRecord
  2
ByBlock
 70
     0
  3

 72
    65
 73
     0
 40
0.0
  0
LTYPE
  5
15
330
5
100
AcDbSymbolTableRecord
100
AcDbLinetypeTableRecord
  2
ByLayer
 70
     0
  3

 72
    65
 73
     0
 40
0.0
  0
LTYPE
  5
16
330
5
100
AcDbSymbolTableRecord
100
AcDbLinetypeTableRecord
  2
Continuous
 70
     0
  3
Solid line
 72
    65
 73
     0
 40
0.0
  0
ENDTAB
  0
TABLE
  2
LAYER
  5
2
330
0
100
AcDbSymbolTable
 70
     2
  0
LAYER
  5
10
330
2
100
AcDbSymbolTableRecord
100
AcDbLayerTableRecord
  2
0
 70
     0
 62
     7
  6
Continuous
370
    -3
390
F
347
3E
  0
LAYER
  5
40
330
2
100
AcDbSymbolTableRecord
100
AcDbLayerTableRecord
  2
_U+30EC_U+30A4_U+30E4_U+30FC 1
 70
     0
 62
     7
  6
Continuous
370
    -3
390
F
347
3E
  0
ENDTAB
  0
TABLE
  2
STYLE
  5
3
330
0
100
AcDbSymbolTable
 70
     1
  0
STYLE
  5
11
330
3
100
AcDbSymbolTableRecord
100
AcDbTextStyleTableRecord
  2
Standard
 70
     0
 40
0.0
 41
1.0
 50
0.0
 71
     0
 42
0.2
  3
txt
  4

  0
ENDTAB
  0
TABLE
  2
VIEW
  5
6
330
0
100
AcDbSymbolTable
 70
     0
  0
ENDTAB
  0
TABLE
  2
UCS
  5
7
330
0
100
AcDbSymbolTable
 70
     0
  0
ENDTAB
  0
TABLE
  2
APPID
  5
9
330
0
100
AcDbSymbolTable
 70
     1
  0
APPID
  5
12
330
9
100
AcDbSymbolTableRecord
100
AcDbRegAppTableRecord
  2
ACAD
 70
     0
  0
ENDTAB
  0
TABLE
  2
DIMSTYLE
  5
A
330
0
100
AcDbSymbolTable
 70
     1
100
AcDbDimStyleTable
  0
DIMSTYLE
105
27
330
A
100
AcDbSymbolTableRecord
100
AcDbDimStyleTableRecord
  2
Standard
 70
     0
178
     0
340
11
  0
ENDTAB
  0
TABLE
  2
BLOCK_RECORD
  5
1
330
0
100
AcDbSymbolTable
 70
     7
  0
BLOCK_RECORD
  5
1F
330
1
100
AcDbSymbolTableRecord
100
AcDbBlockTableRecord
  2
*Model_Space
340
22
 70
     0
280
     1
281
     0
  0
BLOCK_RECORD
  5
1B
330
1
100
AcDbSymbolTableRecord
100
AcDbBlockTableRecord
  2
*Paper_Space
340
1E
 70
     0
280
     1
281
     0
  0
BLOCK_RECORD
  5
23
330
1
100
AcDbSymbolTableRecord
100
AcDbBlockTableRecord
  2
*Paper_Space0
340
26
 70
     0
280
     1
281
     0
  0
BLOCK_RECORD
  5
4F
330
1
100
AcDbSymbolTableRecord
100
AcDbBlockTableRecord
  2
block 2
340
0
102
{BLKREFS
331
50
102
}
 70
     0
280
     1
281
     0
  0
BLOCK_RECORD
  5
64
330
1
100
AcDbSymbolTableRecord
100
AcDbBlockTableRecord
  2
block 3
340
0
102
{BLKREFS
331
65
102
}
 70
     0
280
     1
281
     0
  0
BLOCK_RECORD
  5
82
330
1
100
AcDbSymbolTableRecord
100
AcDbBlockTableRecord
  2
block 4
340
0
102
{BLKREFS
331
83
102
}
 70
     0
280
     1
281
     0
  0
BLOCK_RECORD
  5
8A
330
1
100
AcDbSymbolTableRecord
100
AcDbBlockTableRecord
  2
block 5
340
0
102
{BLKREFS
331
8B
102
}
 70
     0
280
     1
281
     0
  0
BLOCK_RECORD
  5
A4
330
1
100
AcDbSymbolTableRecord
100
AcDbBlockTableRecord
  2
block 6
340
0
102
{BLKREFS
331
A5
102
}
 70
     0
280
     1
281
     0
  0
BLOCK_RECORD
  5
AA
330
1
100
AcDbSymbolTableRecord
100
AcDbBlockTableRecord
  2
block 7
340
0
102
{BLKREFS
331
AB
102
}
 70
     0
280
     1
281
     0
  0
ENDTAB
  0
ENDSEC
  0
SECTION
  2
BLOCKS
  0
BLOCK
  5
20
330
1F
100
AcDbEntity
  8
0
100
AcDbBlockBegin
  2
*Model_Space
 70
     0
 10
0.0
 20
0.0
 30
0.0
  3
*Model_Space
  1

  0
ENDBLK
  5
21
330
1F
100
AcDbEntity
  8
0
100
AcDbBlockEnd
  0
BLOCK
  5
1C
330
1B
100
AcDbEntity
 67
     1
  8
0
100
AcDbBlockBegin
  2
*Paper_Space
 70
     0
 10
0.0
 20
0.0
 30
0.0
  3
*Paper_Space
  1

  0
ENDBLK
  5
1D
330
1B
100
AcDbEntity
 67
     1
  8
0
100
AcDbBlockEnd
  0
BLOCK
  5
24
330
23
100
AcDbEntity
  8
0
100
AcDbBlockBegin
  2
*Paper_Space0
 70
     0
 10
0.0
 20
0.0
 30
0.0
  3
*Paper_Space0
  1

  0
ENDBLK
  5
25
330
23
100
AcDbEntity
  8
0
100
AcDbBlockEnd
  0
BLOCK
  5
51
330
4F
100
AcDbEntity
  8
0
100
AcDbBlockBegin
  2
block 2
 70
     0
 10
0.0
 20
0.0
 30
0.0
  3
block 2
  1

  0
SPLINE
  5
53
330
4F
100
AcDbEntity
  8
_U+30EC_U+30A4_U+30E4_U+30FC 1
370
     0
100
AcDbSpline
210
0.0
220
0.0
230
1.0
 70
    11
 71
     3
 72
    44
 73
    40
 74
     0
 42
0.0000000001
 43
0.0000000001
 12
1.0
 22
0.0
 32
0.0
 13
1.0
 23
0.0
 33
0.0
 40
0.0
 40
0.0
 40
0.0
 40
0.0
 40
1.0
 40
1.0
 40
1.0
 40
2.0
 40
2.0
 40
2.0
 40
3.0
 40
3.0
 40
3.0
 40
4.0
 40
4.0
 40
4.0
 40
5.0
 40
5.0
 40
5.0
 40
6.0
 40
6.0
 40
6.0
 40
7.0
 40
7.0
 40
7.0
 40
8.0
 40
8.0
 40
8.0
 40
9.0
 40
9.0
 40
9.0
 40
10.0
 40
10.0
 40
10.0
 40
11.0
 40
11.0
 40
11.0
 40
12.0
 40
12.0
 40
12.0
 40
13.0
 40
13.0
 40
13.0
 40
13.0
 10
105.2504231507707
 20
-134.6715385948043
 30
0.0
 10
105.226996501471
 20
-134.6274413725932
 30
0.0
 10
105.2056369094625
 20
-134.5743869021203
 30
0.0
 10
105.2035698521713
 20
-134.3435655046086
 30
0.0
 10
105.199435737589
 20
-134.1003417633499
 30
0.0
 10
105.1401800952427
 20
-134.0307508345479
 30
0.0
 10
104.9624131682039
 20
-134.0307508345479
 30
0.0
 10
104.9624131682039
 20
-134.0307508345479
 30
0.0
 10
104.5541693532017
 20
-134.0307508345479
 30
0.0
 10
104.5541693532017
 20
-134.0307508345479
 30
0.0
 10
104.5541693532017
 20
-134.0307508345479
 30
0.0
 10
104.5541693532017
 20
-134.6715385948043
 30
0.0
 10
104.5541693532017
 20
-134.6715385948043
 30
0.0
 10
104.5541693532017
 20
-134.6715385948043
 30
0.0
 10
104.3195583506562
 20
-134.6715385948043
 30
0.0
 10
104.3195583506562
 20
-134.6715385948043
 30
0.0
 10
104.3195583506562
 20
-134.6715385948043
 30
0.0
 10
104.3195583506562
 20
-133.1274467983154
 30
0.0
 10
104.3195583506562
 20
-133.1274467983154
 30
0.0
 10
104.3195583506562
 20
-133.1274467983154
 30
0.0
 10
104.9941080466681
 20
-133.1274467983154
 30
0.0
 10
104.9941080466681
 20
-133.1274467983154
 30
0.0
 10
105.3007215448554
 20
-133.1274467983154
 30
0.0
 10
105.4681531854385
 20
-133.2986680439323
 30
0.0
 10
105.4681531854385
 20
-133.5546386384864
 30
0.0
 10
105.4681531854385
 20
-133.6056260516681
 30
0.0
 10
105.4595404467254
 20
-133.6879638337655
 30
0.0
 10
105.4150987149657
 20
-133.7682345585718
 30
0.0
 10
105.3558430726194
 20
-133.8722764422264
 30
0.0
 10
105.2903862583996
 20
-133.8908799578467
 30
0.0
 10
105.2290635587622
 20
-133.908105435273
 30
0.0
 10
105.3665228686236
 20
-133.950135600193
 30
0.0
 10
105.4343912496831
 20
-133.9990559560836
 30
0.0
 10
105.4385253642654
 20
-134.3139376834354
 30
0.0
 10
105.4426594788477
 20
-134.5847221885761
 30
0.0
 10
105.4784884718943
 20
-134.6167615765889
 30
0.0
 10
105.5463568529537
 20
-134.6715385948043
 30
0.0
 10
105.5463568529537
 20
-134.6715385948043
 30
0.0
 10
105.2504231507707
 20
-134.6715385948043
 30
0.0
 10
105.2504231507707
 20
-134.6715385948043
 30
0.0
  0
SPLINE
  5
54
330
4F
100
AcDbEntity
  8
_U+30EC_U+30A4_U+30E4_U+30FC 1
370
     0
100
AcDbSpline
210
0.0
220
0.0
230
1.0
 70
    11
 71
     3
 72
    20
 73
    16
 74
     0
 42
0.0000000001
 43
0.0000000001
 12
1.0
 22
0.0
 32
0.0
 13
1.0
 23
0.0
 33
0.0
 40
0.0
 40
0.0
 40
0.0
 40
0.0
 40
1.0
 40
1.0
 40
1.0
 40
2.0
 40
2.0
 40
2.0
 40
3.0
 40
3.0
 40
3.0
 40
4.0
 40
4.0
 40
4.0
 40
5.0
 40
5.0
 40
5.0
 40
5.0
 10
104.9982421612504
 20
-133.3389756611097
 30
0.0
 10
104.9982421612504
 20
-133.3389756611097
 30
0.0
 10
104.5541693532017
 20
-133.3389756611097
 30
0.0
 10
104.5541693532017
 20
-133.3389756611097
 30
0.0
 10
104.5541693532017
 20
-133.3389756611097
 30
0.0
 10
104.5541693532017
 20
-133.8192219717535
 30
0.0
 10
104.5541693532017
 20
-133.8192219717535
 30
0.0
 10
104.5541693532017
 20
-133.8192219717535
 30
0.0
 10
104.9961751039593
 20
-133.8192219717535
 30
0.0
 10
104.9961751039593
 20
-133.8192219717535
 30
0.0
 10
105.095738363483
 20
-133.8192219717535
 30
0.0
 10
105.2311306160533
 20
-133.7430853615295
 30
0.0
 10
105.2311306160533
 20
-133.5718641159126
 30
0.0
 10
105.2311306160533
 20
-133.4933159388489
 30
0.0
 10
105.1973686802979
 20
-133.3389756611097
 30
0.0
 10
104.9982421612504
 20
-133.3389756611097
 30
0.0
  0
HATCH
  5
55
330
4F
100
AcDbEntity
  8
_U+30EC_U+30A4_U+30E4_U+30FC 1
 62
   179
420
  2234388
100
AcDbHatch
 10
0.0
 20
0.0
 30
0.0
210
0.0
220
0.0
230
1.0
  2
SOLID
 70
     1
 71
     0
 91
        2
 92
        1
 93
        1
 72
     4
 94
        3
 73
     0
 74
     1
 95
       44
 96
       40
 40
0.0
 40
0.0
 40
0.0
 40
0.0
 40
1.0
 40
1.0
 40
1.0
 40
2.0
 40
2.0
 40
2.0
 40
3.0
 40
3.0
 40
3.0
 40
4.0
 40
4.0
 40
4.0
 40
5.0
 40
5.0
 40
5.0
 40
6.0
 40
6.0
 40
6.0
 40
7.0
 40
7.0
 40
7.0
 40
8.0
 40
8.0
 40
8.0
 40
9.0
 40
9.0
 40
9.0
 40
10.0
 40
10.0
 40
10.0
 40
11.0
 40
11.0
 40
11.0
 40
12.0
 40
12.0
 40
12.0
 40
13.0
 40
13.0
 40
13.0
 40
13.0
 10
105.2504231507707
 20
-134.6715385948043
 10
105.226996501471
 20
-134.6274413725932
 10
105.2056369094625
 20
-134.5743869021203
 10
105.2035698521713
 20
-134.3435655046086
 10
105.199435737589
 20
-134.1003417633499
 10
105.1401800952427
 20
-134.0307508345479
 10
104.9624131682039
 20
-134.0307508345479
 10
104.9624131682039
 20
-134.0307508345479
 10
104.5541693532017
 20
-134.0307508345479
 10
104.5541693532017
 20
-134.0307508345479
 10
104.5541693532017
 20
-134.0307508345479
 10
104.5541693532017
 20
-134.6715385948043
 10
104.5541693532017
 20
-134.6715385948043
 10
104.5541693532017
 20
-134.6715385948043
 10
104.3195583506562
 20
-134.6715385948043
 10
104.3195583506562
 20
-134.6715385948043
 10
104.3195583506562
 20
-134.6715385948043
 10
104.3195583506562
 20
-133.1274467983154
 10
104.3195583506562
 20
-133.1274467983154
 10
104.3195583506562
 20
-133.1274467983154
 10
104.9941080466681
 20
-133.1274467983154
 10
104.9941080466681
 20
-133.1274467983154
 10
105.3007215448554
 20
-133.1274467983154
 10
105.4681531854385
 20
-133.2986680439323
 10
105.4681531854385
 20
-133.5546386384864
 10
105.4681531854385
 20
-133.6056260516681
 10
105.4595404467254
 20
-133.6879638337655
 10
105.4150987149657
 20
-133.7682345585718
 10
105.3558430726194
 20
-133.8722764422264
 10
105.2903862583996
 20
-133.8908799578467
 10
105.2290635587622
 20
-133.908105435273
 10
105.3665228686236
 20
-133.950135600193
 10
105.4343912496831
 20
-133.9990559560836
 10
105.4385253642654
 20
-134.3139376834354
 10
105.4426594788477
 20
-134.5847221885761
 10
105.4784884718943
 20
-134.6167615765889
 10
105.5463568529537
 20
-134.6715385948043
 10
105.5463568529537
 20
-134.6715385948043
 10
105.2504231507707
 20
-134.6715385948043
 10
105.2504231507707
 20
-134.6715385948043
 97
        0
 97
        0
 92
        1
 93
        1
 72
     4
 94
        3
 73
     0
 74
     1
 95
       20
 96
       16
 40
0.0
 40
0.0
 40
0.0
 40
0.0
 40
1.0
 40
1.0
 40
1.0
 40
2.0
 40
2.0
 40
2.0
 40
3.0
 40
3.0
 40
3.0
 40
4.0
 40
4.0
 40
4.0
 40
5.0
 40
5.0
 40
5.0
 40
5.0
 10
104.9982421612504
 20
-133.3389756611097
 10
104.9982421612504
 20
-133.3389756611097
 10
104.5541693532017
 20
-133.3389756611097
 10
104.5541693532017
 20
-133.3389756611097
 10
104.5541693532017
 20
-133.3389756611097
 10
104.5541693532017
 20
-133.8192219717535
 10
104.5541693532017
 20
-133.8192219717535
 10
104.5541693532017
 20
-133.8192219717535
 10
104.9961751039593
 20
-133.8192219717535
 10
104.9961751039593
 20
-133.8192219717535
 10
105.095738363483
 20
-133.8192219717535
 10
105.2311306160533
 20
-133.7430853615295
 10
105.2311306160533
 20
-133.5718641159126
 10
105.2311306160533
 20
-133.4933159388489
 10
105.1973686802979
 20
-133.3389756611097
 10
104.9982421612504
 20
-133.3389756611097
 97
        0
 97
        0
 75
     2
 76
     1
 98
        0
  0
SPLINE
  5
56
330
4F
100
AcDbEntity
  8
_U+30EC_U+30A4_U+30E4_U+30FC 1
370
     0
100
AcDbSpline
210
0.0
220
0.0
230
1.0
 70
    11
 71
     3
 72
    26
 73
    22
 74
     0
 42
0.0000000001
 43
0.0000000001
 12
1.0
 22
0.0
 32
0.0
 13
1.0
 23
0.0
 33
0.0
 40
0.0
 40
0.0
 40
0.0
 40
0.0
 40
1.0
 40
1.0
 40
1.0
 40
2.0
 40
2.0
 40
2.0
 40
3.0
 40
3.0
 40
3.0
 40
4.0
 40
4.0
 40
4.0
 40
5.0
 40
5.0
 40
5.0
 40
6.0
 40
6.0
 40
6.0
 40
7.0
 40
7.0
 40
7.0
 40
7.0
 10
106.137190728674
 20
-134.6715385948043
 30
0.0
 10
106.137190728674
 20
-134.6715385948043
 30
0.0
 10
106.137190728674
 20
-133.5673854917818
 30
0.0
 10
106.137190728674
 20
-133.5673854917818
 30
0.0
 10
106.137190728674
 20
-133.5673854917818
 30
0.0
 10
105.8071505811871
 20
-133.5673854917818
 30
0.0
 10
105.8071505811871
 20
-133.5673854917818
 30
0.0
 10
105.8071505811871
 20
-133.5673854917818
 30
0.0
 10
105.8071505811871
 20
-133.4195908954646
 30
0.0
 10
105.8071505811871
 20
-133.4195908954646
 30
0.0
 10
106.1392577859652
 20
-133.4044324753295
 30
0.0
 10
106.1861110845646
 20
-133.2418239684256
 30
0.0
 10
106.2157389057377
 20
-133.1274467983154
 30
0.0
 10
106.2157389057377
 20
-133.1274467983154
 30
0.0
 10
106.3618109543123
 20
-133.1274467983154
 30
0.0
 10
106.3618109543123
 20
-133.1274467983154
 30
0.0
 10
106.3618109543123
 20
-133.1274467983154
 30
0.0
 10
106.3618109543123
 20
-134.6715385948043
 30
0.0
 10
106.3618109543123
 20
-134.6715385948043
 30
0.0
 10
106.3618109543123
 20
-134.6715385948043
 30
0.0
 10
106.137190728674
 20
-134.6715385948043
 30
0.0
 10
106.137190728674
 20
-134.6715385948043
 30
0.0
  0
HATCH
  5
57
330
4F
100
AcDbEntity
  8
_U+30EC_U+30A4_U+30E4_U+30FC 1
 62
   179
420
  2234388
100
AcDbHatch
 10
0.0
 20
0.0
 30
0.0
210
0.0
220
0.0
230
1.0
  2
SOLID
 70
     1
 71
     0
 91
        1
 92
        1
 93
        1
 72
     4
 94
        3
 73
     0
 74
     1
 95
       26
 96
       22
 40
0.0
 40
0.0
 40
0.0
 40
0.0
 40
1.0
 40
1.0
 40
1.0
 40
2.0
 40
2.0
 40
2.0
 40
3.0
 40
3.0
 40
3.0
 40
4.0
 40
4.0
 40
4.0
 40
5.0
 40
5.0
 40
5.0
 40
6.0
 40
6.0
 40
6.0
 40
7.0
 40
7.0
 40
7.0
 40
7.0
 10
106.137190728674
 20
-134.6715385948043
 10
106.137190728674
 20
-134.6715385948043
 10
106.137190728674
 20
-133.5673854917818
 10
106.137190728674
 20
-133.5673854917818
 10
106.137190728674
 20
-133.5673854917818
 10
105.8071505811871
 20
-133.5673854917818
 10
105.8071505811871
 20
-133.5673854917818
 10
105.8071505811871
 20
-133.5673854917818
 10
105.8071505811871
 20
-133.4195908954646
 10
105.8071505811871
 20
-133.4195908954646
 10
106.1392577859652
 20
-133.4044324753295
 10
106.1861110845646
 20
-133.2418239684256
 10
106.2157389057377
 20
-133.1274467983154
 10
106.2157389057377
 20
-133.1274467983154
 10
106.3618109543123
 20
-133.1274467983154
 10
106.3618109543123
 20
-133.1274467983154
 10
106.3618109543123
 20
-133.1274467983154
 10
106.3618109543123
 20
-134.6715385948043
 10
106.3618109543123
 20
-134.6715385948043
 10
106.3618109543123
 20
-134.6715385948043
 10
106.137190728674
 20
-134.6715385948043
 10
106.137190728674
 20
-134.6715385948043
 97
        0
 97
        0
 75
     2
 76
     1
 98
        0
  0
ENDBLK
  5
52
330
4F
100
AcDbEntity
  8
0
100
AcDbBlockEnd
  0
BLOCK
  5
66
330
64
100
AcDbEntity
  8
0
100
AcDbBlockBegin
  2
block 3
 70
     0
 10
0.0
 20
0.0
 30
0.0
  3
block 3
  1

  0
SPLINE
  5
68
330
64
100
AcDbEntity
  8
_U+30EC_U+30A4_U+30E4_U+30FC 1
370
     0
100
AcDbSpline
210
0.0
220
0.0
230
1.0
 70
    11
 71
     3
 72
    44
 73
    40
 74
     0
 42
0.0000000001
 43
0.0000000001
 12
1.0
 22
0.0
 32
0.0
 13
1.0
 23
0.0
 33
0.0
 40
0.0
 40
0.0
 40
0.0
 40
0.0
 40
1.0
 40
1.0
 40
1.0
 40
2.0
 40
2.0
 40
2.0
 40
3.0
 40
3.0
 40
3.0
 40
4.0
 40
4.0
 40
4.0
 40
5.0
 40
5.0
 40
5.0
 40
6.0
 40
6.0
 40
6.0
 40
7.0
 40
7.0
 40
7.0
 40
8.0
 40
8.0
 40
8.0
 40
9.0
 40
9.0
 40
9.0
 40
10.0
 40
10.0
 40
10.0
 40
11.0
 40
11.0
 40
11.0
 40
12.0
 40
12.0
 40
12.0
 40
13.0
 40
13.0
 40
13.0
 40
13.0
 10
74.98887666311042
 20
-122.7082722675
 30
0.0
 10
74.96545001381072
 20
-122.6638305357403
 30
0.0
 10
74.9444349313507
 20
-122.6109483200417
 30
0.0
 10
74.94219561928529
 20
-122.3802991773042
 30
0.0
 10
74.93806150470299
 20
-122.1370754360456
 30
0.0
 10
74.87880586235669
 20
-122.0673122524693
 30
0.0
 10
74.7010389353178
 20
-122.0673122524693
 30
0.0
 10
74.7010389353178
 20
-122.0673122524693
 30
0.0
 10
74.29279512031569
 20
-122.0673122524693
 30
0.0
 10
74.29279512031569
 20
-122.0673122524693
 30
0.0
 10
74.29279512031569
 20
-122.0673122524693
 30
0.0
 10
74.29279512031569
 20
-122.7082722675
 30
0.0
 10
74.29279512031569
 20
-122.7082722675
 30
0.0
 10
74.29279512031569
 20
-122.7082722675
 30
0.0
 10
74.05801186299591
 20
-122.7082722675
 30
0.0
 10
74.05801186299591
 20
-122.7082722675
 30
0.0
 10
74.05801186299591
 20
-122.7082722675
 30
0.0
 10
74.05801186299591
 20
-121.1640082162368
 30
0.0
 10
74.05801186299591
 20
-121.1640082162368
 30
0.0
 10
74.05801186299591
 20
-121.1640082162368
 30
0.0
 10
74.73290606855636
 20
-121.1640082162368
 30
0.0
 10
74.73290606855636
 20
-121.1640082162368
 30
0.0
 10
75.03951956674359
 20
-121.1640082162368
 30
0.0
 10
75.20660669777821
 20
-121.3352294618537
 30
0.0
 10
75.20660669777821
 20
-121.591372311182
 30
0.0
 10
75.20660669777821
 20
-121.6420152148152
 30
0.0
 10
75.19816621383936
 20
-121.7245252516869
 30
0.0
 10
75.15372448207962
 20
-121.8049682312675
 30
0.0
 10
75.0946410945076
 20
-121.9086656053735
 30
0.0
 10
75.02901202551358
 20
-121.9276136305424
 30
0.0
 10
74.96768932587614
 20
-121.9444945984201
 30
0.0
 10
75.1051486357376
 20
-121.9868692728887
 30
0.0
 10
75.17284476202276
 20
-122.035617374005
 30
0.0
 10
75.17715113137933
 20
-122.3506713561311
 30
0.0
 10
75.18128524596163
 20
-122.6214558612717
 30
0.0
 10
75.21728649378248
 20
-122.6533229945103
 30
0.0
 10
75.28498262006765
 20
-122.7082722675
 30
0.0
 10
75.28498262006765
 20
-122.7082722675
 30
0.0
 10
74.98887666311042
 20
-122.7082722675
 30
0.0
 10
74.98887666311042
 20
-122.7082722675
 30
0.0
  0
SPLINE
  5
69
330
64
100
AcDbEntity
  8
_U+30EC_U+30A4_U+30E4_U+30FC 1
370
     0
100
AcDbSpline
210
0.0
220
0.0
230
1.0
 70
    11
 71
     3
 72
    20
 73
    16
 74
     0
 42
0.0000000001
 43
0.0000000001
 12
1.0
 22
0.0
 32
0.0
 13
1.0
 23
0.0
 33
0.0
 40
0.0
 40
0.0
 40
0.0
 40
0.0
 40
1.0
 40
1.0
 40
1.0
 40
2.0
 40
2.0
 40
2.0
 40
3.0
 40
3.0
 40
3.0
 40
4.0
 40
4.0
 40
4.0
 40
5.0
 40
5.0
 40
5.0
 40
5.0
 10
74.73704018313866
 20
-121.3755370790311
 30
0.0
 10
74.73704018313866
 20
-121.3755370790311
 30
0.0
 10
74.29279512031569
 20
-121.3755370790311
 30
0.0
 10
74.29279512031569
 20
-121.3755370790311
 30
0.0
 10
74.29279512031569
 20
-121.3755370790311
 30
0.0
 10
74.29279512031569
 20
-121.855783389675
 30
0.0
 10
74.29279512031569
 20
-121.855783389675
 30
0.0
 10
74.29279512031569
 20
-121.855783389675
 30
0.0
 10
74.7349731258475
 20
-121.855783389675
 30
0.0
 10
74.7349731258475
 20
-121.855783389675
 30
0.0
 10
74.83436413059697
 20
-121.855783389675
 30
0.0
 10
74.96975638316728
 20
-121.7796467794509
 30
0.0
 10
74.96975638316728
 20
-121.6082532790598
 30
0.0
 10
74.96975638316728
 20
-121.5298773567703
 30
0.0
 10
74.93582219263757
 20
-121.3755370790311
 30
0.0
 10
74.73704018313866
 20
-121.3755370790311
 30
0.0
  0
HATCH
  5
6A
330
64
100
AcDbEntity
  8
_U+30EC_U+30A4_U+30E4_U+30FC 1
 62
   179
420
  2234388
100
AcDbHatch
 10
0.0
 20
0.0
 30
0.0
210
0.0
220
0.0
230
1.0
  2
SOLID
 70
     1
 71
     0
 91
        2
 92
        1
 93
        1
 72
     4
 94
        3
 73
     0
 74
     1
 95
       44
 96
       40
 40
0.0
 40
0.0
 40
0.0
 40
0.0
 40
1.0
 40
1.0
 40
1.0
 40
2.0
 40
2.0
 40
2.0
 40
3.0
 40
3.0
 40
3.0
 40
4.0
 40
4.0
 40
4.0
 40
5.0
 40
5.0
 40
5.0
 40
6.0
 40
6.0
 40
6.0
 40
7.0
 40
7.0
 40
7.0
 40
8.0
 40
8.0
 40
8.0
 40
9.0
 40
9.0
 40
9.0
 40
10.0
 40
10.0
 40
10.0
 40
11.0
 40
11.0
 40
11.0
 40
12.0
 40
12.0
 40
12.0
 40
13.0
 40
13.0
 40
13.0
 40
13.0
 10
74.98887666311042
 20
-122.7082722675
 10
74.96545001381072
 20
-122.6638305357403
 10
74.9444349313507
 20
-122.6109483200417
 10
74.94219561928529
 20
-122.3802991773042
 10
74.93806150470299
 20
-122.1370754360456
 10
74.87880586235669
 20
-122.0673122524693
 10
74.7010389353178
 20
-122.0673122524693
 10
74.7010389353178
 20
-122.0673122524693
 10
74.29279512031569
 20
-122.0673122524693
 10
74.29279512031569
 20
-122.0673122524693
 10
74.29279512031569
 20
-122.0673122524693
 10
74.29279512031569
 20
-122.7082722675
 10
74.29279512031569
 20
-122.7082722675
 10
74.29279512031569
 20
-122.7082722675
 10
74.05801186299591
 20
-122.7082722675
 10
74.05801186299591
 20
-122.7082722675
 10
74.05801186299591
 20
-122.7082722675
 10
74.05801186299591
 20
-121.1640082162368
 10
74.05801186299591
 20
-121.1640082162368
 10
74.05801186299591
 20
-121.1640082162368
 10
74.73290606855636
 20
-121.1640082162368
 10
74.73290606855636
 20
-121.1640082162368
 10
75.03951956674359
 20
-121.1640082162368
 10
75.20660669777821
 20
-121.3352294618537
 10
75.20660669777821
 20
-121.591372311182
 10
75.20660669777821
 20
-121.6420152148152
 10
75.19816621383936
 20
-121.7245252516869
 10
75.15372448207962
 20
-121.8049682312675
 10
75.0946410945076
 20
-121.9086656053735
 10
75.02901202551358
 20
-121.9276136305424
 10
74.96768932587614
 20
-121.9444945984201
 10
75.1051486357376
 20
-121.9868692728887
 10
75.17284476202276
 20
-122.035617374005
 10
75.17715113137933
 20
-122.3506713561311
 10
75.18128524596163
 20
-122.6214558612717
 10
75.21728649378248
 20
-122.6533229945103
 10
75.28498262006765
 20
-122.7082722675
 10
75.28498262006765
 20
-122.7082722675
 10
74.98887666311042
 20
-122.7082722675
 10
74.98887666311042
 20
-122.7082722675
 97
        0
 97
        0
 92
        1
 93
        1
 72
     4
 94
        3
 73
     0
 74
     1
 95
       20
 96
       16
 40
0.0
 40
0.0
 40
0.0
 40
0.0
 40
1.0
 40
1.0
 40
1.0
 40
2.0
 40
2.0
 40
2.0
 40
3.0
 40
3.0
 40
3.0
 40
4.0
 40
4.0
 40
4.0
 40
5.0
 40
5.0
 40
5.0
 40
5.0
 10
74.73704018313866
 20
-121.3755370790311
 10
74.73704018313866
 20
-121.3755370790311
 10
74.29279512031569
 20
-121.3755370790311
 10
74.29279512031569
 20
-121.3755370790311
 10
74.29279512031569
 20
-121.3755370790311
 10
74.29279512031569
 20
-121.855783389675
 10
74.29279512031569
 20
-121.855783389675
 10
74.29279512031569
 20
-121.855783389675
 10
74.7349731258475
 20
-121.855783389675
 10
74.7349731258475
 20
-121.855783389675
 10
74.83436413059697
 20
-121.855783389675
 10
74.96975638316728
 20
-121.7796467794509
 10
74.96975638316728
 20
-121.6082532790598
 10
74.96975638316728
 20
-121.5298773567703
 10
74.93582219263757
 20
-121.3755370790311
 10
74.73704018313866
 20
-121.3755370790311
 97
        0
 97
        0
 75
     2
 76
     1
 98
        0
  0
SPLINE
  5
6B
330
64
100
AcDbEntity
  8
_U+30EC_U+30A4_U+30E4_U+30FC 1
370
     0
100
AcDbSpline
210
0.0
220
0.0
230
1.0
 70
    11
 71
     3
 72
    26
 73
    22
 74
     0
 42
0.0000000001
 43
0.0000000001
 12
1.0
 22
0.0
 32
0.0
 13
1.0
 23
0.0
 33
0.0
 40
0.0
 40
0.0
 40
0.0
 40
0.0
 40
1.0
 40
1.0
 40
1.0
 40
2.0
 40
2.0
 40
2.0
 40
3.0
 40
3.0
 40
3.0
 40
4.0
 40
4.0
 40
4.0
 40
5.0
 40
5.0
 40
5.0
 40
6.0
 40
6.0
 40
6.0
 40
7.0
 40
7.0
 40
7.0
 40
7.0
 10
75.87598875056226
 20
-122.7082722675
 30
0.0
 10
75.87598875056226
 20
-122.7082722675
 30
0.0
 10
75.87598875056226
 20
-121.6039469097032
 30
0.0
 10
75.87598875056226
 20
-121.6039469097032
 30
0.0
 10
75.87598875056226
 20
-121.6039469097032
 30
0.0
 10
75.54594860307532
 20
-121.6039469097032
 30
0.0
 10
75.54594860307532
 20
-121.6039469097032
 30
0.0
 10
75.54594860307532
 20
-121.6039469097032
 30
0.0
 10
75.54594860307532
 20
-121.4559800586117
 30
0.0
 10
75.54594860307532
 20
-121.4559800586117
 30
0.0
 10
75.8780558078534
 20
-121.4411661480251
 30
0.0
 10
75.92456459690428
 20
-121.2782131315728
 30
0.0
 10
75.95419241807743
 20
-121.1640082162368
 30
0.0
 10
75.95419241807743
 20
-121.1640082162368
 30
0.0
 10
76.10026446665202
 20
-121.1640082162368
 30
0.0
 10
76.10026446665202
 20
-121.1640082162368
 30
0.0
 10
76.10026446665202
 20
-121.1640082162368
 30
0.0
 10
76.10026446665202
 20
-122.7082722675
 30
0.0
 10
76.10026446665202
 20
-122.7082722675
 30
0.0
 10
76.10026446665202
 20
-122.7082722675
 30
0.0
 10
75.87598875056226
 20
-122.7082722675
 30
0.0
 10
75.87598875056226
 20
-122.7082722675
 30
0.0
  0
HATCH
  5
6C
330
64
100
AcDbEntity
  8
_U+30EC_U+30A4_U+30E4_U+30FC 1
 62
   179
420
  2234388
100
AcDbHatch
 10
0.0
 20
0.0
 30
0.0
210
0.0
220
0.0
230
1.0
  2
SOLID
 70
     1
 71
     0
 91
        1
 92
        1
 93
        1
 72
     4
 94
        3
 73
     0
 74
     1
 95
       26
 96
       22
 40
0.0
 40
0.0
 40
0.0
 40
0.0
 40
1.0
 40
1.0
 40
1.0
 40
2.0
 40
2.0
 40
2.0
 40
3.0
 40
3.0
 40
3.0
 40
4.0
 40
4.0
 40
4.0
 40
5.0
 40
5.0
 40
5.0
 40
6.0
 40
6.0
 40
6.0
 40
7.0
 40
7.0
 40
7.0
 40
7.0
 10
75.87598875056226
 20
-122.7082722675
 10
75.87598875056226
 20
-122.7082722675
 10
75.87598875056226
 20
-121.6039469097032
 10
75.87598875056226
 20
-121.6039469097032
 10
75.87598875056226
 20
-121.6039469097032
 10
75.54594860307532
 20
-121.6039469097032
 10
75.54594860307532
 20
-121.6039469097032
 10
75.54594860307532
 20
-121.6039469097032
 10
75.54594860307532
 20
-121.4559800586117
 10
75.54594860307532
 20
-121.4559800586117
 10
75.8780558078534
 20
-121.4411661480251
 10
75.92456459690428
 20
-121.2782131315728
 10
75.95419241807743
 20
-121.1640082162368
 10
75.95419241807743
 20
-121.1640082162368
 10
76.10026446665202
 20
-121.1640082162368
 10
76.10026446665202
 20
-121.1640082162368
 10
76.10026446665202
 20
-121.1640082162368
 10
76.10026446665202
 20
-122.7082722675
 10
76.10026446665202
 20
-122.7082722675
 10
76.10026446665202
 20
-122.7082722675
 10
75.87598875056226
 20
-122.7082722675
 10
75.87598875056226
 20
-122.7082722675
 97
        0
 97
        0
 75
     2
 76
     1
 98
        0
  0
ENDBLK
  5
67
330
64
100
AcDbEntity
  8
0
100
AcDbBlockEnd
  0
BLOCK
  5
84
330
82
100
AcDbEntity
  8
0
100
AcDbBlockBegin
  2
block 4
 70
     0
 10
0.0
 20
0.0
 30
0.0
  3
block 4
  1

  0
SPLINE
  5
86
330
82
100
AcDbEntity
  8
_U+30EC_U+30A4_U+30E4_U+30FC 1
370
     0
100
AcDbSpline
210
0.0
220
0.0
230
1.0
 70
    11
 71
     3
 72
    26
 73
    22
 74
     0
 42
0.0000000001
 43
0.0000000001
 12
1.0
 22
0.0
 32
0.0
 13
1.0
 23
0.0
 33
0.0
 40
0.0
 40
0.0
 40
0.0
 40
0.0
 40
1.0
 40
1.0
 40
1.0
 40
2.0
 40
2.0
 40
2.0
 40
3.0
 40
3.0
 40
3.0
 40
4.0
 40
4.0
 40
4.0
 40
5.0
 40
5.0
 40
5.0
 40
6.0
 40
6.0
 40
6.0
 40
7.0
 40
7.0
 40
7.0
 40
7.0
 10
84.48511011342734
 20
-134.7852267458176
 30
0.0
 10
84.48511011342734
 20
-134.7852267458176
 30
0.0
 10
84.48511011342734
 20
-133.681073642795
 30
0.0
 10
84.48511011342734
 20
-133.681073642795
 30
0.0
 10
84.48511011342734
 20
-133.681073642795
 30
0.0
 10
84.1550699659404
 20
-133.681073642795
 30
0.0
 10
84.1550699659404
 20
-133.681073642795
 30
0.0
 10
84.1550699659404
 20
-133.681073642795
 30
0.0
 10
84.1550699659404
 20
-133.5332790464778
 30
0.0
 10
84.1550699659404
 20
-133.5332790464778
 30
0.0
 10
84.48717717071848
 20
-133.5181206263427
 30
0.0
 10
84.53368595976936
 20
-133.3555121194389
 30
0.0
 10
84.56331378094251
 20
-133.2411349493286
 30
0.0
 10
84.56331378094251
 20
-133.2411349493286
 30
0.0
 10
84.7093858295171
 20
-133.2411349493286
 30
0.0
 10
84.7093858295171
 20
-133.2411349493286
 30
0.0
 10
84.7093858295171
 20
-133.2411349493286
 30
0.0
 10
84.7093858295171
 20
-134.7852267458176
 30
0.0
 10
84.7093858295171
 20
-134.7852267458176
 30
0.0
 10
84.7093858295171
 20
-134.7852267458176
 30
0.0
 10
84.48511011342734
 20
-134.7852267458176
 30
0.0
 10
84.48511011342734
 20
-134.7852267458176
 30
0.0
  0
HATCH
  5
87
330
82
100
AcDbEntity
  8
_U+30EC_U+30A4_U+30E4_U+30FC 1
 62
   179
420
  2234388
100
AcDbHatch
 10
0.0
 20
0.0
 30
0.0
210
0.0
220
0.0
230
1.0
  2
SOLID
 70
     1
 71
     0
 91
        1
 92
        1
 93
        1
 72
     4
 94
        3
 73
     0
 74
     1
 95
       26
 96
       22
 40
0.0
 40
0.0
 40
0.0
 40
0.0
 40
1.0
 40
1.0
 40
1.0
 40
2.0
 40
2.0
 40
2.0
 40
3.0
 40
3.0
 40
3.0
 40
4.0
 40
4.0
 40
4.0
 40
5.0
 40
5.0
 40
5.0
 40
6.0
 40
6.0
 40
6.0
 40
7.0
 40
7.0
 40
7.0
 40
7.0
 10
84.48511011342734
 20
-134.7852267458176
 10
84.48511011342734
 20
-134.7852267458176
 10
84.48511011342734
 20
-133.681073642795
 10
84.48511011342734
 20
-133.681073642795
 10
84.48511011342734
 20
-133.681073642795
 10
84.1550699659404
 20
-133.681073642795
 10
84.1550699659404
 20
-133.681073642795
 10
84.1550699659404
 20
-133.681073642795
 10
84.1550699659404
 20
-133.5332790464778
 10
84.1550699659404
 20
-133.5332790464778
 10
84.48717717071848
 20
-133.5181206263427
 10
84.53368595976936
 20
-133.3555121194389
 10
84.56331378094251
 20
-133.2411349493286
 10
84.56331378094251
 20
-133.2411349493286
 10
84.7093858295171
 20
-133.2411349493286
 10
84.7093858295171
 20
-133.2411349493286
 10
84.7093858295171
 20
-133.2411349493286
 10
84.7093858295171
 20
-134.7852267458176
 10
84.7093858295171
 20
-134.7852267458176
 10
84.7093858295171
 20
-134.7852267458176
 10
84.48511011342734
 20
-134.7852267458176
 10
84.48511011342734
 20
-134.7852267458176
 97
        0
 97
        0
 75
     2
 76
     1
 98
        0
  0
SPLINE
  5
88
330
82
100
AcDbEntity
  8
_U+30EC_U+30A4_U+30E4_U+30FC 1
370
     0
100
AcDbSpline
210
0.0
220
0.0
230
1.0
 70
    11
 71
     3
 72
    44
 73
    40
 74
     0
 42
0.0000000001
 43
0.0000000001
 12
1.0
 22
0.0
 32
0.0
 13
1.0
 23
0.0
 33
0.0
 40
0.0
 40
0.0
 40
0.0
 40
0.0
 40
1.0
 40
1.0
 40
1.0
 40
2.0
 40
2.0
 40
2.0
 40
3.0
 40
3.0
 40
3.0
 40
4.0
 40
4.0
 40
4.0
 40
5.0
 40
5.0
 40
5.0
 40
6.0
 40
6.0
 40
6.0
 40
7.0
 40
7.0
 40
7.0
 40
8.0
 40
8.0
 40
8.0
 40
9.0
 40
9.0
 40
9.0
 40
10.0
 40
10.0
 40
10.0
 40
11.0
 40
11.0
 40
11.0
 40
12.0
 40
12.0
 40
12.0
 40
13.0
 40
13.0
 40
13.0
 40
13.0
 10
85.80372041040671
 20
-134.2036946279074
 30
0.0
 10
85.58581812096466
 20
-134.3621690202289
 30
0.0
 10
85.49262828808865
 20
-134.4365830827103
 30
0.0
 10
85.44405244174663
 20
-134.5802435644452
 30
0.0
 10
85.44405244174663
 20
-134.5802435644452
 30
0.0
 10
86.22247176663883
 20
-134.5802435644452
 30
0.0
 10
86.22247176663883
 20
-134.5802435644452
 30
0.0
 10
86.22247176663883
 20
-134.5802435644452
 30
0.0
 10
86.22247176663883
 20
-134.7852267458176
 30
0.0
 10
86.22247176663883
 20
-134.7852267458176
 30
0.0
 10
86.22247176663883
 20
-134.7852267458176
 30
0.0
 10
85.19445527384028
 20
-134.7852267458176
 30
0.0
 10
85.19445527384028
 20
-134.7852267458176
 30
0.0
 10
85.22615015230458
 20
-134.4276258344487
 30
0.0
 10
85.29177922129858
 20
-134.349766676482
 30
0.0
 10
85.67676864177525
 20
-134.0514214074594
 30
0.0
 10
85.93273923632933
 20
-133.8522948884119
 30
0.0
 10
85.99819605054907
 20
-133.784771016901
 30
0.0
 10
85.99819605054907
 20
-133.6473117070396
 30
0.0
 10
85.99819605054907
 20
-133.528800422347
 30
0.0
 10
85.92636580968161
 20
-133.397542284359
 30
0.0
 10
85.72965085747384
 20
-133.397542284359
 30
0.0
 10
85.46937389356322
 20
-133.397542284359
 30
0.0
 10
85.46093340962436
 20
-133.6283636818707
 30
0.0
 10
85.45662704026779
 20
-133.7448079092721
 30
0.0
 10
85.45662704026779
 20
-133.7448079092721
 30
0.0
 10
85.2325235789523
 20
-133.7448079092721
 30
0.0
 10
85.2325235789523
 20
-133.7448079092721
 30
0.0
 10
85.24096406289115
 20
-133.6176838858664
 30
0.0
 10
85.25147160412116
 20
-133.5057182825958
 30
0.0
 10
85.33191458370175
 20
-133.3872069979032
 30
0.0
 10
85.44181312968122
 20
-133.226321038742
 30
0.0
 10
85.62802054065897
 20
-133.1922145934381
 30
0.0
 10
85.74446476806041
 20
-133.1922145934381
 30
0.0
 10
86.02162269984876
 20
-133.1922145934381
 30
0.0
 10
86.22884519328655
 20
-133.3765272018989
 30
0.0
 10
86.22884519328655
 20
-133.6493787643307
 30
0.0
 10
86.22884519328655
 20
-133.8777885950028
 30
0.0
 10
86.11257322065936
 20
-133.9773518545265
 30
0.0
 10
85.80372041040671
 20
-134.2036946279074
 30
0.0
  0
HATCH
  5
89
330
82
100
AcDbEntity
  8
_U+30EC_U+30A4_U+30E4_U+30FC 1
 62
   179
420
  2234388
100
AcDbHatch
 10
0.0
 20
0.0
 30
0.0
210
0.0
220
0.0
230
1.0
  2
SOLID
 70
     1
 71
     0
 91
        1
 92
        1
 93
        1
 72
     4
 94
        3
 73
     0
 74
     1
 95
       44
 96
       40
 40
0.0
 40
0.0
 40
0.0
 40
0.0
 40
1.0
 40
1.0
 40
1.0
 40
2.0
 40
2.0
 40
2.0
 40
3.0
 40
3.0
 40
3.0
 40
4.0
 40
4.0
 40
4.0
 40
5.0
 40
5.0
 40
5.0
 40
6.0
 40
6.0
 40
6.0
 40
7.0
 40
7.0
 40
7.0
 40
8.0
 40
8.0
 40
8.0
 40
9.0
 40
9.0
 40
9.0
 40
10.0
 40
10.0
 40
10.0
 40
11.0
 40
11.0
 40
11.0
 40
12.0
 40
12.0
 40
12.0
 40
13.0
 40
13.0
 40
13.0
 40
13.0
 10
85.80372041040671
 20
-134.2036946279074
 10
85.58581812096466
 20
-134.3621690202289
 10
85.49262828808865
 20
-134.4365830827103
 10
85.44405244174663
 20
-134.5802435644452
 10
85.44405244174663
 20
-134.5802435644452
 10
86.22247176663883
 20
-134.5802435644452
 10
86.22247176663883
 20
-134.5802435644452
 10
86.22247176663883
 20
-134.5802435644452
 10
86.22247176663883
 20
-134.7852267458176
 10
86.22247176663883
 20
-134.7852267458176
 10
86.22247176663883
 20
-134.7852267458176
 10
85.19445527384028
 20
-134.7852267458176
 10
85.19445527384028
 20
-134.7852267458176
 10
85.22615015230458
 20
-134.4276258344487
 10
85.29177922129858
 20
-134.349766676482
 10
85.67676864177525
 20
-134.0514214074594
 10
85.93273923632933
 20
-133.8522948884119
 10
85.99819605054907
 20
-133.784771016901
 10
85.99819605054907
 20
-133.6473117070396
 10
85.99819605054907
 20
-133.528800422347
 10
85.92636580968161
 20
-133.397542284359
 10
85.72965085747384
 20
-133.397542284359
 10
85.46937389356322
 20
-133.397542284359
 10
85.46093340962436
 20
-133.6283636818707
 10
85.45662704026779
 20
-133.7448079092721
 10
85.45662704026779
 20
-133.7448079092721
 10
85.2325235789523
 20
-133.7448079092721
 10
85.2325235789523
 20
-133.7448079092721
 10
85.24096406289115
 20
-133.6176838858664
 10
85.25147160412116
 20
-133.5057182825958
 10
85.33191458370175
 20
-133.3872069979032
 10
85.44181312968122
 20
-133.226321038742
 10
85.62802054065897
 20
-133.1922145934381
 10
85.74446476806041
 20
-133.1922145934381
 10
86.02162269984876
 20
-133.1922145934381
 10
86.22884519328655
 20
-133.3765272018989
 10
86.22884519328655
 20
-133.6493787643307
 10
86.22884519328655
 20
-133.8777885950028
 10
86.11257322065936
 20
-133.9773518545265
 10
85.80372041040671
 20
-134.2036946279074
 97
        0
 97
        0
 75
     2
 76
     1
 98
        0
  0
ENDBLK
  5
85
330
82
100
AcDbEntity
  8
0
100
AcDbBlockEnd
  0
BLOCK
  5
8C
330
8A
100
AcDbEntity
  8
0
100
AcDbBlockBegin
  2
block 5
 70
     0
 10
0.0
 20
0.0
 30
0.0
  3
block 5
  1

  0
SPLINE
  5
8E
330
8A
100
AcDbEntity
  8
_U+30EC_U+30A4_U+30E4_U+30FC 1
370
     0
100
AcDbSpline
210
0.0
220
0.0
230
1.0
 70
    11
 71
     3
 72
    26
 73
    22
 74
     0
 42
0.0000000001
 43
0.0000000001
 12
1.0
 22
0.0
 32
0.0
 13
1.0
 23
0.0
 33
0.0
 40
0.0
 40
0.0
 40
0.0
 40
0.0
 40
1.0
 40
1.0
 40
1.0
 40
2.0
 40
2.0
 40
2.0
 40
3.0
 40
3.0
 40
3.0
 40
4.0
 40
4.0
 40
4.0
 40
5.0
 40
5.0
 40
5.0
 40
6.0
 40
6.0
 40
6.0
 40
7.0
 40
7.0
 40
7.0
 40
7.0
 10
95.48495548828154
 20
-134.7852267458176
 30
0.0
 10
95.48495548828154
 20
-134.7852267458176
 30
0.0
 10
95.48495548828154
 20
-133.681073642795
 30
0.0
 10
95.48495548828154
 20
-133.681073642795
 30
0.0
 10
95.48495548828154
 20
-133.681073642795
 30
0.0
 10
95.1549153407946
 20
-133.681073642795
 30
0.0
 10
95.1549153407946
 20
-133.681073642795
 30
0.0
 10
95.1549153407946
 20
-133.681073642795
 30
0.0
 10
95.1549153407946
 20
-133.5332790464778
 30
0.0
 10
95.1549153407946
 20
-133.5332790464778
 30
0.0
 10
95.4870225455727
 20
-133.5181206263427
 30
0.0
 10
95.53353133462356
 20
-133.3555121194389
 30
0.0
 10
95.56315915579671
 20
-133.2411349493286
 30
0.0
 10
95.56315915579671
 20
-133.2411349493286
 30
0.0
 10
95.7092312043713
 20
-133.2411349493286
 30
0.0
 10
95.7092312043713
 20
-133.2411349493286
 30
0.0
 10
95.7092312043713
 20
-133.2411349493286
 30
0.0
 10
95.7092312043713
 20
-134.7852267458176
 30
0.0
 10
95.7092312043713
 20
-134.7852267458176
 30
0.0
 10
95.7092312043713
 20
-134.7852267458176
 30
0.0
 10
95.48495548828154
 20
-134.7852267458176
 30
0.0
 10
95.48495548828154
 20
-134.7852267458176
 30
0.0
  0
HATCH
  5
8F
330
8A
100
AcDbEntity
  8
_U+30EC_U+30A4_U+30E4_U+30FC 1
 62
   179
420
  2234388
100
AcDbHatch
 10
0.0
 20
0.0
 30
0.0
210
0.0
220
0.0
230
1.0
  2
SOLID
 70
     1
 71
     0
 91
        1
 92
        1
 93
        1
 72
     4
 94
        3
 73
     0
 74
     1
 95
       26
 96
       22
 40
0.0
 40
0.0
 40
0.0
 40
0.0
 40
1.0
 40
1.0
 40
1.0
 40
2.0
 40
2.0
 40
2.0
 40
3.0
 40
3.0
 40
3.0
 40
4.0
 40
4.0
 40
4.0
 40
5.0
 40
5.0
 40
5.0
 40
6.0
 40
6.0
 40
6.0
 40
7.0
 40
7.0
 40
7.0
 40
7.0
 10
95.48495548828154
 20
-134.7852267458176
 10
95.48495548828154
 20
-134.7852267458176
 10
95.48495548828154
 20
-133.681073642795
 10
95.48495548828154
 20
-133.681073642795
 10
95.48495548828154
 20
-133.681073642795
 10
95.1549153407946
 20
-133.681073642795
 10
95.1549153407946
 20
-133.681073642795
 10
95.1549153407946
 20
-133.681073642795
 10
95.1549153407946
 20
-133.5332790464778
 10
95.1549153407946
 20
-133.5332790464778
 10
95.4870225455727
 20
-133.5181206263427
 10
95.53353133462356
 20
-133.3555121194389
 10
95.56315915579671
 20
-133.2411349493286
 10
95.56315915579671
 20
-133.2411349493286
 10
95.7092312043713
 20
-133.2411349493286
 10
95.7092312043713
 20
-133.2411349493286
 10
95.7092312043713
 20
-133.2411349493286
 10
95.7092312043713
 20
-134.7852267458176
 10
95.7092312043713
 20
-134.7852267458176
 10
95.7092312043713
 20
-134.7852267458176
 10
95.48495548828154
 20
-134.7852267458176
 10
95.48495548828154
 20
-134.7852267458176
 97
        0
 97
        0
 75
     2
 76
     1
 98
        0
  0
SPLINE
  5
90
330
8A
100
AcDbEntity
  8
_U+30EC_U+30A4_U+30E4_U+30FC 1
370
     0
100
AcDbSpline
210
0.0
220
0.0
230
1.0
 70
    11
 71
     3
 72
    29
 73
    25
 74
     0
 42
0.0000000001
 43
0.0000000001
 12
1.0
 22
0.0
 32
0.0
 13
1.0
 23
0.0
 33
0.0
 40
0.0
 40
0.0
 40
0.0
 40
0.0
 40
1.0
 40
1.0
 40
1.0
 40
2.0
 40
2.0
 40
2.0
 40
3.0
 40
3.0
 40
3.0
 40
4.0
 40
4.0
 40
4.0
 40
5.0
 40
5.0
 40
5.0
 40
6.0
 40
6.0
 40
6.0
 40
7.0
 40
7.0
 40
7.0
 40
8.0
 40
8.0
 40
8.0
 40
8.0
 10
97.10828448093126
 20
-134.6074598187787
 30
0.0
 10
97.00010848269442
 20
-134.8169216242819
 30
0.0
 10
96.82682017978635
 20
-134.8362141589993
 30
0.0
 10
96.71037595238491
 20
-134.8362141589993
 30
0.0
 10
96.54948999322374
 20
-134.8362141589993
 30
0.0
 10
96.40789656877998
 20
-134.7897053699484
 30
0.0
 10
96.31246742383856
 20
-134.6074598187787
 30
0.0
 10
96.20911455928106
 20
-134.4131564334106
 30
0.0
 10
96.18982202456365
 20
-134.1761338640254
 30
0.0
 10
96.18982202456365
 20
-134.0131808475731
 30
0.0
 10
96.18982202456365
 20
-133.8695203658382
 30
0.0
 10
96.2070475019899
 20
-133.6176838858664
 30
0.0
 10
96.31246742383856
 20
-133.4189018763675
 30
0.0
 10
96.4206434220754
 20
-133.2156412427378
 30
0.0
 10
96.58118487168804
 20
-133.1922145934381
 30
0.0
 10
96.71037595238491
 20
-133.1922145934381
 30
0.0
 10
96.86919485425493
 20
-133.1922145934381
 30
0.0
 10
97.01285533598984
 20
-133.2370008347463
 30
0.0
 10
97.10828448093126
 20
-133.4189018763675
 30
0.0
 10
97.20750323090647
 20
-133.6111382044444
 30
0.0
 10
97.23092988020616
 20
-133.839892544665
 30
0.0
 10
97.23092988020616
 20
-134.0131808475731
 30
0.0
 10
97.23092988020616
 20
-134.18440209319
 30
0.0
 10
97.20957028819761
 20
-134.4152234907017
 30
0.0
 10
97.10828448093126
 20
-134.6074598187787
 30
0.0
  0
SPLINE
  5
91
330
8A
100
AcDbEntity
  8
_U+30EC_U+30A4_U+30E4_U+30FC 1
370
     0
100
AcDbSpline
210
0.0
220
0.0
230
1.0
 70
    11
 71
     3
 72
    17
 73
    13
 74
     0
 42
0.0000000001
 43
0.0000000001
 12
1.0
 22
0.0
 32
0.0
 13
1.0
 23
0.0
 33
0.0
 40
0.0
 40
0.0
 40
0.0
 40
0.0
 40
1.0
 40
1.0
 40
1.0
 40
2.0
 40
2.0
 40
2.0
 40
3.0
 40
3.0
 40
3.0
 40
4.0
 40
4.0
 40
4.0
 40
4.0
 10
96.71037595238491
 20
-133.385139940612
 30
0.0
 10
96.4606065297043
 20
-133.385139940612
 30
0.0
 10
96.41444225020194
 20
-133.6683267894996
 30
0.0
 10
96.41444225020194
 20
-134.0131808475731
 30
0.0
 10
96.41444225020194
 20
-134.3325411990558
 30
0.0
 10
96.45027124324855
 20
-134.6415662640827
 30
0.0
 10
96.71037595238491
 20
-134.6415662640827
 30
0.0
 10
96.95807831777438
 20
-134.6415662640827
 30
0.0
 10
97.0066541641164
 20
-134.3601019629378
 30
0.0
 10
97.0066541641164
 20
-134.0131808475731
 30
0.0
 10
97.0066541641164
 20
-133.6938204960904
 30
0.0
 10
96.96841360423012
 20
-133.385139940612
 30
0.0
 10
96.71037595238491
 20
-133.385139940612
 30
0.0
  0
HATCH
  5
92
330
8A
100
AcDbEntity
  8
_U+30EC_U+30A4_U+30E4_U+30FC 1
 62
   179
420
  2234388
100
AcDbHatch
 10
0.0
 20
0.0
 30
0.0
210
0.0
220
0.0
230
1.0
  2
SOLID
 70
     1
 71
     0
 91
        2
 92
        1
 93
        1
 72
     4
 94
        3
 73
     0
 74
     1
 95
       29
 96
       25
 40
0.0
 40
0.0
 40
0.0
 40
0.0
 40
1.0
 40
1.0
 40
1.0
 40
2.0
 40
2.0
 40
2.0
 40
3.0
 40
3.0
 40
3.0
 40
4.0
 40
4.0
 40
4.0
 40
5.0
 40
5.0
 40
5.0
 40
6.0
 40
6.0
 40
6.0
 40
7.0
 40
7.0
 40
7.0
 40
8.0
 40
8.0
 40
8.0
 40
8.0
 10
97.10828448093126
 20
-134.6074598187787
 10
97.00010848269442
 20
-134.8169216242819
 10
96.82682017978635
 20
-134.8362141589993
 10
96.71037595238491
 20
-134.8362141589993
 10
96.54948999322374
 20
-134.8362141589993
 10
96.40789656877998
 20
-134.7897053699484
 10
96.31246742383856
 20
-134.6074598187787
 10
96.20911455928106
 20
-134.4131564334106
 10
96.18982202456365
 20
-134.1761338640254
 10
96.18982202456365
 20
-134.0131808475731
 10
96.18982202456365
 20
-133.8695203658382
 10
96.2070475019899
 20
-133.6176838858664
 10
96.31246742383856
 20
-133.4189018763675
 10
96.4206434220754
 20
-133.2156412427378
 10
96.58118487168804
 20
-133.1922145934381
 10
96.71037595238491
 20
-133.1922145934381
 10
96.86919485425493
 20
-133.1922145934381
 10
97.01285533598984
 20
-133.2370008347463
 10
97.10828448093126
 20
-133.4189018763675
 10
97.20750323090647
 20
-133.6111382044444
 10
97.23092988020616
 20
-133.839892544665
 10
97.23092988020616
 20
-134.0131808475731
 10
97.23092988020616
 20
-134.18440209319
 10
97.20957028819761
 20
-134.4152234907017
 10
97.10828448093126
 20
-134.6074598187787
 97
        0
 97
        0
 92
        1
 93
        1
 72
     4
 94
        3
 73
     0
 74
     1
 95
       17
 96
       13
 40
0.0
 40
0.0
 40
0.0
 40
0.0
 40
1.0
 40
1.0
 40
1.0
 40
2.0
 40
2.0
 40
2.0
 40
3.0
 40
3.0
 40
3.0
 40
4.0
 40
4.0
 40
4.0
 40
4.0
 10
96.71037595238491
 20
-133.385139940612
 10
96.4606065297043
 20
-133.385139940612
 10
96.41444225020194
 20
-133.6683267894996
 10
96.41444225020194
 20
-134.0131808475731
 10
96.41444225020194
 20
-134.3325411990558
 10
96.45027124324855
 20
-134.6415662640827
 10
96.71037595238491
 20
-134.6415662640827
 10
96.95807831777438
 20
-134.6415662640827
 10
97.0066541641164
 20
-134.3601019629378
 10
97.0066541641164
 20
-134.0131808475731
 10
97.0066541641164
 20
-133.6938204960904
 10
96.96841360423012
 20
-133.385139940612
 10
96.71037595238491
 20
-133.385139940612
 97
        0
 97
        0
 75
     2
 76
     1
 98
        0
  0
ENDBLK
  5
8D
330
8A
100
AcDbEntity
  8
0
100
AcDbBlockEnd
  0
BLOCK
  5
A6
330
A4
100
AcDbEntity
  8
0
100
AcDbBlockBegin
  2
block 6
 70
     0
 10
0.0
 20
0.0
 30
0.0
  3
block 6
  1

  0
SPLINE
  5
A8
330
A4
100
AcDbEntity
  8
_U+30EC_U+30A4_U+30E4_U+30FC 1
370
     0
100
AcDbSpline
210
0.0
220
0.0
230
1.0
 70
    11
 71
     3
 72
    26
 73
    22
 74
     0
 42
0.0000000001
 43
0.0000000001
 12
1.0
 22
0.0
 32
0.0
 13
1.0
 23
0.0
 33
0.0
 40
0.0
 40
0.0
 40
0.0
 40
0.0
 40
1.0
 40
1.0
 40
1.0
 40
2.0
 40
2.0
 40
2.0
 40
3.0
 40
3.0
 40
3.0
 40
4.0
 40
4.0
 40
4.0
 40
5.0
 40
5.0
 40
5.0
 40
6.0
 40
6.0
 40
6.0
 40
7.0
 40
7.0
 40
7.0
 40
7.0
 10
106.0159233675932
 20
-130.9418782224729
 30
0.0
 10
106.0159233675932
 20
-130.9418782224729
 30
0.0
 10
104.9117702645707
 20
-130.9418782224729
 30
0.0
 10
104.9117702645707
 20
-130.9418782224729
 30
0.0
 10
104.9117702645707
 20
-130.9418782224729
 30
0.0
 10
104.9117702645707
 20
-131.2719183699598
 30
0.0
 10
104.9117702645707
 20
-131.2719183699598
 30
0.0
 10
104.9117702645707
 20
-131.2719183699598
 30
0.0
 10
104.7639756682535
 20
-131.2719183699598
 30
0.0
 10
104.7639756682535
 20
-131.2719183699598
 30
0.0
 10
104.7488172481184
 20
-130.9398111651817
 30
0.0
 10
104.5862087412146
 20
-130.8933023761308
 30
0.0
 10
104.4718315711043
 20
-130.8636745549577
 30
0.0
 10
104.4718315711043
 20
-130.8636745549577
 30
0.0
 10
104.4718315711043
 20
-130.7176025063831
 30
0.0
 10
104.4718315711043
 20
-130.7176025063831
 30
0.0
 10
104.4718315711043
 20
-130.7176025063831
 30
0.0
 10
106.0159233675932
 20
-130.7176025063831
 30
0.0
 10
106.0159233675932
 20
-130.7176025063831
 30
0.0
 10
106.0159233675932
 20
-130.7176025063831
 30
0.0
 10
106.0159233675932
 20
-130.9418782224729
 30
0.0
 10
106.0159233675932
 20
-130.9418782224729
 30
0.0
  0
HATCH
  5
A9
330
A4
100
AcDbEntity
  8
_U+30EC_U+30A4_U+30E4_U+30FC 1
 62
   179
420
  2234388
100
AcDbHatch
 10
0.0
 20
0.0
 30
0.0
210
0.0
220
0.0
230
1.0
  2
SOLID
 70
     1
 71
     0
 91
        1
 92
        1
 93
        1
 72
     4
 94
        3
 73
     0
 74
     1
 95
       26
 96
       22
 40
0.0
 40
0.0
 40
0.0
 40
0.0
 40
1.0
 40
1.0
 40
1.0
 40
2.0
 40
2.0
 40
2.0
 40
3.0
 40
3.0
 40
3.0
 40
4.0
 40
4.0
 40
4.0
 40
5.0
 40
5.0
 40
5.0
 40
6.0
 40
6.0
 40
6.0
 40
7.0
 40
7.0
 40
7.0
 40
7.0
 10
106.0159233675932
 20
-130.9418782224729
 10
106.0159233675932
 20
-130.9418782224729
 10
104.9117702645707
 20
-130.9418782224729
 10
104.9117702645707
 20
-130.9418782224729
 10
104.9117702645707
 20
-130.9418782224729
 10
104.9117702645707
 20
-131.2719183699598
 10
104.9117702645707
 20
-131.2719183699598
 10
104.9117702645707
 20
-131.2719183699598
 10
104.7639756682535
 20
-131.2719183699598
 10
104.7639756682535
 20
-131.2719183699598
 10
104.7488172481184
 20
-130.9398111651817
 10
104.5862087412146
 20
-130.8933023761308
 10
104.4718315711043
 20
-130.8636745549577
 10
104.4718315711043
 20
-130.8636745549577
 10
104.4718315711043
 20
-130.7176025063831
 10
104.4718315711043
 20
-130.7176025063831
 10
104.4718315711043
 20
-130.7176025063831
 10
106.0159233675932
 20
-130.7176025063831
 10
106.0159233675932
 20
-130.7176025063831
 10
106.0159233675932
 20
-130.7176025063831
 10
106.0159233675932
 20
-130.9418782224729
 10
106.0159233675932
 20
-130.9418782224729
 97
        0
 97
        0
 75
     2
 76
     1
 98
        0
  0
ENDBLK
  5
A7
330
A4
100
AcDbEntity
  8
0
100
AcDbBlockEnd
  0
BLOCK
  5
AC
330
AA
100
AcDbEntity
  8
0
100
AcDbBlockBegin
  2
block 7
 70
     0
 10
0.0
 20
0.0
 30
0.0
  3
block 7
  1

  0
SPLINE
  5
AE
330
AA
100
AcDbEntity
  8
_U+30EC_U+30A4_U+30E4_U+30FC 1
370
     0
100
AcDbSpline
210
0.0
220
0.0
230
1.0
 70
    11
 71
     3
 72
    32
 73
    28
 74
     0
 42
0.0000000001
 43
0.0000000001
 12
1.0
 22
0.0
 32
0.0
 13
1.0
 23
0.0
 33
0.0
 40
0.0
 40
0.0
 40
0.0
 40
0.0
 40
1.0
 40
1.0
 40
1.0
 40
2.0
 40
2.0
 40
2.0
 40
3.0
 40
3.0
 40
3.0
 40
4.0
 40
4.0
 40
4.0
 40
5.0
 40
5.0
 40
5.0
 40
6.0
 40
6.0
 40
6.0
 40
7.0
 40
7.0
 40
7.0
 40
8.0
 40
8.0
 40
8.0
 40
9.0
 40
9.0
 40
9.0
 40
9.0
 10
106.0669107807749
 20
-127.4597479607566
 30
0.0
 10
106.0669107807749
 20
-127.9759955192213
 30
0.0
 10
105.5125949171982
 20
-127.9844360031601
 30
0.0
 10
105.2989989971128
 20
-127.9844360031601
 30
0.0
 10
105.0685221091495
 20
-127.9844360031601
 30
0.0
 10
104.4208441579226
 20
-127.965315723217
 30
0.0
 10
104.4208441579226
 20
-127.4216796556446
 30
0.0
 10
104.4208441579226
 20
-127.2482190979623
 30
0.0
 10
104.4907795962731
 20
-127.0027560446382
 30
0.0
 10
104.8228868010512
 20
-126.9646877395262
 30
0.0
 10
104.8228868010512
 20
-126.9646877395262
 30
0.0
 10
104.8228868010512
 20
-127.1784559143859
 30
0.0
 10
104.8228868010512
 20
-127.1784559143859
 30
0.0
 10
104.7660427255446
 20
-127.188963455616
 30
0.0
 10
104.6179036196789
 20
-127.2206583340803
 30
0.0
 10
104.6179036196789
 20
-127.4237467129357
 30
0.0
 10
104.6179036196789
 20
-127.7157185553107
 30
0.0
 10
104.9458767098747
 20
-127.7560261724881
 30
0.0
 10
105.150859891247
 20
-127.7686007710092
 30
0.0
 10
105.0726562237318
 20
-127.6755831929075
 30
0.0
 10
105.0134005813855
 20
-127.6078870666223
 30
0.0
 10
105.0134005813855
 20
-127.4259860250012
 30
0.0
 10
105.0134005813855
 20
-127.2461520406711
 30
0.0
 10
105.1212320700739
 20
-126.9436726570662
 30
0.0
 10
105.5274088277848
 20
-126.9436726570662
 30
0.0
 10
105.847113688816
 20
-126.9436726570662
 30
0.0
 10
106.0669107807749
 20
-127.1424546665651
 30
0.0
 10
106.0669107807749
 20
-127.4597479607566
 30
0.0
  0
SPLINE
  5
AF
330
AA
100
AcDbEntity
  8
_U+30EC_U+30A4_U+30E4_U+30FC 1
370
     0
100
AcDbSpline
210
0.0
220
0.0
230
1.0
 70
    11
 71
     3
 72
    17
 73
    13
 74
     0
 42
0.0000000001
 43
0.0000000001
 12
1.0
 22
0.0
 32
0.0
 13
1.0
 23
0.0
 33
0.0
 40
0.0
 40
0.0
 40
0.0
 40
0.0
 40
1.0
 40
1.0
 40
1.0
 40
2.0
 40
2.0
 40
2.0
 40
3.0
 40
3.0
 40
3.0
 40
4.0
 40
4.0
 40
4.0
 40
4.0
 10
105.2080484763022
 20
-127.4428669928789
 30
0.0
 10
105.2080484763022
 20
-127.7052110140806
 30
0.0
 10
105.4195773390965
 20
-127.7432793191927
 30
0.0
 10
105.5356770569494
 20
-127.7432793191927
 30
0.0
 10
105.7113769266972
 20
-127.7432793191927
 30
0.0
 10
105.8743299431495
 20
-127.6480224290255
 30
0.0
 10
105.8743299431495
 20
-127.4640543301132
 30
0.0
 10
105.8743299431495
 20
-127.3434759881294
 30
0.0
 10
105.8150743008032
 20
-127.1677761183817
 30
0.0
 10
105.529475885076
 20
-127.1677761183817
 30
0.0
 10
105.3055446785347
 20
-127.1677761183817
 30
0.0
 10
105.2080484763022
 20
-127.3074747403085
 30
0.0
 10
105.2080484763022
 20
-127.4428669928789
 30
0.0
  0
HATCH
  5
B0
330
AA
100
AcDbEntity
  8
_U+30EC_U+30A4_U+30E4_U+30FC 1
 62
   179
420
  2234388
100
AcDbHatch
 10
0.0
 20
0.0
 30
0.0
210
0.0
220
0.0
230
1.0
  2
SOLID
 70
     1
 71
     0
 91
        2
 92
        1
 93
        1
 72
     4
 94
        3
 73
     0
 74
     1
 95
       32
 96
       28
 40
0.0
 40
0.0
 40
0.0
 40
0.0
 40
1.0
 40
1.0
 40
1.0
 40
2.0
 40
2.0
 40
2.0
 40
3.0
 40
3.0
 40
3.0
 40
4.0
 40
4.0
 40
4.0
 40
5.0
 40
5.0
 40
5.0
 40
6.0
 40
6.0
 40
6.0
 40
7.0
 40
7.0
 40
7.0
 40
8.0
 40
8.0
 40
8.0
 40
9.0
 40
9.0
 40
9.0
 40
9.0
 10
106.0669107807749
 20
-127.4597479607566
 10
106.0669107807749
 20
-127.9759955192213
 10
105.5125949171982
 20
-127.9844360031601
 10
105.2989989971128
 20
-127.9844360031601
 10
105.0685221091495
 20
-127.9844360031601
 10
104.4208441579226
 20
-127.965315723217
 10
104.4208441579226
 20
-127.4216796556446
 10
104.4208441579226
 20
-127.2482190979623
 10
104.4907795962731
 20
-127.0027560446382
 10
104.8228868010512
 20
-126.9646877395262
 10
104.8228868010512
 20
-126.9646877395262
 10
104.8228868010512
 20
-127.1784559143859
 10
104.8228868010512
 20
-127.1784559143859
 10
104.7660427255446
 20
-127.188963455616
 10
104.6179036196789
 20
-127.2206583340803
 10
104.6179036196789
 20
-127.4237467129357
 10
104.6179036196789
 20
-127.7157185553107
 10
104.9458767098747
 20
-127.7560261724881
 10
105.150859891247
 20
-127.7686007710092
 10
105.0726562237318
 20
-127.6755831929075
 10
105.0134005813855
 20
-127.6078870666223
 10
105.0134005813855
 20
-127.4259860250012
 10
105.0134005813855
 20
-127.2461520406711
 10
105.1212320700739
 20
-126.9436726570662
 10
105.5274088277848
 20
-126.9436726570662
 10
105.847113688816
 20
-126.9436726570662
 10
106.0669107807749
 20
-127.1424546665651
 10
106.0669107807749
 20
-127.4597479607566
 97
        0
 97
        0
 92
        1
 93
        1
 72
     4
 94
        3
 73
     0
 74
     1
 95
       17
 96
       13
 40
0.0
 40
0.0
 40
0.0
 40
0.0
 40
1.0
 40
1.0
 40
1.0
 40
2.0
 40
2.0
 40
2.0
 40
3.0
 40
3.0
 40
3.0
 40
4.0
 40
4.0
 40
4.0
 40
4.0
 10
105.2080484763022
 20
-127.4428669928789
 10
105.2080484763022
 20
-127.7052110140806
 10
105.4195773390965
 20
-127.7432793191927
 10
105.5356770569494
 20
-127.7432793191927
 10
105.7113769266972
 20
-127.7432793191927
 10
105.8743299431495
 20
-127.6480224290255
 10
105.8743299431495
 20
-127.4640543301132
 10
105.8743299431495
 20
-127.3434759881294
 10
105.8150743008032
 20
-127.1677761183817
 10
105.529475885076
 20
-127.1677761183817
 10
105.3055446785347
 20
-127.1677761183817
 10
105.2080484763022
 20
-127.3074747403085
 10
105.2080484763022
 20
-127.4428669928789
 97
        0
 97
        0
 75
     2
 76
     1
 98
        0
  0
ENDBLK
  5
AD
330
AA
100
AcDbEntity
  8
0
100
AcDbBlockEnd
  0
ENDSEC
  0
SECTION
  2
ENTITIES
  0
SPLINE
  5
41
330
1F
100
AcDbEntity
  8
_U+30EC_U+30A4_U+30E4_U+30FC 1
 62
   179
420
  2234388
370
    25
100
AcDbSpline
210
0.0
220
0.0
230
1.0
 70
    11
 71
     3
 72
    29
 73
    25
 74
     0
 42
0.0000000001
 43
0.0000000001
 12
1.0
 22
0.0
 32
0.0
 13
1.0
 23
0.0
 33
0.0
 40
0.0
 40
0.0
 40
0.0
 40
0.0
 40
1.0
 40
1.0
 40
1.0
 40
2.0
 40
2.0
 40
2.0
 40
3.0
 40
3.0
 40
3.0
 40
4.0
 40
4.0
 40
4.0
 40
5.0
 40
5.0
 40
5.0
 40
6.0
 40
6.0
 40
6.0
 40
7.0
 40
7.0
 40
7.0
 40
8.0
 40
8.0
 40
8.0
 40
8.0
 10
92.15631292667436
 20
-124.4316719133364
 30
0.0
 10
92.15631292667436
 20
-124.4316719133364
 30
0.0
 10
80.15601267727197
 20
-124.4316719133364
 30
0.0
 10
80.15601267727197
 20
-124.4316719133364
 30
0.0
 10
80.15601267727197
 20
-124.4316719133364
 30
0.0
 10
79.14781109132409
 20
-124.4902330244329
 30
0.0
 10
79.15606409167168
 20
-125.4321496908642
 30
0.0
 10
79.15606409167168
 20
-125.4321496908642
 30
0.0
 10
91.14292350808364
 20
-125.4276694130874
 30
0.0
 10
91.14292350808364
 20
-125.4276694130874
 30
0.0
 10
91.14292350808364
 20
-125.4276694130874
 30
0.0
 10
91.15601386610004
 20
-131.4307477449203
 30
0.0
 10
91.15601386610004
 20
-131.4307477449203
 30
0.0
 10
91.15601386610004
 20
-131.4307477449203
 30
0.0
 10
100.155831055923
 20
-131.4307477449203
 30
0.0
 10
100.155831055923
 20
-131.4307477449203
 30
0.0
 10
100.155831055923
 20
-131.4307477449203
 30
0.0
 10
101.1500646416691
 20
-131.5041255226793
 30
0.0
 10
101.1562735303996
 20
-130.4302699673922
 30
0.0
 10
101.1562735303996
 20
-130.4302699673922
 30
0.0
 10
92.18315931487834
 20
-130.4165116340627
 30
0.0
 10
92.18315931487834
 20
-130.4165116340627
 30
0.0
 10
92.18315931487834
 20
-130.4165116340627
 30
0.0
 10
92.15631292667436
 20
-124.4316719133364
 30
0.0
 10
92.15631292667436
 20
-124.4316719133364
 30
0.0
  0
HATCH
  5
42
330
1F
100
AcDbEntity
  8
_U+30EC_U+30A4_U+30E4_U+30FC 1
 62
     9
420
 12566464
100
AcDbHatch
 10
0.0
 20
0.0
 30
0.0
210
0.0
220
0.0
230
1.0
  2
SOLID
 70
     1
 71
     0
 91
        1
 92
        1
 93
        2
 72
     4
 94
        3
 73
     0
 74
     0
 95
       29
 96
       25
 40
0.0
 40
0.0
 40
0.0
 40
0.0
 40
0.3527777776895833
 40
0.3527777776895833
 40
0.3527777776895833
 40
0.7055555553791667
 40
0.7055555553791667
 40
0.7055555553791667
 40
1.05833333306875
 40
1.05833333306875
 40
1.05833333306875
 40
1.411111110758333
 40
1.411111110758333
 40
1.411111110758333
 40
1.763888888447917
 40
1.763888888447917
 40
1.763888888447917
 40
2.1166666661375
 40
2.1166666661375
 40
2.1166666661375
 40
2.469444443827083
 40
2.469444443827083
 40
2.469444443827083
 40
2.822222221516667
 40
2.822222221516667
 40
2.822222221516667
 40
2.822222221516667
 10
92.15631292667436
 20
-124.4316719133364
 10
92.15631292667436
 20
-124.4316719133364
 10
80.15601267727197
 20
-124.4316719133364
 10
80.15601267727197
 20
-124.4316719133364
 10
80.15601267727197
 20
-124.4316719133364
 10
79.14781109132409
 20
-124.4902330244329
 10
79.15606409167168
 20
-125.4321496908642
 10
79.15606409167168
 20
-125.4321496908642
 10
91.14292350808364
 20
-125.4276694130874
 10
91.14292350808364
 20
-125.4276694130874
 10
91.14292350808364
 20
-125.4276694130874
 10
91.15601386610004
 20
-131.4307477449203
 10
91.15601386610004
 20
-131.4307477449203
 10
91.15601386610004
 20
-131.4307477449203
 10
100.155831055923
 20
-131.4307477449203
 10
100.155831055923
 20
-131.4307477449203
 10
100.155831055923
 20
-131.4307477449203
 10
101.1500646416691
 20
-131.5041255226793
 10
101.1562735303996
 20
-130.4302699673922
 10
101.1562735303996
 20
-130.4302699673922
 10
92.18315931487834
 20
-130.4165116340627
 10
92.18315931487834
 20
-130.4165116340627
 10
92.18315931487834
 20
-130.4165116340627
 10
92.15631292667436
 20
-124.4316719133364
 10
92.15631292667436
 20
-124.4316719133364
 97
        0
 72
     1
 10
92.15631292667436
 20
-124.4316719133364
 11
92.15631292667436
 21
-124.4316719133364
 97
        0
 75
     2
 76
     1
 98
        0
  0
POLYLINE
  5
43
330
1F
100
AcDbEntity
  8
_U+30EC_U+30A4_U+30E4_U+30FC 1
 62
   179
420
  2234388
370
     9
100
AcDb2dPolyline
 66
     1
 10
0.0
 20
0.0
 30
0.0
  0
VERTEX
  5
44
330
43
100
AcDbEntity
  8
_U+30EC_U+30A4_U+30E4_U+30FC 1
 62
   179
420
  2234388
370
     9
100
AcDbVertex
100
AcDb2dVertex
 10
101.2279226952383
 20
-131.0620949672346
 30
0.0
  0
VERTEX
  5
45
330
43
100
AcDbEntity
  8
_U+30EC_U+30A4_U+30E4_U+30FC 1
 62
   179
420
  2234388
370
     9
100
AcDbVertex
100
AcDb2dVertex
 10
101.7495046263761
 20
-131.9654177447862
 30
0.0
  0
SEQEND
  5
46
330
43
100
AcDbEntity
  8
_U+30EC_U+30A4_U+30E4_U+30FC 1
 62
   179
420
  2234388
370
     9
  0
POLYLINE
  5
47
330
1F
100
AcDbEntity
  8
_U+30EC_U+30A4_U+30E4_U+30FC 1
 62
   179
420
  2234388
370
     9
100
AcDb2dPolyline
 66
     1
 10
0.0
 20
0.0
 30
0.0
  0
VERTEX
  5
48
330
47
100
AcDbEntity
  8
_U+30EC_U+30A4_U+30E4_U+30FC 1
 62
   179
420
  2234388
370
     9
100
AcDbVertex
100
AcDb2dVertex
 10
101.2279226952383
 20
-131.0620949672346
 30
0.0
  0
VERTEX
  5
49
330
47
100
AcDbEntity
  8
_U+30EC_U+30A4_U+30E4_U+30FC 1
 62
   179
420
  2234388
370
     9
100
AcDbVertex
100
AcDb2dVertex
 10
103.8262015178396
 20
-133.5453330221694
 30
0.0
  0
SEQEND
  5
4A
330
47
100
AcDbEntity
  8
_U+30EC_U+30A4_U+30E4_U+30FC 1
 62
   179
420
  2234388
370
     9
  0
POLYLINE
  5
4B
330
1F
100
AcDbEntity
  8
_U+30EC_U+30A4_U+30E4_U+30FC 1
 62
   179
420
  2234388
370
     9
100
AcDb2dPolyline
 66
     1
 10
0.0
 20
0.0
 30
0.0
  0
VERTEX
  5
4C
330
4B
100
AcDbEntity
  8
_U+30EC_U+30A4_U+30E4_U+30FC 1
 62
   179
420
  2234388
370
     9
100
AcDbVertex
100
AcDb2dVertex
 10
101.2279226952383
 20
-131.0620949672346
 30
0.0
  0
VERTEX
  5
4D
330
4B
100
AcDbEntity
  8
_U+30EC_U+30A4_U+30E4_U+30FC 1
 62
   179
420
  2234388
370
     9
100
AcDbVertex
100
AcDb2dVertex
 10
102.1305398944329
 20
-131.5837121893266
 30
0.0
  0
SEQEND
  5
4E
330
4B
100
AcDbEntity
  8
_U+30EC_U+30A4_U+30E4_U+30FC 1
 62
   179
420
  2234388
370
     9
  0
INSERT
  5
50
330
1F
100
AcDbEntity
  8
_U+30EC_U+30A4_U+30E4_U+30FC 1
100
AcDbBlockReference
  2
block 2
 10
0.0
 20
0.0
 30
0.0
  0
POLYLINE
  5
58
330
1F
100
AcDbEntity
  8
_U+30EC_U+30A4_U+30E4_U+30FC 1
 62
   179
420
  2234388
370
     9
100
AcDb2dPolyline
 66
     1
 10
0.0
 20
0.0
 30
0.0
  0
VERTEX
  5
59
330
58
100
AcDbEntity
  8
_U+30EC_U+30A4_U+30E4_U+30FC 1
 62
   179
420
  2234388
370
     9
100
AcDbVertex
100
AcDb2dVertex
 10
79.17603331353922
 20
-124.6841902466066
 30
0.0
  0
VERTEX
  5
5A
330
58
100
AcDbEntity
  8
_U+30EC_U+30A4_U+30E4_U+30FC 1
 62
   179
420
  2234388
370
     9
100
AcDbVertex
100
AcDb2dVertex
 10
78.65444938224671
 20
-123.7809027468326
 30
0.0
  0
SEQEND
  5
5B
330
58
100
AcDbEntity
  8
_U+30EC_U+30A4_U+30E4_U+30FC 1
 62
   179
420
  2234388
370
     9
  0
POLYLINE
  5
5C
330
1F
100
AcDbEntity
  8
_U+30EC_U+30A4_U+30E4_U+30FC 1
 62
   179
420
  2234388
370
     9
100
AcDb2dPolyline
 66
     1
 10
0.0
 20
0.0
 30
0.0
  0
VERTEX
  5
5D
330
5C
100
AcDbEntity
  8
_U+30EC_U+30A4_U+30E4_U+30FC 1
 62
   179
420
  2234388
370
     9
100
AcDbVertex
100
AcDb2dVertex
 10
79.17603331353922
 20
-124.6841902466066
 30
0.0
  0
VERTEX
  5
5E
330
5C
100
AcDbEntity
  8
_U+30EC_U+30A4_U+30E4_U+30FC 1
 62
   179
420
  2234388
370
     9
100
AcDbVertex
100
AcDb2dVertex
 10
76.57775249078321
 20
-122.2013402472275
 30
0.0
  0
SEQEND
  5
5F
330
5C
100
AcDbEntity
  8
_U+30EC_U+30A4_U+30E4_U+30FC 1
 62
   179
420
  2234388
370
     9
  0
POLYLINE
  5
60
330
1F
100
AcDbEntity
  8
_U+30EC_U+30A4_U+30E4_U+30FC 1
 62
   179
420
  2234388
370
     9
100
AcDb2dPolyline
 66
     1
 10
0.0
 20
0.0
 30
0.0
  0
VERTEX
  5
61
330
60
100
AcDbEntity
  8
_U+30EC_U+30A4_U+30E4_U+30FC 1
 62
   179
420
  2234388
370
     9
100
AcDbVertex
100
AcDb2dVertex
 10
79.17603331353922
 20
-124.6841902466066
 30
0.0
  0
VERTEX
  5
62
330
60
100
AcDbEntity
  8
_U+30EC_U+30A4_U+30E4_U+30FC 1
 62
   179
420
  2234388
370
     9
100
AcDbVertex
100
AcDb2dVertex
 10
78.27341411418995
 20
-124.1626083022928
 30
0.0
  0
SEQEND
  5
63
330
60
100
AcDbEntity
  8
_U+30EC_U+30A4_U+30E4_U+30FC 1
 62
   179
420
  2234388
370
     9
  0
INSERT
  5
65
330
1F
100
AcDbEntity
  8
_U+30EC_U+30A4_U+30E4_U+30FC 1
100
AcDbBlockReference
  2
block 3
 10
0.0
 20
0.0
 30
0.0
  0
SPLINE
  5
6D
330
1F
100
AcDbEntity
  8
_U+30EC_U+30A4_U+30E4_U+30FC 1
 62
   179
420
  2234388
370
     9
100
AcDbSpline
210
0.0
220
0.0
230
1.0
 70
    11
 71
     3
 72
    17
 73
    13
 74
     0
 42
0.0000000001
 43
0.0000000001
 12
1.0
 22
0.0
 32
0.0
 13
1.0
 23
0.0
 33
0.0
 40
0.0
 40
0.0
 40
0.0
 40
0.0
 40
1.0
 40
1.0
 40
1.0
 40
2.0
 40
2.0
 40
2.0
 40
3.0
 40
3.0
 40
3.0
 40
4.0
 40
4.0
 40
4.0
 40
4.0
 10
103.8661712390421
 20
-130.4302699673922
 30
0.0
 10
103.8661712390421
 20
-130.3751660785173
 30
0.0
 10
103.8214037401842
 20
-130.3303633007506
 30
0.0
 10
103.7662645749243
 20
-130.3303633007506
 30
0.0
 10
103.7111606874412
 20
-130.3303633007506
 30
0.0
 10
103.6663579108064
 20
-130.3751660785173
 30
0.0
 10
103.6663579108064
 20
-130.4302699673922
 30
0.0
 10
103.6663579108064
 20
-130.4854091340453
 30
0.0
 10
103.7111606874412
 20
-130.5301766340338
 30
0.0
 10
103.7662645749243
 20
-130.5301766340338
 30
0.0
 10
103.8214037401842
 20
-130.5301766340338
 30
0.0
 10
103.8661712390421
 20
-130.4854091340453
 30
0.0
 10
103.8661712390421
 20
-130.4302699673922
 30
0.0
  0
SPLINE
  5
6E
330
1F
100
AcDbEntity
  8
_U+30EC_U+30A4_U+30E4_U+30FC 1
 62
   179
420
  2234388
370
     9
100
AcDbSpline
210
0.0
220
0.0
230
1.0
 70
    11
 71
     3
 72
    17
 73
    13
 74
     0
 42
0.0000000001
 43
0.0000000001
 12
1.0
 22
0.0
 32
0.0
 13
1.0
 23
0.0
 33
0.0
 40
0.0
 40
0.0
 40
0.0
 40
0.0
 40
1.0
 40
1.0
 40
1.0
 40
2.0
 40
2.0
 40
2.0
 40
3.0
 40
3.0
 40
3.0
 40
4.0
 40
4.0
 40
4.0
 40
4.0
 10
103.8661712390421
 20
-131.4300421893647
 30
0.0
 10
103.8661712390421
 20
-131.3756085782672
 30
0.0
 10
103.8214037401842
 20
-131.3301355227231
 30
0.0
 10
103.7662645749243
 20
-131.3301355227231
 30
0.0
 10
103.7111606874412
 20
-131.3301355227231
 30
0.0
 10
103.6663579108064
 20
-131.3756085782672
 30
0.0
 10
103.6663579108064
 20
-131.4300421893647
 30
0.0
 10
103.6663579108064
 20
-131.4851813560178
 30
0.0
 10
103.7111606874412
 20
-131.5299488560064
 30
0.0
 10
103.7662645749243
 20
-131.5299488560064
 30
0.0
 10
103.8214037401842
 20
-131.5299488560064
 30
0.0
 10
103.8661712390421
 20
-131.4851813560178
 30
0.0
 10
103.8661712390421
 20
-131.4300421893647
 30
0.0
  0
SPLINE
  5
6F
330
1F
100
AcDbEntity
  8
_U+30EC_U+30A4_U+30E4_U+30FC 1
 62
   179
420
  2234388
370
     9
100
AcDbSpline
210
0.0
220
0.0
230
1.0
 70
    11
 71
     3
 72
    17
 73
    13
 74
     0
 42
0.0000000001
 43
0.0000000001
 12
1.0
 22
0.0
 32
0.0
 13
1.0
 23
0.0
 33
0.0
 40
0.0
 40
0.0
 40
0.0
 40
0.0
 40
1.0
 40
1.0
 40
1.0
 40
2.0
 40
2.0
 40
2.0
 40
3.0
 40
3.0
 40
3.0
 40
4.0
 40
4.0
 40
4.0
 40
4.0
 10
91.25591822742312
 20
-135.4305069105865
 30
0.0
 10
91.25591822742312
 20
-135.3757205217118
 30
0.0
 10
91.21115072856524
 20
-135.3306002439449
 30
0.0
 10
91.15601386610004
 20
-135.3306002439449
 30
0.0
 10
91.10122517581412
 20
-135.3306002439449
 30
0.0
 10
91.05645767695623
 20
-135.3757205217118
 30
0.0
 10
91.05645767695623
 20
-135.4305069105865
 30
0.0
 10
91.05645767695623
 20
-135.4856107994621
 30
0.0
 10
91.10122517581412
 20
-135.5304135772288
 30
0.0
 10
91.15601386610004
 20
-135.5304135772288
 30
0.0
 10
91.21115072856524
 20
-135.5304135772288
 30
0.0
 10
91.25591822742312
 20
-135.4856107994621
 30
0.0
 10
91.25591822742312
 20
-135.4305069105865
 30
0.0
  0
SPLINE
  5
70
330
1F
100
AcDbEntity
  8
_U+30EC_U+30A4_U+30E4_U+30FC 1
 62
   179
420
  2234388
370
     9
100
AcDbSpline
210
0.0
220
0.0
230
1.0
 70
    11
 71
     3
 72
    17
 73
    13
 74
     0
 42
0.0000000001
 43
0.0000000001
 12
1.0
 22
0.0
 32
0.0
 13
1.0
 23
0.0
 33
0.0
 40
0.0
 40
0.0
 40
0.0
 40
0.0
 40
1.0
 40
1.0
 40
1.0
 40
2.0
 40
2.0
 40
2.0
 40
3.0
 40
3.0
 40
3.0
 40
4.0
 40
4.0
 40
4.0
 40
4.0
 10
79.2559707557895
 20
-135.4305069105865
 30
0.0
 10
79.2559707557895
 20
-135.3757205217118
 30
0.0
 10
79.21116797915475
 20
-135.3306002439449
 30
0.0
 10
79.15606409167168
 20
-135.3306002439449
 30
0.0
 10
79.10092492641172
 20
-135.3306002439449
 30
0.0
 10
79.05615742755384
 20
-135.3757205217118
 30
0.0
 10
79.05615742755384
 20
-135.4305069105865
 30
0.0
 10
79.05615742755384
 20
-135.4856107994621
 30
0.0
 10
79.10092492641172
 20
-135.5304135772288
 30
0.0
 10
79.15606409167168
 20
-135.5304135772288
 30
0.0
 10
79.21116797915475
 20
-135.5304135772288
 30
0.0
 10
79.2559707557895
 20
-135.4856107994621
 30
0.0
 10
79.2559707557895
 20
-135.4305069105865
 30
0.0
  0
POLYLINE
  5
71
330
1F
100
AcDbEntity
  8
_U+30EC_U+30A4_U+30E4_U+30FC 1
 62
   179
420
  2234388
370
     9
100
AcDb2dPolyline
 66
     1
 10
0.0
 20
0.0
 30
0.0
  0
VERTEX
  5
72
330
71
100
AcDbEntity
  8
_U+30EC_U+30A4_U+30E4_U+30FC 1
 62
   179
420
  2234388
370
     9
100
AcDbVertex
100
AcDb2dVertex
 10
79.15606409167168
 20
-135.4305069105865
 30
0.0
  0
VERTEX
  5
73
330
71
100
AcDbEntity
  8
_U+30EC_U+30A4_U+30E4_U+30FC 1
 62
   179
420
  2234388
370
     9
100
AcDbVertex
100
AcDb2dVertex
 10
101.1562735303996
 20
-135.4305069105865
 30
0.0
  0
SEQEND
  5
74
330
71
100
AcDbEntity
  8
_U+30EC_U+30A4_U+30E4_U+30FC 1
 62
   179
420
  2234388
370
     9
  0
POLYLINE
  5
75
330
1F
100
AcDbEntity
  8
_U+30EC_U+30A4_U+30E4_U+30FC 1
 62
   179
420
  2234388
370
     9
100
AcDb2dPolyline
 66
     1
 10
0.0
 20
0.0
 30
0.0
  0
VERTEX
  5
76
330
75
100
AcDbEntity
  8
_U+30EC_U+30A4_U+30E4_U+30FC 1
 62
   179
420
  2234388
370
     9
100
AcDbVertex
100
AcDb2dVertex
 10
79.15606409167168
 20
-133.9704655220628
 30
0.0
  0
VERTEX
  5
77
330
75
100
AcDbEntity
  8
_U+30EC_U+30A4_U+30E4_U+30FC 1
 62
   179
420
  2234388
370
     9
100
AcDbVertex
100
AcDb2dVertex
 10
79.15606409167168
 20
-136.4305966325593
 30
0.0
  0
SEQEND
  5
78
330
75
100
AcDbEntity
  8
_U+30EC_U+30A4_U+30E4_U+30FC 1
 62
   179
420
  2234388
370
     9
  0
POLYLINE
  5
79
330
1F
100
AcDbEntity
  8
_U+30EC_U+30A4_U+30E4_U+30FC 1
 62
   179
420
  2234388
370
     9
100
AcDb2dPolyline
 66
     1
 10
0.0
 20
0.0
 30
0.0
  0
VERTEX
  5
7A
330
79
100
AcDbEntity
  8
_U+30EC_U+30A4_U+30E4_U+30FC 1
 62
   179
420
  2234388
370
     9
100
AcDbVertex
100
AcDb2dVertex
 10
91.15601386610004
 20
-133.9704655220628
 30
0.0
  0
VERTEX
  5
7B
330
79
100
AcDbEntity
  8
_U+30EC_U+30A4_U+30E4_U+30FC 1
 62
   179
420
  2234388
370
     9
100
AcDbVertex
100
AcDb2dVertex
 10
91.15601386610004
 20
-136.4305966325593
 30
0.0
  0
SEQEND
  5
7C
330
79
100
AcDbEntity
  8
_U+30EC_U+30A4_U+30E4_U+30FC 1
 62
   179
420
  2234388
370
     9
  0
SPLINE
  5
7D
330
1F
100
AcDbEntity
  8
_U+30EC_U+30A4_U+30E4_U+30FC 1
 62
   179
420
  2234388
370
     9
100
AcDbSpline
210
0.0
220
0.0
230
1.0
 70
    11
 71
     3
 72
    17
 73
    13
 74
     0
 42
0.0000000001
 43
0.0000000001
 12
1.0
 22
0.0
 32
0.0
 13
1.0
 23
0.0
 33
0.0
 40
0.0
 40
0.0
 40
0.0
 40
0.0
 40
1.0
 40
1.0
 40
1.0
 40
2.0
 40
2.0
 40
2.0
 40
3.0
 40
3.0
 40
3.0
 40
4.0
 40
4.0
 40
4.0
 40
4.0
 10
101.2561801945174
 20
-135.4305069105865
 30
0.0
 10
101.2561801945174
 20
-135.3757205217118
 30
0.0
 10
101.2113774178826
 20
-135.3306002439449
 30
0.0
 10
101.1562735303996
 20
-135.3306002439449
 30
0.0
 10
101.1011343651396
 20
-135.3306002439449
 30
0.0
 10
101.0563694191806
 20
-135.3757205217118
 30
0.0
 10
101.0563694191806
 20
-135.4305069105865
 30
0.0
 10
101.0563694191806
 20
-135.4856107994621
 30
0.0
 10
101.1011343651396
 20
-135.5304135772288
 30
0.0
 10
101.1562735303996
 20
-135.5304135772288
 30
0.0
 10
101.2113774178826
 20
-135.5304135772288
 30
0.0
 10
101.2561801945174
 20
-135.4856107994621
 30
0.0
 10
101.2561801945174
 20
-135.4305069105865
 30
0.0
  0
POLYLINE
  5
7E
330
1F
100
AcDbEntity
  8
_U+30EC_U+30A4_U+30E4_U+30FC 1
 62
   179
420
  2234388
370
     9
100
AcDb2dPolyline
 66
     1
 10
0.0
 20
0.0
 30
0.0
  0
VERTEX
  5
7F
330
7E
100
AcDbEntity
  8
_U+30EC_U+30A4_U+30E4_U+30FC 1
 62
   179
420
  2234388
370
     9
100
AcDbVertex
100
AcDb2dVertex
 10
101.1562735303996
 20
-133.9704655220628
 30
0.0
  0
VERTEX
  5
80
330
7E
100
AcDbEntity
  8
_U+30EC_U+30A4_U+30E4_U+30FC 1
 62
   179
420
  2234388
370
     9
100
AcDbVertex
100
AcDb2dVertex
 10
101.1562735303996
 20
-136.4305966325593
 30
0.0
  0
SEQEND
  5
81
330
7E
100
AcDbEntity
  8
_U+30EC_U+30A4_U+30E4_U+30FC 1
 62
   179
420
  2234388
370
     9
  0
INSERT
  5
83
330
1F
100
AcDbEntity
  8
_U+30EC_U+30A4_U+30E4_U+30FC 1
100
AcDbBlockReference
  2
block 4
 10
0.0
 20
0.0
 30
0.0
  0
INSERT
  5
8B
330
1F
100
AcDbEntity
  8
_U+30EC_U+30A4_U+30E4_U+30FC 1
100
AcDbBlockReference
  2
block 5
 10
0.0
 20
0.0
 30
0.0
  0
POLYLINE
  5
93
330
1F
100
AcDbEntity
  8
_U+30EC_U+30A4_U+30E4_U+30FC 1
 62
   179
420
  2234388
370
     9
100
AcDb2dPolyline
 66
     1
 10
0.0
 20
0.0
 30
0.0
  0
VERTEX
  5
94
330
93
100
AcDbEntity
  8
_U+30EC_U+30A4_U+30E4_U+30FC 1
 62
   179
420
  2234388
370
     9
100
AcDbVertex
100
AcDb2dVertex
 10
103.7662645749243
 20
-124.4302960800035
 30
0.0
  0
VERTEX
  5
95
330
93
100
AcDbEntity
  8
_U+30EC_U+30A4_U+30E4_U+30FC 1
 62
   179
420
  2234388
370
     9
100
AcDbVertex
100
AcDb2dVertex
 10
103.7662645749243
 20
-131.4300421893647
 30
0.0
  0
SEQEND
  5
96
330
93
100
AcDbEntity
  8
_U+30EC_U+30A4_U+30E4_U+30FC 1
 62
   179
420
  2234388
370
     9
  0
POLYLINE
  5
97
330
1F
100
AcDbEntity
  8
_U+30EC_U+30A4_U+30E4_U+30FC 1
 62
   179
420
  2234388
370
     9
100
AcDb2dPolyline
 66
     1
 10
0.0
 20
0.0
 30
0.0
  0
VERTEX
  5
98
330
97
100
AcDbEntity
  8
_U+30EC_U+30A4_U+30E4_U+30FC 1
 62
   179
420
  2234388
370
     9
100
AcDbVertex
100
AcDb2dVertex
 10
102.3062610855347
 20
-130.4302699673922
 30
0.0
  0
VERTEX
  5
99
330
97
100
AcDbEntity
  8
_U+30EC_U+30A4_U+30E4_U+30FC 1
 62
   179
420
  2234388
370
     9
100
AcDbVertex
100
AcDb2dVertex
 10
104.7660367716402
 20
-130.4302699673922
 30
0.0
  0
SEQEND
  5
9A
330
97
100
AcDbEntity
  8
_U+30EC_U+30A4_U+30E4_U+30FC 1
 62
   179
420
  2234388
370
     9
  0
SPLINE
  5
9B
330
1F
100
AcDbEntity
  8
_U+30EC_U+30A4_U+30E4_U+30FC 1
 62
   179
420
  2234388
370
     9
100
AcDbSpline
210
0.0
220
0.0
230
1.0
 70
    11
 71
     3
 72
    17
 73
    13
 74
     0
 42
0.0000000001
 43
0.0000000001
 12
1.0
 22
0.0
 32
0.0
 13
1.0
 23
0.0
 33
0.0
 40
0.0
 40
0.0
 40
0.0
 40
0.0
 40
1.0
 40
1.0
 40
1.0
 40
2.0
 40
2.0
 40
2.0
 40
3.0
 40
3.0
 40
3.0
 40
4.0
 40
4.0
 40
4.0
 40
4.0
 10
103.8661712390421
 20
-124.4302960800035
 30
0.0
 10
103.8661712390421
 20
-124.3751921911283
 30
0.0
 10
103.8214037401842
 20
-124.3303894133619
 30
0.0
 10
103.7662645749243
 20
-124.3303894133619
 30
0.0
 10
103.7111606874412
 20
-124.3303894133619
 30
0.0
 10
103.6663579108064
 20
-124.3751921911283
 30
0.0
 10
103.6663579108064
 20
-124.4302960800035
 30
0.0
 10
103.6663579108064
 20
-124.4854352466563
 30
0.0
 10
103.7111606874412
 20
-124.5302027466452
 30
0.0
 10
103.7662645749243
 20
-124.5302027466452
 30
0.0
 10
103.8214037401842
 20
-124.5302027466452
 30
0.0
 10
103.8661712390421
 20
-124.4854352466563
 30
0.0
 10
103.8661712390421
 20
-124.4302960800035
 30
0.0
  0
POLYLINE
  5
9C
330
1F
100
AcDbEntity
  8
_U+30EC_U+30A4_U+30E4_U+30FC 1
 62
   179
420
  2234388
370
     9
100
AcDb2dPolyline
 66
     1
 10
0.0
 20
0.0
 30
0.0
  0
VERTEX
  5
9D
330
9C
100
AcDbEntity
  8
_U+30EC_U+30A4_U+30E4_U+30FC 1
 62
   179
420
  2234388
370
     9
100
AcDbVertex
100
AcDb2dVertex
 10
102.3062610855347
 20
-124.4302960800035
 30
0.0
  0
VERTEX
  5
9E
330
9C
100
AcDbEntity
  8
_U+30EC_U+30A4_U+30E4_U+30FC 1
 62
   179
420
  2234388
370
     9
100
AcDbVertex
100
AcDb2dVertex
 10
104.7660367716402
 20
-124.4302960800035
 30
0.0
  0
SEQEND
  5
9F
330
9C
100
AcDbEntity
  8
_U+30EC_U+30A4_U+30E4_U+30FC 1
 62
   179
420
  2234388
370
     9
  0
POLYLINE
  5
A0
330
1F
100
AcDbEntity
  8
_U+30EC_U+30A4_U+30E4_U+30FC 1
 62
   179
420
  2234388
370
     9
100
AcDb2dPolyline
 66
     1
 10
0.0
 20
0.0
 30
0.0
  0
VERTEX
  5
A1
330
A0
100
AcDbEntity
  8
_U+30EC_U+30A4_U+30E4_U+30FC 1
 62
   179
420
  2234388
370
     9
100
AcDbVertex
100
AcDb2dVertex
 10
102.3062610855347
 20
-131.4300421893647
 30
0.0
  0
VERTEX
  5
A2
330
A0
100
AcDbEntity
  8
_U+30EC_U+30A4_U+30E4_U+30FC 1
 62
   179
420
  2234388
370
     9
100
AcDbVertex
100
AcDb2dVertex
 10
104.7660367716402
 20
-131.4300421893647
 30
0.0
  0
SEQEND
  5
A3
330
A0
100
AcDbEntity
  8
_U+30EC_U+30A4_U+30E4_U+30FC 1
 62
   179
420
  2234388
370
     9
  0
INSERT
  5
A5
330
1F
100
AcDbEntity
  8
_U+30EC_U+30A4_U+30E4_U+30FC 1
100
AcDbBlockReference
  2
block 6
 10
0.0
 20
0.0
 30
0.0
  0
INSERT
  5
AB
330
1F
100
AcDbEntity
  8
_U+30EC_U+30A4_U+30E4_U+30FC 1
100
AcDbBlockReference
  2
block 7
 10
0.0
 20
0.0
 30
0.0
  0
POLYLINE
  5
B1
330
1F
100
AcDbEntity
  8
_U+30EC_U+30A4_U+30E4_U+30FC 1
 62
   179
420
  2234388
370
     9
100
AcDb2dPolyline
 66
     1
 10
0.0
 20
0.0
 30
0.0
  0
VERTEX
  5
B2
330
B1
100
AcDbEntity
  8
_U+30EC_U+30A4_U+30E4_U+30FC 1
 62
   179
420
  2234388
370
     9
100
AcDbVertex
100
AcDb2dVertex
 10
102.3062610855347
 20
-131.4300421893647
 30
0.0
  0
VERTEX
  5
B3
330
B1
100
AcDbEntity
  8
_U+30EC_U+30A4_U+30E4_U+30FC 1
 62
   179
420
  2234388
370
     9
100
AcDbVertex
100
AcDb2dVertex
 10
104.7660367716402
 20
-131.4300421893647
 30
0.0
  0
SEQEND
  5
B4
330
B1
100
AcDbEntity
  8
_U+30EC_U+30A4_U+30E4_U+30FC 1
 62
   179
420
  2234388
370
     9
  0
ENDSEC
  0
SECTION
  2
OBJECTS
  0
DICTIONARY
  5
C
330
0
100
AcDbDictionary
281
     1
  3
ACAD_GROUP
350
D
  3
ACAD_LAYOUT
350
1A
  3
ACAD_MATERIAL
350
3B
  3
ACAD_MLEADERSTYLE
350
B6
  3
ACAD_MLINESTYLE
350
17
  3
ACAD_PLOTSETTINGS
350
19
  3
ACAD_PLOTSTYLENAME
350
E
  3
ACAD_TABLESTYLE
350
B5
  3
ACAD_VISUALSTYLE
350
2A
  0
SUN
  5
3F
330
29
100
AcDbSun
 90
        1
290
     0
 63
     7
421
 16777215
 40
1.0
291
     1
 91
  2455826
 92
 54000000
292
     0
 70
     2
 71
   256
280
     1
  0
DICTIONARY
  5
D
102
{ACAD_REACTORS
330
C
102
}
330
C
100
AcDbDictionary
281
     1
  0
DICTIONARY
  5
1A
102
{ACAD_REACTORS
330
C
102
}
330
C
100
AcDbDictionary
281
     1
  3
Layout1
350
1E
  3
Layout2
350
26
  3
Model
350
22
  0
DICTIONARY
  5
3B
102
{ACAD_REACTORS
330
C
102
}
330
C
100
AcDbDictionary
281
     1
  3
ByBlock
350
3D
  3
ByLayer
350
3C
  3
Global
350
3E
  0
DICTIONARY
  5
B6
102
{ACAD_REACTORS
330
C
102
}
330
C
100
AcDbDictionary
281
     1
  0
DICTIONARY
  5
17
102
{ACAD_REACTORS
330
C
102
}
330
C
100
AcDbDictionary
281
     1
  3
Standard
350
18
  0
DICTIONARY
  5
19
102
{ACAD_REACTORS
330
C
102
}
330
C
100
AcDbDictionary
281
     1
  0
ACDBDICTIONARYWDFLT
  5
E
102
{ACAD_REACTORS
330
C
102
}
330
C
100
AcDbDictionary
281
     1
  3
Normal
350
F
100
AcDbDictionaryWithDefault
340
F
  0
DICTIONARY
  5
B5
102
{ACAD_REACTORS
330
C
102
}
330
C
100
AcDbDictionary
281
     1
  0
DICTIONARY
  5
2A
102
{ACAD_REACTORS
330
C
102
}
330
C
100
AcDbDictionary
281
     1
  3
2dWireframe
350
2F
  3
3D Hidden
350
31
  3
3dWireframe
350
30
  3
Basic
350
32
  3
Brighten
350
36
  3
ColorChange
350
3A
  3
Conceptual
350
34
  3
Dim
350
35
  3
Facepattern
350
39
  3
Flat
350
2B
  3
FlatWithEdges
350
2C
  3
Gouraud
350
2D
  3
GouraudWithEdges
350
2E
  3
Linepattern
350
38
  3
Realistic
350
33
  3
Thicken
350
37
  0
LAYOUT
  5
1E
102
{ACAD_REACTORS
330
1A
102
}
330
1A
100
AcDbPlotSettings
  1

  2
none_device
  4

  6

 40
0.0
 41
0.0
 42
0.0
 43
0.0
 44
0.0
 45
0.0
 46
0.0
 47
0.0
 48
0.0
 49
0.0
140
0.0
141
0.0
142
1.0
143
1.0
 70
   688
 72
     0
 73
     0
 74
     5
  7

 75
    16
 76
     0
 77
     2
 78
   300
147
1.0
148
0.0
149
0.0
100
AcDbLayout
  1
Layout1
 70
     1
 71
     1
 10
0.0
 20
0.0
 11
12.0
 21
9.0
 12
0.0
 22
0.0
 32
0.0
 14
1.000000000000000E+20
 24
1.000000000000000E+20
 34
1.000000000000000E+20
 15
-1.000000000000000E+20
 25
-1.000000000000000E+20
 35
-1.000000000000000E+20
146
0.0
 13
0.0
 23
0.0
 33
0.0
 16
1.0
 26
0.0
 36
0.0
 17
0.0
 27
1.0
 37
0.0
 76
     0
330
1B
  0
LAYOUT
  5
26
102
{ACAD_REACTORS
330
1A
102
}
330
1A
100
AcDbPlotSettings
  1

  2
none_device
  4

  6

 40
0.0
 41
0.0
 42
0.0
 43
0.0
 44
0.0
 45
0.0
 46
0.0
 47
0.0
 48
0.0
 49
0.0
140
0.0
141
0.0
142
1.0
143
1.0
 70
   688
 72
     0
 73
     0
 74
     5
  7

 75
    16
 76
     0
 77
     2
 78
   300
147
1.0
148
0.0
149
0.0
100
AcDbLayout
  1
Layout2
 70
     1
 71
     2
 10
0.0
 20
0.0
 11
0.0
 21
0.0
 12
0.0
 22
0.0
 32
0.0
 14
0.0
 24
0.0
 34
0.0
 15
0.0
 25
0.0
 35
0.0
146
0.0
 13
0.0
 23
0.0
 33
0.0
 16
1.0
 26
0.0
 36
0.0
 17
0.0
 27
1.0
 37
0.0
 76
     0
330
23
  0
LAYOUT
  5
22
102
{ACAD_REACTORS
330
1A
102
}
330
1A
100
AcDbPlotSettings
  1

  2
none_device
  4

  6

 40
0.0
 41
0.0
 42
0.0
 43
0.0
 44
0.0
 45
0.0
 46
0.0
 47
0.0
 48
0.0
 49
0.0
140
0.0
141
0.0
142
1.0
143
1.0
 70
  1712
 72
     0
 73
     0
 74
     0
  7

 75
     0
 76
     0
 77
     2
 78
   300
147
1.0
148
0.0
149
0.0
100
AcDbLayout
  1
Model
 70
     1
 71
     0
 10
0.0
 20
0.0
 11
12.0
 21
9.0
 12
0.0
 22
0.0
 32
0.0
 14
1.000000000000000E+20
 24
1.000000000000000E+20
 34
1.000000000000000E+20
 15
-1.000000000000000E+20
 25
-1.000000000000000E+20
 35
-1.000000000000000E+20
146
0.0
 13
0.0
 23
0.0
 33
0.0
 16
1.0
 26
0.0
 36
0.0
 17
0.0
 27
1.0
 37
0.0
 76
     0
330
1F
331
29
  0
MATERIAL
  5
3D
102
{ACAD_REACTORS
330
3B
102
}
330
3B
100
AcDbMaterial
  1
ByBlock
 72
     1
 94
      127
  0
MATERIAL
  5
3C
102
{ACAD_REACTORS
330
3B
102
}
330
3B
100
AcDbMaterial
  1
ByLayer
 72
     1
 94
      127
  0
MATERIAL
  5
3E
102
{ACAD_REACTORS
330
3B
102
}
330
3B
100
AcDbMaterial
  1
Global
 72
     1
 94
      127
  0
MLINESTYLE
  5
18
102
{ACAD_REACTORS
330
17
102
}
330
17
100
AcDbMlineStyle
  2
Standard
 70
     0
  3

 62
   256
 51
90.0
 52
90.0
 71
     2
 49
0.5
 62
   256
  6
BYLAYER
 49
-0.5
 62
   256
  6
BYLAYER
  0
ACDBPLACEHOLDER
  5
F
102
{ACAD_REACTORS
330
E
102
}
330
E
  0
VISUALSTYLE
  5
2F
102
{ACAD_REACTORS
330
2A
102
}
330
2A
100
AcDbVisualStyle
  2
2dWireframe
 70
     4
177
     2
291
     0
 71
     0
176
     1
 72
     2
176
     1
 73
     0
176
     1
 90
        0
176
     1
 40
-0.6
176
     1
 41
-30.0
176
     1
 62
     5
 63
     7
421
 16777215
176
     1
 74
     1
176
     1
 91
        4
176
     1
 64
     7
176
     1
 65
   257
176
     1
 75
     1
176
     1
175
     1
176
     1
 42
1.0
176
     1
 92
        0
176
     1
 66
   257
176
     1
 43
1.0
176
     1
 76
     1
176
     1
 77
     6
176
     1
 78
     2
176
     1
 67
     7
176
     1
 79
     5
176
     1
170
     0
176
     1
171
     0
176
     1
290
     0
176
     1
 93
        1
176
     1
 44
0.0
176
     1
173
     0
176
     1
  0
VISUALSTYLE
  5
31
102
{ACAD_REACTORS
330
2A
102
}
330
2A
100
AcDbVisualStyle
  2
3D Hidden
 70
     6
177
     2
291
     0
 71
     1
176
     1
 72
     2
176
     1
 73
     2
176
     1
 90
        0
176
     1
 40
-0.6
176
     1
 41
-30.0
176
     1
 62
     5
 63
     7
421
 16777215
176
     1
 74
     2
176
     1
 91
        2
176
     1
 64
     7
176
     1
 65
   257
176
     1
 75
     2
176
     1
175
     1
176
     1
 42
40.0
176
     1
 92
        0
176
     1
 66
   257
176
     1
 43
1.0
176
     1
 76
     1
176
     1
 77
     6
176
     1
 78
     2
176
     1
 67
     7
176
     1
 79
     3
176
     1
170
     0
176
     1
171
     0
176
     1
290
     0
176
     1
 93
        1
176
     1
 44
0.0
176
     1
173
     0
176
     1
  0
VISUALSTYLE
  5
30
102
{ACAD_REACTORS
330
2A
102
}
330
2A
100
AcDbVisualStyle
  2
3dWireframe
 70
     5
177
     2
291
     0
 71
     0
176
     1
 72
     2
176
     1
 73
     0
176
     1
 90
        0
176
     1
 40
-0.6
176
     1
 41
-30.0
176
     1
 62
     5
 63
     7
421
 16777215
176
     1
 74
     1
176
     1
 91
        4
176
     1
 64
     7
176
     1
 65
   257
176
     1
 75
     1
176
     1
175
     1
176
     1
 42
1.0
176
     1
 92
        0
176
     1
 66
   257
176
     1
 43
1.0
176
     1
 76
     1
176
     1
 77
     6
176
     1
 78
     2
176
     1
 67
     7
176
     1
 79
     5
176
     1
170
     0
176
     1
171
     0
176
     1
290
     0
176
     1
 93
        1
176
     1
 44
0.0
176
     1
173
     0
176
     1
  0
VISUALSTYLE
  5
32
102
{ACAD_REACTORS
330
2A
102
}
330
2A
100
AcDbVisualStyle
  2
Basic
 70
     7
177
     2
291
     1
 71
     1
176
     1
 72
     0
176
     1
 73
     1
176
     1
 90
        0
176
     1
 40
-0.6
176
     1
 41
-30.0
176
     1
 62
     5
 63
     7
421
 16777215
176
     1
 74
     0
176
     1
 91
        4
176
     1
 64
     7
176
     1
 65
   257
176
     1
 75
     1
176
     1
175
     1
176
     1
 42
1.0
176
     1
 92
        8
176
     1
 66
     7
176
     1
 43
1.0
176
     1
 76
     1
176
     1
 77
     6
176
     1
 78
     2
176
     1
 67
     7
176
     1
 79
     5
176
     1
170
     0
176
     1
171
     0
176
     1
290
     0
176
     1
 93
        1
176
     1
 44
0.0
176
     1
173
     0
176
     1
  0
VISUALSTYLE
  5
36
102
{ACAD_REACTORS
330
2A
102
}
330
2A
100
AcDbVisualStyle
  2
Brighten
 70
    12
177
     2
291
     1
 71
     2
176
     1
 72
     2
176
     1
 73
     0
176
     1
 90
        0
176
     1
 40
-0.6
176
     1
 41
-30.0
176
     1
 62
     5
 63
     7
421
 16777215
176
     1
 74
     1
176
     1
 91
        4
176
     1
 64
     7
176
     1
 65
   257
176
     1
 75
     1
176
     1
175
     1
176
     1
 42
1.0
176
     1
 92
        8
176
     1
 66
     7
176
     1
 43
1.0
176
     1
 76
     1
176
     1
 77
     6
176
     1
 78
     2
176
     1
 67
     7
176
     1
 79
     5
176
     1
170
     0
176
     1
171
     0
176
     1
290
     0
176
     1
 93
        1
176
     1
 44
50.0
176
     1
173
     0
176
     1
  0
VISUALSTYLE
  5
3A
102
{ACAD_REACTORS
330
2A
102
}
330
2A
100
AcDbVisualStyle
  2
ColorChange
 70
    16
177
     2
291
     1
 71
     2
176
     1
 72
     2
176
     1
 73
     3
176
     1
 90
        0
176
     1
 40
-0.6
176
     1
 41
-30.0
176
     1
 62
     5
 63
     8
421
  8421504
176
     1
 74
     1
176
     1
 91
        4
176
     1
 64
     7
176
     1
 65
   257
176
     1
 75
     1
176
     1
175
     1
176
     1
 42
1.0
176
     1
 92
        8
176
     1
 66
     8
424
  8421504
176
     1
 43
1.0
176
     1
 76
     1
176
     1
 77
     6
176
     1
 78
     2
176
     1
 67
     7
176
     1
 79
     5
176
     1
170
     0
176
     1
171
     0
176
     1
290
     0
176
     1
 93
        1
176
     1
 44
0.0
176
     1
173
     0
176
     1
  0
VISUALSTYLE
  5
34
102
{ACAD_REACTORS
330
2A
102
}
330
2A
100
AcDbVisualStyle
  2
Conceptual
 70
     9
177
     2
291
     0
 71
     3
176
     1
 72
     2
176
     1
 73
     0
176
     1
 90
        0
176
     1
 40
-0.6
176
     1
 41
-30.0
176
     1
 62
     5
 63
     7
421
 16777215
176
     1
 74
     2
176
     1
 91
        2
176
     1
 64
     7
176
     1
 65
   257
176
     1
 75
     1
176
     1
175
     1
176
     1
 42
40.0
176
     1
 92
        8
176
     1
 66
     7
176
     1
 43
1.0
176
     1
 76
     1
176
     1
 77
     6
176
     1
 78
     2
176
     1
 67
     7
176
     1
 79
     3
176
     1
170
     0
176
     1
171
     0
176
     1
290
     0
176
     1
 93
        1
176
     1
 44
0.0
176
     1
173
     0
176
     1
  0
VISUALSTYLE
  5
35
102
{ACAD_REACTORS
330
2A
102
}
330
2A
100
AcDbVisualStyle
  2
Dim
 70
    11
177
     2
291
     1
 71
     2
176
     1
 72
     2
176
     1
 73
     0
176
     1
 90
        0
176
     1
 40
-0.6
176
     1
 41
-30.0
176
     1
 62
     5
 63
     7
421
 16777215
176
     1
 74
     1
176
     1
 91
        4
176
     1
 64
     7
176
     1
 65
   257
176
     1
 75
     1
176
     1
175
     1
176
     1
 42
1.0
176
     1
 92
        8
176
     1
 66
     7
176
     1
 43
1.0
176
     1
 76
     1
176
     1
 77
     6
176
     1
 78
     2
176
     1
 67
     7
176
     1
 79
     5
176
     1
170
     0
176
     1
171
     0
176
     1
290
     0
176
     1
 93
        1
176
     1
 44
-50.0
176
     1
173
     0
176
     1
  0
VISUALSTYLE
  5
39
102
{ACAD_REACTORS
330
2A
102
}
330
2A
100
AcDbVisualStyle
  2
Facepattern
 70
    15
177
     2
291
     1
 71
     2
176
     1
 72
     2
176
     1
 73
     0
176
     1
 90
        0
176
     1
 40
-0.6
176
     1
 41
-30.0
176
     1
 62
     5
 63
     7
421
 16777215
176
     1
 74
     1
176
     1
 91
        4
176
     1
 64
     7
176
     1
 65
   257
176
     1
 75
     1
176
     1
175
     1
176
     1
 42
1.0
176
     1
 92
        8
176
     1
 66
     7
176
     1
 43
1.0
176
     1
 76
     1
176
     1
 77
     6
176
     1
 78
     2
176
     1
 67
     7
176
     1
 79
     5
176
     1
170
     0
176
     1
171
     0
176
     1
290
     0
176
     1
 93
        1
176
     1
 44
0.0
176
     1
173
     0
176
     1
  0
VISUALSTYLE
  5
2B
102
{ACAD_REACTORS
330
2A
102
}
330
2A
100
AcDbVisualStyle
  2
Flat
 70
     0
177
     2
291
     1
 71
     2
176
     1
 72
     1
176
     1
 73
     1
176
     1
 90
        2
176
     1
 40
-0.6
176
     1
 41
30.0
176
     1
 62
     5
 63
     7
421
 16777215
176
     1
 74
     0
176
     1
 91
        4
176
     1
 64
     7
176
     1
 65
   257
176
     1
 75
     1
176
     1
175
     1
176
     1
 42
1.0
176
     1
 92
        8
176
     1
 66
     7
176
     1
 43
1.0
176
     1
 76
     1
176
     1
 77
     6
176
     1
 78
     2
176
     1
 67
     7
176
     1
 79
     5
176
     1
170
     0
176
     1
171
     0
176
     1
290
     0
176
     1
 93
       13
176
     1
 44
0.0
176
     1
173
     0
176
     1
  0
VISUALSTYLE
  5
2C
102
{ACAD_REACTORS
330
2A
102
}
330
2A
100
AcDbVisualStyle
  2
FlatWithEdges
 70
     1
177
     2
291
     1
 71
     2
176
     1
 72
     1
176
     1
 73
     1
176
     1
 90
        2
176
     1
 40
-0.6
176
     1
 41
30.0
176
     1
 62
     5
 63
     7
421
 16777215
176
     1
 74
     1
176
     1
 91
        4
176
     1
 64
     7
176
     1
 65
   257
176
     1
 75
     1
176
     1
175
     1
176
     1
 42
1.0
176
     1
 92
        0
176
     1
 66
   257
176
     1
 43
1.0
176
     1
 76
     1
176
     1
 77
     6
176
     1
 78
     2
176
     1
 67
     7
176
     1
 79
     5
176
     1
170
     0
176
     1
171
     0
176
     1
290
     0
176
     1
 93
       13
176
     1
 44
0.0
176
     1
173
     0
176
     1
  0
VISUALSTYLE
  5
2D
102
{ACAD_REACTORS
330
2A
102
}
330
2A
100
AcDbVisualStyle
  2
Gouraud
 70
     2
177
     2
291
     1
 71
     2
176
     1
 72
     2
176
     1
 73
     1
176
     1
 90
        2
176
     1
 40
-0.6
176
     1
 41
30.0
176
     1
 62
     5
 63
     7
421
 16777215
176
     1
 74
     0
176
     1
 91
        4
176
     1
 64
     7
176
     1
 65
   257
176
     1
 75
     1
176
     1
175
     1
176
     1
 42
1.0
176
     1
 92
        0
176
     1
 66
     7
176
     1
 43
1.0
176
     1
 76
     1
176
     1
 77
     6
176
     1
 78
     2
176
     1
 67
     7
176
     1
 79
     5
176
     1
170
     0
176
     1
171
     0
176
     1
290
     0
176
     1
 93
       13
176
     1
 44
0.0
176
     1
173
     0
176
     1
  0
VISUALSTYLE
  5
2E
102
{ACAD_REACTORS
330
2A
102
}
330
2A
100
AcDbVisualStyle
  2
GouraudWithEdges
 70
     3
177
     2
291
     1
 71
     2
176
     1
 72
     2
176
     1
 73
     1
176
     1
 90
        2
176
     1
 40
-0.6
176
     1
 41
30.0
176
     1
 62
     5
 63
     7
421
 16777215
176
     1
 74
     1
176
     1
 91
        4
176
     1
 64
     7
176
     1
 65
   257
176
     1
 75
     1
176
     1
175
     1
176
     1
 42
1.0
176
     1
 92
        0
176
     1
 66
   257
176
     1
 43
1.0
176
     1
 76
     1
176
     1
 77
     6
176
     1
 78
     2
176
     1
 67
     7
176
     1
 79
     5
176
     1
170
     0
176
     1
171
     0
176
     1
290
     0
176
     1
 93
       13
176
     1
 44
0.0
176
     1
173
     0
176
     1
  0
VISUALSTYLE
  5
38
102
{ACAD_REACTORS
330
2A
102
}
330
2A
100
AcDbVisualStyle
  2
Linepattern
 70
    14
177
     2
291
     1
 71
     2
176
     1
 72
     2
176
     1
 73
     0
176
     1
 90
        0
176
     1
 40
-0.6
176
     1
 41
-30.0
176
     1
 62
     5
 63
     7
421
 16777215
176
     1
 74
     1
176
     1
 91
        4
176
     1
 64
     7
176
     1
 65
   257
176
     1
 75
     7
176
     1
175
     7
176
     1
 42
1.0
176
     1
 92
        8
176
     1
 66
     7
176
     1
 43
1.0
176
     1
 76
     1
176
     1
 77
     6
176
     1
 78
     2
176
     1
 67
     7
176
     1
 79
     5
176
     1
170
     0
176
     1
171
     0
176
     1
290
     0
176
     1
 93
        1
176
     1
 44
0.0
176
     1
173
     0
176
     1
  0
VISUALSTYLE
  5
33
102
{ACAD_REACTORS
330
2A
102
}
330
2A
100
AcDbVisualStyle
  2
Realistic
 70
     8
177
     2
291
     0
 71
     2
176
     1
 72
     2
176
     1
 73
     0
176
     1
 90
        0
176
     1
 40
-0.6
176
     1
 41
-30.0
176
     1
 62
     5
 63
     7
421
 16777215
176
     1
 74
     1
176
     1
 91
        0
176
     1
 64
     7
176
     1
 65
   257
176
     1
 75
     1
176
     1
175
     1
176
     1
 42
1.0
176
     1
 92
        8
176
     1
 66
     8
424
  7895160
176
     1
 43
1.0
176
     1
 76
     1
176
     1
 77
     6
176
     1
 78
     2
176
     1
 67
     7
176
     1
 79
     5
176
     1
170
     0
176
     1
171
     0
176
     1
290
     0
176
     1
 93
       13
176
     1
 44
0.0
176
     1
173
     0
176
     1
  0
VISUALSTYLE
  5
37
102
{ACAD_REACTORS
330
2A
102
}
330
2A
100
AcDbVisualStyle
  2
Thicken
 70
    13
177
     2
291
     1
 71
     2
176
     1
 72
     2
176
     1
 73
     0
176
     1
 90
        0
176
     1
 40
-0.6
176
     1
 41
-30.0
176
     1
 62
     5
 63
     7
421
 16777215
176
     1
 74
     1
176
     1
 91
        4
176
     1
 64
     7
176
     1
 65
   257
176
     1
 75
     1
176
     1
175
     1
176
     1
 42
1.0
176
     1
 92
       12
176
     1
 66
     7
176
     1
 43
1.0
176
     1
 76
     1
176
     1
 77
     6
176
     1
 78
     2
176
     1
 67
     7
176
     1
 79
     5
176
     1
170
     0
176
     1
171
     0
176
     1
290
     0
176
     1
 93
        1
176
     1
 44
0.0
176
     1
173
     0
176
     1
  0
ENDSEC
  0
EOF
