  0
SECTION
  2
HEADER
  9
$ACADVER
  1
AC1024
  9
$ACADMAINTVER
 70
     6
  9
$DWGCODEPAGE
  3
UNDEFINED
  9
$INSBASE
 10
0.0
 20
0.0
 30
0.0
  9
$EXTMIN
 10
1.000000000000000E+20
 20
1.000000000000000E+20
 30
1.000000000000000E+20
  9
$EXTMAX
 10
-1.000000000000000E+20
 20
-1.000000000000000E+20
 30
-1.000000000000000E+20
  9
$LIMMIN
 10
0.0
 20
0.0
  9
$LIMMAX
 10
12.0
 20
9.0
  9
$ORTHOMODE
 70
     0
  9
$REGENMODE
 70
     1
  9
$FILLMODE
 70
     1
  9
$QTEXTMODE
 70
     0
  9
$MIRRTEXT
 70
     1
  9
$LTSCALE
 40
1.0
  9
$ATTMODE
 70
     1
  9
$TEXTSIZE
 40
0.2
  9
$TRACEWID
 40
0.05
  9
$TEXTSTYLE
  7
Standard
  9
$CLAYER
  8
0
  9
$CELTYPE
  6
ByLayer
  9
$CECOLOR
 62
   256
  9
$CELTSCALE
 40
1.0
  9
$DISPSILH
 70
     0
  9
$DIMSCALE
 40
1.0
  9
$DIMASZ
 40
0.18
  9
$DIMEXO
 40
0.0625
  9
$DIMDLI
 40
0.38
  9
$DIMRND
 40
0.0
  9
$DIMDLE
 40
0.0
  9
$DIMEXE
 40
0.18
  9
$DIMTP
 40
0.0
  9
$DIMTM
 40
0.0
  9
$DIMTXT
 40
0.18
  9
$DIMCEN
 40
0.09
  9
$DIMTSZ
 40
0.0
  9
$DIMTOL
 70
     0
  9
$DIMLIM
 70
     0
  9
$DIMTIH
 70
     1
  9
$DIMTOH
 70
     1
  9
$DIMSE1
 70
     0
  9
$DIMSE2
 70
     0
  9
$DIMTAD
 70
     0
  9
$DIMZIN
 70
     0
  9
$DIMBLK
  1

  9
$DIMASO
 70
     1
  9
$DIMSHO
 70
     1
  9
$DIMPOST
  1

  9
$DIMAPOST
  1

  9
$DIMALT
 70
     0
  9
$DIMALTD
 70
     2
  9
$DIMALTF
 40
25.4
  9
$DIMLFAC
 40
1.0
  9
$DIMTOFL
 70
     0
  9
$DIMTVP
 40
0.0
  9
$DIMTIX
 70
     0
  9
$DIMSOXD
 70
     0
  9
$DIMSAH
 70
     0
  9
$DIMBLK1
  1

  9
$DIMBLK2
  1

  9
$DIMSTYLE
  2
Standard
  9
$DIMCLRD
 70
     0
  9
$DIMCLRE
 70
     0
  9
$DIMCLRT
 70
     0
  9
$DIMTFAC
 40
1.0
  9
$DIMGAP
 40
0.09
  9
$DIMJUST
 70
     0
  9
$DIMSD1
 70
     0
  9
$DIMSD2
 70
     0
  9
$DIMTOLJ
 70
     1
  9
$DIMTZIN
 70
     0
  9
$DIMALTZ
 70
     0
  9
$DIMALTTZ
 70
     0
  9
$DIMUPT
 70
     0
  9
$DIMDEC
 70
     4
  9
$DIMTDEC
 70
     4
  9
$DIMALTU
 70
     2
  9
$DIMALTTD
 70
     2
  9
$DIMTXSTY
  7
Standard
  9
$DIMAUNIT
 70
     0
  9
$DIMADEC
 70
     0
  9
$DIMALTRND
 40
0.0
  9
$DIMAZIN
 70
     0
  9
$DIMDSEP
 70
    46
  9
$DIMATFIT
 70
     3
  9
$DIMFRAC
 70
     0
  9
$DIMLDRBLK
  1

  9
$DIMLUNIT
 70
     2
  9
$DIMLWD
 70
    -2
  9
$DIMLWE
 70
    -2
  9
$DIMTMOVE
 70
     0
  9
$DIMFXL
 40
1.0
  9
$DIMFXLON
 70
     0
  9
$DIMJOGANG
 40
0.7853981633974483
  9
$DIMTFILL
 70
     0
  9
$DIMTFILLCLR
 70
     0
  9
$DIMARCSYM
 70
     0
  9
$DIMLTYPE
  6

  9
$DIMLTEX1
  6

  9
$DIMLTEX2
  6

  9
$DIMTXTDIRECTION
 70
     0
  9
$LUNITS
 70
     2
  9
$LUPREC
 70
     4
  9
$SKETCHINC
 40
0.1
  9
$FILLETRAD
 40
0.5
  9
$AUNITS
 70
     0
  9
$AUPREC
 70
     0
  9
$MENU
  1
.
  9
$ELEVATION
 40
0.0
  9
$PELEVATION
 40
0.0
  9
$THICKNESS
 40
0.0
  9
$LIMCHECK
 70
     0
  9
$CHAMFERA
 40
0.5
  9
$CHAMFERB
 40
0.5
  9
$CHAMFERC
 40
1.0
  9
$CHAMFERD
 40
0.0
  9
$SKPOLY
 70
     0
  9
$TDCREATE
 40
2457917.624143507
  9
$TDUCREATE
 40
2457917.249143519
  9
$TDUPDATE
 40
2457917.624143507
  9
$TDUUPDATE
 40
2457917.249143519
  9
$TDINDWG
 40
0.0000000116
  9
$TDUSRTIMER
 40
0.0000000116
  9
$USRTIMER
 70
     1
  9
$ANGBASE
 50
0.0
  9
$ANGDIR
 70
     0
  9
$PDMODE
 70
     0
  9
$PDSIZE
 40
0.0
  9
$PLINEWID
 40
0.0
  9
$SPLFRAME
 70
     0
  9
$SPLINETYPE
 70
     6
  9
$SPLINESEGS
 70
     8
  9
$HANDSEED
  5
F4
  9
$SURFTAB1
 70
     6
  9
$SURFTAB2
 70
     6
  9
$SURFTYPE
 70
     6
  9
$SURFU
 70
     6
  9
$SURFV
 70
     6
  9
$UCSBASE
  2

  9
$UCSNAME
  2

  9
$UCSORG
 10
0.0
 20
0.0
 30
0.0
  9
$UCSXDIR
 10
1.0
 20
0.0
 30
0.0
  9
$UCSYDIR
 10
0.0
 20
1.0
 30
0.0
  9
$UCSORTHOREF
  2

  9
$UCSORTHOVIEW
 70
     0
  9
$UCSORGTOP
 10
0.0
 20
0.0
 30
0.0
  9
$UCSORGBOTTOM
 10
0.0
 20
0.0
 30
0.0
  9
$UCSORGLEFT
 10
0.0
 20
0.0
 30
0.0
  9
$UCSORGRIGHT
 10
0.0
 20
0.0
 30
0.0
  9
$UCSORGFRONT
 10
0.0
 20
0.0
 30
0.0
  9
$UCSORGBACK
 10
0.0
 20
0.0
 30
0.0
  9
$PUCSBASE
  2

  9
$PUCSNAME
  2

  9
$PUCSORG
 10
0.0
 20
0.0
 30
0.0
  9
$PUCSXDIR
 10
1.0
 20
0.0
 30
0.0
  9
$PUCSYDIR
 10
0.0
 20
1.0
 30
0.0
  9
$PUCSORTHOREF
  2

  9
$PUCSORTHOVIEW
 70
     0
  9
$PUCSORGTOP
 10
0.0
 20
0.0
 30
0.0
  9
$PUCSORGBOTTOM
 10
0.0
 20
0.0
 30
0.0
  9
$PUCSORGLEFT
 10
0.0
 20
0.0
 30
0.0
  9
$PUCSORGRIGHT
 10
0.0
 20
0.0
 30
0.0
  9
$PUCSORGFRONT
 10
0.0
 20
0.0
 30
0.0
  9
$PUCSORGBACK
 10
0.0
 20
0.0
 30
0.0
  9
$USERI1
 70
     0
  9
$USERI2
 70
     0
  9
$USERI3
 70
     0
  9
$USERI4
 70
     0
  9
$USERI5
 70
     0
  9
$USERR1
 40
0.0
  9
$USERR2
 40
0.0
  9
$USERR3
 40
0.0
  9
$USERR4
 40
0.0
  9
$USERR5
 40
0.0
  9
$WORLDVIEW
 70
     1
  9
$SHADEDGE
 70
     3
  9
$SHADEDIF
 70
    70
  9
$TILEMODE
 70
     1
  9
$MAXACTVP
 70
    64
  9
$PINSBASE
 10
0.0
 20
0.0
 30
0.0
  9
$PLIMCHECK
 70
     0
  9
$PEXTMIN
 10
1.000000000000000E+20
 20
1.000000000000000E+20
 30
1.000000000000000E+20
  9
$PEXTMAX
 10
-1.000000000000000E+20
 20
-1.000000000000000E+20
 30
-1.000000000000000E+20
  9
$PLIMMIN
 10
0.0
 20
0.0
  9
$PLIMMAX
 10
12.0
 20
9.0
  9
$UNITMODE
 70
     0
  9
$VISRETAIN
 70
     1
  9
$PLINEGEN
 70
     0
  9
$PSLTSCALE
 70
     1
  9
$TREEDEPTH
 70
  3020
  9
$CMLSTYLE
  2
Standard
  9
$CMLJUST
 70
     0
  9
$CMLSCALE
 40
1.0
  9
$PROXYGRAPHICS
 70
     1
  9
$MEASUREMENT
 70
     0
  9
$CELWEIGHT
370
    -1
  9
$ENDCAPS
280
     0
  9
$JOINSTYLE
280
     0
  9
$LWDISPLAY
290
     1
  9
$INSUNITS
 70
     1
  9
$HYPERLINKBASE
  1

  9
$STYLESHEET
  1

  9
$XEDIT
290
     1
  9
$CEPSNTYPE
380
     0
  9
$PSTYLEMODE
290
     1
  9
$FINGERPRINTGUID
  2
{9022FE3C-6796-FAB3-C940-DFAF45584E62}
  9
$VERSIONGUID
  2
{FAEB1C32-E019-11D5-929B-00C0DF256EC4}
  9
$EXTNAMES
290
     1
  9
$PSVPSCALE
 40
0.0
  9
$OLESTARTUP
290
     0
  9
$SORTENTS
280
   127
  9
$INDEXCTL
280
     0
  9
$HIDETEXT
280
     1
  9
$XCLIPFRAME
280
     2
  9
$HALOGAP
280
     0
  9
$OBSCOLOR
 70
   257
  9
$OBSLTYPE
280
     0
  9
$INTERSECTIONDISPLAY
280
     0
  9
$INTERSECTIONCOLOR
 70
   257
  9
$DIMASSOC
280
     2
  9
$PROJECTNAME
  1

  9
$CAMERADISPLAY
290
     0
  9
$LENSLENGTH
 40
50.0
  9
$CAMERAHEIGHT
 40
0.0
  9
$STEPSPERSEC
 40
2.0
  9
$STEPSIZE
 40
6.0
  9
$3DDWFPREC
 40
2.0
  9
$PSOLWIDTH
 40
0.25
  9
$PSOLHEIGHT
 40
4.0
  9
$LOFTANG1
 40
1.570796326794897
  9
$LOFTANG2
 40
1.570796326794897
  9
$LOFTMAG1
 40
0.0
  9
$LOFTMAG2
 40
0.0
  9
$LOFTPARAM
 70
     7
  9
$LOFTNORMALS
280
     1
  9
$LATITUDE
 40
37.795
  9
$LONGITUDE
 40
-122.394
  9
$NORTHDIRECTION
 40
0.0
  9
$TIMEZONE
 70
 -8000
  9
$LIGHTGLYPHDISPLAY
280
     1
  9
$TILEMODELIGHTSYNCH
280
     1
  9
$CMATERIAL
347
3C
  9
$SOLIDHIST
280
     1
  9
$SHOWHIST
280
     1
  9
$DWFFRAME
280
     2
  9
$DGNFRAME
280
     2
  9
$REALWORLDSCALE
290
     1
  9
$INTERFERECOLOR
 62
   256
  9
$CSHADOW
280
     0
  9
$SHADOWPLANELOCATION
 40
0.0
  0
ENDSEC
  0
SECTION
  2
CLASSES
  0
CLASS
  1
ACDBDICTIONARYWDFLT
  2
AcDbDictionaryWithDefault
  3
ObjectDBX Classes
 90
        0
 91
        4
280
     0
281
     0
  0
CLASS
  1
VISUALSTYLE
  2
AcDbVisualStyle
  3
ObjectDBX Classes
 90
     4095
 91
        4
280
     0
281
     0
  0
CLASS
  1
MATERIAL
  2
AcDbMaterial
  3
ObjectDBX Classes
 90
     1153
 91
        4
280
     0
281
     0
  0
CLASS
  1
SUN
  2
AcDbSun
  3
SCENEOE
 90
     1024
 91
        4
280
     0
281
     0
  0
ENDSEC
  0
SECTION
  2
TABLES
  0
TABLE
  2
VPORT
  5
8
330
0
100
AcDbSymbolTable
 70
     1
  0
VPORT
  5
29
330
8
100
AcDbSymbolTableRecord
100
AcDbViewportTableRecord
  2
*Active
 70
     0
 10
0.0
 20
0.0
 11
1.0
 21
1.0
 12
0.0
 22
0.0
 13
0.0
 23
0.0
 14
0.5
 24
0.5
 15
0.5
 25
0.5
 16
0.0
 26
0.0
 36
1.0
 17
91.00082462281999
 27
-128.4993055234307
 37
0.0
 40
256.9986110468615
 41
0.7081814508812795
 42
50.0
 43
0.0
 44
0.0
 50
0.0
 51
0.0
 71
     0
 72
   100
 73
     1
 74
     3
 75
     0
 76
     0
 77
     0
 78
     0
281
     0
 65
     1
110
0.0
120
0.0
130
0.0
111
1.0
121
0.0
131
0.0
112
0.0
122
1.0
132
0.0
 79
     0
146
0.0
 60
     3
 61
     5
292
     1
282
     1
141
0.0
142
0.0
 63
   250
361
3F
  0
ENDTAB
  0
TABLE
  2
LTYPE
  5
5
330
0
100
AcDbSymbolTable
 70
     1
  0
LTYPE
  5
14
330
5
100
AcDbSymbolTableRecord
100
AcDbLinetypeTableRecord
  2
ByBlock
 70
     0
  3

 72
    65
 73
     0
 40
0.0
  0
LTYPE
  5
15
330
5
100
AcDbSymbolTableRecord
100
AcDbLinetypeTableRecord
  2
ByLayer
 70
     0
  3

 72
    65
 73
     0
 40
0.0
  0
LTYPE
  5
16
330
5
100
AcDbSymbolTableRecord
100
AcDbLinetypeTableRecord
  2
Continuous
 70
     0
  3
Solid line
 72
    65
 73
     0
 40
0.0
  0
ENDTAB
  0
TABLE
  2
LAYER
  5
2
330
0
100
AcDbSymbolTable
 70
     2
  0
LAYER
  5
10
330
2
100
AcDbSymbolTableRecord
100
AcDbLayerTableRecord
  2
0
 70
     0
 62
     7
  6
Continuous
370
    -3
390
F
347
3E
  0
LAYER
  5
40
330
2
100
AcDbSymbolTableRecord
100
AcDbLayerTableRecord
  2
_U+30EC_U+30A4_U+30E4_U+30FC 1
 70
     0
 62
     7
  6
Continuous
370
    -3
390
F
347
3E
  0
ENDTAB
  0
TABLE
  2
STYLE
  5
3
330
0
100
AcDbSymbolTable
 70
     1
  0
STYLE
  5
11
330
3
100
AcDbSymbolTableRecord
100
AcDbTextStyleTableRecord
  2
Standard
 70
     0
 40
0.0
 41
1.0
 50
0.0
 71
     0
 42
0.2
  3
txt
  4

  0
ENDTAB
  0
TABLE
  2
VIEW
  5
6
330
0
100
AcDbSymbolTable
 70
     0
  0
ENDTAB
  0
TABLE
  2
UCS
  5
7
330
0
100
AcDbSymbolTable
 70
     0
  0
ENDTAB
  0
TABLE
  2
APPID
  5
9
330
0
100
AcDbSymbolTable
 70
     1
  0
APPID
  5
12
330
9
100
AcDbSymbolTableRecord
100
AcDbRegAppTableRecord
  2
ACAD
 70
     0
  0
ENDTAB
  0
TABLE
  2
DIMSTYLE
  5
A
330
0
100
AcDbSymbolTable
 70
     1
100
AcDbDimStyleTable
  0
DIMSTYLE
105
27
330
A
100
AcDbSymbolTableRecord
100
AcDbDimStyleTableRecord
  2
Standard
 70
     0
178
     0
340
11
  0
ENDTAB
  0
TABLE
  2
BLOCK_RECORD
  5
1
330
0
100
AcDbSymbolTable
 70
     6
  0
BLOCK_RECORD
  5
1F
330
1
100
AcDbSymbolTableRecord
100
AcDbBlockTableRecord
  2
*Model_Space
340
22
 70
     0
280
     1
281
     0
  0
BLOCK_RECORD
  5
1B
330
1
100
AcDbSymbolTableRecord
100
AcDbBlockTableRecord
  2
*Paper_Space
340
1E
 70
     0
280
     1
281
     0
  0
BLOCK_RECORD
  5
23
330
1
100
AcDbSymbolTableRecord
100
AcDbBlockTableRecord
  2
*Paper_Space0
340
26
 70
     0
280
     1
281
     0
  0
BLOCK_RECORD
  5
5C
330
1
100
AcDbSymbolTableRecord
100
AcDbBlockTableRecord
  2
block 2
340
0
102
{BLKREFS
331
5D
102
}
 70
     0
280
     1
281
     0
  0
BLOCK_RECORD
  5
6A
330
1
100
AcDbSymbolTableRecord
100
AcDbBlockTableRecord
  2
block 3
340
0
102
{BLKREFS
331
6B
102
}
 70
     0
280
     1
281
     0
  0
BLOCK_RECORD
  5
8A
330
1
100
AcDbSymbolTableRecord
100
AcDbBlockTableRecord
  2
block 4
340
0
102
{BLKREFS
331
8B
102
}
 70
     0
280
     1
281
     0
  0
BLOCK_RECORD
  5
CA
330
1
100
AcDbSymbolTableRecord
100
AcDbBlockTableRecord
  2
block 5
340
0
102
{BLKREFS
331
CB
102
}
 70
     0
280
     1
281
     0
  0
BLOCK_RECORD
  5
E0
330
1
100
AcDbSymbolTableRecord
100
AcDbBlockTableRecord
  2
block 6
340
0
102
{BLKREFS
331
E1
102
}
 70
     0
280
     1
281
     0
  0
ENDTAB
  0
ENDSEC
  0
SECTION
  2
BLOCKS
  0
BLOCK
  5
20
330
1F
100
AcDbEntity
  8
0
100
AcDbBlockBegin
  2
*Model_Space
 70
     0
 10
0.0
 20
0.0
 30
0.0
  3
*Model_Space
  1

  0
ENDBLK
  5
21
330
1F
100
AcDbEntity
  8
0
100
AcDbBlockEnd
  0
BLOCK
  5
1C
330
1B
100
AcDbEntity
 67
     1
  8
0
100
AcDbBlockBegin
  2
*Paper_Space
 70
     0
 10
0.0
 20
0.0
 30
0.0
  3
*Paper_Space
  1

  0
ENDBLK
  5
1D
330
1B
100
AcDbEntity
 67
     1
  8
0
100
AcDbBlockEnd
  0
BLOCK
  5
24
330
23
100
AcDbEntity
  8
0
100
AcDbBlockBegin
  2
*Paper_Space0
 70
     0
 10
0.0
 20
0.0
 30
0.0
  3
*Paper_Space0
  1

  0
ENDBLK
  5
25
330
23
100
AcDbEntity
  8
0
100
AcDbBlockEnd
  0
BLOCK
  5
5E
330
5C
100
AcDbEntity
  8
0
100
AcDbBlockBegin
  2
block 2
 70
     0
 10
0.0
 20
0.0
 30
0.0
  3
block 2
  1

  0
SPLINE
  5
60
330
5C
100
AcDbEntity
  8
_U+30EC_U+30A4_U+30E4_U+30FC 1
370
     0
100
AcDbSpline
210
0.0
220
0.0
230
1.0
 70
    11
 71
     3
 72
    44
 73
    40
 74
     0
 42
0.0000000001
 43
0.0000000001
 12
1.0
 22
0.0
 32
0.0
 13
1.0
 23
0.0
 33
0.0
 40
0.0
 40
0.0
 40
0.0
 40
0.0
 40
1.0
 40
1.0
 40
1.0
 40
2.0
 40
2.0
 40
2.0
 40
3.0
 40
3.0
 40
3.0
 40
4.0
 40
4.0
 40
4.0
 40
5.0
 40
5.0
 40
5.0
 40
6.0
 40
6.0
 40
6.0
 40
7.0
 40
7.0
 40
7.0
 40
8.0
 40
8.0
 40
8.0
 40
9.0
 40
9.0
 40
9.0
 40
10.0
 40
10.0
 40
10.0
 40
11.0
 40
11.0
 40
11.0
 40
12.0
 40
12.0
 40
12.0
 40
13.0
 40
13.0
 40
13.0
 40
13.0
 10
109.735937472566
 20
-139.3644476648117
 30
0.0
 10
109.894756374436
 20
-139.5821776994795
 30
0.0
 10
109.9688259273689
 20
-139.6751952775812
 30
0.0
 10
110.1124864091038
 20
-139.7241156334718
 30
0.0
 10
110.1124864091038
 20
-139.7241156334718
 30
0.0
 10
110.1124864091038
 20
-138.9455240538053
 30
0.0
 10
110.1124864091038
 20
-138.9455240538053
 30
0.0
 10
110.1124864091038
 20
-138.9455240538053
 30
0.0
 10
110.3178141000247
 20
-138.9455240538053
 30
0.0
 10
110.3178141000247
 20
-138.9455240538053
 30
0.0
 10
110.3178141000247
 20
-138.9455240538053
 30
0.0
 10
110.3178141000247
 20
-139.9735405466039
 30
0.0
 10
110.3178141000247
 20
-139.9735405466039
 30
0.0
 10
109.9602131886558
 20
-139.9418456681395
 30
0.0
 10
109.8820095211406
 20
-139.8763888539198
 30
0.0
 10
109.583664252118
 20
-139.4912271786689
 30
0.0
 10
109.3848822426191
 20
-139.2352565841148
 30
0.0
 10
109.3170138615596
 20
-139.1697997698951
 30
0.0
 10
109.1795545516982
 20
-139.1697997698951
 30
0.0
 10
109.0610432670056
 20
-139.1697997698951
 30
0.0
 10
108.9301296385661
 20
-139.2418022655368
 30
0.0
 10
108.9301296385661
 20
-139.4385172177445
 30
0.0
 10
108.9301296385661
 20
-139.6986219268809
 30
0.0
 10
109.1606065265293
 20
-139.7068901560455
 30
0.0
 10
109.2770507539307
 20
-139.7113687801763
 30
0.0
 10
109.2770507539307
 20
-139.7113687801763
 30
0.0
 10
109.2770507539307
 20
-139.9356444962661
 30
0.0
 10
109.2770507539307
 20
-139.9356444962661
 30
0.0
 10
109.149926730525
 20
-139.927031757553
 30
0.0
 10
109.0379611272544
 20
-139.9163519615487
 30
0.0
 10
108.9194498425618
 20
-139.8360812367424
 30
0.0
 10
108.7585638834006
 20
-139.7261826907629
 30
0.0
 10
108.7248019476452
 20
-139.5398030250109
 30
0.0
 10
108.7248019476452
 20
-139.423703307158
 30
0.0
 10
108.7248019476452
 20
-139.1463731205954
 30
0.0
 10
108.9087700465575
 20
-138.9389783723833
 30
0.0
 10
109.1816216089893
 20
-138.9389783723833
 30
0.0
 10
109.4103759492099
 20
-138.9389783723833
 30
0.0
 10
109.5095946991851
 20
-139.0554225997847
 30
0.0
 10
109.735937472566
 20
-139.3644476648117
 30
0.0
  0
HATCH
  5
61
330
5C
100
AcDbEntity
  8
_U+30EC_U+30A4_U+30E4_U+30FC 1
 62
     7
420
 16777215
100
AcDbHatch
 10
0.0
 20
0.0
 30
0.0
210
0.0
220
0.0
230
1.0
  2
SOLID
 70
     1
 71
     0
 91
        1
 92
        1
 93
        1
 72
     4
 94
        3
 73
     0
 74
     1
 95
       44
 96
       40
 40
0.0
 40
0.0
 40
0.0
 40
0.0
 40
1.0
 40
1.0
 40
1.0
 40
2.0
 40
2.0
 40
2.0
 40
3.0
 40
3.0
 40
3.0
 40
4.0
 40
4.0
 40
4.0
 40
5.0
 40
5.0
 40
5.0
 40
6.0
 40
6.0
 40
6.0
 40
7.0
 40
7.0
 40
7.0
 40
8.0
 40
8.0
 40
8.0
 40
9.0
 40
9.0
 40
9.0
 40
10.0
 40
10.0
 40
10.0
 40
11.0
 40
11.0
 40
11.0
 40
12.0
 40
12.0
 40
12.0
 40
13.0
 40
13.0
 40
13.0
 40
13.0
 10
109.735937472566
 20
-139.3644476648117
 10
109.894756374436
 20
-139.5821776994795
 10
109.9688259273689
 20
-139.6751952775812
 10
110.1124864091038
 20
-139.7241156334718
 10
110.1124864091038
 20
-139.7241156334718
 10
110.1124864091038
 20
-138.9455240538053
 10
110.1124864091038
 20
-138.9455240538053
 10
110.1124864091038
 20
-138.9455240538053
 10
110.3178141000247
 20
-138.9455240538053
 10
110.3178141000247
 20
-138.9455240538053
 10
110.3178141000247
 20
-138.9455240538053
 10
110.3178141000247
 20
-139.9735405466039
 10
110.3178141000247
 20
-139.9735405466039
 10
109.9602131886558
 20
-139.9418456681395
 10
109.8820095211406
 20
-139.8763888539198
 10
109.583664252118
 20
-139.4912271786689
 10
109.3848822426191
 20
-139.2352565841148
 10
109.3170138615596
 20
-139.1697997698951
 10
109.1795545516982
 20
-139.1697997698951
 10
109.0610432670056
 20
-139.1697997698951
 10
108.9301296385661
 20
-139.2418022655368
 10
108.9301296385661
 20
-139.4385172177445
 10
108.9301296385661
 20
-139.6986219268809
 10
109.1606065265293
 20
-139.7068901560455
 10
109.2770507539307
 20
-139.7113687801763
 10
109.2770507539307
 20
-139.7113687801763
 10
109.2770507539307
 20
-139.9356444962661
 10
109.2770507539307
 20
-139.9356444962661
 10
109.149926730525
 20
-139.927031757553
 10
109.0379611272544
 20
-139.9163519615487
 10
108.9194498425618
 20
-139.8360812367424
 10
108.7585638834006
 20
-139.7261826907629
 10
108.7248019476452
 20
-139.5398030250109
 10
108.7248019476452
 20
-139.423703307158
 10
108.7248019476452
 20
-139.1463731205954
 10
108.9087700465575
 20
-138.9389783723833
 10
109.1816216089893
 20
-138.9389783723833
 10
109.4103759492099
 20
-138.9389783723833
 10
109.5095946991851
 20
-139.0554225997847
 10
109.735937472566
 20
-139.3644476648117
 97
        0
 97
        0
 75
     2
 76
     1
 98
        0
  0
ENDBLK
  5
5F
330
5C
100
AcDbEntity
  8
0
100
AcDbBlockEnd
  0
BLOCK
  5
6C
330
6A
100
AcDbEntity
  8
0
100
AcDbBlockBegin
  2
block 3
 70
     0
 10
0.0
 20
0.0
 30
0.0
  3
block 3
  1

  0
SPLINE
  5
6E
330
6A
100
AcDbEntity
  8
_U+30EC_U+30A4_U+30E4_U+30FC 1
370
     0
100
AcDbSpline
210
0.0
220
0.0
230
1.0
 70
    11
 71
     3
 72
    44
 73
    40
 74
     0
 42
0.0000000001
 43
0.0000000001
 12
1.0
 22
0.0
 32
0.0
 13
1.0
 23
0.0
 33
0.0
 40
0.0
 40
0.0
 40
0.0
 40
0.0
 40
1.0
 40
1.0
 40
1.0
 40
2.0
 40
2.0
 40
2.0
 40
3.0
 40
3.0
 40
3.0
 40
4.0
 40
4.0
 40
4.0
 40
5.0
 40
5.0
 40
5.0
 40
6.0
 40
6.0
 40
6.0
 40
7.0
 40
7.0
 40
7.0
 40
8.0
 40
8.0
 40
8.0
 40
9.0
 40
9.0
 40
9.0
 40
10.0
 40
10.0
 40
10.0
 40
11.0
 40
11.0
 40
11.0
 40
12.0
 40
12.0
 40
12.0
 40
13.0
 40
13.0
 40
13.0
 40
13.0
 10
110.9710042040281
 20
-129.2648057402533
 30
0.0
 10
111.1298231058981
 20
-129.482535774921
 30
0.0
 10
111.203892658831
 20
-129.5755533530228
 30
0.0
 10
111.3475531405659
 20
-129.6244737089133
 30
0.0
 10
111.3475531405659
 20
-129.6244737089133
 30
0.0
 10
111.3475531405659
 20
-128.8458821292469
 30
0.0
 10
111.3475531405659
 20
-128.8458821292469
 30
0.0
 10
111.3475531405659
 20
-128.8458821292469
 30
0.0
 10
111.5528808314868
 20
-128.8458821292469
 30
0.0
 10
111.5528808314868
 20
-128.8458821292469
 30
0.0
 10
111.5528808314868
 20
-128.8458821292469
 30
0.0
 10
111.5528808314868
 20
-129.8738986220454
 30
0.0
 10
111.5528808314868
 20
-129.8738986220454
 30
0.0
 10
111.1952799201179
 20
-129.8422037435811
 30
0.0
 10
111.1170762526027
 20
-129.7767469293614
 30
0.0
 10
110.81873098358
 20
-129.3915852541105
 30
0.0
 10
110.6199489740811
 20
-129.1356146595564
 30
0.0
 10
110.5520805930217
 20
-129.0701578453366
 30
0.0
 10
110.4146212831602
 20
-129.0701578453366
 30
0.0
 10
110.2961099984676
 20
-129.0701578453366
 30
0.0
 10
110.1651963700282
 20
-129.1421603409784
 30
0.0
 10
110.1651963700282
 20
-129.3388752931861
 30
0.0
 10
110.1651963700282
 20
-129.5989800023225
 30
0.0
 10
110.3956732579914
 20
-129.6072482314871
 30
0.0
 10
110.5121174853928
 20
-129.6117268556179
 30
0.0
 10
110.5121174853928
 20
-129.6117268556179
 30
0.0
 10
110.5121174853928
 20
-129.8360025717077
 30
0.0
 10
110.5121174853928
 20
-129.8360025717077
 30
0.0
 10
110.3849934619871
 20
-129.8273898329946
 30
0.0
 10
110.2730278587165
 20
-129.8167100369903
 30
0.0
 10
110.1545165740239
 20
-129.736439312184
 30
0.0
 10
109.9936306148627
 20
-129.6265407662045
 30
0.0
 10
109.9598686791073
 20
-129.4401611004525
 30
0.0
 10
109.9598686791073
 20
-129.3240613825996
 30
0.0
 10
109.9598686791073
 20
-129.0467311960369
 30
0.0
 10
110.1438367780196
 20
-128.8393364478249
 30
0.0
 10
110.4166883404514
 20
-128.8393364478249
 30
0.0
 10
110.645442680672
 20
-128.8393364478249
 30
0.0
 10
110.7446614306472
 20
-128.9557806752264
 30
0.0
 10
110.9710042040281
 20
-129.2648057402533
 30
0.0
  0
HATCH
  5
6F
330
6A
100
AcDbEntity
  8
_U+30EC_U+30A4_U+30E4_U+30FC 1
 62
     7
420
 16777215
100
AcDbHatch
 10
0.0
 20
0.0
 30
0.0
210
0.0
220
0.0
230
1.0
  2
SOLID
 70
     1
 71
     0
 91
        1
 92
        1
 93
        1
 72
     4
 94
        3
 73
     0
 74
     1
 95
       44
 96
       40
 40
0.0
 40
0.0
 40
0.0
 40
0.0
 40
1.0
 40
1.0
 40
1.0
 40
2.0
 40
2.0
 40
2.0
 40
3.0
 40
3.0
 40
3.0
 40
4.0
 40
4.0
 40
4.0
 40
5.0
 40
5.0
 40
5.0
 40
6.0
 40
6.0
 40
6.0
 40
7.0
 40
7.0
 40
7.0
 40
8.0
 40
8.0
 40
8.0
 40
9.0
 40
9.0
 40
9.0
 40
10.0
 40
10.0
 40
10.0
 40
11.0
 40
11.0
 40
11.0
 40
12.0
 40
12.0
 40
12.0
 40
13.0
 40
13.0
 40
13.0
 40
13.0
 10
110.9710042040281
 20
-129.2648057402533
 10
111.1298231058981
 20
-129.482535774921
 10
111.203892658831
 20
-129.5755533530228
 10
111.3475531405659
 20
-129.6244737089133
 10
111.3475531405659
 20
-129.6244737089133
 10
111.3475531405659
 20
-128.8458821292469
 10
111.3475531405659
 20
-128.8458821292469
 10
111.3475531405659
 20
-128.8458821292469
 10
111.5528808314868
 20
-128.8458821292469
 10
111.5528808314868
 20
-128.8458821292469
 10
111.5528808314868
 20
-128.8458821292469
 10
111.5528808314868
 20
-129.8738986220454
 10
111.5528808314868
 20
-129.8738986220454
 10
111.1952799201179
 20
-129.8422037435811
 10
111.1170762526027
 20
-129.7767469293614
 10
110.81873098358
 20
-129.3915852541105
 10
110.6199489740811
 20
-129.1356146595564
 10
110.5520805930217
 20
-129.0701578453366
 10
110.4146212831602
 20
-129.0701578453366
 10
110.2961099984676
 20
-129.0701578453366
 10
110.1651963700282
 20
-129.1421603409784
 10
110.1651963700282
 20
-129.3388752931861
 10
110.1651963700282
 20
-129.5989800023225
 10
110.3956732579914
 20
-129.6072482314871
 10
110.5121174853928
 20
-129.6117268556179
 10
110.5121174853928
 20
-129.6117268556179
 10
110.5121174853928
 20
-129.8360025717077
 10
110.5121174853928
 20
-129.8360025717077
 10
110.3849934619871
 20
-129.8273898329946
 10
110.2730278587165
 20
-129.8167100369903
 10
110.1545165740239
 20
-129.736439312184
 10
109.9936306148627
 20
-129.6265407662045
 10
109.9598686791073
 20
-129.4401611004525
 10
109.9598686791073
 20
-129.3240613825996
 10
109.9598686791073
 20
-129.0467311960369
 10
110.1438367780196
 20
-128.8393364478249
 10
110.4166883404514
 20
-128.8393364478249
 10
110.645442680672
 20
-128.8393364478249
 10
110.7446614306472
 20
-128.9557806752264
 10
110.9710042040281
 20
-129.2648057402533
 97
        0
 97
        0
 75
     2
 76
     1
 98
        0
  0
SPLINE
  5
70
330
6A
100
AcDbEntity
  8
_U+30EC_U+30A4_U+30E4_U+30FC 1
370
     0
100
AcDbSpline
210
0.0
220
0.0
230
1.0
 70
    11
 71
     3
 72
    26
 73
    22
 74
     0
 42
0.0000000001
 43
0.0000000001
 12
1.0
 22
0.0
 32
0.0
 13
1.0
 23
0.0
 33
0.0
 40
0.0
 40
0.0
 40
0.0
 40
0.0
 40
1.0
 40
1.0
 40
1.0
 40
2.0
 40
2.0
 40
2.0
 40
3.0
 40
3.0
 40
3.0
 40
4.0
 40
4.0
 40
4.0
 40
5.0
 40
5.0
 40
5.0
 40
6.0
 40
6.0
 40
6.0
 40
7.0
 40
7.0
 40
7.0
 40
7.0
 10
111.5528808314868
 20
-128.2295545469357
 30
0.0
 10
111.5528808314868
 20
-128.2295545469357
 30
0.0
 10
110.4487277284642
 20
-128.2295545469357
 30
0.0
 10
110.4487277284642
 20
-128.2295545469357
 30
0.0
 10
110.4487277284642
 20
-128.2295545469357
 30
0.0
 10
110.4487277284642
 20
-128.5595946944226
 30
0.0
 10
110.4487277284642
 20
-128.5595946944226
 30
0.0
 10
110.4487277284642
 20
-128.5595946944226
 30
0.0
 10
110.3005886225985
 20
-128.5595946944226
 30
0.0
 10
110.3005886225985
 20
-128.5595946944226
 30
0.0
 10
110.2857747120119
 20
-128.2274874896445
 30
0.0
 10
110.1228216955596
 20
-128.1809787005936
 30
0.0
 10
110.0084445254493
 20
-128.1513508794205
 30
0.0
 10
110.0084445254493
 20
-128.1513508794205
 30
0.0
 10
110.0084445254493
 20
-128.0052788308459
 30
0.0
 10
110.0084445254493
 20
-128.0052788308459
 30
0.0
 10
110.0084445254493
 20
-128.0052788308459
 30
0.0
 10
111.5528808314868
 20
-128.0052788308459
 30
0.0
 10
111.5528808314868
 20
-128.0052788308459
 30
0.0
 10
111.5528808314868
 20
-128.0052788308459
 30
0.0
 10
111.5528808314868
 20
-128.2295545469357
 30
0.0
 10
111.5528808314868
 20
-128.2295545469357
 30
0.0
  0
HATCH
  5
71
330
6A
100
AcDbEntity
  8
_U+30EC_U+30A4_U+30E4_U+30FC 1
 62
     7
420
 16777215
100
AcDbHatch
 10
0.0
 20
0.0
 30
0.0
210
0.0
220
0.0
230
1.0
  2
SOLID
 70
     1
 71
     0
 91
        1
 92
        1
 93
        1
 72
     4
 94
        3
 73
     0
 74
     1
 95
       26
 96
       22
 40
0.0
 40
0.0
 40
0.0
 40
0.0
 40
1.0
 40
1.0
 40
1.0
 40
2.0
 40
2.0
 40
2.0
 40
3.0
 40
3.0
 40
3.0
 40
4.0
 40
4.0
 40
4.0
 40
5.0
 40
5.0
 40
5.0
 40
6.0
 40
6.0
 40
6.0
 40
7.0
 40
7.0
 40
7.0
 40
7.0
 10
111.5528808314868
 20
-128.2295545469357
 10
111.5528808314868
 20
-128.2295545469357
 10
110.4487277284642
 20
-128.2295545469357
 10
110.4487277284642
 20
-128.2295545469357
 10
110.4487277284642
 20
-128.2295545469357
 10
110.4487277284642
 20
-128.5595946944226
 10
110.4487277284642
 20
-128.5595946944226
 10
110.4487277284642
 20
-128.5595946944226
 10
110.3005886225985
 20
-128.5595946944226
 10
110.3005886225985
 20
-128.5595946944226
 10
110.2857747120119
 20
-128.2274874896445
 10
110.1228216955596
 20
-128.1809787005936
 10
110.0084445254493
 20
-128.1513508794205
 10
110.0084445254493
 20
-128.1513508794205
 10
110.0084445254493
 20
-128.0052788308459
 10
110.0084445254493
 20
-128.0052788308459
 10
110.0084445254493
 20
-128.0052788308459
 10
111.5528808314868
 20
-128.0052788308459
 10
111.5528808314868
 20
-128.0052788308459
 10
111.5528808314868
 20
-128.0052788308459
 10
111.5528808314868
 20
-128.2295545469357
 10
111.5528808314868
 20
-128.2295545469357
 97
        0
 97
        0
 75
     2
 76
     1
 98
        0
  0
POLYLINE
  5
72
330
6A
100
AcDbEntity
  8
_U+30EC_U+30A4_U+30E4_U+30FC 1
370
     0
100
AcDb2dPolyline
 66
     1
 10
0.0
 20
0.0
 30
0.0
  0
VERTEX
  5
73
330
72
100
AcDbEntity
  8
_U+30EC_U+30A4_U+30E4_U+30FC 1
370
     0
100
AcDbVertex
100
AcDb2dVertex
 10
111.5528808314868
 20
-127.4440727762987
 30
0.0
  0
VERTEX
  5
74
330
72
100
AcDbEntity
  8
_U+30EC_U+30A4_U+30E4_U+30FC 1
370
     0
100
AcDbVertex
100
AcDb2dVertex
 10
111.301044351515
 20
-127.4440727762987
 30
0.0
  0
VERTEX
  5
75
330
72
100
AcDbEntity
  8
_U+30EC_U+30A4_U+30E4_U+30FC 1
370
     0
100
AcDbVertex
100
AcDb2dVertex
 10
111.301044351515
 20
-127.192236296327
 30
0.0
  0
VERTEX
  5
76
330
72
100
AcDbEntity
  8
_U+30EC_U+30A4_U+30E4_U+30FC 1
370
     0
100
AcDbVertex
100
AcDb2dVertex
 10
111.5528808314868
 20
-127.192236296327
 30
0.0
  0
VERTEX
  5
77
330
72
100
AcDbEntity
  8
_U+30EC_U+30A4_U+30E4_U+30FC 1
370
     0
100
AcDbVertex
100
AcDb2dVertex
 10
111.5528808314868
 20
-127.4440727762987
 30
0.0
  0
SEQEND
  5
78
330
72
100
AcDbEntity
  8
_U+30EC_U+30A4_U+30E4_U+30FC 1
370
     0
  0
HATCH
  5
79
330
6A
100
AcDbEntity
  8
_U+30EC_U+30A4_U+30E4_U+30FC 1
 62
     7
420
 16777215
100
AcDbHatch
 10
0.0
 20
0.0
 30
0.0
210
0.0
220
0.0
230
1.0
  2
SOLID
 70
     1
 71
     0
 91
        1
 92
        1
 93
        4
 72
     1
 10
111.5528808314868
 20
-127.4440727762987
 11
111.301044351515
 21
-127.4440727762987
 72
     1
 10
111.301044351515
 20
-127.4440727762987
 11
111.301044351515
 21
-127.192236296327
 72
     1
 10
111.301044351515
 20
-127.192236296327
 11
111.5528808314868
 21
-127.192236296327
 72
     1
 10
111.5528808314868
 20
-127.192236296327
 11
111.5528808314868
 21
-127.4440727762987
 97
        0
 75
     2
 76
     1
 98
        0
  0
SPLINE
  5
7A
330
6A
100
AcDbEntity
  8
_U+30EC_U+30A4_U+30E4_U+30FC 1
370
     0
100
AcDbSpline
210
0.0
220
0.0
230
1.0
 70
    11
 71
     3
 72
    53
 73
    49
 74
     0
 42
0.0000000001
 43
0.0000000001
 12
1.0
 22
0.0
 32
0.0
 13
1.0
 23
0.0
 33
0.0
 40
0.0
 40
0.0
 40
0.0
 40
0.0
 40
1.0
 40
1.0
 40
1.0
 40
2.0
 40
2.0
 40
2.0
 40
3.0
 40
3.0
 40
3.0
 40
4.0
 40
4.0
 40
4.0
 40
5.0
 40
5.0
 40
5.0
 40
6.0
 40
6.0
 40
6.0
 40
7.0
 40
7.0
 40
7.0
 40
8.0
 40
8.0
 40
8.0
 40
9.0
 40
9.0
 40
9.0
 40
10.0
 40
10.0
 40
10.0
 40
11.0
 40
11.0
 40
11.0
 40
12.0
 40
12.0
 40
12.0
 40
13.0
 40
13.0
 40
13.0
 40
14.0
 40
14.0
 40
14.0
 40
15.0
 40
15.0
 40
15.0
 40
16.0
 40
16.0
 40
16.0
 40
16.0
 10
111.60352373512
 20
-126.4749674162979
 30
0.0
 10
111.60352373512
 20
-126.5531710838131
 30
0.0
 10
111.5866427672422
 20
-126.654801400628
 30
0.0
 10
111.5232530103136
 20
-126.7564317174428
 30
0.0
 10
111.4133544643342
 20
-126.9297200203509
 30
0.0
 10
111.2820963263461
 20
-126.9510796123595
 30
0.0
 10
111.1742648376578
 20
-126.9700276375283
 30
0.0
 10
111.1742648376578
 20
-126.9700276375283
 30
0.0
 10
111.1742648376578
 20
-126.7478189787297
 30
0.0
 10
111.1742648376578
 20
-126.7478189787297
 30
0.0
 10
111.3730468471567
 20
-126.6930419605143
 30
0.0
 10
111.4026746683299
 20
-126.5659179371085
 30
0.0
 10
111.4026746683299
 20
-126.4729003590068
 30
0.0
 10
111.4026746683299
 20
-126.3333739918542
 30
0.0
 10
111.3031114088062
 20
-126.1811007714061
 30
0.0
 10
111.0705674635518
 20
-126.1811007714061
 30
0.0
 10
110.8145968689977
 20
-126.1811007714061
 30
0.0
 10
110.7446614306472
 20
-126.3609347557362
 30
0.0
 10
110.7446614306472
 20
-126.4815130977199
 30
0.0
 10
110.7446614306472
 20
-126.5132079761842
 30
0.0
 10
110.7446614306472
 20
-126.654801400628
 30
0.0
 10
110.873852511344
 20
-126.7436848641474
 30
0.0
 10
110.873852511344
 20
-126.7436848641474
 30
0.0
 10
110.8549044861752
 20
-126.9193847338952
 30
0.0
 10
110.8549044861752
 20
-126.9193847338952
 30
0.0
 10
110.8549044861752
 20
-126.9193847338952
 30
0.0
 10
110.0084445254493
 20
-126.7988063919114
 30
0.0
 10
110.0084445254493
 20
-126.7988063919114
 30
0.0
 10
110.0084445254493
 20
-126.7988063919114
 30
0.0
 10
110.0084445254493
 20
-126.020214812245
 30
0.0
 10
110.0084445254493
 20
-126.020214812245
 30
0.0
 10
110.0084445254493
 20
-126.020214812245
 30
0.0
 10
110.2030924203659
 20
-126.020214812245
 30
0.0
 10
110.2030924203659
 20
-126.020214812245
 30
0.0
 10
110.2030924203659
 20
-126.020214812245
 30
0.0
 10
110.2030924203659
 20
-126.6358533754591
 30
0.0
 10
110.2030924203659
 20
-126.6358533754591
 30
0.0
 10
110.2030924203659
 20
-126.6358533754591
 30
0.0
 10
110.6261501459546
 20
-126.7013101896788
 30
0.0
 10
110.6261501459546
 20
-126.7013101896788
 30
0.0
 10
110.5923882101991
 20
-126.6399874900414
 30
0.0
 10
110.5520805930217
 20
-126.5576497079439
 30
0.0
 10
110.5520805930217
 20
-126.4391384232513
 30
0.0
 10
110.5520805930217
 20
-126.1852348859884
 30
0.0
 10
110.7384602587737
 20
-125.9482123166032
 30
0.0
 10
111.0516194383829
 20
-125.9482123166032
 30
0.0
 10
111.3689127325744
 20
-125.9482123166032
 30
0.0
 10
111.60352373512
 20
-126.172488032693
 30
0.0
 10
111.60352373512
 20
-126.4749674162979
 30
0.0
  0
HATCH
  5
7B
330
6A
100
AcDbEntity
  8
_U+30EC_U+30A4_U+30E4_U+30FC 1
 62
     7
420
 16777215
100
AcDbHatch
 10
0.0
 20
0.0
 30
0.0
210
0.0
220
0.0
230
1.0
  2
SOLID
 70
     1
 71
     0
 91
        1
 92
        1
 93
        1
 72
     4
 94
        3
 73
     0
 74
     1
 95
       53
 96
       49
 40
0.0
 40
0.0
 40
0.0
 40
0.0
 40
1.0
 40
1.0
 40
1.0
 40
2.0
 40
2.0
 40
2.0
 40
3.0
 40
3.0
 40
3.0
 40
4.0
 40
4.0
 40
4.0
 40
5.0
 40
5.0
 40
5.0
 40
6.0
 40
6.0
 40
6.0
 40
7.0
 40
7.0
 40
7.0
 40
8.0
 40
8.0
 40
8.0
 40
9.0
 40
9.0
 40
9.0
 40
10.0
 40
10.0
 40
10.0
 40
11.0
 40
11.0
 40
11.0
 40
12.0
 40
12.0
 40
12.0
 40
13.0
 40
13.0
 40
13.0
 40
14.0
 40
14.0
 40
14.0
 40
15.0
 40
15.0
 40
15.0
 40
16.0
 40
16.0
 40
16.0
 40
16.0
 10
111.60352373512
 20
-126.4749674162979
 10
111.60352373512
 20
-126.5531710838131
 10
111.5866427672422
 20
-126.654801400628
 10
111.5232530103136
 20
-126.7564317174428
 10
111.4133544643342
 20
-126.9297200203509
 10
111.2820963263461
 20
-126.9510796123595
 10
111.1742648376578
 20
-126.9700276375283
 10
111.1742648376578
 20
-126.9700276375283
 10
111.1742648376578
 20
-126.7478189787297
 10
111.1742648376578
 20
-126.7478189787297
 10
111.3730468471567
 20
-126.6930419605143
 10
111.4026746683299
 20
-126.5659179371085
 10
111.4026746683299
 20
-126.4729003590068
 10
111.4026746683299
 20
-126.3333739918542
 10
111.3031114088062
 20
-126.1811007714061
 10
111.0705674635518
 20
-126.1811007714061
 10
110.8145968689977
 20
-126.1811007714061
 10
110.7446614306472
 20
-126.3609347557362
 10
110.7446614306472
 20
-126.4815130977199
 10
110.7446614306472
 20
-126.5132079761842
 10
110.7446614306472
 20
-126.654801400628
 10
110.873852511344
 20
-126.7436848641474
 10
110.873852511344
 20
-126.7436848641474
 10
110.8549044861752
 20
-126.9193847338952
 10
110.8549044861752
 20
-126.9193847338952
 10
110.8549044861752
 20
-126.9193847338952
 10
110.0084445254493
 20
-126.7988063919114
 10
110.0084445254493
 20
-126.7988063919114
 10
110.0084445254493
 20
-126.7988063919114
 10
110.0084445254493
 20
-126.020214812245
 10
110.0084445254493
 20
-126.020214812245
 10
110.0084445254493
 20
-126.020214812245
 10
110.2030924203659
 20
-126.020214812245
 10
110.2030924203659
 20
-126.020214812245
 10
110.2030924203659
 20
-126.020214812245
 10
110.2030924203659
 20
-126.6358533754591
 10
110.2030924203659
 20
-126.6358533754591
 10
110.2030924203659
 20
-126.6358533754591
 10
110.6261501459546
 20
-126.7013101896788
 10
110.6261501459546
 20
-126.7013101896788
 10
110.5923882101991
 20
-126.6399874900414
 10
110.5520805930217
 20
-126.5576497079439
 10
110.5520805930217
 20
-126.4391384232513
 10
110.5520805930217
 20
-126.1852348859884
 10
110.7384602587737
 20
-125.9482123166032
 10
111.0516194383829
 20
-125.9482123166032
 10
111.3689127325744
 20
-125.9482123166032
 10
111.60352373512
 20
-126.172488032693
 10
111.60352373512
 20
-126.4749674162979
 97
        0
 97
        0
 75
     2
 76
     1
 98
        0
  0
ENDBLK
  5
6D
330
6A
100
AcDbEntity
  8
0
100
AcDbBlockEnd
  0
BLOCK
  5
8C
330
8A
100
AcDbEntity
  8
0
100
AcDbBlockBegin
  2
block 4
 70
     0
 10
0.0
 20
0.0
 30
0.0
  3
block 4
  1

  0
SPLINE
  5
8E
330
8A
100
AcDbEntity
  8
_U+30EC_U+30A4_U+30E4_U+30FC 1
370
     0
100
AcDbSpline
210
0.0
220
0.0
230
1.0
 70
    11
 71
     3
 72
    44
 73
    40
 74
     0
 42
0.0000000001
 43
0.0000000001
 12
1.0
 22
0.0
 32
0.0
 13
1.0
 23
0.0
 33
0.0
 40
0.0
 40
0.0
 40
0.0
 40
0.0
 40
1.0
 40
1.0
 40
1.0
 40
2.0
 40
2.0
 40
2.0
 40
3.0
 40
3.0
 40
3.0
 40
4.0
 40
4.0
 40
4.0
 40
5.0
 40
5.0
 40
5.0
 40
6.0
 40
6.0
 40
6.0
 40
7.0
 40
7.0
 40
7.0
 40
8.0
 40
8.0
 40
8.0
 40
9.0
 40
9.0
 40
9.0
 40
10.0
 40
10.0
 40
10.0
 40
11.0
 40
11.0
 40
11.0
 40
12.0
 40
12.0
 40
12.0
 40
13.0
 40
13.0
 40
13.0
 40
13.0
 10
71.5777153683903
 20
-130.2652614691698
 30
0.0
 10
71.73653427026031
 20
-130.4829915038376
 30
0.0
 10
71.81060382319319
 20
-130.5760090819393
 30
0.0
 10
71.9542643049281
 20
-130.6249294378299
 30
0.0
 10
71.9542643049281
 20
-130.6249294378299
 30
0.0
 10
71.9542643049281
 20
-129.8463378581634
 30
0.0
 10
71.9542643049281
 20
-129.8463378581634
 30
0.0
 10
71.9542643049281
 20
-129.8463378581634
 30
0.0
 10
72.159591995849
 20
-129.8463378581634
 30
0.0
 10
72.159591995849
 20
-129.8463378581634
 30
0.0
 10
72.159591995849
 20
-129.8463378581634
 30
0.0
 10
72.159591995849
 20
-130.874354350962
 30
0.0
 10
72.159591995849
 20
-130.874354350962
 30
0.0
 10
71.80199108448006
 20
-130.8426594724977
 30
0.0
 10
71.7237874169649
 20
-130.7772026582779
 30
0.0
 10
71.42544214794225
 20
-130.392040983027
 30
0.0
 10
71.22666013844334
 20
-130.1360703884729
 30
0.0
 10
71.15879175738392
 20
-130.0706135742532
 30
0.0
 10
71.02133244752245
 20
-130.0706135742532
 30
0.0
 10
70.90282116282985
 20
-130.0706135742532
 30
0.0
 10
70.77190753439037
 20
-130.1426160698949
 30
0.0
 10
70.77190753439037
 20
-130.3393310221027
 30
0.0
 10
70.77190753439037
 20
-130.599435731239
 30
0.0
 10
71.00238442235357
 20
-130.6077039604036
 30
0.0
 10
71.11882864975502
 20
-130.6121825845345
 30
0.0
 10
71.11882864975502
 20
-130.6121825845345
 30
0.0
 10
71.11882864975502
 20
-130.8364583006242
 30
0.0
 10
71.11882864975502
 20
-130.8364583006242
 30
0.0
 10
70.9917046263493
 20
-130.8278455619111
 30
0.0
 10
70.87973902307868
 20
-130.8171657659068
 30
0.0
 10
70.76122773838608
 20
-130.7368950411005
 30
0.0
 10
70.60034177922492
 20
-130.626996495121
 30
0.0
 10
70.56657984346947
 20
-130.440616829369
 30
0.0
 10
70.56657984346947
 20
-130.3245171115161
 30
0.0
 10
70.56657984346947
 20
-130.0471869249535
 30
0.0
 10
70.75054794238181
 20
-129.8397921767414
 30
0.0
 10
71.0233995048136
 20
-129.8397921767414
 30
0.0
 10
71.25215384503419
 20
-129.8397921767414
 30
0.0
 10
71.35137259500938
 20
-129.9562364041429
 30
0.0
 10
71.5777153683903
 20
-130.2652614691698
 30
0.0
  0
HATCH
  5
8F
330
8A
100
AcDbEntity
  8
_U+30EC_U+30A4_U+30E4_U+30FC 1
 62
     7
420
 16777215
100
AcDbHatch
 10
0.0
 20
0.0
 30
0.0
210
0.0
220
0.0
230
1.0
  2
SOLID
 70
     1
 71
     0
 91
        1
 92
        1
 93
        1
 72
     4
 94
        3
 73
     0
 74
     1
 95
       44
 96
       40
 40
0.0
 40
0.0
 40
0.0
 40
0.0
 40
1.0
 40
1.0
 40
1.0
 40
2.0
 40
2.0
 40
2.0
 40
3.0
 40
3.0
 40
3.0
 40
4.0
 40
4.0
 40
4.0
 40
5.0
 40
5.0
 40
5.0
 40
6.0
 40
6.0
 40
6.0
 40
7.0
 40
7.0
 40
7.0
 40
8.0
 40
8.0
 40
8.0
 40
9.0
 40
9.0
 40
9.0
 40
10.0
 40
10.0
 40
10.0
 40
11.0
 40
11.0
 40
11.0
 40
12.0
 40
12.0
 40
12.0
 40
13.0
 40
13.0
 40
13.0
 40
13.0
 10
71.5777153683903
 20
-130.2652614691698
 10
71.73653427026031
 20
-130.4829915038376
 10
71.81060382319319
 20
-130.5760090819393
 10
71.9542643049281
 20
-130.6249294378299
 10
71.9542643049281
 20
-130.6249294378299
 10
71.9542643049281
 20
-129.8463378581634
 10
71.9542643049281
 20
-129.8463378581634
 10
71.9542643049281
 20
-129.8463378581634
 10
72.159591995849
 20
-129.8463378581634
 10
72.159591995849
 20
-129.8463378581634
 10
72.159591995849
 20
-129.8463378581634
 10
72.159591995849
 20
-130.874354350962
 10
72.159591995849
 20
-130.874354350962
 10
71.80199108448006
 20
-130.8426594724977
 10
71.7237874169649
 20
-130.7772026582779
 10
71.42544214794225
 20
-130.392040983027
 10
71.22666013844334
 20
-130.1360703884729
 10
71.15879175738392
 20
-130.0706135742532
 10
71.02133244752245
 20
-130.0706135742532
 10
70.90282116282985
 20
-130.0706135742532
 10
70.77190753439037
 20
-130.1426160698949
 10
70.77190753439037
 20
-130.3393310221027
 10
70.77190753439037
 20
-130.599435731239
 10
71.00238442235357
 20
-130.6077039604036
 10
71.11882864975502
 20
-130.6121825845345
 10
71.11882864975502
 20
-130.6121825845345
 10
71.11882864975502
 20
-130.8364583006242
 10
71.11882864975502
 20
-130.8364583006242
 10
70.9917046263493
 20
-130.8278455619111
 10
70.87973902307868
 20
-130.8171657659068
 10
70.76122773838608
 20
-130.7368950411005
 10
70.60034177922492
 20
-130.626996495121
 10
70.56657984346947
 20
-130.440616829369
 10
70.56657984346947
 20
-130.3245171115161
 10
70.56657984346947
 20
-130.0471869249535
 10
70.75054794238181
 20
-129.8397921767414
 10
71.0233995048136
 20
-129.8397921767414
 10
71.25215384503419
 20
-129.8397921767414
 10
71.35137259500938
 20
-129.9562364041429
 10
71.5777153683903
 20
-130.2652614691698
 97
        0
 97
        0
 75
     2
 76
     1
 98
        0
  0
SPLINE
  5
90
330
8A
100
AcDbEntity
  8
_U+30EC_U+30A4_U+30E4_U+30FC 1
370
     0
100
AcDbSpline
210
0.0
220
0.0
230
1.0
 70
    11
 71
     3
 72
    62
 73
    58
 74
     0
 42
0.0000000001
 43
0.0000000001
 12
1.0
 22
0.0
 32
0.0
 13
1.0
 23
0.0
 33
0.0
 40
0.0
 40
0.0
 40
0.0
 40
0.0
 40
1.0
 40
1.0
 40
1.0
 40
2.0
 40
2.0
 40
2.0
 40
3.0
 40
3.0
 40
3.0
 40
4.0
 40
4.0
 40
4.0
 40
5.0
 40
5.0
 40
5.0
 40
6.0
 40
6.0
 40
6.0
 40
7.0
 40
7.0
 40
7.0
 40
8.0
 40
8.0
 40
8.0
 40
9.0
 40
9.0
 40
9.0
 40
10.0
 40
10.0
 40
10.0
 40
11.0
 40
11.0
 40
11.0
 40
12.0
 40
12.0
 40
12.0
 40
13.0
 40
13.0
 40
13.0
 40
14.0
 40
14.0
 40
14.0
 40
15.0
 40
15.0
 40
15.0
 40
16.0
 40
16.0
 40
16.0
 40
17.0
 40
17.0
 40
17.0
 40
18.0
 40
18.0
 40
18.0
 40
19.0
 40
19.0
 40
19.0
 40
19.0
 10
72.21023489948217
 20
-129.1897026586748
 30
0.0
 10
72.21023489948217
 20
-129.2851318036162
 30
0.0
 10
72.18921981702215
 20
-129.502861838284
 30
0.0
 10
72.00318466081865
 20
-129.6279188043986
 30
0.0
 10
71.8908745479995
 20
-129.7016438477829
 30
0.0
 10
71.79165579802431
 20
-129.7061224719137
 30
0.0
 10
71.70690644908717
 20
-129.7102565864961
 30
0.0
 10
71.70690644908717
 20
-129.7102565864961
 30
0.0
 10
71.70690644908717
 20
-129.4901149849886
 30
0.0
 10
71.70690644908717
 20
-129.4901149849886
 30
0.0
 10
71.78097600202004
 20
-129.4880479276974
 30
0.0
 10
72.01558700456555
 20
-129.4777126412417
 30
0.0
 10
72.01558700456555
 20
-129.1941812828056
 30
0.0
 10
72.01558700456555
 20
-129.0567219729442
 30
0.0
 10
71.9459960757635
 20
-128.9041042429476
 30
0.0
 10
71.71758624509144
 20
-128.9041042429476
 30
0.0
 10
71.60114201769
 20
-128.9041042429476
 30
0.0
 10
71.55256617134798
 20
-128.9423448028339
 30
0.0
 10
71.52087129288367
 20
-128.9740396812982
 30
0.0
 10
71.4468017399508
 20
-129.048109234231
 30
0.0
 10
71.43405488665537
 20
-129.1645534616325
 30
0.0
 10
71.43405488665537
 20
-129.2193304798479
 30
0.0
 10
71.43405488665537
 20
-129.2386230145653
 30
0.0
 10
71.43612194394653
 20
-129.274452007612
 30
0.0
 10
71.44025605852883
 20
-129.3020127714939
 30
0.0
 10
71.44025605852883
 20
-129.3020127714939
 30
0.0
 10
71.24560816361222
 20
-129.3020127714939
 30
0.0
 10
71.24560816361222
 20
-129.3020127714939
 30
0.0
 10
71.25215384503419
 20
-129.2637722116077
 30
0.0
 10
71.25422090232534
 20
-129.2217420466876
 30
0.0
 10
71.25422090232534
 20
-129.2151963652657
 30
0.0
 10
71.25422090232534
 20
-129.1497395510459
 30
0.0
 10
71.23286131031679
 20
-128.950957541547
 30
0.0
 10
70.99618325048013
 20
-128.950957541547
 30
0.0
 10
70.81841632344123
 20
-128.950957541547
 30
0.0
 10
70.76329479567724
 20
-129.0818711699865
 30
0.0
 10
70.76329479567724
 20
-129.1921142255145
 30
0.0
 10
70.76329479567724
 20
-129.4563530492331
 30
0.0
 10
70.99618325048013
 20
-129.4649657879463
 30
0.0
 10
71.06784123657332
 20
-129.4690999025286
 30
0.0
 10
71.06784123657332
 20
-129.4690999025286
 30
0.0
 10
71.06784123657332
 20
-129.6723605361583
 30
0.0
 10
71.06784123657332
 20
-129.6723605361583
 30
0.0
 10
70.94312878000727
 20
-129.6637477974452
 30
0.0
 10
70.56657984346947
 20
-129.6361870335632
 30
0.0
 10
70.56657984346947
 20
-129.179367372219
 30
0.0
 10
70.56657984346947
 20
-128.9550916561293
 30
0.0
 10
70.69370386687518
 20
-128.7139349721618
 30
0.0
 10
70.98963756905815
 20
-128.7139349721618
 30
0.0
 10
71.17601723481016
 20
-128.7139349721618
 30
0.0
 10
71.25835501690764
 20
-128.8090196075547
 30
0.0
 10
71.31967771654509
 20
-128.9085828670784
 30
0.0
 10
71.34723848042708
 20
-128.847260167441
 30
0.0
 10
71.4275092052334
 20
-128.6653591258198
 30
0.0
 10
71.70483939179601
 20
-128.6653591258198
 30
0.0
 10
72.04314776844755
 20
-128.6653591258198
 30
0.0
 10
72.21023489948217
 20
-128.9127169816607
 30
0.0
 10
72.21023489948217
 20
-129.1897026586748
 30
0.0
  0
HATCH
  5
91
330
8A
100
AcDbEntity
  8
_U+30EC_U+30A4_U+30E4_U+30FC 1
 62
     7
420
 16777215
100
AcDbHatch
 10
0.0
 20
0.0
 30
0.0
210
0.0
220
0.0
230
1.0
  2
SOLID
 70
     1
 71
     0
 91
        1
 92
        1
 93
        1
 72
     4
 94
        3
 73
     0
 74
     1
 95
       62
 96
       58
 40
0.0
 40
0.0
 40
0.0
 40
0.0
 40
1.0
 40
1.0
 40
1.0
 40
2.0
 40
2.0
 40
2.0
 40
3.0
 40
3.0
 40
3.0
 40
4.0
 40
4.0
 40
4.0
 40
5.0
 40
5.0
 40
5.0
 40
6.0
 40
6.0
 40
6.0
 40
7.0
 40
7.0
 40
7.0
 40
8.0
 40
8.0
 40
8.0
 40
9.0
 40
9.0
 40
9.0
 40
10.0
 40
10.0
 40
10.0
 40
11.0
 40
11.0
 40
11.0
 40
12.0
 40
12.0
 40
12.0
 40
13.0
 40
13.0
 40
13.0
 40
14.0
 40
14.0
 40
14.0
 40
15.0
 40
15.0
 40
15.0
 40
16.0
 40
16.0
 40
16.0
 40
17.0
 40
17.0
 40
17.0
 40
18.0
 40
18.0
 40
18.0
 40
19.0
 40
19.0
 40
19.0
 40
19.0
 10
72.21023489948217
 20
-129.1897026586748
 10
72.21023489948217
 20
-129.2851318036162
 10
72.18921981702215
 20
-129.502861838284
 10
72.00318466081865
 20
-129.6279188043986
 10
71.8908745479995
 20
-129.7016438477829
 10
71.79165579802431
 20
-129.7061224719137
 10
71.70690644908717
 20
-129.7102565864961
 10
71.70690644908717
 20
-129.7102565864961
 10
71.70690644908717
 20
-129.4901149849886
 10
71.70690644908717
 20
-129.4901149849886
 10
71.78097600202004
 20
-129.4880479276974
 10
72.01558700456555
 20
-129.4777126412417
 10
72.01558700456555
 20
-129.1941812828056
 10
72.01558700456555
 20
-129.0567219729442
 10
71.9459960757635
 20
-128.9041042429476
 10
71.71758624509144
 20
-128.9041042429476
 10
71.60114201769
 20
-128.9041042429476
 10
71.55256617134798
 20
-128.9423448028339
 10
71.52087129288367
 20
-128.9740396812982
 10
71.4468017399508
 20
-129.048109234231
 10
71.43405488665537
 20
-129.1645534616325
 10
71.43405488665537
 20
-129.2193304798479
 10
71.43405488665537
 20
-129.2386230145653
 10
71.43612194394653
 20
-129.274452007612
 10
71.44025605852883
 20
-129.3020127714939
 10
71.44025605852883
 20
-129.3020127714939
 10
71.24560816361222
 20
-129.3020127714939
 10
71.24560816361222
 20
-129.3020127714939
 10
71.25215384503419
 20
-129.2637722116077
 10
71.25422090232534
 20
-129.2217420466876
 10
71.25422090232534
 20
-129.2151963652657
 10
71.25422090232534
 20
-129.1497395510459
 10
71.23286131031679
 20
-128.950957541547
 10
70.99618325048013
 20
-128.950957541547
 10
70.81841632344123
 20
-128.950957541547
 10
70.76329479567724
 20
-129.0818711699865
 10
70.76329479567724
 20
-129.1921142255145
 10
70.76329479567724
 20
-129.4563530492331
 10
70.99618325048013
 20
-129.4649657879463
 10
71.06784123657332
 20
-129.4690999025286
 10
71.06784123657332
 20
-129.4690999025286
 10
71.06784123657332
 20
-129.6723605361583
 10
71.06784123657332
 20
-129.6723605361583
 10
70.94312878000727
 20
-129.6637477974452
 10
70.56657984346947
 20
-129.6361870335632
 10
70.56657984346947
 20
-129.179367372219
 10
70.56657984346947
 20
-128.9550916561293
 10
70.69370386687518
 20
-128.7139349721618
 10
70.98963756905815
 20
-128.7139349721618
 10
71.17601723481016
 20
-128.7139349721618
 10
71.25835501690764
 20
-128.8090196075547
 10
71.31967771654509
 20
-128.9085828670784
 10
71.34723848042708
 20
-128.847260167441
 10
71.4275092052334
 20
-128.6653591258198
 10
71.70483939179601
 20
-128.6653591258198
 10
72.04314776844755
 20
-128.6653591258198
 10
72.21023489948217
 20
-128.9127169816607
 10
72.21023489948217
 20
-129.1897026586748
 97
        0
 97
        0
 75
     2
 76
     1
 98
        0
  0
POLYLINE
  5
92
330
8A
100
AcDbEntity
  8
_U+30EC_U+30A4_U+30E4_U+30FC 1
370
     0
100
AcDb2dPolyline
 66
     1
 10
0.0
 20
0.0
 30
0.0
  0
VERTEX
  5
93
330
92
100
AcDbEntity
  8
_U+30EC_U+30A4_U+30E4_U+30FC 1
370
     0
100
AcDbVertex
100
AcDb2dVertex
 10
72.159591995849
 20
-128.4445285052153
 30
0.0
  0
VERTEX
  5
94
330
92
100
AcDbEntity
  8
_U+30EC_U+30A4_U+30E4_U+30FC 1
370
     0
100
AcDbVertex
100
AcDb2dVertex
 10
71.90775551587723
 20
-128.4445285052153
 30
0.0
  0
VERTEX
  5
95
330
92
100
AcDbEntity
  8
_U+30EC_U+30A4_U+30E4_U+30FC 1
370
     0
100
AcDbVertex
100
AcDb2dVertex
 10
71.90775551587723
 20
-128.1926920252435
 30
0.0
  0
VERTEX
  5
96
330
92
100
AcDbEntity
  8
_U+30EC_U+30A4_U+30E4_U+30FC 1
370
     0
100
AcDbVertex
100
AcDb2dVertex
 10
72.159591995849
 20
-128.1926920252435
 30
0.0
  0
VERTEX
  5
97
330
92
100
AcDbEntity
  8
_U+30EC_U+30A4_U+30E4_U+30FC 1
370
     0
100
AcDbVertex
100
AcDb2dVertex
 10
72.159591995849
 20
-128.4445285052153
 30
0.0
  0
SEQEND
  5
98
330
92
100
AcDbEntity
  8
_U+30EC_U+30A4_U+30E4_U+30FC 1
370
     0
  0
HATCH
  5
99
330
8A
100
AcDbEntity
  8
_U+30EC_U+30A4_U+30E4_U+30FC 1
 62
     7
420
 16777215
100
AcDbHatch
 10
0.0
 20
0.0
 30
0.0
210
0.0
220
0.0
230
1.0
  2
SOLID
 70
     1
 71
     0
 91
        1
 92
        1
 93
        4
 72
     1
 10
72.159591995849
 20
-128.4445285052153
 11
71.90775551587723
 21
-128.4445285052153
 72
     1
 10
71.90775551587723
 20
-128.4445285052153
 11
71.90775551587723
 21
-128.1926920252435
 72
     1
 10
71.90775551587723
 20
-128.1926920252435
 11
72.159591995849
 21
-128.1926920252435
 72
     1
 10
72.159591995849
 20
-128.1926920252435
 11
72.159591995849
 21
-128.4445285052153
 97
        0
 75
     2
 76
     1
 98
        0
  0
SPLINE
  5
9A
330
8A
100
AcDbEntity
  8
_U+30EC_U+30A4_U+30E4_U+30FC 1
370
     0
100
AcDbSpline
210
0.0
220
0.0
230
1.0
 70
    11
 71
     3
 72
    53
 73
    49
 74
     0
 42
0.0000000001
 43
0.0000000001
 12
1.0
 22
0.0
 32
0.0
 13
1.0
 23
0.0
 33
0.0
 40
0.0
 40
0.0
 40
0.0
 40
0.0
 40
1.0
 40
1.0
 40
1.0
 40
2.0
 40
2.0
 40
2.0
 40
3.0
 40
3.0
 40
3.0
 40
4.0
 40
4.0
 40
4.0
 40
5.0
 40
5.0
 40
5.0
 40
6.0
 40
6.0
 40
6.0
 40
7.0
 40
7.0
 40
7.0
 40
8.0
 40
8.0
 40
8.0
 40
9.0
 40
9.0
 40
9.0
 40
10.0
 40
10.0
 40
10.0
 40
11.0
 40
11.0
 40
11.0
 40
12.0
 40
12.0
 40
12.0
 40
13.0
 40
13.0
 40
13.0
 40
14.0
 40
14.0
 40
14.0
 40
15.0
 40
15.0
 40
15.0
 40
16.0
 40
16.0
 40
16.0
 40
16.0
 10
72.21023489948217
 20
-127.4754231452145
 30
0.0
 10
72.21023489948217
 20
-127.5536268127297
 30
0.0
 10
72.19335393160445
 20
-127.6552571295445
 30
0.0
 10
72.12996417467585
 20
-127.7568874463594
 30
0.0
 10
72.02006562869637
 20
-127.9301757492675
 30
0.0
 10
71.88880749070836
 20
-127.951535341276
 30
0.0
 10
71.78097600202004
 20
-127.9704833664449
 30
0.0
 10
71.78097600202004
 20
-127.9704833664449
 30
0.0
 10
71.78097600202004
 20
-127.7482747076463
 30
0.0
 10
71.78097600202004
 20
-127.7482747076463
 30
0.0
 10
71.97975801151895
 20
-127.6934976894308
 30
0.0
 10
72.0093858326921
 20
-127.5663736660251
 30
0.0
 10
72.0093858326921
 20
-127.4733560879233
 30
0.0
 10
72.0093858326921
 20
-127.3338297207707
 30
0.0
 10
71.90982257316838
 20
-127.1815565003227
 30
0.0
 10
71.67727862791402
 20
-127.1815565003227
 30
0.0
 10
71.42130803335995
 20
-127.1815565003227
 30
0.0
 10
71.35137259500938
 20
-127.3613904846527
 30
0.0
 10
71.35137259500938
 20
-127.4819688266365
 30
0.0
 10
71.35137259500938
 20
-127.5136637051008
 30
0.0
 10
71.35137259500938
 20
-127.6552571295445
 30
0.0
 10
71.48056367570625
 20
-127.744140593064
 30
0.0
 10
71.48056367570625
 20
-127.744140593064
 30
0.0
 10
71.46161565053738
 20
-127.9198404628117
 30
0.0
 10
71.46161565053738
 20
-127.9198404628117
 30
0.0
 10
71.46161565053738
 20
-127.9198404628117
 30
0.0
 10
70.61515568981149
 20
-127.799262120828
 30
0.0
 10
70.61515568981149
 20
-127.799262120828
 30
0.0
 10
70.61515568981149
 20
-127.799262120828
 30
0.0
 10
70.61515568981149
 20
-127.0206705411615
 30
0.0
 10
70.61515568981149
 20
-127.0206705411615
 30
0.0
 10
70.61515568981149
 20
-127.0206705411615
 30
0.0
 10
70.8098035847281
 20
-127.0206705411615
 30
0.0
 10
70.8098035847281
 20
-127.0206705411615
 30
0.0
 10
70.8098035847281
 20
-127.0206705411615
 30
0.0
 10
70.8098035847281
 20
-127.6363091043757
 30
0.0
 10
70.8098035847281
 20
-127.6363091043757
 30
0.0
 10
70.8098035847281
 20
-127.6363091043757
 30
0.0
 10
71.23286131031679
 20
-127.7017659185954
 30
0.0
 10
71.23286131031679
 20
-127.7017659185954
 30
0.0
 10
71.19909937456134
 20
-127.640443218958
 30
0.0
 10
71.15879175738392
 20
-127.5581054368605
 30
0.0
 10
71.15879175738392
 20
-127.4395941521679
 30
0.0
 10
71.15879175738392
 20
-127.185690614905
 30
0.0
 10
71.34517142313594
 20
-126.9486680455198
 30
0.0
 10
71.65833060274514
 20
-126.9486680455198
 30
0.0
 10
71.97562389693665
 20
-126.9486680455198
 30
0.0
 10
72.21023489948217
 20
-127.1729437616095
 30
0.0
 10
72.21023489948217
 20
-127.4754231452145
 30
0.0
  0
HATCH
  5
9B
330
8A
100
AcDbEntity
  8
_U+30EC_U+30A4_U+30E4_U+30FC 1
 62
     7
420
 16777215
100
AcDbHatch
 10
0.0
 20
0.0
 30
0.0
210
0.0
220
0.0
230
1.0
  2
SOLID
 70
     1
 71
     0
 91
        1
 92
        1
 93
        1
 72
     4
 94
        3
 73
     0
 74
     1
 95
       53
 96
       49
 40
0.0
 40
0.0
 40
0.0
 40
0.0
 40
1.0
 40
1.0
 40
1.0
 40
2.0
 40
2.0
 40
2.0
 40
3.0
 40
3.0
 40
3.0
 40
4.0
 40
4.0
 40
4.0
 40
5.0
 40
5.0
 40
5.0
 40
6.0
 40
6.0
 40
6.0
 40
7.0
 40
7.0
 40
7.0
 40
8.0
 40
8.0
 40
8.0
 40
9.0
 40
9.0
 40
9.0
 40
10.0
 40
10.0
 40
10.0
 40
11.0
 40
11.0
 40
11.0
 40
12.0
 40
12.0
 40
12.0
 40
13.0
 40
13.0
 40
13.0
 40
14.0
 40
14.0
 40
14.0
 40
15.0
 40
15.0
 40
15.0
 40
16.0
 40
16.0
 40
16.0
 40
16.0
 10
72.21023489948217
 20
-127.4754231452145
 10
72.21023489948217
 20
-127.5536268127297
 10
72.19335393160445
 20
-127.6552571295445
 10
72.12996417467585
 20
-127.7568874463594
 10
72.02006562869637
 20
-127.9301757492675
 10
71.88880749070836
 20
-127.951535341276
 10
71.78097600202004
 20
-127.9704833664449
 10
71.78097600202004
 20
-127.9704833664449
 10
71.78097600202004
 20
-127.7482747076463
 10
71.78097600202004
 20
-127.7482747076463
 10
71.97975801151895
 20
-127.6934976894308
 10
72.0093858326921
 20
-127.5663736660251
 10
72.0093858326921
 20
-127.4733560879233
 10
72.0093858326921
 20
-127.3338297207707
 10
71.90982257316838
 20
-127.1815565003227
 10
71.67727862791402
 20
-127.1815565003227
 10
71.42130803335995
 20
-127.1815565003227
 10
71.35137259500938
 20
-127.3613904846527
 10
71.35137259500938
 20
-127.4819688266365
 10
71.35137259500938
 20
-127.5136637051008
 10
71.35137259500938
 20
-127.6552571295445
 10
71.48056367570625
 20
-127.744140593064
 10
71.48056367570625
 20
-127.744140593064
 10
71.46161565053738
 20
-127.9198404628117
 10
71.46161565053738
 20
-127.9198404628117
 10
71.46161565053738
 20
-127.9198404628117
 10
70.61515568981149
 20
-127.799262120828
 10
70.61515568981149
 20
-127.799262120828
 10
70.61515568981149
 20
-127.799262120828
 10
70.61515568981149
 20
-127.0206705411615
 10
70.61515568981149
 20
-127.0206705411615
 10
70.61515568981149
 20
-127.0206705411615
 10
70.8098035847281
 20
-127.0206705411615
 10
70.8098035847281
 20
-127.0206705411615
 10
70.8098035847281
 20
-127.0206705411615
 10
70.8098035847281
 20
-127.6363091043757
 10
70.8098035847281
 20
-127.6363091043757
 10
70.8098035847281
 20
-127.6363091043757
 10
71.23286131031679
 20
-127.7017659185954
 10
71.23286131031679
 20
-127.7017659185954
 10
71.19909937456134
 20
-127.640443218958
 10
71.15879175738392
 20
-127.5581054368605
 10
71.15879175738392
 20
-127.4395941521679
 10
71.15879175738392
 20
-127.185690614905
 10
71.34517142313594
 20
-126.9486680455198
 10
71.65833060274514
 20
-126.9486680455198
 10
71.97562389693665
 20
-126.9486680455198
 10
72.21023489948217
 20
-127.1729437616095
 10
72.21023489948217
 20
-127.4754231452145
 97
        0
 97
        0
 75
     2
 76
     1
 98
        0
  0
ENDBLK
  5
8D
330
8A
100
AcDbEntity
  8
0
100
AcDbBlockEnd
  0
BLOCK
  5
CC
330
CA
100
AcDbEntity
  8
0
100
AcDbBlockBegin
  2
block 5
 70
     0
 10
0.0
 20
0.0
 30
0.0
  3
block 5
  1

  0
SPLINE
  5
CE
330
CA
100
AcDbEntity
  8
_U+30EC_U+30A4_U+30E4_U+30FC 1
370
     0
100
AcDbSpline
210
0.0
220
0.0
230
1.0
 70
    11
 71
     3
 72
    44
 73
    40
 74
     0
 42
0.0000000001
 43
0.0000000001
 12
1.0
 22
0.0
 32
0.0
 13
1.0
 23
0.0
 33
0.0
 40
0.0
 40
0.0
 40
0.0
 40
0.0
 40
1.0
 40
1.0
 40
1.0
 40
2.0
 40
2.0
 40
2.0
 40
3.0
 40
3.0
 40
3.0
 40
4.0
 40
4.0
 40
4.0
 40
5.0
 40
5.0
 40
5.0
 40
6.0
 40
6.0
 40
6.0
 40
7.0
 40
7.0
 40
7.0
 40
8.0
 40
8.0
 40
8.0
 40
9.0
 40
9.0
 40
9.0
 40
10.0
 40
10.0
 40
10.0
 40
11.0
 40
11.0
 40
11.0
 40
12.0
 40
12.0
 40
12.0
 40
13.0
 40
13.0
 40
13.0
 40
13.0
 10
95.40399574437818
 20
-143.7059569953235
 30
0.0
 10
95.18626570971038
 20
-143.8647758971935
 30
0.0
 10
95.09324813160863
 20
-143.9388454501264
 30
0.0
 10
95.04432777571809
 20
-144.0825059318613
 30
0.0
 10
95.04432777571809
 20
-144.0825059318613
 30
0.0
 10
95.82291935538456
 20
-144.0825059318613
 30
0.0
 10
95.82291935538456
 20
-144.0825059318613
 30
0.0
 10
95.82291935538456
 20
-144.0825059318613
 30
0.0
 10
95.82291935538456
 20
-144.2878336227822
 30
0.0
 10
95.82291935538456
 20
-144.2878336227822
 30
0.0
 10
95.82291935538456
 20
-144.2878336227822
 30
0.0
 10
94.794902862586
 20
-144.2878336227822
 30
0.0
 10
94.794902862586
 20
-144.2878336227822
 30
0.0
 10
94.82659774105029
 20
-143.9302327114133
 30
0.0
 10
94.89205455527005
 20
-143.8520290438981
 30
0.0
 10
95.27721623052098
 20
-143.5536837748755
 30
0.0
 10
95.53318682507503
 20
-143.3549017653766
 30
0.0
 10
95.59864363929479
 20
-143.2870333843171
 30
0.0
 10
95.59864363929479
 20
-143.1495740744557
 30
0.0
 10
95.59864363929479
 20
-143.0310627897631
 30
0.0
 10
95.52664114365307
 20
-142.9001491613236
 30
0.0
 10
95.3299261914453
 20
-142.9001491613236
 30
0.0
 10
95.06982148230894
 20
-142.9001491613236
 30
0.0
 10
95.06120874359581
 20
-143.1306260492868
 30
0.0
 10
95.05707462901351
 20
-143.2470702766882
 30
0.0
 10
95.05707462901351
 20
-143.2470702766882
 30
0.0
 10
94.83279891292375
 20
-143.2470702766882
 30
0.0
 10
94.83279891292375
 20
-143.2470702766882
 30
0.0
 10
94.84141165163688
 20
-143.1199462532825
 30
0.0
 10
94.85209144764114
 20
-143.0079806500119
 30
0.0
 10
94.93236217244747
 20
-142.8894693653193
 30
0.0
 10
95.04226071842695
 20
-142.7285834061582
 30
0.0
 10
95.22864038417896
 20
-142.6948214704027
 30
0.0
 10
95.34474010203188
 20
-142.6948214704027
 30
0.0
 10
95.62207028859449
 20
-142.6948214704027
 30
0.0
 10
95.82946503680652
 20
-142.878789569315
 30
0.0
 10
95.82946503680652
 20
-143.1516411317468
 30
0.0
 10
95.82946503680652
 20
-143.3803954719674
 30
0.0
 10
95.71302080940508
 20
-143.4796142219426
 30
0.0
 10
95.40399574437818
 20
-143.7059569953235
 30
0.0
  0
HATCH
  5
CF
330
CA
100
AcDbEntity
  8
_U+30EC_U+30A4_U+30E4_U+30FC 1
 62
     7
420
 16777215
100
AcDbHatch
 10
0.0
 20
0.0
 30
0.0
210
0.0
220
0.0
230
1.0
  2
SOLID
 70
     1
 71
     0
 91
        1
 92
        1
 93
        1
 72
     4
 94
        3
 73
     0
 74
     1
 95
       44
 96
       40
 40
0.0
 40
0.0
 40
0.0
 40
0.0
 40
1.0
 40
1.0
 40
1.0
 40
2.0
 40
2.0
 40
2.0
 40
3.0
 40
3.0
 40
3.0
 40
4.0
 40
4.0
 40
4.0
 40
5.0
 40
5.0
 40
5.0
 40
6.0
 40
6.0
 40
6.0
 40
7.0
 40
7.0
 40
7.0
 40
8.0
 40
8.0
 40
8.0
 40
9.0
 40
9.0
 40
9.0
 40
10.0
 40
10.0
 40
10.0
 40
11.0
 40
11.0
 40
11.0
 40
12.0
 40
12.0
 40
12.0
 40
13.0
 40
13.0
 40
13.0
 40
13.0
 10
95.40399574437818
 20
-143.7059569953235
 10
95.18626570971038
 20
-143.8647758971935
 10
95.09324813160863
 20
-143.9388454501264
 10
95.04432777571809
 20
-144.0825059318613
 10
95.04432777571809
 20
-144.0825059318613
 10
95.82291935538456
 20
-144.0825059318613
 10
95.82291935538456
 20
-144.0825059318613
 10
95.82291935538456
 20
-144.0825059318613
 10
95.82291935538456
 20
-144.2878336227822
 10
95.82291935538456
 20
-144.2878336227822
 10
95.82291935538456
 20
-144.2878336227822
 10
94.794902862586
 20
-144.2878336227822
 10
94.794902862586
 20
-144.2878336227822
 10
94.82659774105029
 20
-143.9302327114133
 10
94.89205455527005
 20
-143.8520290438981
 10
95.27721623052098
 20
-143.5536837748755
 10
95.53318682507503
 20
-143.3549017653766
 10
95.59864363929479
 20
-143.2870333843171
 10
95.59864363929479
 20
-143.1495740744557
 10
95.59864363929479
 20
-143.0310627897631
 10
95.52664114365307
 20
-142.9001491613236
 10
95.3299261914453
 20
-142.9001491613236
 10
95.06982148230894
 20
-142.9001491613236
 10
95.06120874359581
 20
-143.1306260492868
 10
95.05707462901351
 20
-143.2470702766882
 10
95.05707462901351
 20
-143.2470702766882
 10
94.83279891292375
 20
-143.2470702766882
 10
94.83279891292375
 20
-143.2470702766882
 10
94.84141165163688
 20
-143.1199462532825
 10
94.85209144764114
 20
-143.0079806500119
 10
94.93236217244747
 20
-142.8894693653193
 10
95.04226071842695
 20
-142.7285834061582
 10
95.22864038417896
 20
-142.6948214704027
 10
95.34474010203188
 20
-142.6948214704027
 10
95.62207028859449
 20
-142.6948214704027
 10
95.82946503680652
 20
-142.878789569315
 10
95.82946503680652
 20
-143.1516411317468
 10
95.82946503680652
 20
-143.3803954719674
 10
95.71302080940508
 20
-143.4796142219426
 10
95.40399574437818
 20
-143.7059569953235
 97
        0
 97
        0
 75
     2
 76
     1
 98
        0
  0
SPLINE
  5
D0
330
CA
100
AcDbEntity
  8
_U+30EC_U+30A4_U+30E4_U+30FC 1
370
     0
100
AcDbSpline
210
0.0
220
0.0
230
1.0
 70
    11
 71
     3
 72
    26
 73
    22
 74
     0
 42
0.0000000001
 43
0.0000000001
 12
1.0
 22
0.0
 32
0.0
 13
1.0
 23
0.0
 33
0.0
 40
0.0
 40
0.0
 40
0.0
 40
0.0
 40
1.0
 40
1.0
 40
1.0
 40
2.0
 40
2.0
 40
2.0
 40
3.0
 40
3.0
 40
3.0
 40
4.0
 40
4.0
 40
4.0
 40
5.0
 40
5.0
 40
5.0
 40
6.0
 40
6.0
 40
6.0
 40
7.0
 40
7.0
 40
7.0
 40
7.0
 10
96.43924693769574
 20
-144.2878336227822
 30
0.0
 10
96.43924693769574
 20
-144.2878336227822
 30
0.0
 10
96.43924693769574
 20
-143.1836805197596
 30
0.0
 10
96.43924693769574
 20
-143.1836805197596
 30
0.0
 10
96.43924693769574
 20
-143.1836805197596
 30
0.0
 10
96.10920679020882
 20
-143.1836805197596
 30
0.0
 10
96.10920679020882
 20
-143.1836805197596
 30
0.0
 10
96.10920679020882
 20
-143.1836805197596
 30
0.0
 10
96.10920679020882
 20
-143.0355414138939
 30
0.0
 10
96.10920679020882
 20
-143.0355414138939
 30
0.0
 10
96.4413139949869
 20
-143.0207275033073
 30
0.0
 10
96.48782278403777
 20
-142.857774486855
 30
0.0
 10
96.51745060521093
 20
-142.7433973167447
 30
0.0
 10
96.51745060521093
 20
-142.7433973167447
 30
0.0
 10
96.6635226537855
 20
-142.7433973167447
 30
0.0
 10
96.6635226537855
 20
-142.7433973167447
 30
0.0
 10
96.6635226537855
 20
-142.7433973167447
 30
0.0
 10
96.6635226537855
 20
-144.2878336227822
 30
0.0
 10
96.6635226537855
 20
-144.2878336227822
 30
0.0
 10
96.6635226537855
 20
-144.2878336227822
 30
0.0
 10
96.43924693769574
 20
-144.2878336227822
 30
0.0
 10
96.43924693769574
 20
-144.2878336227822
 30
0.0
  0
HATCH
  5
D1
330
CA
100
AcDbEntity
  8
_U+30EC_U+30A4_U+30E4_U+30FC 1
 62
     7
420
 16777215
100
AcDbHatch
 10
0.0
 20
0.0
 30
0.0
210
0.0
220
0.0
230
1.0
  2
SOLID
 70
     1
 71
     0
 91
        1
 92
        1
 93
        1
 72
     4
 94
        3
 73
     0
 74
     1
 95
       26
 96
       22
 40
0.0
 40
0.0
 40
0.0
 40
0.0
 40
1.0
 40
1.0
 40
1.0
 40
2.0
 40
2.0
 40
2.0
 40
3.0
 40
3.0
 40
3.0
 40
4.0
 40
4.0
 40
4.0
 40
5.0
 40
5.0
 40
5.0
 40
6.0
 40
6.0
 40
6.0
 40
7.0
 40
7.0
 40
7.0
 40
7.0
 10
96.43924693769574
 20
-144.2878336227822
 10
96.43924693769574
 20
-144.2878336227822
 10
96.43924693769574
 20
-143.1836805197596
 10
96.43924693769574
 20
-143.1836805197596
 10
96.43924693769574
 20
-143.1836805197596
 10
96.10920679020882
 20
-143.1836805197596
 10
96.10920679020882
 20
-143.1836805197596
 10
96.10920679020882
 20
-143.1836805197596
 10
96.10920679020882
 20
-143.0355414138939
 10
96.10920679020882
 20
-143.0355414138939
 10
96.4413139949869
 20
-143.0207275033073
 10
96.48782278403777
 20
-142.857774486855
 10
96.51745060521093
 20
-142.7433973167447
 10
96.51745060521093
 20
-142.7433973167447
 10
96.6635226537855
 20
-142.7433973167447
 10
96.6635226537855
 20
-142.7433973167447
 10
96.6635226537855
 20
-142.7433973167447
 10
96.6635226537855
 20
-144.2878336227822
 10
96.6635226537855
 20
-144.2878336227822
 10
96.6635226537855
 20
-144.2878336227822
 10
96.43924693769574
 20
-144.2878336227822
 10
96.43924693769574
 20
-144.2878336227822
 97
        0
 97
        0
 75
     2
 76
     1
 98
        0
  0
ENDBLK
  5
CD
330
CA
100
AcDbEntity
  8
0
100
AcDbBlockEnd
  0
BLOCK
  5
E2
330
E0
100
AcDbEntity
  8
0
100
AcDbBlockBegin
  2
block 6
 70
     0
 10
0.0
 20
0.0
 30
0.0
  3
block 6
  1

  0
SPLINE
  5
E4
330
E0
100
AcDbEntity
  8
_U+30EC_U+30A4_U+30E4_U+30FC 1
370
     0
100
AcDbSpline
210
0.0
220
0.0
230
1.0
 70
    11
 71
     3
 72
    26
 73
    22
 74
     0
 42
0.0000000001
 43
0.0000000001
 12
1.0
 22
0.0
 32
0.0
 13
1.0
 23
0.0
 33
0.0
 40
0.0
 40
0.0
 40
0.0
 40
0.0
 40
1.0
 40
1.0
 40
1.0
 40
2.0
 40
2.0
 40
2.0
 40
3.0
 40
3.0
 40
3.0
 40
4.0
 40
4.0
 40
4.0
 40
5.0
 40
5.0
 40
5.0
 40
6.0
 40
6.0
 40
6.0
 40
7.0
 40
7.0
 40
7.0
 40
7.0
 10
79.84990639279795
 20
-114.0960503186982
 30
0.0
 10
79.84990639279795
 20
-114.0960503186982
 30
0.0
 10
79.84990639279795
 20
-112.9918972156756
 30
0.0
 10
79.84990639279795
 20
-112.9918972156756
 30
0.0
 10
79.84990639279795
 20
-112.9918972156756
 30
0.0
 10
79.51986624531101
 20
-112.9918972156756
 30
0.0
 10
79.51986624531101
 20
-112.9918972156756
 30
0.0
 10
79.51986624531101
 20
-112.9918972156756
 30
0.0
 10
79.51986624531101
 20
-112.8437581098099
 30
0.0
 10
79.51986624531101
 20
-112.8437581098099
 30
0.0
 10
79.85197345008909
 20
-112.8289441992233
 30
0.0
 10
79.89848223913997
 20
-112.665991182771
 30
0.0
 10
79.92811006031312
 20
-112.5516140126607
 30
0.0
 10
79.92811006031312
 20
-112.5516140126607
 30
0.0
 10
80.07418210888771
 20
-112.5516140126607
 30
0.0
 10
80.07418210888771
 20
-112.5516140126607
 30
0.0
 10
80.07418210888771
 20
-112.5516140126607
 30
0.0
 10
80.07418210888771
 20
-114.0960503186982
 30
0.0
 10
80.07418210888771
 20
-114.0960503186982
 30
0.0
 10
80.07418210888771
 20
-114.0960503186982
 30
0.0
 10
79.84990639279795
 20
-114.0960503186982
 30
0.0
 10
79.84990639279795
 20
-114.0960503186982
 30
0.0
  0
HATCH
  5
E5
330
E0
100
AcDbEntity
  8
_U+30EC_U+30A4_U+30E4_U+30FC 1
 62
     7
420
 16777215
100
AcDbHatch
 10
0.0
 20
0.0
 30
0.0
210
0.0
220
0.0
230
1.0
  2
SOLID
 70
     1
 71
     0
 91
        1
 92
        1
 93
        1
 72
     4
 94
        3
 73
     0
 74
     1
 95
       26
 96
       22
 40
0.0
 40
0.0
 40
0.0
 40
0.0
 40
1.0
 40
1.0
 40
1.0
 40
2.0
 40
2.0
 40
2.0
 40
3.0
 40
3.0
 40
3.0
 40
4.0
 40
4.0
 40
4.0
 40
5.0
 40
5.0
 40
5.0
 40
6.0
 40
6.0
 40
6.0
 40
7.0
 40
7.0
 40
7.0
 40
7.0
 10
79.84990639279795
 20
-114.0960503186982
 10
79.84990639279795
 20
-114.0960503186982
 10
79.84990639279795
 20
-112.9918972156756
 10
79.84990639279795
 20
-112.9918972156756
 10
79.84990639279795
 20
-112.9918972156756
 10
79.51986624531101
 20
-112.9918972156756
 10
79.51986624531101
 20
-112.9918972156756
 10
79.51986624531101
 20
-112.9918972156756
 10
79.51986624531101
 20
-112.8437581098099
 10
79.51986624531101
 20
-112.8437581098099
 10
79.85197345008909
 20
-112.8289441992233
 10
79.89848223913997
 20
-112.665991182771
 10
79.92811006031312
 20
-112.5516140126607
 10
79.92811006031312
 20
-112.5516140126607
 10
80.07418210888771
 20
-112.5516140126607
 10
80.07418210888771
 20
-112.5516140126607
 10
80.07418210888771
 20
-112.5516140126607
 10
80.07418210888771
 20
-114.0960503186982
 10
80.07418210888771
 20
-114.0960503186982
 10
80.07418210888771
 20
-114.0960503186982
 10
79.84990639279795
 20
-114.0960503186982
 10
79.84990639279795
 20
-114.0960503186982
 97
        0
 97
        0
 75
     2
 76
     1
 98
        0
  0
SPLINE
  5
E6
330
E0
100
AcDbEntity
  8
_U+30EC_U+30A4_U+30E4_U+30FC 1
370
     0
100
AcDbSpline
210
0.0
220
0.0
230
1.0
 70
    11
 71
     3
 72
    44
 73
    40
 74
     0
 42
0.0000000001
 43
0.0000000001
 12
1.0
 22
0.0
 32
0.0
 13
1.0
 23
0.0
 33
0.0
 40
0.0
 40
0.0
 40
0.0
 40
0.0
 40
1.0
 40
1.0
 40
1.0
 40
2.0
 40
2.0
 40
2.0
 40
3.0
 40
3.0
 40
3.0
 40
4.0
 40
4.0
 40
4.0
 40
5.0
 40
5.0
 40
5.0
 40
6.0
 40
6.0
 40
6.0
 40
7.0
 40
7.0
 40
7.0
 40
8.0
 40
8.0
 40
8.0
 40
9.0
 40
9.0
 40
9.0
 40
10.0
 40
10.0
 40
10.0
 40
11.0
 40
11.0
 40
11.0
 40
12.0
 40
12.0
 40
12.0
 40
13.0
 40
13.0
 40
13.0
 40
13.0
 10
81.16834443500305
 20
-113.5141736912395
 30
0.0
 10
80.95061440033527
 20
-113.6729925931095
 30
0.0
 10
80.85759682223352
 20
-113.7470621460424
 30
0.0
 10
80.80867646634297
 20
-113.8907226277773
 30
0.0
 10
80.80867646634297
 20
-113.8907226277773
 30
0.0
 10
81.58726804600944
 20
-113.8907226277773
 30
0.0
 10
81.58726804600944
 20
-113.8907226277773
 30
0.0
 10
81.58726804600944
 20
-113.8907226277773
 30
0.0
 10
81.58726804600944
 20
-114.0960503186982
 30
0.0
 10
81.58726804600944
 20
-114.0960503186982
 30
0.0
 10
81.58726804600944
 20
-114.0960503186982
 30
0.0
 10
80.55925155321088
 20
-114.0960503186982
 30
0.0
 10
80.55925155321088
 20
-114.0960503186982
 30
0.0
 10
80.59094643167518
 20
-113.7384494073293
 30
0.0
 10
80.65640324589494
 20
-113.6602457398141
 30
0.0
 10
81.04156492114586
 20
-113.3619004707915
 30
0.0
 10
81.29753551569992
 20
-113.1631184612926
 30
0.0
 10
81.36299232991968
 20
-113.0952500802331
 30
0.0
 10
81.36299232991968
 20
-112.9577907703717
 30
0.0
 10
81.36299232991968
 20
-112.8392794856791
 30
0.0
 10
81.29098983427795
 20
-112.7083658572396
 30
0.0
 10
81.09427488207018
 20
-112.7083658572396
 30
0.0
 10
80.83417017293382
 20
-112.7083658572396
 30
0.0
 10
80.82590194376922
 20
-112.9388427452028
 30
0.0
 10
80.8214233196384
 20
-113.0552869726042
 30
0.0
 10
80.8214233196384
 20
-113.0552869726042
 30
0.0
 10
80.59714760354863
 20
-113.0552869726042
 30
0.0
 10
80.59714760354863
 20
-113.0552869726042
 30
0.0
 10
80.60576034226176
 20
-112.9281629491985
 30
0.0
 10
80.61644013826603
 20
-112.8161973459279
 30
0.0
 10
80.69671086307235
 20
-112.6976860612353
 30
0.0
 10
80.80660940905183
 20
-112.5368001020741
 30
0.0
 10
80.99298907480384
 20
-112.5030381663187
 30
0.0
 10
81.10908879265676
 20
-112.5030381663187
 30
0.0
 10
81.38641897921937
 20
-112.5030381663187
 30
0.0
 10
81.59381372743141
 20
-112.687006265231
 30
0.0
 10
81.59381372743141
 20
-112.9598578276628
 30
0.0
 10
81.59381372743141
 20
-113.1886121678834
 30
0.0
 10
81.47736950002997
 20
-113.2878309178586
 30
0.0
 10
81.16834443500305
 20
-113.5141736912395
 30
0.0
  0
HATCH
  5
E7
330
E0
100
AcDbEntity
  8
_U+30EC_U+30A4_U+30E4_U+30FC 1
 62
     7
420
 16777215
100
AcDbHatch
 10
0.0
 20
0.0
 30
0.0
210
0.0
220
0.0
230
1.0
  2
SOLID
 70
     1
 71
     0
 91
        1
 92
        1
 93
        1
 72
     4
 94
        3
 73
     0
 74
     1
 95
       44
 96
       40
 40
0.0
 40
0.0
 40
0.0
 40
0.0
 40
1.0
 40
1.0
 40
1.0
 40
2.0
 40
2.0
 40
2.0
 40
3.0
 40
3.0
 40
3.0
 40
4.0
 40
4.0
 40
4.0
 40
5.0
 40
5.0
 40
5.0
 40
6.0
 40
6.0
 40
6.0
 40
7.0
 40
7.0
 40
7.0
 40
8.0
 40
8.0
 40
8.0
 40
9.0
 40
9.0
 40
9.0
 40
10.0
 40
10.0
 40
10.0
 40
11.0
 40
11.0
 40
11.0
 40
12.0
 40
12.0
 40
12.0
 40
13.0
 40
13.0
 40
13.0
 40
13.0
 10
81.16834443500305
 20
-113.5141736912395
 10
80.95061440033527
 20
-113.6729925931095
 10
80.85759682223352
 20
-113.7470621460424
 10
80.80867646634297
 20
-113.8907226277773
 10
80.80867646634297
 20
-113.8907226277773
 10
81.58726804600944
 20
-113.8907226277773
 10
81.58726804600944
 20
-113.8907226277773
 10
81.58726804600944
 20
-113.8907226277773
 10
81.58726804600944
 20
-114.0960503186982
 10
81.58726804600944
 20
-114.0960503186982
 10
81.58726804600944
 20
-114.0960503186982
 10
80.55925155321088
 20
-114.0960503186982
 10
80.55925155321088
 20
-114.0960503186982
 10
80.59094643167518
 20
-113.7384494073293
 10
80.65640324589494
 20
-113.6602457398141
 10
81.04156492114586
 20
-113.3619004707915
 10
81.29753551569992
 20
-113.1631184612926
 10
81.36299232991968
 20
-113.0952500802331
 10
81.36299232991968
 20
-112.9577907703717
 10
81.36299232991968
 20
-112.8392794856791
 10
81.29098983427795
 20
-112.7083658572396
 10
81.09427488207018
 20
-112.7083658572396
 10
80.83417017293382
 20
-112.7083658572396
 10
80.82590194376922
 20
-112.9388427452028
 10
80.8214233196384
 20
-113.0552869726042
 10
80.8214233196384
 20
-113.0552869726042
 10
80.59714760354863
 20
-113.0552869726042
 10
80.59714760354863
 20
-113.0552869726042
 10
80.60576034226176
 20
-112.9281629491985
 10
80.61644013826603
 20
-112.8161973459279
 10
80.69671086307235
 20
-112.6976860612353
 10
80.80660940905183
 20
-112.5368001020741
 10
80.99298907480384
 20
-112.5030381663187
 10
81.10908879265676
 20
-112.5030381663187
 10
81.38641897921937
 20
-112.5030381663187
 10
81.59381372743141
 20
-112.687006265231
 10
81.59381372743141
 20
-112.9598578276628
 10
81.59381372743141
 20
-113.1886121678834
 10
81.47736950002997
 20
-113.2878309178586
 10
81.16834443500305
 20
-113.5141736912395
 97
        0
 97
        0
 75
     2
 76
     1
 98
        0
  0
POLYLINE
  5
E8
330
E0
100
AcDbEntity
  8
_U+30EC_U+30A4_U+30E4_U+30FC 1
370
     0
100
AcDb2dPolyline
 66
     1
 10
0.0
 20
0.0
 30
0.0
  0
VERTEX
  5
E9
330
E8
100
AcDbEntity
  8
_U+30EC_U+30A4_U+30E4_U+30FC 1
370
     0
100
AcDbVertex
100
AcDb2dVertex
 10
81.81223278119626
 20
-114.0960503186982
 30
0.0
  0
VERTEX
  5
EA
330
E8
100
AcDbEntity
  8
_U+30EC_U+30A4_U+30E4_U+30FC 1
370
     0
100
AcDbVertex
100
AcDb2dVertex
 10
81.81223278119626
 20
-113.8442138387264
 30
0.0
  0
VERTEX
  5
EB
330
E8
100
AcDbEntity
  8
_U+30EC_U+30A4_U+30E4_U+30FC 1
370
     0
100
AcDbVertex
100
AcDb2dVertex
 10
82.06406926116802
 20
-113.8442138387264
 30
0.0
  0
VERTEX
  5
EC
330
E8
100
AcDbEntity
  8
_U+30EC_U+30A4_U+30E4_U+30FC 1
370
     0
100
AcDbVertex
100
AcDb2dVertex
 10
82.06406926116802
 20
-114.0960503186982
 30
0.0
  0
VERTEX
  5
ED
330
E8
100
AcDbEntity
  8
_U+30EC_U+30A4_U+30E4_U+30FC 1
370
     0
100
AcDbVertex
100
AcDb2dVertex
 10
81.81223278119626
 20
-114.0960503186982
 30
0.0
  0
SEQEND
  5
EE
330
E8
100
AcDbEntity
  8
_U+30EC_U+30A4_U+30E4_U+30FC 1
370
     0
  0
HATCH
  5
EF
330
E0
100
AcDbEntity
  8
_U+30EC_U+30A4_U+30E4_U+30FC 1
 62
     7
420
 16777215
100
AcDbHatch
 10
0.0
 20
0.0
 30
0.0
210
0.0
220
0.0
230
1.0
  2
SOLID
 70
     1
 71
     0
 91
        1
 92
        1
 93
        4
 72
     1
 10
81.81223278119626
 20
-114.0960503186982
 11
81.81223278119626
 21
-113.8442138387264
 72
     1
 10
81.81223278119626
 20
-113.8442138387264
 11
82.06406926116802
 21
-113.8442138387264
 72
     1
 10
82.06406926116802
 20
-113.8442138387264
 11
82.06406926116802
 21
-114.0960503186982
 72
     1
 10
82.06406926116802
 20
-114.0960503186982
 11
81.81223278119626
 21
-114.0960503186982
 97
        0
 75
     2
 76
     1
 98
        0
  0
SPLINE
  5
F0
330
E0
100
AcDbEntity
  8
_U+30EC_U+30A4_U+30E4_U+30FC 1
370
     0
100
AcDbSpline
210
0.0
220
0.0
230
1.0
 70
    11
 71
     3
 72
    53
 73
    49
 74
     0
 42
0.0000000001
 43
0.0000000001
 12
1.0
 22
0.0
 32
0.0
 13
1.0
 23
0.0
 33
0.0
 40
0.0
 40
0.0
 40
0.0
 40
0.0
 40
1.0
 40
1.0
 40
1.0
 40
2.0
 40
2.0
 40
2.0
 40
3.0
 40
3.0
 40
3.0
 40
4.0
 40
4.0
 40
4.0
 40
5.0
 40
5.0
 40
5.0
 40
6.0
 40
6.0
 40
6.0
 40
7.0
 40
7.0
 40
7.0
 40
8.0
 40
8.0
 40
8.0
 40
9.0
 40
9.0
 40
9.0
 40
10.0
 40
10.0
 40
10.0
 40
11.0
 40
11.0
 40
11.0
 40
12.0
 40
12.0
 40
12.0
 40
13.0
 40
13.0
 40
13.0
 40
14.0
 40
14.0
 40
14.0
 40
15.0
 40
15.0
 40
15.0
 40
16.0
 40
16.0
 40
16.0
 40
16.0
 10
82.78133814119703
 20
-114.1466932223314
 30
0.0
 10
82.70313447368186
 20
-114.1466932223314
 30
0.0
 10
82.601504156867
 20
-114.1298122544537
 30
0.0
 10
82.49987384005212
 20
-114.0664224975251
 30
0.0
 10
82.32658553714406
 20
-113.9565239515456
 30
0.0
 10
82.3052259451355
 20
-113.8252658135576
 30
0.0
 10
82.28627791996662
 20
-113.7174343248693
 30
0.0
 10
82.28627791996662
 20
-113.7174343248693
 30
0.0
 10
82.50848657876524
 20
-113.7174343248693
 30
0.0
 10
82.50848657876524
 20
-113.7174343248693
 30
0.0
 10
82.56326359698072
 20
-113.9162163343682
 30
0.0
 10
82.69038762038643
 20
-113.9458441555413
 30
0.0
 10
82.78340519848818
 20
-113.9458441555413
 30
0.0
 10
82.9229315656408
 20
-113.9458441555413
 30
0.0
 10
83.07520478608885
 20
-113.8462808960176
 30
0.0
 10
83.07520478608885
 20
-113.6137369507632
 30
0.0
 10
83.07520478608885
 20
-113.3577663562092
 30
0.0
 10
82.8953708017588
 20
-113.2878309178586
 30
0.0
 10
82.77479245977506
 20
-113.2878309178586
 30
0.0
 10
82.74309758131076
 20
-113.2878309178586
 30
0.0
 10
82.601504156867
 20
-113.2878309178586
 30
0.0
 10
82.51262069334754
 20
-113.4170219985555
 30
0.0
 10
82.51262069334754
 20
-113.4170219985555
 30
0.0
 10
82.3369208235998
 20
-113.3980739733866
 30
0.0
 10
82.3369208235998
 20
-113.3980739733866
 30
0.0
 10
82.3369208235998
 20
-113.3980739733866
 30
0.0
 10
82.45749916558354
 20
-112.5516140126607
 30
0.0
 10
82.45749916558354
 20
-112.5516140126607
 30
0.0
 10
82.45749916558354
 20
-112.5516140126607
 30
0.0
 10
83.23609074525001
 20
-112.5516140126607
 30
0.0
 10
83.23609074525001
 20
-112.5516140126607
 30
0.0
 10
83.23609074525001
 20
-112.5516140126607
 30
0.0
 10
83.23609074525001
 20
-112.7462619075773
 30
0.0
 10
83.23609074525001
 20
-112.7462619075773
 30
0.0
 10
83.23609074525001
 20
-112.7462619075773
 30
0.0
 10
82.62045218203586
 20
-112.7462619075773
 30
0.0
 10
82.62045218203586
 20
-112.7462619075773
 30
0.0
 10
82.62045218203586
 20
-112.7462619075773
 30
0.0
 10
82.55499536781612
 20
-113.169319633166
 30
0.0
 10
82.55499536781612
 20
-113.169319633166
 30
0.0
 10
82.61631806745356
 20
-113.1355576974106
 30
0.0
 10
82.69865584955103
 20
-113.0952500802331
 30
0.0
 10
82.81716713424363
 20
-113.0952500802331
 30
0.0
 10
83.07107067150655
 20
-113.0952500802331
 30
0.0
 10
83.30809324089174
 20
-113.2816297459852
 30
0.0
 10
83.30809324089174
 20
-113.5947889255944
 30
0.0
 10
83.30809324089174
 20
-113.9120822197859
 30
0.0
 10
83.08381752480197
 20
-114.1466932223314
 30
0.0
 10
82.78133814119703
 20
-114.1466932223314
 30
0.0
  0
HATCH
  5
F1
330
E0
100
AcDbEntity
  8
_U+30EC_U+30A4_U+30E4_U+30FC 1
 62
     7
420
 16777215
100
AcDbHatch
 10
0.0
 20
0.0
 30
0.0
210
0.0
220
0.0
230
1.0
  2
SOLID
 70
     1
 71
     0
 91
        1
 92
        1
 93
        1
 72
     4
 94
        3
 73
     0
 74
     1
 95
       53
 96
       49
 40
0.0
 40
0.0
 40
0.0
 40
0.0
 40
1.0
 40
1.0
 40
1.0
 40
2.0
 40
2.0
 40
2.0
 40
3.0
 40
3.0
 40
3.0
 40
4.0
 40
4.0
 40
4.0
 40
5.0
 40
5.0
 40
5.0
 40
6.0
 40
6.0
 40
6.0
 40
7.0
 40
7.0
 40
7.0
 40
8.0
 40
8.0
 40
8.0
 40
9.0
 40
9.0
 40
9.0
 40
10.0
 40
10.0
 40
10.0
 40
11.0
 40
11.0
 40
11.0
 40
12.0
 40
12.0
 40
12.0
 40
13.0
 40
13.0
 40
13.0
 40
14.0
 40
14.0
 40
14.0
 40
15.0
 40
15.0
 40
15.0
 40
16.0
 40
16.0
 40
16.0
 40
16.0
 10
82.78133814119703
 20
-114.1466932223314
 10
82.70313447368186
 20
-114.1466932223314
 10
82.601504156867
 20
-114.1298122544537
 10
82.49987384005212
 20
-114.0664224975251
 10
82.32658553714406
 20
-113.9565239515456
 10
82.3052259451355
 20
-113.8252658135576
 10
82.28627791996662
 20
-113.7174343248693
 10
82.28627791996662
 20
-113.7174343248693
 10
82.50848657876524
 20
-113.7174343248693
 10
82.50848657876524
 20
-113.7174343248693
 10
82.56326359698072
 20
-113.9162163343682
 10
82.69038762038643
 20
-113.9458441555413
 10
82.78340519848818
 20
-113.9458441555413
 10
82.9229315656408
 20
-113.9458441555413
 10
83.07520478608885
 20
-113.8462808960176
 10
83.07520478608885
 20
-113.6137369507632
 10
83.07520478608885
 20
-113.3577663562092
 10
82.8953708017588
 20
-113.2878309178586
 10
82.77479245977506
 20
-113.2878309178586
 10
82.74309758131076
 20
-113.2878309178586
 10
82.601504156867
 20
-113.2878309178586
 10
82.51262069334754
 20
-113.4170219985555
 10
82.51262069334754
 20
-113.4170219985555
 10
82.3369208235998
 20
-113.3980739733866
 10
82.3369208235998
 20
-113.3980739733866
 10
82.3369208235998
 20
-113.3980739733866
 10
82.45749916558354
 20
-112.5516140126607
 10
82.45749916558354
 20
-112.5516140126607
 10
82.45749916558354
 20
-112.5516140126607
 10
83.23609074525001
 20
-112.5516140126607
 10
83.23609074525001
 20
-112.5516140126607
 10
83.23609074525001
 20
-112.5516140126607
 10
83.23609074525001
 20
-112.7462619075773
 10
83.23609074525001
 20
-112.7462619075773
 10
83.23609074525001
 20
-112.7462619075773
 10
82.62045218203586
 20
-112.7462619075773
 10
82.62045218203586
 20
-112.7462619075773
 10
82.62045218203586
 20
-112.7462619075773
 10
82.55499536781612
 20
-113.169319633166
 10
82.55499536781612
 20
-113.169319633166
 10
82.61631806745356
 20
-113.1355576974106
 10
82.69865584955103
 20
-113.0952500802331
 10
82.81716713424363
 20
-113.0952500802331
 10
83.07107067150655
 20
-113.0952500802331
 10
83.30809324089174
 20
-113.2816297459852
 10
83.30809324089174
 20
-113.5947889255944
 10
83.30809324089174
 20
-113.9120822197859
 10
83.08381752480197
 20
-114.1466932223314
 10
82.78133814119703
 20
-114.1466932223314
 97
        0
 97
        0
 75
     2
 76
     1
 98
        0
  0
ENDBLK
  5
E3
330
E0
100
AcDbEntity
  8
0
100
AcDbBlockEnd
  0
ENDSEC
  0
SECTION
  2
ENTITIES
  0
POLYLINE
  5
41
330
1F
100
AcDbEntity
  8
_U+30EC_U+30A4_U+30E4_U+30FC 1
370
     0
100
AcDb2dPolyline
 66
     1
 10
0.0
 20
0.0
 30
0.0
  0
VERTEX
  5
42
330
41
100
AcDbEntity
  8
_U+30EC_U+30A4_U+30E4_U+30FC 1
370
     0
100
AcDbVertex
100
AcDb2dVertex
 10
74.90569170010771
 20
-117.0631319151788
 30
0.0
  0
VERTEX
  5
43
330
41
100
AcDbEntity
  8
_U+30EC_U+30A4_U+30E4_U+30FC 1
370
     0
100
AcDbVertex
100
AcDb2dVertex
 10
87.37070831149065
 20
-117.0631319151788
 30
0.0
  0
VERTEX
  5
44
330
41
100
AcDbEntity
  8
_U+30EC_U+30A4_U+30E4_U+30FC 1
370
     0
100
AcDbVertex
100
AcDb2dVertex
 10
87.37070831149065
 20
-138.5823999653545
 30
0.0
  0
VERTEX
  5
45
330
41
100
AcDbEntity
  8
_U+30EC_U+30A4_U+30E4_U+30FC 1
370
     0
100
AcDbVertex
100
AcDb2dVertex
 10
106.420388118323
 20
-138.5823999653545
 30
0.0
  0
VERTEX
  5
46
330
41
100
AcDbEntity
  8
_U+30EC_U+30A4_U+30E4_U+30FC 1
370
     0
100
AcDbVertex
100
AcDb2dVertex
 10
106.420388118323
 20
-140.5226777426472
 30
0.0
  0
VERTEX
  5
47
330
41
100
AcDbEntity
  8
_U+30EC_U+30A4_U+30E4_U+30FC 1
370
     0
100
AcDbVertex
100
AcDb2dVertex
 10
85.48934442307223
 20
-140.5226777426472
 30
0.0
  0
VERTEX
  5
48
330
41
100
AcDbEntity
  8
_U+30EC_U+30A4_U+30E4_U+30FC 1
370
     0
100
AcDbVertex
100
AcDb2dVertex
 10
85.48934442307223
 20
-119.1797985813163
 30
0.0
  0
VERTEX
  5
49
330
41
100
AcDbEntity
  8
_U+30EC_U+30A4_U+30E4_U+30FC 1
370
     0
100
AcDbVertex
100
AcDb2dVertex
 10
74.9644291986092
 20
-119.1797985813163
 30
0.0
  0
VERTEX
  5
4A
330
41
100
AcDbEntity
  8
_U+30EC_U+30A4_U+30E4_U+30FC 1
370
     0
100
AcDbVertex
100
AcDb2dVertex
 10
74.90569170010771
 20
-117.0631319151788
 30
0.0
  0
SEQEND
  5
4C
330
41
100
AcDbEntity
  8
_U+30EC_U+30A4_U+30E4_U+30FC 1
370
     0
  0
HATCH
  5
4B
330
1F
100
AcDbEntity
  8
_U+30EC_U+30A4_U+30E4_U+30FC 1
 62
   253
420
 11711154
100
AcDbHatch
 10
0.0
 20
0.0
 30
0.0
210
0.0
220
0.0
230
1.0
  2
SOLID
 70
     1
 71
     0
 91
        1
 92
        1
 93
        8
 72
     1
 10
74.90569170010771
 20
-117.0631319151788
 11
87.37070831149065
 21
-117.0631319151788
 72
     1
 10
87.37070831149065
 20
-117.0631319151788
 11
87.37070831149065
 21
-138.5823999653545
 72
     1
 10
87.37070831149065
 20
-138.5823999653545
 11
106.420388118323
 21
-138.5823999653545
 72
     1
 10
106.420388118323
 20
-138.5823999653545
 11
106.420388118323
 21
-140.5226777426472
 72
     1
 10
106.420388118323
 20
-140.5226777426472
 11
85.48934442307223
 21
-140.5226777426472
 72
     1
 10
85.48934442307223
 20
-140.5226777426472
 11
85.48934442307223
 21
-119.1797985813163
 72
     1
 10
85.48934442307223
 20
-119.1797985813163
 11
74.9644291986092
 21
-119.1797985813163
 72
     1
 10
74.9644291986092
 20
-119.1797985813163
 11
74.90569170010771
 21
-117.0631319151788
 97
        0
 75
     2
 76
     1
 98
        0
  0
SPLINE
  5
4D
330
1F
100
AcDbEntity
  8
_U+30EC_U+30A4_U+30E4_U+30FC 1
 62
     7
420
 16777215
370
     9
100
AcDbSpline
210
0.0
220
0.0
230
1.0
 70
    11
 71
     3
 72
    17
 73
    13
 74
     0
 42
0.0000000001
 43
0.0000000001
 12
1.0
 22
0.0
 32
0.0
 13
1.0
 23
0.0
 33
0.0
 40
0.0
 40
0.0
 40
0.0
 40
0.0
 40
1.0
 40
1.0
 40
1.0
 40
2.0
 40
2.0
 40
2.0
 40
3.0
 40
3.0
 40
3.0
 40
4.0
 40
4.0
 40
4.0
 40
4.0
 10
112.2990768572341
 20
-140.457237464886
 30
0.0
 10
112.2990768572341
 20
-140.4020982982329
 30
0.0
 10
112.2543093583762
 20
-140.3573307982443
 30
0.0
 10
112.1991701931162
 20
-140.3573307982443
 30
0.0
 10
112.1440663056332
 20
-140.3573307982443
 30
0.0
 10
112.0992635289984
 20
-140.4020982982329
 30
0.0
 10
112.0992635289984
 20
-140.457237464886
 30
0.0
 10
112.0992635289984
 20
-140.5123413537609
 30
0.0
 10
112.1440663056332
 20
-140.5571441315276
 30
0.0
 10
112.1991701931162
 20
-140.5571441315276
 30
0.0
 10
112.2543093583762
 20
-140.5571441315276
 30
0.0
 10
112.2990768572341
 20
-140.5123413537609
 30
0.0
 10
112.2990768572341
 20
-140.457237464886
 30
0.0
  0
SPLINE
  5
4E
330
1F
100
AcDbEntity
  8
_U+30EC_U+30A4_U+30E4_U+30FC 1
 62
     7
420
 16777215
370
     9
100
AcDbSpline
210
0.0
220
0.0
230
1.0
 70
    11
 71
     3
 72
    17
 73
    13
 74
     0
 42
0.0000000001
 43
0.0000000001
 12
1.0
 22
0.0
 32
0.0
 13
1.0
 23
0.0
 33
0.0
 40
0.0
 40
0.0
 40
0.0
 40
0.0
 40
1.0
 40
1.0
 40
1.0
 40
2.0
 40
2.0
 40
2.0
 40
3.0
 40
3.0
 40
3.0
 40
4.0
 40
4.0
 40
4.0
 40
4.0
 10
112.2990768572341
 20
-138.6568360764468
 30
0.0
 10
112.2990768572341
 20
-138.6016969097937
 30
0.0
 10
112.2543093583762
 20
-138.5569294098052
 30
0.0
 10
112.1991701931162
 20
-138.5569294098052
 30
0.0
 10
112.1440663056332
 20
-138.5569294098052
 30
0.0
 10
112.0992635289984
 20
-138.6016969097937
 30
0.0
 10
112.0992635289984
 20
-138.6568360764468
 30
0.0
 10
112.0992635289984
 20
-138.7126455208772
 30
0.0
 10
112.1440663056332
 20
-138.7574130208664
 30
0.0
 10
112.1991701931162
 20
-138.7574130208664
 30
0.0
 10
112.2543093583762
 20
-138.7574130208664
 30
0.0
 10
112.2990768572341
 20
-138.7126455208772
 30
0.0
 10
112.2990768572341
 20
-138.6568360764468
 30
0.0
  0
SPLINE
  5
4F
330
1F
100
AcDbEntity
  8
_U+30EC_U+30A4_U+30E4_U+30FC 1
 62
     7
420
 16777215
370
     9
100
AcDbSpline
210
0.0
220
0.0
230
1.0
 70
    11
 71
     3
 72
    17
 73
    13
 74
     0
 42
0.0000000001
 43
0.0000000001
 12
1.0
 22
0.0
 32
0.0
 13
1.0
 23
0.0
 33
0.0
 40
0.0
 40
0.0
 40
0.0
 40
0.0
 40
1.0
 40
1.0
 40
1.0
 40
2.0
 40
2.0
 40
2.0
 40
3.0
 40
3.0
 40
3.0
 40
4.0
 40
4.0
 40
4.0
 40
4.0
 10
112.2990768572341
 20
-117.1571824707108
 30
0.0
 10
112.2990768572341
 20
-117.1020785818356
 30
0.0
 10
112.2543093583762
 20
-117.0572758040689
 30
0.0
 10
112.1991701931162
 20
-117.0572758040689
 30
0.0
 10
112.1440663056332
 20
-117.0572758040689
 30
0.0
 10
112.0992635289984
 20
-117.1020785818356
 30
0.0
 10
112.0992635289984
 20
-117.1571824707108
 30
0.0
 10
112.0992635289984
 20
-117.2126391373635
 30
0.0
 10
112.1440663056332
 20
-117.2570891373525
 30
0.0
 10
112.1991701931162
 20
-117.2570891373525
 30
0.0
 10
112.2543093583762
 20
-117.2570891373525
 30
0.0
 10
112.2990768572341
 20
-117.2126391373635
 30
0.0
 10
112.2990768572341
 20
-117.1571824707108
 30
0.0
  0
POLYLINE
  5
50
330
1F
100
AcDbEntity
  8
_U+30EC_U+30A4_U+30E4_U+30FC 1
 62
     7
420
 16777215
370
     9
100
AcDb2dPolyline
 66
     1
 10
0.0
 20
0.0
 30
0.0
  0
VERTEX
  5
51
330
50
100
AcDbEntity
  8
_U+30EC_U+30A4_U+30E4_U+30FC 1
 62
     7
420
 16777215
370
     9
100
AcDbVertex
100
AcDb2dVertex
 10
112.1991701931162
 20
-138.4570227431635
 30
0.0
  0
VERTEX
  5
52
330
50
100
AcDbEntity
  8
_U+30EC_U+30A4_U+30E4_U+30FC 1
 62
     7
420
 16777215
370
     9
100
AcDbVertex
100
AcDb2dVertex
 10
112.1991701931162
 20
-140.457237464886
 30
0.0
  0
SEQEND
  5
53
330
50
100
AcDbEntity
  8
_U+30EC_U+30A4_U+30E4_U+30FC 1
 62
     7
420
 16777215
370
     9
  0
POLYLINE
  5
54
330
1F
100
AcDbEntity
  8
_U+30EC_U+30A4_U+30E4_U+30FC 1
 62
     7
420
 16777215
370
     9
100
AcDb2dPolyline
 66
     1
 10
0.0
 20
0.0
 30
0.0
  0
VERTEX
  5
55
330
54
100
AcDbEntity
  8
_U+30EC_U+30A4_U+30E4_U+30FC 1
 62
     7
420
 16777215
370
     9
100
AcDbVertex
100
AcDb2dVertex
 10
110.739164119253
 20
-138.6568360764468
 30
0.0
  0
VERTEX
  5
56
330
54
100
AcDbEntity
  8
_U+30EC_U+30A4_U+30E4_U+30FC 1
 62
     7
420
 16777215
370
     9
100
AcDbVertex
100
AcDb2dVertex
 10
113.1989423898322
 20
-138.6568360764468
 30
0.0
  0
SEQEND
  5
57
330
54
100
AcDbEntity
  8
_U+30EC_U+30A4_U+30E4_U+30FC 1
 62
     7
420
 16777215
370
     9
  0
POLYLINE
  5
58
330
1F
100
AcDbEntity
  8
_U+30EC_U+30A4_U+30E4_U+30FC 1
 62
     7
420
 16777215
370
     9
100
AcDb2dPolyline
 66
     1
 10
0.0
 20
0.0
 30
0.0
  0
VERTEX
  5
59
330
58
100
AcDbEntity
  8
_U+30EC_U+30A4_U+30E4_U+30FC 1
 62
     7
420
 16777215
370
     9
100
AcDbVertex
100
AcDb2dVertex
 10
110.739164119253
 20
-140.457237464886
 30
0.0
  0
VERTEX
  5
5A
330
58
100
AcDbEntity
  8
_U+30EC_U+30A4_U+30E4_U+30FC 1
 62
     7
420
 16777215
370
     9
100
AcDbVertex
100
AcDb2dVertex
 10
113.1989423898322
 20
-140.457237464886
 30
0.0
  0
SEQEND
  5
5B
330
58
100
AcDbEntity
  8
_U+30EC_U+30A4_U+30E4_U+30FC 1
 62
     7
420
 16777215
370
     9
  0
INSERT
  5
5D
330
1F
100
AcDbEntity
  8
_U+30EC_U+30A4_U+30E4_U+30FC 1
100
AcDbBlockReference
  2
block 2
 10
0.0
 20
0.0
 30
0.0
  0
POLYLINE
  5
62
330
1F
100
AcDbEntity
  8
_U+30EC_U+30A4_U+30E4_U+30FC 1
 62
     7
420
 16777215
370
     9
100
AcDb2dPolyline
 66
     1
 10
0.0
 20
0.0
 30
0.0
  0
VERTEX
  5
63
330
62
100
AcDbEntity
  8
_U+30EC_U+30A4_U+30E4_U+30FC 1
 62
     7
420
 16777215
370
     9
100
AcDbVertex
100
AcDb2dVertex
 10
112.1991701931162
 20
-138.6575063542248
 30
0.0
  0
VERTEX
  5
64
330
62
100
AcDbEntity
  8
_U+30EC_U+30A4_U+30E4_U+30FC 1
 62
     7
420
 16777215
370
     9
100
AcDbVertex
100
AcDb2dVertex
 10
112.1991701931162
 20
-117.1571824707108
 30
0.0
  0
SEQEND
  5
65
330
62
100
AcDbEntity
  8
_U+30EC_U+30A4_U+30E4_U+30FC 1
 62
     7
420
 16777215
370
     9
  0
POLYLINE
  5
66
330
1F
100
AcDbEntity
  8
_U+30EC_U+30A4_U+30E4_U+30FC 1
 62
     7
420
 16777215
370
     9
100
AcDb2dPolyline
 66
     1
 10
0.0
 20
0.0
 30
0.0
  0
VERTEX
  5
67
330
66
100
AcDbEntity
  8
_U+30EC_U+30A4_U+30E4_U+30FC 1
 62
     7
420
 16777215
370
     9
100
AcDbVertex
100
AcDb2dVertex
 10
101.2382590838635
 20
-117.1571824707108
 30
0.0
  0
VERTEX
  5
68
330
66
100
AcDbEntity
  8
_U+30EC_U+30A4_U+30E4_U+30FC 1
 62
     7
420
 16777215
370
     9
100
AcDbVertex
100
AcDb2dVertex
 10
113.1989423898322
 20
-117.1571824707108
 30
0.0
  0
SEQEND
  5
69
330
66
100
AcDbEntity
  8
_U+30EC_U+30A4_U+30E4_U+30FC 1
 62
     7
420
 16777215
370
     9
  0
INSERT
  5
6B
330
1F
100
AcDbEntity
  8
_U+30EC_U+30A4_U+30E4_U+30FC 1
100
AcDbBlockReference
  2
block 3
 10
0.0
 20
0.0
 30
0.0
  0
SPLINE
  5
7C
330
1F
100
AcDbEntity
  8
_U+30EC_U+30A4_U+30E4_U+30FC 1
 62
     7
420
 16777215
370
     9
100
AcDbSpline
210
0.0
220
0.0
230
1.0
 70
    11
 71
     3
 72
    17
 73
    13
 74
     0
 42
0.0000000001
 43
0.0000000001
 12
1.0
 22
0.0
 32
0.0
 13
1.0
 23
0.0
 33
0.0
 40
0.0
 40
0.0
 40
0.0
 40
0.0
 40
1.0
 40
1.0
 40
1.0
 40
2.0
 40
2.0
 40
2.0
 40
3.0
 40
3.0
 40
3.0
 40
4.0
 40
4.0
 40
4.0
 40
4.0
 10
72.97504480491817
 20
-117.1575352484883
 30
0.0
 10
72.97504480491817
 20
-117.2126391373635
 30
0.0
 10
73.01984758155294
 20
-117.2574419151302
 30
0.0
 10
73.07530424680478
 20
-117.2574419151302
 30
0.0
 10
73.13040813428785
 20
-117.2574419151302
 30
0.0
 10
73.17521091092262
 20
-117.2126391373635
 30
0.0
 10
73.17521091092262
 20
-117.1575352484883
 30
0.0
 10
73.17521091092262
 20
-117.1020785818356
 30
0.0
 10
73.13040813428785
 20
-117.0572758040689
 30
0.0
 10
73.07530424680478
 20
-117.0572758040689
 30
0.0
 10
73.01984758155294
 20
-117.0572758040689
 30
0.0
 10
72.97504480491817
 20
-117.1020785818356
 30
0.0
 10
72.97504480491817
 20
-117.1575352484883
 30
0.0
  0
SPLINE
  5
7D
330
1F
100
AcDbEntity
  8
_U+30EC_U+30A4_U+30E4_U+30FC 1
 62
     7
420
 16777215
370
     9
100
AcDbSpline
210
0.0
220
0.0
230
1.0
 70
    11
 71
     3
 72
    17
 73
    13
 74
     0
 42
0.0000000001
 43
0.0000000001
 12
1.0
 22
0.0
 32
0.0
 13
1.0
 23
0.0
 33
0.0
 40
0.0
 40
0.0
 40
0.0
 40
0.0
 40
1.0
 40
1.0
 40
1.0
 40
2.0
 40
2.0
 40
2.0
 40
3.0
 40
3.0
 40
3.0
 40
4.0
 40
4.0
 40
4.0
 40
4.0
 10
72.97504480491817
 20
-140.6570507981692
 30
0.0
 10
72.97504480491817
 20
-140.7121546870441
 30
0.0
 10
73.01984758155294
 20
-140.7569574648109
 30
0.0
 10
73.07530424680478
 20
-140.7569574648109
 30
0.0
 10
73.13040813428785
 20
-140.7569574648109
 30
0.0
 10
73.17521091092262
 20
-140.7121546870441
 30
0.0
 10
73.17521091092262
 20
-140.6570507981692
 30
0.0
 10
73.17521091092262
 20
-140.6019116315161
 30
0.0
 10
73.13040813428785
 20
-140.5571441315276
 30
0.0
 10
73.07530424680478
 20
-140.5571441315276
 30
0.0
 10
73.01984758155294
 20
-140.5571441315276
 30
0.0
 10
72.97504480491817
 20
-140.6019116315161
 30
0.0
 10
72.97504480491817
 20
-140.6570507981692
 30
0.0
  0
POLYLINE
  5
7E
330
1F
100
AcDbEntity
  8
_U+30EC_U+30A4_U+30E4_U+30FC 1
 62
     7
420
 16777215
370
     9
100
AcDb2dPolyline
 66
     1
 10
0.0
 20
0.0
 30
0.0
  0
VERTEX
  5
7F
330
7E
100
AcDbEntity
  8
_U+30EC_U+30A4_U+30E4_U+30FC 1
 62
     7
420
 16777215
370
     9
100
AcDbVertex
100
AcDb2dVertex
 10
74.53534559844492
 20
-117.1575352484883
 30
0.0
  0
VERTEX
  5
80
330
7E
100
AcDbEntity
  8
_U+30EC_U+30A4_U+30E4_U+30FC 1
 62
     7
420
 16777215
370
     9
100
AcDbVertex
100
AcDb2dVertex
 10
72.0751792723201
 20
-117.1575352484883
 30
0.0
  0
SEQEND
  5
81
330
7E
100
AcDbEntity
  8
_U+30EC_U+30A4_U+30E4_U+30FC 1
 62
     7
420
 16777215
370
     9
  0
POLYLINE
  5
82
330
1F
100
AcDbEntity
  8
_U+30EC_U+30A4_U+30E4_U+30FC 1
 62
     7
420
 16777215
370
     9
100
AcDb2dPolyline
 66
     1
 10
0.0
 20
0.0
 30
0.0
  0
VERTEX
  5
83
330
82
100
AcDbEntity
  8
_U+30EC_U+30A4_U+30E4_U+30FC 1
 62
     7
420
 16777215
370
     9
100
AcDbVertex
100
AcDb2dVertex
 10
73.07530424680478
 20
-117.1575352484883
 30
0.0
  0
VERTEX
  5
84
330
82
100
AcDbEntity
  8
_U+30EC_U+30A4_U+30E4_U+30FC 1
 62
     7
420
 16777215
370
     9
100
AcDbVertex
100
AcDb2dVertex
 10
73.07530424680478
 20
-140.6570507981692
 30
0.0
  0
SEQEND
  5
85
330
82
100
AcDbEntity
  8
_U+30EC_U+30A4_U+30E4_U+30FC 1
 62
     7
420
 16777215
370
     9
  0
POLYLINE
  5
86
330
1F
100
AcDbEntity
  8
_U+30EC_U+30A4_U+30E4_U+30FC 1
 62
     7
420
 16777215
370
     9
100
AcDb2dPolyline
 66
     1
 10
0.0
 20
0.0
 30
0.0
  0
VERTEX
  5
87
330
86
100
AcDbEntity
  8
_U+30EC_U+30A4_U+30E4_U+30FC 1
 62
     7
420
 16777215
370
     9
100
AcDbVertex
100
AcDb2dVertex
 10
84.03621535605754
 20
-140.6570507981692
 30
0.0
  0
VERTEX
  5
88
330
86
100
AcDbEntity
  8
_U+30EC_U+30A4_U+30E4_U+30FC 1
 62
     7
420
 16777215
370
     9
100
AcDbVertex
100
AcDb2dVertex
 10
72.0751792723201
 20
-140.6570507981692
 30
0.0
  0
SEQEND
  5
89
330
86
100
AcDbEntity
  8
_U+30EC_U+30A4_U+30E4_U+30FC 1
 62
     7
420
 16777215
370
     9
  0
INSERT
  5
8B
330
1F
100
AcDbEntity
  8
_U+30EC_U+30A4_U+30E4_U+30FC 1
100
AcDbBlockReference
  2
block 4
 10
0.0
 20
0.0
 30
0.0
  0
POLYLINE
  5
9C
330
1F
100
AcDbEntity
  8
_U+30EC_U+30A4_U+30E4_U+30FC 1
 62
     7
420
 16777215
370
    25
100
AcDb2dPolyline
 66
     1
 10
0.0
 20
0.0
 30
0.0
  0
VERTEX
  5
9D
330
9C
100
AcDbEntity
  8
_U+30EC_U+30A4_U+30E4_U+30FC 1
 62
     7
420
 16777215
370
    25
100
AcDbVertex
100
AcDb2dVertex
 10
74.99974225326383
 20
-117.0572758040689
 30
0.0
  0
VERTEX
  5
9E
330
9C
100
AcDbEntity
  8
_U+30EC_U+30A4_U+30E4_U+30FC 1
 62
     7
420
 16777215
370
    25
100
AcDbVertex
100
AcDb2dVertex
 10
74.99974225326383
 20
-119.0571730257914
 30
0.0
  0
SEQEND
  5
9F
330
9C
100
AcDbEntity
  8
_U+30EC_U+30A4_U+30E4_U+30FC 1
 62
     7
420
 16777215
370
    25
  0
POLYLINE
  5
A0
330
1F
100
AcDbEntity
  8
_U+30EC_U+30A4_U+30E4_U+30FC 1
 62
     7
420
 16777215
370
    25
100
AcDb2dPolyline
 66
     1
 10
0.0
 20
0.0
 30
0.0
  0
VERTEX
  5
A1
330
A0
100
AcDbEntity
  8
_U+30EC_U+30A4_U+30E4_U+30FC 1
 62
     7
420
 16777215
370
    25
100
AcDbVertex
100
AcDb2dVertex
 10
74.99974225326383
 20
-117.0572758040689
 30
0.0
  0
VERTEX
  5
A2
330
A0
100
AcDbEntity
  8
_U+30EC_U+30A4_U+30E4_U+30FC 1
 62
     7
420
 16777215
370
    25
100
AcDbVertex
100
AcDb2dVertex
 10
87.49992860102418
 20
-117.0572758040689
 30
0.0
  0
SEQEND
  5
A3
330
A0
100
AcDbEntity
  8
_U+30EC_U+30A4_U+30E4_U+30FC 1
 62
     7
420
 16777215
370
    25
  0
POLYLINE
  5
A4
330
1F
100
AcDbEntity
  8
_U+30EC_U+30A4_U+30E4_U+30FC 1
 62
     7
420
 16777215
370
    25
100
AcDb2dPolyline
 66
     1
 10
0.0
 20
0.0
 30
0.0
  0
VERTEX
  5
A5
330
A4
100
AcDbEntity
  8
_U+30EC_U+30A4_U+30E4_U+30FC 1
 62
     7
420
 16777215
370
    25
100
AcDbVertex
100
AcDb2dVertex
 10
87.49992860102418
 20
-138.5569294098052
 30
0.0
  0
VERTEX
  5
A6
330
A4
100
AcDbEntity
  8
_U+30EC_U+30A4_U+30E4_U+30FC 1
 62
     7
420
 16777215
370
    25
100
AcDbVertex
100
AcDb2dVertex
 10
87.49992860102418
 20
-117.0572758040689
 30
0.0
  0
SEQEND
  5
A7
330
A4
100
AcDbEntity
  8
_U+30EC_U+30A4_U+30E4_U+30FC 1
 62
     7
420
 16777215
370
    25
  0
POLYLINE
  5
A8
330
1F
100
AcDbEntity
  8
_U+30EC_U+30A4_U+30E4_U+30FC 1
 62
     7
420
 16777215
370
    25
100
AcDb2dPolyline
 66
     1
 10
0.0
 20
0.0
 30
0.0
  0
VERTEX
  5
A9
330
A8
100
AcDbEntity
  8
_U+30EC_U+30A4_U+30E4_U+30FC 1
 62
     7
420
 16777215
370
    25
100
AcDbVertex
100
AcDb2dVertex
 10
85.50003142982358
 20
-140.5571441315276
 30
0.0
  0
VERTEX
  5
AA
330
A8
100
AcDbEntity
  8
_U+30EC_U+30A4_U+30E4_U+30FC 1
 62
     7
420
 16777215
370
    25
100
AcDbVertex
100
AcDb2dVertex
 10
85.50003142982358
 20
-119.0571730257914
 30
0.0
  0
SEQEND
  5
AB
330
A8
100
AcDbEntity
  8
_U+30EC_U+30A4_U+30E4_U+30FC 1
 62
     7
420
 16777215
370
    25
  0
POLYLINE
  5
AC
330
1F
100
AcDbEntity
  8
_U+30EC_U+30A4_U+30E4_U+30FC 1
 62
     7
420
 16777215
370
    25
100
AcDb2dPolyline
 66
     1
 10
0.0
 20
0.0
 30
0.0
  0
VERTEX
  5
AD
330
AC
100
AcDbEntity
  8
_U+30EC_U+30A4_U+30E4_U+30FC 1
 62
     7
420
 16777215
370
    25
100
AcDbVertex
100
AcDb2dVertex
 10
75.1997319703839
 20
-119.0571730257914
 30
0.0
  0
VERTEX
  5
AE
330
AC
100
AcDbEntity
  8
_U+30EC_U+30A4_U+30E4_U+30FC 1
 62
     7
420
 16777215
370
    25
100
AcDbVertex
100
AcDb2dVertex
 10
85.50003142982358
 20
-119.0571730257914
 30
0.0
  0
SEQEND
  5
AF
330
AC
100
AcDbEntity
  8
_U+30EC_U+30A4_U+30E4_U+30FC 1
 62
     7
420
 16777215
370
    25
  0
POLYLINE
  5
B0
330
1F
100
AcDbEntity
  8
_U+30EC_U+30A4_U+30E4_U+30FC 1
 62
     7
420
 16777215
370
    25
100
AcDb2dPolyline
 66
     1
 10
0.0
 20
0.0
 30
0.0
  0
VERTEX
  5
B1
330
B0
100
AcDbEntity
  8
_U+30EC_U+30A4_U+30E4_U+30FC 1
 62
     7
420
 16777215
370
    25
100
AcDbVertex
100
AcDb2dVertex
 10
106.4996220051905
 20
-140.5571441315276
 30
0.0
  0
VERTEX
  5
B2
330
B0
100
AcDbEntity
  8
_U+30EC_U+30A4_U+30E4_U+30FC 1
 62
     7
420
 16777215
370
    25
100
AcDbVertex
100
AcDb2dVertex
 10
106.4996220051905
 20
-138.5569294098052
 30
0.0
  0
SEQEND
  5
B3
330
B0
100
AcDbEntity
  8
_U+30EC_U+30A4_U+30E4_U+30FC 1
 62
     7
420
 16777215
370
    25
  0
POLYLINE
  5
B4
330
1F
100
AcDbEntity
  8
_U+30EC_U+30A4_U+30E4_U+30FC 1
 62
     7
420
 16777215
370
    25
100
AcDb2dPolyline
 66
     1
 10
0.0
 20
0.0
 30
0.0
  0
VERTEX
  5
B5
330
B4
100
AcDbEntity
  8
_U+30EC_U+30A4_U+30E4_U+30FC 1
 62
     7
420
 16777215
370
    25
100
AcDbVertex
100
AcDb2dVertex
 10
106.4996220051905
 20
-140.5571441315276
 30
0.0
  0
VERTEX
  5
B6
330
B4
100
AcDbEntity
  8
_U+30EC_U+30A4_U+30E4_U+30FC 1
 62
     7
420
 16777215
370
    25
100
AcDbVertex
100
AcDb2dVertex
 10
85.50003142982358
 20
-140.5571441315276
 30
0.0
  0
SEQEND
  5
B7
330
B4
100
AcDbEntity
  8
_U+30EC_U+30A4_U+30E4_U+30FC 1
 62
     7
420
 16777215
370
    25
  0
POLYLINE
  5
B8
330
1F
100
AcDbEntity
  8
_U+30EC_U+30A4_U+30E4_U+30FC 1
 62
     7
420
 16777215
370
    25
100
AcDb2dPolyline
 66
     1
 10
0.0
 20
0.0
 30
0.0
  0
VERTEX
  5
B9
330
B8
100
AcDbEntity
  8
_U+30EC_U+30A4_U+30E4_U+30FC 1
 62
     7
420
 16777215
370
    25
100
AcDbVertex
100
AcDb2dVertex
 10
106.4996220051905
 20
-138.5569294098052
 30
0.0
  0
VERTEX
  5
BA
330
B8
100
AcDbEntity
  8
_U+30EC_U+30A4_U+30E4_U+30FC 1
 62
     7
420
 16777215
370
    25
100
AcDbVertex
100
AcDb2dVertex
 10
87.49992860102418
 20
-138.5569294098052
 30
0.0
  0
SEQEND
  5
BB
330
B8
100
AcDbEntity
  8
_U+30EC_U+30A4_U+30E4_U+30FC 1
 62
     7
420
 16777215
370
    25
  0
SPLINE
  5
BC
330
1F
100
AcDbEntity
  8
_U+30EC_U+30A4_U+30E4_U+30FC 1
 62
     7
420
 16777215
370
     9
100
AcDbSpline
210
0.0
220
0.0
230
1.0
 70
    11
 71
     3
 72
    17
 73
    13
 74
     0
 42
0.0000000001
 43
0.0000000001
 12
1.0
 22
0.0
 32
0.0
 13
1.0
 23
0.0
 33
0.0
 40
0.0
 40
0.0
 40
0.0
 40
0.0
 40
1.0
 40
1.0
 40
1.0
 40
2.0
 40
2.0
 40
2.0
 40
3.0
 40
3.0
 40
3.0
 40
4.0
 40
4.0
 40
4.0
 40
4.0
 10
85.50003142982358
 20
-144.9344813526554
 30
0.0
 10
85.50003142982358
 20
-144.8793421860024
 30
0.0
 10
85.4552639309657
 20
-144.8345746860138
 30
0.0
 10
85.40012476570575
 20
-144.8345746860138
 30
0.0
 10
85.34502087822268
 20
-144.8345746860138
 30
0.0
 10
85.30021810158792
 20
-144.8793421860024
 30
0.0
 10
85.30021810158792
 20
-144.9344813526554
 30
0.0
 10
85.30021810158792
 20
-144.9895852415303
 30
0.0
 10
85.34502087822268
 20
-145.0343880192971
 30
0.0
 10
85.40012476570575
 20
-145.0343880192971
 30
0.0
 10
85.4552639309657
 20
-145.0343880192971
 30
0.0
 10
85.50003142982358
 20
-144.9895852415303
 30
0.0
 10
85.50003142982358
 20
-144.9344813526554
 30
0.0
  0
SPLINE
  5
BD
330
1F
100
AcDbEntity
  8
_U+30EC_U+30A4_U+30E4_U+30FC 1
 62
     7
420
 16777215
370
     9
100
AcDbSpline
210
0.0
220
0.0
230
1.0
 70
    11
 71
     3
 72
    17
 73
    13
 74
     0
 42
0.0000000001
 43
0.0000000001
 12
1.0
 22
0.0
 32
0.0
 13
1.0
 23
0.0
 33
0.0
 40
0.0
 40
0.0
 40
0.0
 40
0.0
 40
1.0
 40
1.0
 40
1.0
 40
2.0
 40
2.0
 40
2.0
 40
3.0
 40
3.0
 40
3.0
 40
4.0
 40
4.0
 40
4.0
 40
4.0
 10
106.5002922829512
 20
-144.9344813526554
 30
0.0
 10
106.5002922829512
 20
-144.8793421860024
 30
0.0
 10
106.4555247840933
 20
-144.8345746860138
 30
0.0
 10
106.4003856188334
 20
-144.8345746860138
 30
0.0
 10
106.3445761758127
 20
-144.8345746860138
 30
0.0
 10
106.2998086769548
 20
-144.8793421860024
 30
0.0
 10
106.2998086769548
 20
-144.9344813526554
 30
0.0
 10
106.2998086769548
 20
-144.9895852415303
 30
0.0
 10
106.3445761758127
 20
-145.0343880192971
 30
0.0
 10
106.4003856188334
 20
-145.0343880192971
 30
0.0
 10
106.4555247840933
 20
-145.0343880192971
 30
0.0
 10
106.5002922829512
 20
-144.9895852415303
 30
0.0
 10
106.5002922829512
 20
-144.9344813526554
 30
0.0
  0
POLYLINE
  5
BE
330
1F
100
AcDbEntity
  8
_U+30EC_U+30A4_U+30E4_U+30FC 1
 62
     7
420
 16777215
370
     9
100
AcDb2dPolyline
 66
     1
 10
0.0
 20
0.0
 30
0.0
  0
VERTEX
  5
BF
330
BE
100
AcDbEntity
  8
_U+30EC_U+30A4_U+30E4_U+30FC 1
 62
     7
420
 16777215
370
     9
100
AcDbVertex
100
AcDb2dVertex
 10
85.40012476570575
 20
-144.9344813526554
 30
0.0
  0
VERTEX
  5
C0
330
BE
100
AcDbEntity
  8
_U+30EC_U+30A4_U+30E4_U+30FC 1
 62
     7
420
 16777215
370
     9
100
AcDbVertex
100
AcDb2dVertex
 10
106.3997153410727
 20
-144.9344813526554
 30
0.0
  0
SEQEND
  5
C1
330
BE
100
AcDbEntity
  8
_U+30EC_U+30A4_U+30E4_U+30FC 1
 62
     7
420
 16777215
370
     9
  0
POLYLINE
  5
C2
330
1F
100
AcDbEntity
  8
_U+30EC_U+30A4_U+30E4_U+30FC 1
 62
     7
420
 16777215
370
     9
100
AcDb2dPolyline
 66
     1
 10
0.0
 20
0.0
 30
0.0
  0
VERTEX
  5
C3
330
C2
100
AcDbEntity
  8
_U+30EC_U+30A4_U+30E4_U+30FC 1
 62
     7
420
 16777215
370
     9
100
AcDbVertex
100
AcDb2dVertex
 10
85.40012476570575
 20
-143.4744399641311
 30
0.0
  0
VERTEX
  5
C4
330
C2
100
AcDbEntity
  8
_U+30EC_U+30A4_U+30E4_U+30FC 1
 62
     7
420
 16777215
370
     9
100
AcDbVertex
100
AcDb2dVertex
 10
85.40012476570575
 20
-145.9342535746273
 30
0.0
  0
SEQEND
  5
C5
330
C2
100
AcDbEntity
  8
_U+30EC_U+30A4_U+30E4_U+30FC 1
 62
     7
420
 16777215
370
     9
  0
POLYLINE
  5
C6
330
1F
100
AcDbEntity
  8
_U+30EC_U+30A4_U+30E4_U+30FC 1
 62
     7
420
 16777215
370
     9
100
AcDb2dPolyline
 66
     1
 10
0.0
 20
0.0
 30
0.0
  0
VERTEX
  5
C7
330
C6
100
AcDbEntity
  8
_U+30EC_U+30A4_U+30E4_U+30FC 1
 62
     7
420
 16777215
370
     9
100
AcDbVertex
100
AcDb2dVertex
 10
106.4003856188334
 20
-143.4744399641311
 30
0.0
  0
VERTEX
  5
C8
330
C6
100
AcDbEntity
  8
_U+30EC_U+30A4_U+30E4_U+30FC 1
 62
     7
420
 16777215
370
     9
100
AcDbVertex
100
AcDb2dVertex
 10
106.4003856188334
 20
-145.9342535746273
 30
0.0
  0
SEQEND
  5
C9
330
C6
100
AcDbEntity
  8
_U+30EC_U+30A4_U+30E4_U+30FC 1
 62
     7
420
 16777215
370
     9
  0
INSERT
  5
CB
330
1F
100
AcDbEntity
  8
_U+30EC_U+30A4_U+30E4_U+30FC 1
100
AcDbBlockReference
  2
block 5
 10
0.0
 20
0.0
 30
0.0
  0
SPLINE
  5
D2
330
1F
100
AcDbEntity
  8
_U+30EC_U+30A4_U+30E4_U+30FC 1
 62
     7
420
 16777215
370
     9
100
AcDbSpline
210
0.0
220
0.0
230
1.0
 70
    11
 71
     3
 72
    17
 73
    13
 74
     0
 42
0.0000000001
 43
0.0000000001
 12
1.0
 22
0.0
 32
0.0
 13
1.0
 23
0.0
 33
0.0
 40
0.0
 40
0.0
 40
0.0
 40
0.0
 40
1.0
 40
1.0
 40
1.0
 40
2.0
 40
2.0
 40
2.0
 40
3.0
 40
3.0
 40
3.0
 40
4.0
 40
4.0
 40
4.0
 40
4.0
 10
75.19955558149951
 20
-114.7425244157588
 30
0.0
 10
75.19955558149951
 20
-114.687385249106
 30
0.0
 10
75.15475280486474
 20
-114.6426177491171
 30
0.0
 10
75.09964891738167
 20
-114.6426177491171
 30
0.0
 10
75.04450975212173
 20
-114.6426177491171
 30
0.0
 10
74.99974225326383
 20
-114.687385249106
 30
0.0
 10
74.99974225326383
 20
-114.7425244157588
 30
0.0
 10
74.99974225326383
 20
-114.7983338601892
 30
0.0
 10
75.04450975212173
 20
-114.8431366379559
 30
0.0
 10
75.09964891738167
 20
-114.8431366379559
 30
0.0
 10
75.15475280486474
 20
-114.8431366379559
 30
0.0
 10
75.19955558149951
 20
-114.7983338601892
 30
0.0
 10
75.19955558149951
 20
-114.7425244157588
 30
0.0
  0
SPLINE
  5
D3
330
1F
100
AcDbEntity
  8
_U+30EC_U+30A4_U+30E4_U+30FC 1
 62
     7
420
 16777215
370
     9
100
AcDbSpline
210
0.0
220
0.0
230
1.0
 70
    11
 71
     3
 72
    17
 73
    13
 74
     0
 42
0.0000000001
 43
0.0000000001
 12
1.0
 22
0.0
 32
0.0
 13
1.0
 23
0.0
 33
0.0
 40
0.0
 40
0.0
 40
0.0
 40
0.0
 40
1.0
 40
1.0
 40
1.0
 40
2.0
 40
2.0
 40
2.0
 40
3.0
 40
3.0
 40
3.0
 40
4.0
 40
4.0
 40
4.0
 40
4.0
 10
87.69974192925984
 20
-114.7425244157588
 30
0.0
 10
87.69974192925984
 20
-114.687385249106
 30
0.0
 10
87.65493915262509
 20
-114.6426177491171
 30
0.0
 10
87.59983526514202
 20
-114.6426177491171
 30
0.0
 10
87.54469609988206
 20
-114.6426177491171
 30
0.0
 10
87.49992860102418
 20
-114.687385249106
 30
0.0
 10
87.49992860102418
 20
-114.7425244157588
 30
0.0
 10
87.49992860102418
 20
-114.7983338601892
 30
0.0
 10
87.54469609988206
 20
-114.8431366379559
 30
0.0
 10
87.59983526514202
 20
-114.8431366379559
 30
0.0
 10
87.65493915262509
 20
-114.8431366379559
 30
0.0
 10
87.69974192925984
 20
-114.7983338601892
 30
0.0
 10
87.69974192925984
 20
-114.7425244157588
 30
0.0
  0
POLYLINE
  5
D4
330
1F
100
AcDbEntity
  8
_U+30EC_U+30A4_U+30E4_U+30FC 1
 62
     7
420
 16777215
370
     9
100
AcDb2dPolyline
 66
     1
 10
0.0
 20
0.0
 30
0.0
  0
VERTEX
  5
D5
330
D4
100
AcDbEntity
  8
_U+30EC_U+30A4_U+30E4_U+30FC 1
 62
     7
420
 16777215
370
     9
100
AcDbVertex
100
AcDb2dVertex
 10
75.09964891738167
 20
-114.7425244157588
 30
0.0
  0
VERTEX
  5
D6
330
D4
100
AcDbEntity
  8
_U+30EC_U+30A4_U+30E4_U+30FC 1
 62
     7
420
 16777215
370
     9
100
AcDbVertex
100
AcDb2dVertex
 10
87.59983526514202
 20
-114.7425244157588
 30
0.0
  0
SEQEND
  5
D7
330
D4
100
AcDbEntity
  8
_U+30EC_U+30A4_U+30E4_U+30FC 1
 62
     7
420
 16777215
370
     9
  0
POLYLINE
  5
D8
330
1F
100
AcDbEntity
  8
_U+30EC_U+30A4_U+30E4_U+30FC 1
 62
     7
420
 16777215
370
     9
100
AcDb2dPolyline
 66
     1
 10
0.0
 20
0.0
 30
0.0
  0
VERTEX
  5
D9
330
D8
100
AcDbEntity
  8
_U+30EC_U+30A4_U+30E4_U+30FC 1
 62
     7
420
 16777215
370
     9
100
AcDbVertex
100
AcDb2dVertex
 10
75.09964891738167
 20
-113.282483027235
 30
0.0
  0
VERTEX
  5
DA
330
D8
100
AcDbEntity
  8
_U+30EC_U+30A4_U+30E4_U+30FC 1
 62
     7
420
 16777215
370
     9
100
AcDbVertex
100
AcDb2dVertex
 10
75.09964891738167
 20
-115.7429669155086
 30
0.0
  0
SEQEND
  5
DB
330
D8
100
AcDbEntity
  8
_U+30EC_U+30A4_U+30E4_U+30FC 1
 62
     7
420
 16777215
370
     9
  0
POLYLINE
  5
DC
330
1F
100
AcDbEntity
  8
_U+30EC_U+30A4_U+30E4_U+30FC 1
 62
     7
420
 16777215
370
     9
100
AcDb2dPolyline
 66
     1
 10
0.0
 20
0.0
 30
0.0
  0
VERTEX
  5
DD
330
DC
100
AcDbEntity
  8
_U+30EC_U+30A4_U+30E4_U+30FC 1
 62
     7
420
 16777215
370
     9
100
AcDbVertex
100
AcDb2dVertex
 10
87.59983526514202
 20
-113.282483027235
 30
0.0
  0
VERTEX
  5
DE
330
DC
100
AcDbEntity
  8
_U+30EC_U+30A4_U+30E4_U+30FC 1
 62
     7
420
 16777215
370
     9
100
AcDbVertex
100
AcDb2dVertex
 10
87.59983526514202
 20
-115.7429669155086
 30
0.0
  0
SEQEND
  5
DF
330
DC
100
AcDbEntity
  8
_U+30EC_U+30A4_U+30E4_U+30FC 1
 62
     7
420
 16777215
370
     9
  0
INSERT
  5
E1
330
1F
100
AcDbEntity
  8
_U+30EC_U+30A4_U+30E4_U+30FC 1
100
AcDbBlockReference
  2
block 6
 10
0.0
 20
0.0
 30
0.0
  0
ENDSEC
  0
SECTION
  2
OBJECTS
  0
DICTIONARY
  5
C
330
0
100
AcDbDictionary
281
     1
  3
ACAD_GROUP
350
D
  3
ACAD_LAYOUT
350
1A
  3
ACAD_MATERIAL
350
3B
  3
ACAD_MLEADERSTYLE
350
F3
  3
ACAD_MLINESTYLE
350
17
  3
ACAD_PLOTSETTINGS
350
19
  3
ACAD_PLOTSTYLENAME
350
E
  3
ACAD_TABLESTYLE
350
F2
  3
ACAD_VISUALSTYLE
350
2A
  0
SUN
  5
3F
330
29
100
AcDbSun
 90
        1
290
     0
 63
     7
421
 16777215
 40
1.0
291
     1
 91
  2455826
 92
 54000000
292
     0
 70
     2
 71
   256
280
     1
  0
DICTIONARY
  5
D
102
{ACAD_REACTORS
330
C
102
}
330
C
100
AcDbDictionary
281
     1
  0
DICTIONARY
  5
1A
102
{ACAD_REACTORS
330
C
102
}
330
C
100
AcDbDictionary
281
     1
  3
Layout1
350
1E
  3
Layout2
350
26
  3
Model
350
22
  0
DICTIONARY
  5
3B
102
{ACAD_REACTORS
330
C
102
}
330
C
100
AcDbDictionary
281
     1
  3
ByBlock
350
3D
  3
ByLayer
350
3C
  3
Global
350
3E
  0
DICTIONARY
  5
F3
102
{ACAD_REACTORS
330
C
102
}
330
C
100
AcDbDictionary
281
     1
  0
DICTIONARY
  5
17
102
{ACAD_REACTORS
330
C
102
}
330
C
100
AcDbDictionary
281
     1
  3
Standard
350
18
  0
DICTIONARY
  5
19
102
{ACAD_REACTORS
330
C
102
}
330
C
100
AcDbDictionary
281
     1
  0
ACDBDICTIONARYWDFLT
  5
E
102
{ACAD_REACTORS
330
C
102
}
330
C
100
AcDbDictionary
281
     1
  3
Normal
350
F
100
AcDbDictionaryWithDefault
340
F
  0
DICTIONARY
  5
F2
102
{ACAD_REACTORS
330
C
102
}
330
C
100
AcDbDictionary
281
     1
  0
DICTIONARY
  5
2A
102
{ACAD_REACTORS
330
C
102
}
330
C
100
AcDbDictionary
281
     1
  3
2dWireframe
350
2F
  3
3D Hidden
350
31
  3
3dWireframe
350
30
  3
Basic
350
32
  3
Brighten
350
36
  3
ColorChange
350
3A
  3
Conceptual
350
34
  3
Dim
350
35
  3
Facepattern
350
39
  3
Flat
350
2B
  3
FlatWithEdges
350
2C
  3
Gouraud
350
2D
  3
GouraudWithEdges
350
2E
  3
Linepattern
350
38
  3
Realistic
350
33
  3
Thicken
350
37
  0
LAYOUT
  5
1E
102
{ACAD_REACTORS
330
1A
102
}
330
1A
100
AcDbPlotSettings
  1

  2
none_device
  4

  6

 40
0.0
 41
0.0
 42
0.0
 43
0.0
 44
0.0
 45
0.0
 46
0.0
 47
0.0
 48
0.0
 49
0.0
140
0.0
141
0.0
142
1.0
143
1.0
 70
   688
 72
     0
 73
     0
 74
     5
  7

 75
    16
 76
     0
 77
     2
 78
   300
147
1.0
148
0.0
149
0.0
100
AcDbLayout
  1
Layout1
 70
     1
 71
     1
 10
0.0
 20
0.0
 11
12.0
 21
9.0
 12
0.0
 22
0.0
 32
0.0
 14
1.000000000000000E+20
 24
1.000000000000000E+20
 34
1.000000000000000E+20
 15
-1.000000000000000E+20
 25
-1.000000000000000E+20
 35
-1.000000000000000E+20
146
0.0
 13
0.0
 23
0.0
 33
0.0
 16
1.0
 26
0.0
 36
0.0
 17
0.0
 27
1.0
 37
0.0
 76
     0
330
1B
  0
LAYOUT
  5
26
102
{ACAD_REACTORS
330
1A
102
}
330
1A
100
AcDbPlotSettings
  1

  2
none_device
  4

  6

 40
0.0
 41
0.0
 42
0.0
 43
0.0
 44
0.0
 45
0.0
 46
0.0
 47
0.0
 48
0.0
 49
0.0
140
0.0
141
0.0
142
1.0
143
1.0
 70
   688
 72
     0
 73
     0
 74
     5
  7

 75
    16
 76
     0
 77
     2
 78
   300
147
1.0
148
0.0
149
0.0
100
AcDbLayout
  1
Layout2
 70
     1
 71
     2
 10
0.0
 20
0.0
 11
0.0
 21
0.0
 12
0.0
 22
0.0
 32
0.0
 14
0.0
 24
0.0
 34
0.0
 15
0.0
 25
0.0
 35
0.0
146
0.0
 13
0.0
 23
0.0
 33
0.0
 16
1.0
 26
0.0
 36
0.0
 17
0.0
 27
1.0
 37
0.0
 76
     0
330
23
  0
LAYOUT
  5
22
102
{ACAD_REACTORS
330
1A
102
}
330
1A
100
AcDbPlotSettings
  1

  2
none_device
  4

  6

 40
0.0
 41
0.0
 42
0.0
 43
0.0
 44
0.0
 45
0.0
 46
0.0
 47
0.0
 48
0.0
 49
0.0
140
0.0
141
0.0
142
1.0
143
1.0
 70
  1712
 72
     0
 73
     0
 74
     0
  7

 75
     0
 76
     0
 77
     2
 78
   300
147
1.0
148
0.0
149
0.0
100
AcDbLayout
  1
Model
 70
     1
 71
     0
 10
0.0
 20
0.0
 11
12.0
 21
9.0
 12
0.0
 22
0.0
 32
0.0
 14
1.000000000000000E+20
 24
1.000000000000000E+20
 34
1.000000000000000E+20
 15
-1.000000000000000E+20
 25
-1.000000000000000E+20
 35
-1.000000000000000E+20
146
0.0
 13
0.0
 23
0.0
 33
0.0
 16
1.0
 26
0.0
 36
0.0
 17
0.0
 27
1.0
 37
0.0
 76
     0
330
1F
331
29
  0
MATERIAL
  5
3D
102
{ACAD_REACTORS
330
3B
102
}
330
3B
100
AcDbMaterial
  1
ByBlock
 72
     1
 94
      127
  0
MATERIAL
  5
3C
102
{ACAD_REACTORS
330
3B
102
}
330
3B
100
AcDbMaterial
  1
ByLayer
 72
     1
 94
      127
  0
MATERIAL
  5
3E
102
{ACAD_REACTORS
330
3B
102
}
330
3B
100
AcDbMaterial
  1
Global
 72
     1
 94
      127
  0
MLINESTYLE
  5
18
102
{ACAD_REACTORS
330
17
102
}
330
17
100
AcDbMlineStyle
  2
Standard
 70
     0
  3

 62
   256
 51
90.0
 52
90.0
 71
     2
 49
0.5
 62
   256
  6
BYLAYER
 49
-0.5
 62
   256
  6
BYLAYER
  0
ACDBPLACEHOLDER
  5
F
102
{ACAD_REACTORS
330
E
102
}
330
E
  0
VISUALSTYLE
  5
2F
102
{ACAD_REACTORS
330
2A
102
}
330
2A
100
AcDbVisualStyle
  2
2dWireframe
 70
     4
177
     2
291
     0
 71
     0
176
     1
 72
     2
176
     1
 73
     0
176
     1
 90
        0
176
     1
 40
-0.6
176
     1
 41
-30.0
176
     1
 62
     5
 63
     7
421
 16777215
176
     1
 74
     1
176
     1
 91
        4
176
     1
 64
     7
176
     1
 65
   257
176
     1
 75
     1
176
     1
175
     1
176
     1
 42
1.0
176
     1
 92
        0
176
     1
 66
   257
176
     1
 43
1.0
176
     1
 76
     1
176
     1
 77
     6
176
     1
 78
     2
176
     1
 67
     7
176
     1
 79
     5
176
     1
170
     0
176
     1
171
     0
176
     1
290
     0
176
     1
 93
        1
176
     1
 44
0.0
176
     1
173
     0
176
     1
  0
VISUALSTYLE
  5
31
102
{ACAD_REACTORS
330
2A
102
}
330
2A
100
AcDbVisualStyle
  2
3D Hidden
 70
     6
177
     2
291
     0
 71
     1
176
     1
 72
     2
176
     1
 73
     2
176
     1
 90
        0
176
     1
 40
-0.6
176
     1
 41
-30.0
176
     1
 62
     5
 63
     7
421
 16777215
176
     1
 74
     2
176
     1
 91
        2
176
     1
 64
     7
176
     1
 65
   257
176
     1
 75
     2
176
     1
175
     1
176
     1
 42
40.0
176
     1
 92
        0
176
     1
 66
   257
176
     1
 43
1.0
176
     1
 76
     1
176
     1
 77
     6
176
     1
 78
     2
176
     1
 67
     7
176
     1
 79
     3
176
     1
170
     0
176
     1
171
     0
176
     1
290
     0
176
     1
 93
        1
176
     1
 44
0.0
176
     1
173
     0
176
     1
  0
VISUALSTYLE
  5
30
102
{ACAD_REACTORS
330
2A
102
}
330
2A
100
AcDbVisualStyle
  2
3dWireframe
 70
     5
177
     2
291
     0
 71
     0
176
     1
 72
     2
176
     1
 73
     0
176
     1
 90
        0
176
     1
 40
-0.6
176
     1
 41
-30.0
176
     1
 62
     5
 63
     7
421
 16777215
176
     1
 74
     1
176
     1
 91
        4
176
     1
 64
     7
176
     1
 65
   257
176
     1
 75
     1
176
     1
175
     1
176
     1
 42
1.0
176
     1
 92
        0
176
     1
 66
   257
176
     1
 43
1.0
176
     1
 76
     1
176
     1
 77
     6
176
     1
 78
     2
176
     1
 67
     7
176
     1
 79
     5
176
     1
170
     0
176
     1
171
     0
176
     1
290
     0
176
     1
 93
        1
176
     1
 44
0.0
176
     1
173
     0
176
     1
  0
VISUALSTYLE
  5
32
102
{ACAD_REACTORS
330
2A
102
}
330
2A
100
AcDbVisualStyle
  2
Basic
 70
     7
177
     2
291
     1
 71
     1
176
     1
 72
     0
176
     1
 73
     1
176
     1
 90
        0
176
     1
 40
-0.6
176
     1
 41
-30.0
176
     1
 62
     5
 63
     7
421
 16777215
176
     1
 74
     0
176
     1
 91
        4
176
     1
 64
     7
176
     1
 65
   257
176
     1
 75
     1
176
     1
175
     1
176
     1
 42
1.0
176
     1
 92
        8
176
     1
 66
     7
176
     1
 43
1.0
176
     1
 76
     1
176
     1
 77
     6
176
     1
 78
     2
176
     1
 67
     7
176
     1
 79
     5
176
     1
170
     0
176
     1
171
     0
176
     1
290
     0
176
     1
 93
        1
176
     1
 44
0.0
176
     1
173
     0
176
     1
  0
VISUALSTYLE
  5
36
102
{ACAD_REACTORS
330
2A
102
}
330
2A
100
AcDbVisualStyle
  2
Brighten
 70
    12
177
     2
291
     1
 71
     2
176
     1
 72
     2
176
     1
 73
     0
176
     1
 90
        0
176
     1
 40
-0.6
176
     1
 41
-30.0
176
     1
 62
     5
 63
     7
421
 16777215
176
     1
 74
     1
176
     1
 91
        4
176
     1
 64
     7
176
     1
 65
   257
176
     1
 75
     1
176
     1
175
     1
176
     1
 42
1.0
176
     1
 92
        8
176
     1
 66
     7
176
     1
 43
1.0
176
     1
 76
     1
176
     1
 77
     6
176
     1
 78
     2
176
     1
 67
     7
176
     1
 79
     5
176
     1
170
     0
176
     1
171
     0
176
     1
290
     0
176
     1
 93
        1
176
     1
 44
50.0
176
     1
173
     0
176
     1
  0
VISUALSTYLE
  5
3A
102
{ACAD_REACTORS
330
2A
102
}
330
2A
100
AcDbVisualStyle
  2
ColorChange
 70
    16
177
     2
291
     1
 71
     2
176
     1
 72
     2
176
     1
 73
     3
176
     1
 90
        0
176
     1
 40
-0.6
176
     1
 41
-30.0
176
     1
 62
     5
 63
     8
421
  8421504
176
     1
 74
     1
176
     1
 91
        4
176
     1
 64
     7
176
     1
 65
   257
176
     1
 75
     1
176
     1
175
     1
176
     1
 42
1.0
176
     1
 92
        8
176
     1
 66
     8
424
  8421504
176
     1
 43
1.0
176
     1
 76
     1
176
     1
 77
     6
176
     1
 78
     2
176
     1
 67
     7
176
     1
 79
     5
176
     1
170
     0
176
     1
171
     0
176
     1
290
     0
176
     1
 93
        1
176
     1
 44
0.0
176
     1
173
     0
176
     1
  0
VISUALSTYLE
  5
34
102
{ACAD_REACTORS
330
2A
102
}
330
2A
100
AcDbVisualStyle
  2
Conceptual
 70
     9
177
     2
291
     0
 71
     3
176
     1
 72
     2
176
     1
 73
     0
176
     1
 90
        0
176
     1
 40
-0.6
176
     1
 41
-30.0
176
     1
 62
     5
 63
     7
421
 16777215
176
     1
 74
     2
176
     1
 91
        2
176
     1
 64
     7
176
     1
 65
   257
176
     1
 75
     1
176
     1
175
     1
176
     1
 42
40.0
176
     1
 92
        8
176
     1
 66
     7
176
     1
 43
1.0
176
     1
 76
     1
176
     1
 77
     6
176
     1
 78
     2
176
     1
 67
     7
176
     1
 79
     3
176
     1
170
     0
176
     1
171
     0
176
     1
290
     0
176
     1
 93
        1
176
     1
 44
0.0
176
     1
173
     0
176
     1
  0
VISUALSTYLE
  5
35
102
{ACAD_REACTORS
330
2A
102
}
330
2A
100
AcDbVisualStyle
  2
Dim
 70
    11
177
     2
291
     1
 71
     2
176
     1
 72
     2
176
     1
 73
     0
176
     1
 90
        0
176
     1
 40
-0.6
176
     1
 41
-30.0
176
     1
 62
     5
 63
     7
421
 16777215
176
     1
 74
     1
176
     1
 91
        4
176
     1
 64
     7
176
     1
 65
   257
176
     1
 75
     1
176
     1
175
     1
176
     1
 42
1.0
176
     1
 92
        8
176
     1
 66
     7
176
     1
 43
1.0
176
     1
 76
     1
176
     1
 77
     6
176
     1
 78
     2
176
     1
 67
     7
176
     1
 79
     5
176
     1
170
     0
176
     1
171
     0
176
     1
290
     0
176
     1
 93
        1
176
     1
 44
-50.0
176
     1
173
     0
176
     1
  0
VISUALSTYLE
  5
39
102
{ACAD_REACTORS
330
2A
102
}
330
2A
100
AcDbVisualStyle
  2
Facepattern
 70
    15
177
     2
291
     1
 71
     2
176
     1
 72
     2
176
     1
 73
     0
176
     1
 90
        0
176
     1
 40
-0.6
176
     1
 41
-30.0
176
     1
 62
     5
 63
     7
421
 16777215
176
     1
 74
     1
176
     1
 91
        4
176
     1
 64
     7
176
     1
 65
   257
176
     1
 75
     1
176
     1
175
     1
176
     1
 42
1.0
176
     1
 92
        8
176
     1
 66
     7
176
     1
 43
1.0
176
     1
 76
     1
176
     1
 77
     6
176
     1
 78
     2
176
     1
 67
     7
176
     1
 79
     5
176
     1
170
     0
176
     1
171
     0
176
     1
290
     0
176
     1
 93
        1
176
     1
 44
0.0
176
     1
173
     0
176
     1
  0
VISUALSTYLE
  5
2B
102
{ACAD_REACTORS
330
2A
102
}
330
2A
100
AcDbVisualStyle
  2
Flat
 70
     0
177
     2
291
     1
 71
     2
176
     1
 72
     1
176
     1
 73
     1
176
     1
 90
        2
176
     1
 40
-0.6
176
     1
 41
30.0
176
     1
 62
     5
 63
     7
421
 16777215
176
     1
 74
     0
176
     1
 91
        4
176
     1
 64
     7
176
     1
 65
   257
176
     1
 75
     1
176
     1
175
     1
176
     1
 42
1.0
176
     1
 92
        8
176
     1
 66
     7
176
     1
 43
1.0
176
     1
 76
     1
176
     1
 77
     6
176
     1
 78
     2
176
     1
 67
     7
176
     1
 79
     5
176
     1
170
     0
176
     1
171
     0
176
     1
290
     0
176
     1
 93
       13
176
     1
 44
0.0
176
     1
173
     0
176
     1
  0
VISUALSTYLE
  5
2C
102
{ACAD_REACTORS
330
2A
102
}
330
2A
100
AcDbVisualStyle
  2
FlatWithEdges
 70
     1
177
     2
291
     1
 71
     2
176
     1
 72
     1
176
     1
 73
     1
176
     1
 90
        2
176
     1
 40
-0.6
176
     1
 41
30.0
176
     1
 62
     5
 63
     7
421
 16777215
176
     1
 74
     1
176
     1
 91
        4
176
     1
 64
     7
176
     1
 65
   257
176
     1
 75
     1
176
     1
175
     1
176
     1
 42
1.0
176
     1
 92
        0
176
     1
 66
   257
176
     1
 43
1.0
176
     1
 76
     1
176
     1
 77
     6
176
     1
 78
     2
176
     1
 67
     7
176
     1
 79
     5
176
     1
170
     0
176
     1
171
     0
176
     1
290
     0
176
     1
 93
       13
176
     1
 44
0.0
176
     1
173
     0
176
     1
  0
VISUALSTYLE
  5
2D
102
{ACAD_REACTORS
330
2A
102
}
330
2A
100
AcDbVisualStyle
  2
Gouraud
 70
     2
177
     2
291
     1
 71
     2
176
     1
 72
     2
176
     1
 73
     1
176
     1
 90
        2
176
     1
 40
-0.6
176
     1
 41
30.0
176
     1
 62
     5
 63
     7
421
 16777215
176
     1
 74
     0
176
     1
 91
        4
176
     1
 64
     7
176
     1
 65
   257
176
     1
 75
     1
176
     1
175
     1
176
     1
 42
1.0
176
     1
 92
        0
176
     1
 66
     7
176
     1
 43
1.0
176
     1
 76
     1
176
     1
 77
     6
176
     1
 78
     2
176
     1
 67
     7
176
     1
 79
     5
176
     1
170
     0
176
     1
171
     0
176
     1
290
     0
176
     1
 93
       13
176
     1
 44
0.0
176
     1
173
     0
176
     1
  0
VISUALSTYLE
  5
2E
102
{ACAD_REACTORS
330
2A
102
}
330
2A
100
AcDbVisualStyle
  2
GouraudWithEdges
 70
     3
177
     2
291
     1
 71
     2
176
     1
 72
     2
176
     1
 73
     1
176
     1
 90
        2
176
     1
 40
-0.6
176
     1
 41
30.0
176
     1
 62
     5
 63
     7
421
 16777215
176
     1
 74
     1
176
     1
 91
        4
176
     1
 64
     7
176
     1
 65
   257
176
     1
 75
     1
176
     1
175
     1
176
     1
 42
1.0
176
     1
 92
        0
176
     1
 66
   257
176
     1
 43
1.0
176
     1
 76
     1
176
     1
 77
     6
176
     1
 78
     2
176
     1
 67
     7
176
     1
 79
     5
176
     1
170
     0
176
     1
171
     0
176
     1
290
     0
176
     1
 93
       13
176
     1
 44
0.0
176
     1
173
     0
176
     1
  0
VISUALSTYLE
  5
38
102
{ACAD_REACTORS
330
2A
102
}
330
2A
100
AcDbVisualStyle
  2
Linepattern
 70
    14
177
     2
291
     1
 71
     2
176
     1
 72
     2
176
     1
 73
     0
176
     1
 90
        0
176
     1
 40
-0.6
176
     1
 41
-30.0
176
     1
 62
     5
 63
     7
421
 16777215
176
     1
 74
     1
176
     1
 91
        4
176
     1
 64
     7
176
     1
 65
   257
176
     1
 75
     7
176
     1
175
     7
176
     1
 42
1.0
176
     1
 92
        8
176
     1
 66
     7
176
     1
 43
1.0
176
     1
 76
     1
176
     1
 77
     6
176
     1
 78
     2
176
     1
 67
     7
176
     1
 79
     5
176
     1
170
     0
176
     1
171
     0
176
     1
290
     0
176
     1
 93
        1
176
     1
 44
0.0
176
     1
173
     0
176
     1
  0
VISUALSTYLE
  5
33
102
{ACAD_REACTORS
330
2A
102
}
330
2A
100
AcDbVisualStyle
  2
Realistic
 70
     8
177
     2
291
     0
 71
     2
176
     1
 72
     2
176
     1
 73
     0
176
     1
 90
        0
176
     1
 40
-0.6
176
     1
 41
-30.0
176
     1
 62
     5
 63
     7
421
 16777215
176
     1
 74
     1
176
     1
 91
        0
176
     1
 64
     7
176
     1
 65
   257
176
     1
 75
     1
176
     1
175
     1
176
     1
 42
1.0
176
     1
 92
        8
176
     1
 66
     8
424
  7895160
176
     1
 43
1.0
176
     1
 76
     1
176
     1
 77
     6
176
     1
 78
     2
176
     1
 67
     7
176
     1
 79
     5
176
     1
170
     0
176
     1
171
     0
176
     1
290
     0
176
     1
 93
       13
176
     1
 44
0.0
176
     1
173
     0
176
     1
  0
VISUALSTYLE
  5
37
102
{ACAD_REACTORS
330
2A
102
}
330
2A
100
AcDbVisualStyle
  2
Thicken
 70
    13
177
     2
291
     1
 71
     2
176
     1
 72
     2
176
     1
 73
     0
176
     1
 90
        0
176
     1
 40
-0.6
176
     1
 41
-30.0
176
     1
 62
     5
 63
     7
421
 16777215
176
     1
 74
     1
176
     1
 91
        4
176
     1
 64
     7
176
     1
 65
   257
176
     1
 75
     1
176
     1
175
     1
176
     1
 42
1.0
176
     1
 92
       12
176
     1
 66
     7
176
     1
 43
1.0
176
     1
 76
     1
176
     1
 77
     6
176
     1
 78
     2
176
     1
 67
     7
176
     1
 79
     5
176
     1
170
     0
176
     1
171
     0
176
     1
290
     0
176
     1
 93
        1
176
     1
 44
0.0
176
     1
173
     0
176
     1
  0
ENDSEC
  0
EOF
