  0
SECTION
  2
HEADER
  9
$ACADVER
  1
AC1024
  9
$ACADMAINTVER
 70
     6
  9
$DWGCODEPAGE
  3
UNDEFINED
  9
$INSBASE
 10
0.0
 20
0.0
 30
0.0
  9
$EXTMIN
 10
1.000000000000000E+20
 20
1.000000000000000E+20
 30
1.000000000000000E+20
  9
$EXTMAX
 10
-1.000000000000000E+20
 20
-1.000000000000000E+20
 30
-1.000000000000000E+20
  9
$LIMMIN
 10
0.0
 20
0.0
  9
$LIMMAX
 10
12.0
 20
9.0
  9
$ORTHOMODE
 70
     0
  9
$REGENMODE
 70
     1
  9
$FILLMODE
 70
     1
  9
$QTEXTMODE
 70
     0
  9
$MIRRTEXT
 70
     1
  9
$LTSCALE
 40
1.0
  9
$ATTMODE
 70
     1
  9
$TEXTSIZE
 40
0.2
  9
$TRACEWID
 40
0.05
  9
$TEXTSTYLE
  7
Standard
  9
$CLAYER
  8
0
  9
$CELTYPE
  6
ByLayer
  9
$CECOLOR
 62
   256
  9
$CELTSCALE
 40
1.0
  9
$DISPSILH
 70
     0
  9
$DIMSCALE
 40
1.0
  9
$DIMASZ
 40
0.18
  9
$DIMEXO
 40
0.0625
  9
$DIMDLI
 40
0.38
  9
$DIMRND
 40
0.0
  9
$DIMDLE
 40
0.0
  9
$DIMEXE
 40
0.18
  9
$DIMTP
 40
0.0
  9
$DIMTM
 40
0.0
  9
$DIMTXT
 40
0.18
  9
$DIMCEN
 40
0.09
  9
$DIMTSZ
 40
0.0
  9
$DIMTOL
 70
     0
  9
$DIMLIM
 70
     0
  9
$DIMTIH
 70
     1
  9
$DIMTOH
 70
     1
  9
$DIMSE1
 70
     0
  9
$DIMSE2
 70
     0
  9
$DIMTAD
 70
     0
  9
$DIMZIN
 70
     0
  9
$DIMBLK
  1

  9
$DIMASO
 70
     1
  9
$DIMSHO
 70
     1
  9
$DIMPOST
  1

  9
$DIMAPOST
  1

  9
$DIMALT
 70
     0
  9
$DIMALTD
 70
     2
  9
$DIMALTF
 40
25.4
  9
$DIMLFAC
 40
1.0
  9
$DIMTOFL
 70
     0
  9
$DIMTVP
 40
0.0
  9
$DIMTIX
 70
     0
  9
$DIMSOXD
 70
     0
  9
$DIMSAH
 70
     0
  9
$DIMBLK1
  1

  9
$DIMBLK2
  1

  9
$DIMSTYLE
  2
Standard
  9
$DIMCLRD
 70
     0
  9
$DIMCLRE
 70
     0
  9
$DIMCLRT
 70
     0
  9
$DIMTFAC
 40
1.0
  9
$DIMGAP
 40
0.09
  9
$DIMJUST
 70
     0
  9
$DIMSD1
 70
     0
  9
$DIMSD2
 70
     0
  9
$DIMTOLJ
 70
     1
  9
$DIMTZIN
 70
     0
  9
$DIMALTZ
 70
     0
  9
$DIMALTTZ
 70
     0
  9
$DIMUPT
 70
     0
  9
$DIMDEC
 70
     4
  9
$DIMTDEC
 70
     4
  9
$DIMALTU
 70
     2
  9
$DIMALTTD
 70
     2
  9
$DIMTXSTY
  7
Standard
  9
$DIMAUNIT
 70
     0
  9
$DIMADEC
 70
     0
  9
$DIMALTRND
 40
0.0
  9
$DIMAZIN
 70
     0
  9
$DIMDSEP
 70
    46
  9
$DIMATFIT
 70
     3
  9
$DIMFRAC
 70
     0
  9
$DIMLDRBLK
  1

  9
$DIMLUNIT
 70
     2
  9
$DIMLWD
 70
    -2
  9
$DIMLWE
 70
    -2
  9
$DIMTMOVE
 70
     0
  9
$DIMFXL
 40
1.0
  9
$DIMFXLON
 70
     0
  9
$DIMJOGANG
 40
0.7853981633974483
  9
$DIMTFILL
 70
     0
  9
$DIMTFILLCLR
 70
     0
  9
$DIMARCSYM
 70
     0
  9
$DIMLTYPE
  6

  9
$DIMLTEX1
  6

  9
$DIMLTEX2
  6

  9
$DIMTXTDIRECTION
 70
     0
  9
$LUNITS
 70
     2
  9
$LUPREC
 70
     4
  9
$SKETCHINC
 40
0.1
  9
$FILLETRAD
 40
0.5
  9
$AUNITS
 70
     0
  9
$AUPREC
 70
     0
  9
$MENU
  1
.
  9
$ELEVATION
 40
0.0
  9
$PELEVATION
 40
0.0
  9
$THICKNESS
 40
0.0
  9
$LIMCHECK
 70
     0
  9
$CHAMFERA
 40
0.5
  9
$CHAMFERB
 40
0.5
  9
$CHAMFERC
 40
1.0
  9
$CHAMFERD
 40
0.0
  9
$SKPOLY
 70
     0
  9
$TDCREATE
 40
2457917.62412037
  9
$TDUCREATE
 40
2457917.24912037
  9
$TDUPDATE
 40
2457917.62412037
  9
$TDUUPDATE
 40
2457917.24912037
  9
$TDINDWG
 40
0.0000000116
  9
$TDUSRTIMER
 40
0.0000000116
  9
$USRTIMER
 70
     1
  9
$ANGBASE
 50
0.0
  9
$ANGDIR
 70
     0
  9
$PDMODE
 70
     0
  9
$PDSIZE
 40
0.0
  9
$PLINEWID
 40
0.0
  9
$SPLFRAME
 70
     0
  9
$SPLINETYPE
 70
     6
  9
$SPLINESEGS
 70
     8
  9
$HANDSEED
  5
108
  9
$SURFTAB1
 70
     6
  9
$SURFTAB2
 70
     6
  9
$SURFTYPE
 70
     6
  9
$SURFU
 70
     6
  9
$SURFV
 70
     6
  9
$UCSBASE
  2

  9
$UCSNAME
  2

  9
$UCSORG
 10
0.0
 20
0.0
 30
0.0
  9
$UCSXDIR
 10
1.0
 20
0.0
 30
0.0
  9
$UCSYDIR
 10
0.0
 20
1.0
 30
0.0
  9
$UCSORTHOREF
  2

  9
$UCSORTHOVIEW
 70
     0
  9
$UCSORGTOP
 10
0.0
 20
0.0
 30
0.0
  9
$UCSORGBOTTOM
 10
0.0
 20
0.0
 30
0.0
  9
$UCSORGLEFT
 10
0.0
 20
0.0
 30
0.0
  9
$UCSORGRIGHT
 10
0.0
 20
0.0
 30
0.0
  9
$UCSORGFRONT
 10
0.0
 20
0.0
 30
0.0
  9
$UCSORGBACK
 10
0.0
 20
0.0
 30
0.0
  9
$PUCSBASE
  2

  9
$PUCSNAME
  2

  9
$PUCSORG
 10
0.0
 20
0.0
 30
0.0
  9
$PUCSXDIR
 10
1.0
 20
0.0
 30
0.0
  9
$PUCSYDIR
 10
0.0
 20
1.0
 30
0.0
  9
$PUCSORTHOREF
  2

  9
$PUCSORTHOVIEW
 70
     0
  9
$PUCSORGTOP
 10
0.0
 20
0.0
 30
0.0
  9
$PUCSORGBOTTOM
 10
0.0
 20
0.0
 30
0.0
  9
$PUCSORGLEFT
 10
0.0
 20
0.0
 30
0.0
  9
$PUCSORGRIGHT
 10
0.0
 20
0.0
 30
0.0
  9
$PUCSORGFRONT
 10
0.0
 20
0.0
 30
0.0
  9
$PUCSORGBACK
 10
0.0
 20
0.0
 30
0.0
  9
$USERI1
 70
     0
  9
$USERI2
 70
     0
  9
$USERI3
 70
     0
  9
$USERI4
 70
     0
  9
$USERI5
 70
     0
  9
$USERR1
 40
0.0
  9
$USERR2
 40
0.0
  9
$USERR3
 40
0.0
  9
$USERR4
 40
0.0
  9
$USERR5
 40
0.0
  9
$WORLDVIEW
 70
     1
  9
$SHADEDGE
 70
     3
  9
$SHADEDIF
 70
    70
  9
$TILEMODE
 70
     1
  9
$MAXACTVP
 70
    64
  9
$PINSBASE
 10
0.0
 20
0.0
 30
0.0
  9
$PLIMCHECK
 70
     0
  9
$PEXTMIN
 10
1.000000000000000E+20
 20
1.000000000000000E+20
 30
1.000000000000000E+20
  9
$PEXTMAX
 10
-1.000000000000000E+20
 20
-1.000000000000000E+20
 30
-1.000000000000000E+20
  9
$PLIMMIN
 10
0.0
 20
0.0
  9
$PLIMMAX
 10
12.0
 20
9.0
  9
$UNITMODE
 70
     0
  9
$VISRETAIN
 70
     1
  9
$PLINEGEN
 70
     0
  9
$PSLTSCALE
 70
     1
  9
$TREEDEPTH
 70
  3020
  9
$CMLSTYLE
  2
Standard
  9
$CMLJUST
 70
     0
  9
$CMLSCALE
 40
1.0
  9
$PROXYGRAPHICS
 70
     1
  9
$MEASUREMENT
 70
     0
  9
$CELWEIGHT
370
    -1
  9
$ENDCAPS
280
     0
  9
$JOINSTYLE
280
     0
  9
$LWDISPLAY
290
     1
  9
$INSUNITS
 70
     1
  9
$HYPERLINKBASE
  1

  9
$STYLESHEET
  1

  9
$XEDIT
290
     1
  9
$CEPSNTYPE
380
     0
  9
$PSTYLEMODE
290
     1
  9
$FINGERPRINTGUID
  2
{995E27AF-A732-5AC6-FE82-F77341FB17E6}
  9
$VERSIONGUID
  2
{FAEB1C32-E019-11D5-929B-00C0DF256EC4}
  9
$EXTNAMES
290
     1
  9
$PSVPSCALE
 40
0.0
  9
$OLESTARTUP
290
     0
  9
$SORTENTS
280
   127
  9
$INDEXCTL
280
     0
  9
$HIDETEXT
280
     1
  9
$XCLIPFRAME
280
     2
  9
$HALOGAP
280
     0
  9
$OBSCOLOR
 70
   257
  9
$OBSLTYPE
280
     0
  9
$INTERSECTIONDISPLAY
280
     0
  9
$INTERSECTIONCOLOR
 70
   257
  9
$DIMASSOC
280
     2
  9
$PROJECTNAME
  1

  9
$CAMERADISPLAY
290
     0
  9
$LENSLENGTH
 40
50.0
  9
$CAMERAHEIGHT
 40
0.0
  9
$STEPSPERSEC
 40
2.0
  9
$STEPSIZE
 40
6.0
  9
$3DDWFPREC
 40
2.0
  9
$PSOLWIDTH
 40
0.25
  9
$PSOLHEIGHT
 40
4.0
  9
$LOFTANG1
 40
1.570796326794897
  9
$LOFTANG2
 40
1.570796326794897
  9
$LOFTMAG1
 40
0.0
  9
$LOFTMAG2
 40
0.0
  9
$LOFTPARAM
 70
     7
  9
$LOFTNORMALS
280
     1
  9
$LATITUDE
 40
37.795
  9
$LONGITUDE
 40
-122.394
  9
$NORTHDIRECTION
 40
0.0
  9
$TIMEZONE
 70
 -8000
  9
$LIGHTGLYPHDISPLAY
280
     1
  9
$TILEMODELIGHTSYNCH
280
     1
  9
$CMATERIAL
347
3C
  9
$SOLIDHIST
280
     1
  9
$SHOWHIST
280
     1
  9
$DWFFRAME
280
     2
  9
$DGNFRAME
280
     2
  9
$REALWORLDSCALE
290
     1
  9
$INTERFERECOLOR
 62
   256
  9
$CSHADOW
280
     0
  9
$SHADOWPLANELOCATION
 40
0.0
  0
ENDSEC
  0
SECTION
  2
CLASSES
  0
CLASS
  1
ACDBDICTIONARYWDFLT
  2
AcDbDictionaryWithDefault
  3
ObjectDBX Classes
 90
        0
 91
        4
280
     0
281
     0
  0
CLASS
  1
VISUALSTYLE
  2
AcDbVisualStyle
  3
ObjectDBX Classes
 90
     4095
 91
        4
280
     0
281
     0
  0
CLASS
  1
MATERIAL
  2
AcDbMaterial
  3
ObjectDBX Classes
 90
     1153
 91
        4
280
     0
281
     0
  0
CLASS
  1
SUN
  2
AcDbSun
  3
SCENEOE
 90
     1024
 91
        4
280
     0
281
     0
  0
ENDSEC
  0
SECTION
  2
TABLES
  0
TABLE
  2
VPORT
  5
8
330
0
100
AcDbSymbolTable
 70
     1
  0
VPORT
  5
29
330
8
100
AcDbSymbolTableRecord
100
AcDbViewportTableRecord
  2
*Active
 70
     0
 10
0.0
 20
0.0
 11
1.0
 21
1.0
 12
0.0
 22
0.0
 13
0.0
 23
0.0
 14
0.5
 24
0.5
 15
0.5
 25
0.5
 16
0.0
 26
0.0
 36
1.0
 17
91.00082462281999
 27
-128.4993055234307
 37
0.0
 40
256.9986110468615
 41
0.7081814508812795
 42
50.0
 43
0.0
 44
0.0
 50
0.0
 51
0.0
 71
     0
 72
   100
 73
     1
 74
     3
 75
     0
 76
     0
 77
     0
 78
     0
281
     0
 65
     1
110
0.0
120
0.0
130
0.0
111
1.0
121
0.0
131
0.0
112
0.0
122
1.0
132
0.0
 79
     0
146
0.0
 60
     3
 61
     5
292
     1
282
     1
141
0.0
142
0.0
 63
   250
361
3F
  0
ENDTAB
  0
TABLE
  2
LTYPE
  5
5
330
0
100
AcDbSymbolTable
 70
     1
  0
LTYPE
  5
14
330
5
100
AcDbSymbolTableRecord
100
AcDbLinetypeTableRecord
  2
ByBlock
 70
     0
  3

 72
    65
 73
     0
 40
0.0
  0
LTYPE
  5
15
330
5
100
AcDbSymbolTableRecord
100
AcDbLinetypeTableRecord
  2
ByLayer
 70
     0
  3

 72
    65
 73
     0
 40
0.0
  0
LTYPE
  5
16
330
5
100
AcDbSymbolTableRecord
100
AcDbLinetypeTableRecord
  2
Continuous
 70
     0
  3
Solid line
 72
    65
 73
     0
 40
0.0
  0
ENDTAB
  0
TABLE
  2
LAYER
  5
2
330
0
100
AcDbSymbolTable
 70
     2
  0
LAYER
  5
10
330
2
100
AcDbSymbolTableRecord
100
AcDbLayerTableRecord
  2
0
 70
     0
 62
     7
  6
Continuous
370
    -3
390
F
347
3E
  0
LAYER
  5
40
330
2
100
AcDbSymbolTableRecord
100
AcDbLayerTableRecord
  2
_U+30EC_U+30A4_U+30E4_U+30FC 1
 70
     0
 62
     7
  6
Continuous
370
    -3
390
F
347
3E
  0
ENDTAB
  0
TABLE
  2
STYLE
  5
3
330
0
100
AcDbSymbolTable
 70
     1
  0
STYLE
  5
11
330
3
100
AcDbSymbolTableRecord
100
AcDbTextStyleTableRecord
  2
Standard
 70
     0
 40
0.0
 41
1.0
 50
0.0
 71
     0
 42
0.2
  3
txt
  4

  0
ENDTAB
  0
TABLE
  2
VIEW
  5
6
330
0
100
AcDbSymbolTable
 70
     0
  0
ENDTAB
  0
TABLE
  2
UCS
  5
7
330
0
100
AcDbSymbolTable
 70
     0
  0
ENDTAB
  0
TABLE
  2
APPID
  5
9
330
0
100
AcDbSymbolTable
 70
     1
  0
APPID
  5
12
330
9
100
AcDbSymbolTableRecord
100
AcDbRegAppTableRecord
  2
ACAD
 70
     0
  0
ENDTAB
  0
TABLE
  2
DIMSTYLE
  5
A
330
0
100
AcDbSymbolTable
 70
     1
100
AcDbDimStyleTable
  0
DIMSTYLE
105
27
330
A
100
AcDbSymbolTableRecord
100
AcDbDimStyleTableRecord
  2
Standard
 70
     0
178
     0
340
11
  0
ENDTAB
  0
TABLE
  2
BLOCK_RECORD
  5
1
330
0
100
AcDbSymbolTable
 70
     6
  0
BLOCK_RECORD
  5
1F
330
1
100
AcDbSymbolTableRecord
100
AcDbBlockTableRecord
  2
*Model_Space
340
22
 70
     0
280
     1
281
     0
  0
BLOCK_RECORD
  5
1B
330
1
100
AcDbSymbolTableRecord
100
AcDbBlockTableRecord
  2
*Paper_Space
340
1E
 70
     0
280
     1
281
     0
  0
BLOCK_RECORD
  5
23
330
1
100
AcDbSymbolTableRecord
100
AcDbBlockTableRecord
  2
*Paper_Space0
340
26
 70
     0
280
     1
281
     0
  0
BLOCK_RECORD
  5
5C
330
1
100
AcDbSymbolTableRecord
100
AcDbBlockTableRecord
  2
block 2
340
0
102
{BLKREFS
331
5D
102
}
 70
     0
280
     1
281
     0
  0
BLOCK_RECORD
  5
74
330
1
100
AcDbSymbolTableRecord
100
AcDbBlockTableRecord
  2
block 3
340
0
102
{BLKREFS
331
75
102
}
 70
     0
280
     1
281
     0
  0
BLOCK_RECORD
  5
93
330
1
100
AcDbSymbolTableRecord
100
AcDbBlockTableRecord
  2
block 4
340
0
102
{BLKREFS
331
94
102
}
 70
     0
280
     1
281
     0
  0
BLOCK_RECORD
  5
D4
330
1
100
AcDbSymbolTableRecord
100
AcDbBlockTableRecord
  2
block 5
340
0
102
{BLKREFS
331
D5
102
}
 70
     0
280
     1
281
     0
  0
BLOCK_RECORD
  5
F4
330
1
100
AcDbSymbolTableRecord
100
AcDbBlockTableRecord
  2
block 6
340
0
102
{BLKREFS
331
F5
102
}
 70
     0
280
     1
281
     0
  0
ENDTAB
  0
ENDSEC
  0
SECTION
  2
BLOCKS
  0
BLOCK
  5
20
330
1F
100
AcDbEntity
  8
0
100
AcDbBlockBegin
  2
*Model_Space
 70
     0
 10
0.0
 20
0.0
 30
0.0
  3
*Model_Space
  1

  0
ENDBLK
  5
21
330
1F
100
AcDbEntity
  8
0
100
AcDbBlockEnd
  0
BLOCK
  5
1C
330
1B
100
AcDbEntity
 67
     1
  8
0
100
AcDbBlockBegin
  2
*Paper_Space
 70
     0
 10
0.0
 20
0.0
 30
0.0
  3
*Paper_Space
  1

  0
ENDBLK
  5
1D
330
1B
100
AcDbEntity
 67
     1
  8
0
100
AcDbBlockEnd
  0
BLOCK
  5
24
330
23
100
AcDbEntity
  8
0
100
AcDbBlockBegin
  2
*Paper_Space0
 70
     0
 10
0.0
 20
0.0
 30
0.0
  3
*Paper_Space0
  1

  0
ENDBLK
  5
25
330
23
100
AcDbEntity
  8
0
100
AcDbBlockEnd
  0
BLOCK
  5
5E
330
5C
100
AcDbEntity
  8
0
100
AcDbBlockBegin
  2
block 2
 70
     0
 10
0.0
 20
0.0
 30
0.0
  3
block 2
  1

  0
SPLINE
  5
60
330
5C
100
AcDbEntity
  8
_U+30EC_U+30A4_U+30E4_U+30FC 1
370
     0
100
AcDbSpline
210
0.0
220
0.0
230
1.0
 70
    11
 71
     3
 72
    26
 73
    22
 74
     0
 42
0.0000000001
 43
0.0000000001
 12
1.0
 22
0.0
 32
0.0
 13
1.0
 23
0.0
 33
0.0
 40
0.0
 40
0.0
 40
0.0
 40
0.0
 40
1.0
 40
1.0
 40
1.0
 40
2.0
 40
2.0
 40
2.0
 40
3.0
 40
3.0
 40
3.0
 40
4.0
 40
4.0
 40
4.0
 40
5.0
 40
5.0
 40
5.0
 40
6.0
 40
6.0
 40
6.0
 40
7.0
 40
7.0
 40
7.0
 40
7.0
 10
105.0854030770273
 20
-134.7711018543281
 30
0.0
 10
105.0854030770273
 20
-134.7711018543281
 30
0.0
 10
103.9812499740047
 20
-134.7711018543281
 30
0.0
 10
103.9812499740047
 20
-134.7711018543281
 30
0.0
 10
103.9812499740047
 20
-134.7711018543281
 30
0.0
 10
103.9812499740047
 20
-135.101142001815
 30
0.0
 10
103.9812499740047
 20
-135.101142001815
 30
0.0
 10
103.9812499740047
 20
-135.101142001815
 30
0.0
 10
103.8331108681389
 20
-135.101142001815
 30
0.0
 10
103.8331108681389
 20
-135.101142001815
 30
0.0
 10
103.8182969575524
 20
-134.7690347970369
 30
0.0
 10
103.6553439411001
 20
-134.722526007986
 30
0.0
 10
103.5409667709898
 20
-134.6928981868129
 30
0.0
 10
103.5409667709898
 20
-134.6928981868129
 30
0.0
 10
103.5409667709898
 20
-134.5468261382383
 30
0.0
 10
103.5409667709898
 20
-134.5468261382383
 30
0.0
 10
103.5409667709898
 20
-134.5468261382383
 30
0.0
 10
105.0854030770273
 20
-134.5468261382383
 30
0.0
 10
105.0854030770273
 20
-134.5468261382383
 30
0.0
 10
105.0854030770273
 20
-134.5468261382383
 30
0.0
 10
105.0854030770273
 20
-134.7711018543281
 30
0.0
 10
105.0854030770273
 20
-134.7711018543281
 30
0.0
  0
HATCH
  5
61
330
5C
100
AcDbEntity
  8
_U+30EC_U+30A4_U+30E4_U+30FC 1
 62
     7
420
 16777215
100
AcDbHatch
 10
0.0
 20
0.0
 30
0.0
210
0.0
220
0.0
230
1.0
  2
SOLID
 70
     1
 71
     0
 91
        1
 92
        1
 93
        1
 72
     4
 94
        3
 73
     0
 74
     1
 95
       26
 96
       22
 40
0.0
 40
0.0
 40
0.0
 40
0.0
 40
1.0
 40
1.0
 40
1.0
 40
2.0
 40
2.0
 40
2.0
 40
3.0
 40
3.0
 40
3.0
 40
4.0
 40
4.0
 40
4.0
 40
5.0
 40
5.0
 40
5.0
 40
6.0
 40
6.0
 40
6.0
 40
7.0
 40
7.0
 40
7.0
 40
7.0
 10
105.0854030770273
 20
-134.7711018543281
 10
105.0854030770273
 20
-134.7711018543281
 10
103.9812499740047
 20
-134.7711018543281
 10
103.9812499740047
 20
-134.7711018543281
 10
103.9812499740047
 20
-134.7711018543281
 10
103.9812499740047
 20
-135.101142001815
 10
103.9812499740047
 20
-135.101142001815
 10
103.9812499740047
 20
-135.101142001815
 10
103.8331108681389
 20
-135.101142001815
 10
103.8331108681389
 20
-135.101142001815
 10
103.8182969575524
 20
-134.7690347970369
 10
103.6553439411001
 20
-134.722526007986
 10
103.5409667709898
 20
-134.6928981868129
 10
103.5409667709898
 20
-134.6928981868129
 10
103.5409667709898
 20
-134.5468261382383
 10
103.5409667709898
 20
-134.5468261382383
 10
103.5409667709898
 20
-134.5468261382383
 10
105.0854030770273
 20
-134.5468261382383
 10
105.0854030770273
 20
-134.5468261382383
 10
105.0854030770273
 20
-134.5468261382383
 10
105.0854030770273
 20
-134.7711018543281
 10
105.0854030770273
 20
-134.7711018543281
 97
        0
 97
        0
 75
     2
 76
     1
 98
        0
  0
POLYLINE
  5
62
330
5C
100
AcDbEntity
  8
_U+30EC_U+30A4_U+30E4_U+30FC 1
370
     0
100
AcDb2dPolyline
 66
     1
 10
0.0
 20
0.0
 30
0.0
  0
VERTEX
  5
63
330
62
100
AcDbEntity
  8
_U+30EC_U+30A4_U+30E4_U+30FC 1
370
     0
100
AcDbVertex
100
AcDb2dVertex
 10
105.0854030770273
 20
-133.9856200836911
 30
0.0
  0
VERTEX
  5
64
330
62
100
AcDbEntity
  8
_U+30EC_U+30A4_U+30E4_U+30FC 1
370
     0
100
AcDbVertex
100
AcDb2dVertex
 10
104.8335665970555
 20
-133.9856200836911
 30
0.0
  0
VERTEX
  5
65
330
62
100
AcDbEntity
  8
_U+30EC_U+30A4_U+30E4_U+30FC 1
370
     0
100
AcDbVertex
100
AcDb2dVertex
 10
104.8335665970555
 20
-133.7337836037193
 30
0.0
  0
VERTEX
  5
66
330
62
100
AcDbEntity
  8
_U+30EC_U+30A4_U+30E4_U+30FC 1
370
     0
100
AcDbVertex
100
AcDb2dVertex
 10
105.0854030770273
 20
-133.7337836037193
 30
0.0
  0
VERTEX
  5
67
330
62
100
AcDbEntity
  8
_U+30EC_U+30A4_U+30E4_U+30FC 1
370
     0
100
AcDbVertex
100
AcDb2dVertex
 10
105.0854030770273
 20
-133.9856200836911
 30
0.0
  0
SEQEND
  5
68
330
62
100
AcDbEntity
  8
_U+30EC_U+30A4_U+30E4_U+30FC 1
370
     0
  0
HATCH
  5
69
330
5C
100
AcDbEntity
  8
_U+30EC_U+30A4_U+30E4_U+30FC 1
 62
     7
420
 16777215
100
AcDbHatch
 10
0.0
 20
0.0
 30
0.0
210
0.0
220
0.0
230
1.0
  2
SOLID
 70
     1
 71
     0
 91
        1
 92
        1
 93
        4
 72
     1
 10
105.0854030770273
 20
-133.9856200836911
 11
104.8335665970555
 21
-133.9856200836911
 72
     1
 10
104.8335665970555
 20
-133.9856200836911
 11
104.8335665970555
 21
-133.7337836037193
 72
     1
 10
104.8335665970555
 20
-133.7337836037193
 11
105.0854030770273
 21
-133.7337836037193
 72
     1
 10
105.0854030770273
 20
-133.7337836037193
 11
105.0854030770273
 21
-133.9856200836911
 97
        0
 75
     2
 76
     1
 98
        0
  0
SPLINE
  5
6A
330
5C
100
AcDbEntity
  8
_U+30EC_U+30A4_U+30E4_U+30FC 1
370
     0
100
AcDbSpline
210
0.0
220
0.0
230
1.0
 70
    11
 71
     3
 72
    44
 73
    40
 74
     0
 42
0.0000000001
 43
0.0000000001
 12
1.0
 22
0.0
 32
0.0
 13
1.0
 23
0.0
 33
0.0
 40
0.0
 40
0.0
 40
0.0
 40
0.0
 40
1.0
 40
1.0
 40
1.0
 40
2.0
 40
2.0
 40
2.0
 40
3.0
 40
3.0
 40
3.0
 40
4.0
 40
4.0
 40
4.0
 40
5.0
 40
5.0
 40
5.0
 40
6.0
 40
6.0
 40
6.0
 40
7.0
 40
7.0
 40
7.0
 40
8.0
 40
8.0
 40
8.0
 40
9.0
 40
9.0
 40
9.0
 40
10.0
 40
10.0
 40
10.0
 40
11.0
 40
11.0
 40
11.0
 40
12.0
 40
12.0
 40
12.0
 40
13.0
 40
13.0
 40
13.0
 40
13.0
 10
104.5035264495686
 20
-132.9045491204197
 30
0.0
 10
104.6623453514386
 20
-133.1222791550875
 30
0.0
 10
104.7364149043715
 20
-133.2152967331892
 30
0.0
 10
104.8800753861064
 20
-133.2642170890798
 30
0.0
 10
104.8800753861064
 20
-133.2642170890798
 30
0.0
 10
104.8800753861064
 20
-132.4856255094133
 30
0.0
 10
104.8800753861064
 20
-132.4856255094133
 30
0.0
 10
104.8800753861064
 20
-132.4856255094133
 30
0.0
 10
105.0854030770273
 20
-132.4856255094133
 30
0.0
 10
105.0854030770273
 20
-132.4856255094133
 30
0.0
 10
105.0854030770273
 20
-132.4856255094133
 30
0.0
 10
105.0854030770273
 20
-133.5136420022119
 30
0.0
 10
105.0854030770273
 20
-133.5136420022119
 30
0.0
 10
104.7278021656583
 20
-133.4819471237476
 30
0.0
 10
104.6495984981432
 20
-133.4164903095278
 30
0.0
 10
104.3512532291205
 20
-133.0313286342769
 30
0.0
 10
104.1524712196216
 20
-132.7753580397228
 30
0.0
 10
104.0846028385622
 20
-132.7099012255031
 30
0.0
 10
103.9471435287007
 20
-132.7099012255031
 30
0.0
 10
103.8286322440081
 20
-132.7099012255031
 30
0.0
 10
103.6977186155686
 20
-132.7819037211448
 30
0.0
 10
103.6977186155686
 20
-132.9786186733526
 30
0.0
 10
103.6977186155686
 20
-133.2387233824889
 30
0.0
 10
103.9281955035318
 20
-133.2473361212021
 30
0.0
 10
104.0446397309333
 20
-133.2514702357844
 30
0.0
 10
104.0446397309333
 20
-133.2514702357844
 30
0.0
 10
104.0446397309333
 20
-133.4757459518741
 30
0.0
 10
104.0446397309333
 20
-133.4757459518741
 30
0.0
 10
103.9175157075276
 20
-133.467133213161
 30
0.0
 10
103.805550104257
 20
-133.4564534171567
 30
0.0
 10
103.6870388195643
 20
-133.3761826923504
 30
0.0
 10
103.5261528604032
 20
-133.2662841463709
 30
0.0
 10
103.4923909246477
 20
-133.0799044806189
 30
0.0
 10
103.4923909246477
 20
-132.963804762766
 30
0.0
 10
103.4923909246477
 20
-132.6864745762034
 30
0.0
 10
103.6763590235601
 20
-132.4790798279913
 30
0.0
 10
103.9492105859919
 20
-132.4790798279913
 30
0.0
 10
104.1779649262125
 20
-132.4790798279913
 30
0.0
 10
104.2771836761876
 20
-132.5955240553928
 30
0.0
 10
104.5035264495686
 20
-132.9045491204197
 30
0.0
  0
HATCH
  5
6B
330
5C
100
AcDbEntity
  8
_U+30EC_U+30A4_U+30E4_U+30FC 1
 62
     7
420
 16777215
100
AcDbHatch
 10
0.0
 20
0.0
 30
0.0
210
0.0
220
0.0
230
1.0
  2
SOLID
 70
     1
 71
     0
 91
        1
 92
        1
 93
        1
 72
     4
 94
        3
 73
     0
 74
     1
 95
       44
 96
       40
 40
0.0
 40
0.0
 40
0.0
 40
0.0
 40
1.0
 40
1.0
 40
1.0
 40
2.0
 40
2.0
 40
2.0
 40
3.0
 40
3.0
 40
3.0
 40
4.0
 40
4.0
 40
4.0
 40
5.0
 40
5.0
 40
5.0
 40
6.0
 40
6.0
 40
6.0
 40
7.0
 40
7.0
 40
7.0
 40
8.0
 40
8.0
 40
8.0
 40
9.0
 40
9.0
 40
9.0
 40
10.0
 40
10.0
 40
10.0
 40
11.0
 40
11.0
 40
11.0
 40
12.0
 40
12.0
 40
12.0
 40
13.0
 40
13.0
 40
13.0
 40
13.0
 10
104.5035264495686
 20
-132.9045491204197
 10
104.6623453514386
 20
-133.1222791550875
 10
104.7364149043715
 20
-133.2152967331892
 10
104.8800753861064
 20
-133.2642170890798
 10
104.8800753861064
 20
-133.2642170890798
 10
104.8800753861064
 20
-132.4856255094133
 10
104.8800753861064
 20
-132.4856255094133
 10
104.8800753861064
 20
-132.4856255094133
 10
105.0854030770273
 20
-132.4856255094133
 10
105.0854030770273
 20
-132.4856255094133
 10
105.0854030770273
 20
-132.4856255094133
 10
105.0854030770273
 20
-133.5136420022119
 10
105.0854030770273
 20
-133.5136420022119
 10
104.7278021656583
 20
-133.4819471237476
 10
104.6495984981432
 20
-133.4164903095278
 10
104.3512532291205
 20
-133.0313286342769
 10
104.1524712196216
 20
-132.7753580397228
 10
104.0846028385622
 20
-132.7099012255031
 10
103.9471435287007
 20
-132.7099012255031
 10
103.8286322440081
 20
-132.7099012255031
 10
103.6977186155686
 20
-132.7819037211448
 10
103.6977186155686
 20
-132.9786186733526
 10
103.6977186155686
 20
-133.2387233824889
 10
103.9281955035318
 20
-133.2473361212021
 10
104.0446397309333
 20
-133.2514702357844
 10
104.0446397309333
 20
-133.2514702357844
 10
104.0446397309333
 20
-133.4757459518741
 10
104.0446397309333
 20
-133.4757459518741
 10
103.9175157075276
 20
-133.467133213161
 10
103.805550104257
 20
-133.4564534171567
 10
103.6870388195643
 20
-133.3761826923504
 10
103.5261528604032
 20
-133.2662841463709
 10
103.4923909246477
 20
-133.0799044806189
 10
103.4923909246477
 20
-132.963804762766
 10
103.4923909246477
 20
-132.6864745762034
 10
103.6763590235601
 20
-132.4790798279913
 10
103.9492105859919
 20
-132.4790798279913
 10
104.1779649262125
 20
-132.4790798279913
 10
104.2771836761876
 20
-132.5955240553928
 10
104.5035264495686
 20
-132.9045491204197
 97
        0
 97
        0
 75
     2
 76
     1
 98
        0
  0
ENDBLK
  5
5F
330
5C
100
AcDbEntity
  8
0
100
AcDbBlockEnd
  0
BLOCK
  5
76
330
74
100
AcDbEntity
  8
0
100
AcDbBlockBegin
  2
block 3
 70
     0
 10
0.0
 20
0.0
 30
0.0
  3
block 3
  1

  0
SPLINE
  5
78
330
74
100
AcDbEntity
  8
_U+30EC_U+30A4_U+30E4_U+30FC 1
370
     0
100
AcDbSpline
210
0.0
220
0.0
230
1.0
 70
    11
 71
     3
 72
    32
 73
    28
 74
     0
 42
0.0000000001
 43
0.0000000001
 12
1.0
 22
0.0
 32
0.0
 13
1.0
 23
0.0
 33
0.0
 40
0.0
 40
0.0
 40
0.0
 40
0.0
 40
1.0
 40
1.0
 40
1.0
 40
2.0
 40
2.0
 40
2.0
 40
3.0
 40
3.0
 40
3.0
 40
4.0
 40
4.0
 40
4.0
 40
5.0
 40
5.0
 40
5.0
 40
6.0
 40
6.0
 40
6.0
 40
7.0
 40
7.0
 40
7.0
 40
8.0
 40
8.0
 40
8.0
 40
9.0
 40
9.0
 40
9.0
 40
9.0
 10
106.3711127121225
 20
-129.4146673938616
 30
0.0
 10
106.3711127121225
 20
-129.5879556967697
 30
0.0
 10
106.3015217833205
 20
-129.833591004868
 30
0.0
 10
105.9694145785424
 20
-129.8714870552057
 30
0.0
 10
105.9694145785424
 20
-129.8714870552057
 30
0.0
 10
105.9694145785424
 20
-129.6578911351203
 30
0.0
 10
105.9694145785424
 20
-129.6578911351203
 30
0.0
 10
106.0286702208887
 20
-129.647211339116
 30
0.0
 10
106.1764648172059
 20
-129.6155164606517
 30
0.0
 10
106.1764648172059
 20
-129.4126003365705
 30
0.0
 10
106.1764648172059
 20
-129.1204562394213
 30
0.0
 10
105.846424669719
 20
-129.0825601890835
 30
0.0
 10
105.6414414883466
 20
-129.0698133357881
 30
0.0
 10
105.7217122131529
 20
-129.1607638565987
 30
0.0
 10
105.7789007982081
 20
-129.2282877281096
 30
0.0
 10
105.7789007982081
 20
-129.4101887697308
 30
0.0
 10
105.7789007982081
 20
-129.5900227540608
 30
0.0
 10
105.6731363668109
 20
-129.8925021376658
 30
0.0
 10
105.2669596090999
 20
-129.8925021376658
 30
0.0
 10
104.9475992576173
 20
-129.8925021376658
 30
0.0
 10
104.7274576561098
 20
-129.6937201281669
 30
0.0
 10
104.7274576561098
 20
-129.3764268339753
 30
0.0
 10
104.7274576561098
 20
-128.8624185875761
 30
0.0
 10
105.2817735196865
 20
-128.8517387915718
 30
0.0
 10
105.495369439772
 20
-128.8517387915718
 30
0.0
 10
105.7258463277352
 20
-128.8517387915718
 30
0.0
 10
106.3711127121225
 20
-128.8710313262892
 30
0.0
 10
106.3711127121225
 20
-129.4146673938616
 30
0.0
  0
SPLINE
  5
79
330
74
100
AcDbEntity
  8
_U+30EC_U+30A4_U+30E4_U+30FC 1
370
     0
100
AcDbSpline
210
0.0
220
0.0
230
1.0
 70
    11
 71
     3
 72
    17
 73
    13
 74
     0
 42
0.0000000001
 43
0.0000000001
 12
1.0
 22
0.0
 32
0.0
 13
1.0
 23
0.0
 33
0.0
 40
0.0
 40
0.0
 40
0.0
 40
0.0
 40
1.0
 40
1.0
 40
1.0
 40
2.0
 40
2.0
 40
2.0
 40
3.0
 40
3.0
 40
3.0
 40
4.0
 40
4.0
 40
4.0
 40
4.0
 10
104.9200384937353
 20
-129.3743597766842
 30
0.0
 10
104.9200384937353
 20
-129.4928710613768
 30
0.0
 10
104.9772270787904
 20
-129.6685709311245
 30
0.0
 10
105.2628254945176
 20
-129.6685709311245
 30
0.0
 10
105.4891682678985
 20
-129.6685709311245
 30
0.0
 10
105.5842529032914
 20
-129.5287000544234
 30
0.0
 10
105.5842529032914
 20
-129.3933078018531
 30
0.0
 10
105.5842529032914
 20
-129.1311360354256
 30
0.0
 10
105.3747910977882
 20
-129.0928954755393
 30
0.0
 10
105.2583468703868
 20
-129.0928954755393
 30
0.0
 10
105.0829915101876
 20
-129.0928954755393
 30
0.0
 10
104.9200384937353
 20
-129.1883246204807
 30
0.0
 10
104.9200384937353
 20
-129.3743597766842
 30
0.0
  0
HATCH
  5
7A
330
74
100
AcDbEntity
  8
_U+30EC_U+30A4_U+30E4_U+30FC 1
 62
     7
420
 16777215
100
AcDbHatch
 10
0.0
 20
0.0
 30
0.0
210
0.0
220
0.0
230
1.0
  2
SOLID
 70
     1
 71
     0
 91
        2
 92
        1
 93
        1
 72
     4
 94
        3
 73
     0
 74
     1
 95
       32
 96
       28
 40
0.0
 40
0.0
 40
0.0
 40
0.0
 40
1.0
 40
1.0
 40
1.0
 40
2.0
 40
2.0
 40
2.0
 40
3.0
 40
3.0
 40
3.0
 40
4.0
 40
4.0
 40
4.0
 40
5.0
 40
5.0
 40
5.0
 40
6.0
 40
6.0
 40
6.0
 40
7.0
 40
7.0
 40
7.0
 40
8.0
 40
8.0
 40
8.0
 40
9.0
 40
9.0
 40
9.0
 40
9.0
 10
106.3711127121225
 20
-129.4146673938616
 10
106.3711127121225
 20
-129.5879556967697
 10
106.3015217833205
 20
-129.833591004868
 10
105.9694145785424
 20
-129.8714870552057
 10
105.9694145785424
 20
-129.8714870552057
 10
105.9694145785424
 20
-129.6578911351203
 10
105.9694145785424
 20
-129.6578911351203
 10
106.0286702208887
 20
-129.647211339116
 10
106.1764648172059
 20
-129.6155164606517
 10
106.1764648172059
 20
-129.4126003365705
 10
106.1764648172059
 20
-129.1204562394213
 10
105.846424669719
 20
-129.0825601890835
 10
105.6414414883466
 20
-129.0698133357881
 10
105.7217122131529
 20
-129.1607638565987
 10
105.7789007982081
 20
-129.2282877281096
 10
105.7789007982081
 20
-129.4101887697308
 10
105.7789007982081
 20
-129.5900227540608
 10
105.6731363668109
 20
-129.8925021376658
 10
105.2669596090999
 20
-129.8925021376658
 10
104.9475992576173
 20
-129.8925021376658
 10
104.7274576561098
 20
-129.6937201281669
 10
104.7274576561098
 20
-129.3764268339753
 10
104.7274576561098
 20
-128.8624185875761
 10
105.2817735196865
 20
-128.8517387915718
 10
105.495369439772
 20
-128.8517387915718
 10
105.7258463277352
 20
-128.8517387915718
 10
106.3711127121225
 20
-128.8710313262892
 10
106.3711127121225
 20
-129.4146673938616
 97
        0
 97
        0
 92
        1
 93
        1
 72
     4
 94
        3
 73
     0
 74
     1
 95
       17
 96
       13
 40
0.0
 40
0.0
 40
0.0
 40
0.0
 40
1.0
 40
1.0
 40
1.0
 40
2.0
 40
2.0
 40
2.0
 40
3.0
 40
3.0
 40
3.0
 40
4.0
 40
4.0
 40
4.0
 40
4.0
 10
104.9200384937353
 20
-129.3743597766842
 10
104.9200384937353
 20
-129.4928710613768
 10
104.9772270787904
 20
-129.6685709311245
 10
105.2628254945176
 20
-129.6685709311245
 10
105.4891682678985
 20
-129.6685709311245
 10
105.5842529032914
 20
-129.5287000544234
 10
105.5842529032914
 20
-129.3933078018531
 10
105.5842529032914
 20
-129.1311360354256
 10
105.3747910977882
 20
-129.0928954755393
 10
105.2583468703868
 20
-129.0928954755393
 10
105.0829915101876
 20
-129.0928954755393
 10
104.9200384937353
 20
-129.1883246204807
 10
104.9200384937353
 20
-129.3743597766842
 97
        0
 97
        0
 75
     2
 76
     1
 98
        0
  0
POLYLINE
  5
7B
330
74
100
AcDbEntity
  8
_U+30EC_U+30A4_U+30E4_U+30FC 1
370
     0
100
AcDb2dPolyline
 66
     1
 10
0.0
 20
0.0
 30
0.0
  0
VERTEX
  5
7C
330
7B
100
AcDbEntity
  8
_U+30EC_U+30A4_U+30E4_U+30FC 1
370
     0
100
AcDbVertex
100
AcDb2dVertex
 10
106.3204698084893
 20
-128.6353867950981
 30
0.0
  0
VERTEX
  5
7D
330
7B
100
AcDbEntity
  8
_U+30EC_U+30A4_U+30E4_U+30FC 1
370
     0
100
AcDbVertex
100
AcDb2dVertex
 10
106.0686333285176
 20
-128.6353867950981
 30
0.0
  0
VERTEX
  5
7E
330
7B
100
AcDbEntity
  8
_U+30EC_U+30A4_U+30E4_U+30FC 1
370
     0
100
AcDbVertex
100
AcDb2dVertex
 10
106.0686333285176
 20
-128.3835503151263
 30
0.0
  0
VERTEX
  5
7F
330
7B
100
AcDbEntity
  8
_U+30EC_U+30A4_U+30E4_U+30FC 1
370
     0
100
AcDbVertex
100
AcDb2dVertex
 10
106.3204698084893
 20
-128.3835503151263
 30
0.0
  0
VERTEX
  5
80
330
7B
100
AcDbEntity
  8
_U+30EC_U+30A4_U+30E4_U+30FC 1
370
     0
100
AcDbVertex
100
AcDb2dVertex
 10
106.3204698084893
 20
-128.6353867950981
 30
0.0
  0
SEQEND
  5
81
330
7B
100
AcDbEntity
  8
_U+30EC_U+30A4_U+30E4_U+30FC 1
370
     0
  0
HATCH
  5
82
330
74
100
AcDbEntity
  8
_U+30EC_U+30A4_U+30E4_U+30FC 1
 62
     7
420
 16777215
100
AcDbHatch
 10
0.0
 20
0.0
 30
0.0
210
0.0
220
0.0
230
1.0
  2
SOLID
 70
     1
 71
     0
 91
        1
 92
        1
 93
        4
 72
     1
 10
106.3204698084893
 20
-128.6353867950981
 11
106.0686333285176
 21
-128.6353867950981
 72
     1
 10
106.0686333285176
 20
-128.6353867950981
 11
106.0686333285176
 21
-128.3835503151263
 72
     1
 10
106.0686333285176
 20
-128.3835503151263
 11
106.3204698084893
 21
-128.3835503151263
 72
     1
 10
106.3204698084893
 20
-128.3835503151263
 11
106.3204698084893
 21
-128.6353867950981
 97
        0
 75
     2
 76
     1
 98
        0
  0
SPLINE
  5
83
330
74
100
AcDbEntity
  8
_U+30EC_U+30A4_U+30E4_U+30FC 1
370
     0
100
AcDbSpline
210
0.0
220
0.0
230
1.0
 70
    11
 71
     3
 72
    62
 73
    58
 74
     0
 42
0.0000000001
 43
0.0000000001
 12
1.0
 22
0.0
 32
0.0
 13
1.0
 23
0.0
 33
0.0
 40
0.0
 40
0.0
 40
0.0
 40
0.0
 40
1.0
 40
1.0
 40
1.0
 40
2.0
 40
2.0
 40
2.0
 40
3.0
 40
3.0
 40
3.0
 40
4.0
 40
4.0
 40
4.0
 40
5.0
 40
5.0
 40
5.0
 40
6.0
 40
6.0
 40
6.0
 40
7.0
 40
7.0
 40
7.0
 40
8.0
 40
8.0
 40
8.0
 40
9.0
 40
9.0
 40
9.0
 40
10.0
 40
10.0
 40
10.0
 40
11.0
 40
11.0
 40
11.0
 40
12.0
 40
12.0
 40
12.0
 40
13.0
 40
13.0
 40
13.0
 40
14.0
 40
14.0
 40
14.0
 40
15.0
 40
15.0
 40
15.0
 40
16.0
 40
16.0
 40
16.0
 40
17.0
 40
17.0
 40
17.0
 40
18.0
 40
18.0
 40
18.0
 40
19.0
 40
19.0
 40
19.0
 40
19.0
 10
106.3711127121225
 20
-127.655601639093
 30
0.0
 10
106.3711127121225
 20
-127.7510307840345
 30
0.0
 10
106.3500976296625
 20
-127.9687608187023
 30
0.0
 10
106.164062473459
 20
-128.0938177848168
 30
0.0
 10
106.0517523606398
 20
-128.1678873377497
 30
0.0
 10
105.9525336106646
 20
-128.172021452332
 30
0.0
 10
105.8677842617275
 20
-128.1761555669143
 30
0.0
 10
105.8677842617275
 20
-128.1761555669143
 30
0.0
 10
105.8677842617275
 20
-127.9560139654068
 30
0.0
 10
105.8677842617275
 20
-127.9560139654068
 30
0.0
 10
105.9418538146604
 20
-127.9539469081157
 30
0.0
 10
106.1764648172059
 20
-127.9436116216599
 30
0.0
 10
106.1764648172059
 20
-127.6600802632239
 30
0.0
 10
106.1764648172059
 20
-127.5226209533624
 30
0.0
 10
106.1068738884038
 20
-127.3700032233658
 30
0.0
 10
105.8784640577318
 20
-127.3700032233658
 30
0.0
 10
105.7620198303303
 20
-127.3700032233658
 30
0.0
 10
105.7134439839883
 20
-127.4082437832521
 30
0.0
 10
105.681749105524
 20
-127.4399386617164
 30
0.0
 10
105.6076795525911
 20
-127.5140082146493
 30
0.0
 10
105.5949326992957
 20
-127.6304524420507
 30
0.0
 10
105.5949326992957
 20
-127.6852294602662
 30
0.0
 10
105.5949326992957
 20
-127.7045219949836
 30
0.0
 10
105.5969997565869
 20
-127.7403509880302
 30
0.0
 10
105.6011338711692
 20
-127.7679117519122
 30
0.0
 10
105.6011338711692
 20
-127.7679117519122
 30
0.0
 10
105.4064859762526
 20
-127.7679117519122
 30
0.0
 10
105.4064859762526
 20
-127.7679117519122
 30
0.0
 10
105.4130316576745
 20
-127.7296711920259
 30
0.0
 10
105.4150987149657
 20
-127.6876410271059
 30
0.0
 10
105.4150987149657
 20
-127.6810953456839
 30
0.0
 10
105.4150987149657
 20
-127.6156385314642
 30
0.0
 10
105.3937391229571
 20
-127.4168565219652
 30
0.0
 10
105.1570610631205
 20
-127.4168565219652
 30
0.0
 10
104.9792941360816
 20
-127.4168565219652
 30
0.0
 10
104.9241726083176
 20
-127.5477701504047
 30
0.0
 10
104.9241726083176
 20
-127.6580132059327
 30
0.0
 10
104.9241726083176
 20
-127.9222520296514
 30
0.0
 10
105.1570610631205
 20
-127.9308647683645
 30
0.0
 10
105.2287190492137
 20
-127.9349988829468
 30
0.0
 10
105.2287190492137
 20
-127.9349988829468
 30
0.0
 10
105.2287190492137
 20
-128.1382595165765
 30
0.0
 10
105.2287190492137
 20
-128.1382595165765
 30
0.0
 10
105.1040065926476
 20
-128.1296467778634
 30
0.0
 10
104.7274576561098
 20
-128.1020860139814
 30
0.0
 10
104.7274576561098
 20
-127.6452663526373
 30
0.0
 10
104.7274576561098
 20
-127.4209906365475
 30
0.0
 10
104.8545816795155
 20
-127.1798339525801
 30
0.0
 10
105.1505153816985
 20
-127.1798339525801
 30
0.0
 10
105.3368950474505
 20
-127.1798339525801
 30
0.0
 10
105.419232829548
 20
-127.2749185879729
 30
0.0
 10
105.4805555291854
 20
-127.3744818474967
 30
0.0
 10
105.5081162930674
 20
-127.3131591478592
 30
0.0
 10
105.5883870178737
 20
-127.131258106238
 30
0.0
 10
105.8657172044364
 20
-127.131258106238
 30
0.0
 10
106.2040255810879
 20
-127.131258106238
 30
0.0
 10
106.3711127121225
 20
-127.378615962079
 30
0.0
 10
106.3711127121225
 20
-127.655601639093
 30
0.0
  0
HATCH
  5
84
330
74
100
AcDbEntity
  8
_U+30EC_U+30A4_U+30E4_U+30FC 1
 62
     7
420
 16777215
100
AcDbHatch
 10
0.0
 20
0.0
 30
0.0
210
0.0
220
0.0
230
1.0
  2
SOLID
 70
     1
 71
     0
 91
        1
 92
        1
 93
        1
 72
     4
 94
        3
 73
     0
 74
     1
 95
       62
 96
       58
 40
0.0
 40
0.0
 40
0.0
 40
0.0
 40
1.0
 40
1.0
 40
1.0
 40
2.0
 40
2.0
 40
2.0
 40
3.0
 40
3.0
 40
3.0
 40
4.0
 40
4.0
 40
4.0
 40
5.0
 40
5.0
 40
5.0
 40
6.0
 40
6.0
 40
6.0
 40
7.0
 40
7.0
 40
7.0
 40
8.0
 40
8.0
 40
8.0
 40
9.0
 40
9.0
 40
9.0
 40
10.0
 40
10.0
 40
10.0
 40
11.0
 40
11.0
 40
11.0
 40
12.0
 40
12.0
 40
12.0
 40
13.0
 40
13.0
 40
13.0
 40
14.0
 40
14.0
 40
14.0
 40
15.0
 40
15.0
 40
15.0
 40
16.0
 40
16.0
 40
16.0
 40
17.0
 40
17.0
 40
17.0
 40
18.0
 40
18.0
 40
18.0
 40
19.0
 40
19.0
 40
19.0
 40
19.0
 10
106.3711127121225
 20
-127.655601639093
 10
106.3711127121225
 20
-127.7510307840345
 10
106.3500976296625
 20
-127.9687608187023
 10
106.164062473459
 20
-128.0938177848168
 10
106.0517523606398
 20
-128.1678873377497
 10
105.9525336106646
 20
-128.172021452332
 10
105.8677842617275
 20
-128.1761555669143
 10
105.8677842617275
 20
-128.1761555669143
 10
105.8677842617275
 20
-127.9560139654068
 10
105.8677842617275
 20
-127.9560139654068
 10
105.9418538146604
 20
-127.9539469081157
 10
106.1764648172059
 20
-127.9436116216599
 10
106.1764648172059
 20
-127.6600802632239
 10
106.1764648172059
 20
-127.5226209533624
 10
106.1068738884038
 20
-127.3700032233658
 10
105.8784640577318
 20
-127.3700032233658
 10
105.7620198303303
 20
-127.3700032233658
 10
105.7134439839883
 20
-127.4082437832521
 10
105.681749105524
 20
-127.4399386617164
 10
105.6076795525911
 20
-127.5140082146493
 10
105.5949326992957
 20
-127.6304524420507
 10
105.5949326992957
 20
-127.6852294602662
 10
105.5949326992957
 20
-127.7045219949836
 10
105.5969997565869
 20
-127.7403509880302
 10
105.6011338711692
 20
-127.7679117519122
 10
105.6011338711692
 20
-127.7679117519122
 10
105.4064859762526
 20
-127.7679117519122
 10
105.4064859762526
 20
-127.7679117519122
 10
105.4130316576745
 20
-127.7296711920259
 10
105.4150987149657
 20
-127.6876410271059
 10
105.4150987149657
 20
-127.6810953456839
 10
105.4150987149657
 20
-127.6156385314642
 10
105.3937391229571
 20
-127.4168565219652
 10
105.1570610631205
 20
-127.4168565219652
 10
104.9792941360816
 20
-127.4168565219652
 10
104.9241726083176
 20
-127.5477701504047
 10
104.9241726083176
 20
-127.6580132059327
 10
104.9241726083176
 20
-127.9222520296514
 10
105.1570610631205
 20
-127.9308647683645
 10
105.2287190492137
 20
-127.9349988829468
 10
105.2287190492137
 20
-127.9349988829468
 10
105.2287190492137
 20
-128.1382595165765
 10
105.2287190492137
 20
-128.1382595165765
 10
105.1040065926476
 20
-128.1296467778634
 10
104.7274576561098
 20
-128.1020860139814
 10
104.7274576561098
 20
-127.6452663526373
 10
104.7274576561098
 20
-127.4209906365475
 10
104.8545816795155
 20
-127.1798339525801
 10
105.1505153816985
 20
-127.1798339525801
 10
105.3368950474505
 20
-127.1798339525801
 10
105.419232829548
 20
-127.2749185879729
 10
105.4805555291854
 20
-127.3744818474967
 10
105.5081162930674
 20
-127.3131591478592
 10
105.5883870178737
 20
-127.131258106238
 10
105.8657172044364
 20
-127.131258106238
 10
106.2040255810879
 20
-127.131258106238
 10
106.3711127121225
 20
-127.378615962079
 10
106.3711127121225
 20
-127.655601639093
 97
        0
 97
        0
 75
     2
 76
     1
 98
        0
  0
ENDBLK
  5
77
330
74
100
AcDbEntity
  8
0
100
AcDbBlockEnd
  0
BLOCK
  5
95
330
93
100
AcDbEntity
  8
0
100
AcDbBlockBegin
  2
block 4
 70
     0
 10
0.0
 20
0.0
 30
0.0
  3
block 4
  1

  0
SPLINE
  5
97
330
93
100
AcDbEntity
  8
_U+30EC_U+30A4_U+30E4_U+30FC 1
370
     0
100
AcDbSpline
210
0.0
220
0.0
230
1.0
 70
    11
 71
     3
 72
    26
 73
    22
 74
     0
 42
0.0000000001
 43
0.0000000001
 12
1.0
 22
0.0
 32
0.0
 13
1.0
 23
0.0
 33
0.0
 40
0.0
 40
0.0
 40
0.0
 40
0.0
 40
1.0
 40
1.0
 40
1.0
 40
2.0
 40
2.0
 40
2.0
 40
3.0
 40
3.0
 40
3.0
 40
4.0
 40
4.0
 40
4.0
 40
5.0
 40
5.0
 40
5.0
 40
6.0
 40
6.0
 40
6.0
 40
7.0
 40
7.0
 40
7.0
 40
7.0
 10
77.56908092678829
 20
-130.909149815363
 30
0.0
 10
77.56908092678829
 20
-130.909149815363
 30
0.0
 10
76.46492782376572
 20
-130.909149815363
 30
0.0
 10
76.46492782376572
 20
-130.909149815363
 30
0.0
 10
76.46492782376572
 20
-130.909149815363
 30
0.0
 10
76.46492782376572
 20
-131.2391899628499
 30
0.0
 10
76.46492782376572
 20
-131.2391899628499
 30
0.0
 10
76.46492782376572
 20
-131.2391899628499
 30
0.0
 10
76.31678871789997
 20
-131.2391899628499
 30
0.0
 10
76.31678871789997
 20
-131.2391899628499
 30
0.0
 10
76.3019748073134
 20
-130.9070827580719
 30
0.0
 10
76.13902179086108
 20
-130.860573969021
 30
0.0
 10
76.02464462075079
 20
-130.8309461478478
 30
0.0
 10
76.02464462075079
 20
-130.8309461478478
 30
0.0
 10
76.02464462075079
 20
-130.6848740992732
 30
0.0
 10
76.02464462075079
 20
-130.6848740992732
 30
0.0
 10
76.02464462075079
 20
-130.6848740992732
 30
0.0
 10
77.56908092678829
 20
-130.6848740992732
 30
0.0
 10
77.56908092678829
 20
-130.6848740992732
 30
0.0
 10
77.56908092678829
 20
-130.6848740992732
 30
0.0
 10
77.56908092678829
 20
-130.909149815363
 30
0.0
 10
77.56908092678829
 20
-130.909149815363
 30
0.0
  0
HATCH
  5
98
330
93
100
AcDbEntity
  8
_U+30EC_U+30A4_U+30E4_U+30FC 1
 62
     7
420
 16777215
100
AcDbHatch
 10
0.0
 20
0.0
 30
0.0
210
0.0
220
0.0
230
1.0
  2
SOLID
 70
     1
 71
     0
 91
        1
 92
        1
 93
        1
 72
     4
 94
        3
 73
     0
 74
     1
 95
       26
 96
       22
 40
0.0
 40
0.0
 40
0.0
 40
0.0
 40
1.0
 40
1.0
 40
1.0
 40
2.0
 40
2.0
 40
2.0
 40
3.0
 40
3.0
 40
3.0
 40
4.0
 40
4.0
 40
4.0
 40
5.0
 40
5.0
 40
5.0
 40
6.0
 40
6.0
 40
6.0
 40
7.0
 40
7.0
 40
7.0
 40
7.0
 10
77.56908092678829
 20
-130.909149815363
 10
77.56908092678829
 20
-130.909149815363
 10
76.46492782376572
 20
-130.909149815363
 10
76.46492782376572
 20
-130.909149815363
 10
76.46492782376572
 20
-130.909149815363
 10
76.46492782376572
 20
-131.2391899628499
 10
76.46492782376572
 20
-131.2391899628499
 10
76.46492782376572
 20
-131.2391899628499
 10
76.31678871789997
 20
-131.2391899628499
 10
76.31678871789997
 20
-131.2391899628499
 10
76.3019748073134
 20
-130.9070827580719
 10
76.13902179086108
 20
-130.860573969021
 10
76.02464462075079
 20
-130.8309461478478
 10
76.02464462075079
 20
-130.8309461478478
 10
76.02464462075079
 20
-130.6848740992732
 10
76.02464462075079
 20
-130.6848740992732
 10
76.02464462075079
 20
-130.6848740992732
 10
77.56908092678829
 20
-130.6848740992732
 10
77.56908092678829
 20
-130.6848740992732
 10
77.56908092678829
 20
-130.6848740992732
 10
77.56908092678829
 20
-130.909149815363
 10
77.56908092678829
 20
-130.909149815363
 97
        0
 97
        0
 75
     2
 76
     1
 98
        0
  0
SPLINE
  5
99
330
93
100
AcDbEntity
  8
_U+30EC_U+30A4_U+30E4_U+30FC 1
370
     0
100
AcDbSpline
210
0.0
220
0.0
230
1.0
 70
    11
 71
     3
 72
    29
 73
    25
 74
     0
 42
0.0000000001
 43
0.0000000001
 12
1.0
 22
0.0
 32
0.0
 13
1.0
 23
0.0
 33
0.0
 40
0.0
 40
0.0
 40
0.0
 40
0.0
 40
1.0
 40
1.0
 40
1.0
 40
2.0
 40
2.0
 40
2.0
 40
3.0
 40
3.0
 40
3.0
 40
4.0
 40
4.0
 40
4.0
 40
5.0
 40
5.0
 40
5.0
 40
6.0
 40
6.0
 40
6.0
 40
7.0
 40
7.0
 40
7.0
 40
8.0
 40
8.0
 40
8.0
 40
8.0
 10
77.3913139997494
 20
-129.2858208227133
 30
0.0
 10
77.60077580525258
 20
-129.3939968209501
 30
0.0
 10
77.61972383042146
 20
-129.5672851238582
 30
0.0
 10
77.61972383042146
 20
-129.6837293512596
 30
0.0
 10
77.61972383042146
 20
-129.8446153104208
 30
0.0
 10
77.57321504137059
 20
-129.9862087348646
 30
0.0
 10
77.3913139997494
 20
-130.0812933702575
 30
0.0
 10
77.19666610483279
 20
-130.1849907443635
 30
0.0
 10
76.95998804499612
 20
-130.2039387695324
 30
0.0
 10
76.7970350285438
 20
-130.2039387695324
 30
0.0
 10
76.65303003726035
 20
-130.2039387695324
 30
0.0
 10
76.4011935572886
 20
-130.1870578016546
 30
0.0
 10
76.20241154778968
 20
-130.0812933702575
 30
0.0
 10
75.99949542370847
 20
-129.9734618815691
 30
0.0
 10
75.97606877440876
 20
-129.812575922408
 30
0.0
 10
75.97606877440876
 20
-129.6837293512596
 30
0.0
 10
75.97606877440876
 20
-129.5249104493896
 30
0.0
 10
76.02051050616849
 20
-129.3812499676547
 30
0.0
 10
76.20241154778968
 20
-129.2858208227133
 30
0.0
 10
76.39499238541515
 20
-129.1866020727381
 30
0.0
 10
76.62340221608721
 20
-129.1631754234384
 30
0.0
 10
76.7970350285438
 20
-129.1631754234384
 30
0.0
 10
76.96825627416072
 20
-129.1631754234384
 30
0.0
 10
77.19873316212393
 20
-129.1845350154469
 30
0.0
 10
77.3913139997494
 20
-129.2858208227133
 30
0.0
  0
SPLINE
  5
9A
330
93
100
AcDbEntity
  8
_U+30EC_U+30A4_U+30E4_U+30FC 1
370
     0
100
AcDbSpline
210
0.0
220
0.0
230
1.0
 70
    11
 71
     3
 72
    17
 73
    13
 74
     0
 42
0.0000000001
 43
0.0000000001
 12
1.0
 22
0.0
 32
0.0
 13
1.0
 23
0.0
 33
0.0
 40
0.0
 40
0.0
 40
0.0
 40
0.0
 40
1.0
 40
1.0
 40
1.0
 40
2.0
 40
2.0
 40
2.0
 40
3.0
 40
3.0
 40
3.0
 40
4.0
 40
4.0
 40
4.0
 40
4.0
 10
76.16864961203423
 20
-129.6837293512596
 30
0.0
 10
76.16864961203423
 20
-129.9331542643917
 30
0.0
 10
76.4521809704703
 20
-129.9800075629911
 30
0.0
 10
76.7970350285438
 20
-129.9800075629911
 30
0.0
 10
77.11639538002646
 20
-129.9800075629911
 30
0.0
 10
77.42507593550485
 20
-129.943834060396
 30
0.0
 10
77.42507593550485
 20
-129.6837293512596
 30
0.0
 10
77.42507593550485
 20
-129.4360269858702
 30
0.0
 10
77.14395614390845
 20
-129.3874511395281
 30
0.0
 10
76.7970350285438
 20
-129.3874511395281
 30
0.0
 10
76.47733016751262
 20
-129.3874511395281
 30
0.0
 10
76.16864961203423
 20
-129.4256916994144
 30
0.0
 10
76.16864961203423
 20
-129.6837293512596
 30
0.0
  0
HATCH
  5
9B
330
93
100
AcDbEntity
  8
_U+30EC_U+30A4_U+30E4_U+30FC 1
 62
     7
420
 16777215
100
AcDbHatch
 10
0.0
 20
0.0
 30
0.0
210
0.0
220
0.0
230
1.0
  2
SOLID
 70
     1
 71
     0
 91
        2
 92
        1
 93
        1
 72
     4
 94
        3
 73
     0
 74
     1
 95
       29
 96
       25
 40
0.0
 40
0.0
 40
0.0
 40
0.0
 40
1.0
 40
1.0
 40
1.0
 40
2.0
 40
2.0
 40
2.0
 40
3.0
 40
3.0
 40
3.0
 40
4.0
 40
4.0
 40
4.0
 40
5.0
 40
5.0
 40
5.0
 40
6.0
 40
6.0
 40
6.0
 40
7.0
 40
7.0
 40
7.0
 40
8.0
 40
8.0
 40
8.0
 40
8.0
 10
77.3913139997494
 20
-129.2858208227133
 10
77.60077580525258
 20
-129.3939968209501
 10
77.61972383042146
 20
-129.5672851238582
 10
77.61972383042146
 20
-129.6837293512596
 10
77.61972383042146
 20
-129.8446153104208
 10
77.57321504137059
 20
-129.9862087348646
 10
77.3913139997494
 20
-130.0812933702575
 10
77.19666610483279
 20
-130.1849907443635
 10
76.95998804499612
 20
-130.2039387695324
 10
76.7970350285438
 20
-130.2039387695324
 10
76.65303003726035
 20
-130.2039387695324
 10
76.4011935572886
 20
-130.1870578016546
 10
76.20241154778968
 20
-130.0812933702575
 10
75.99949542370847
 20
-129.9734618815691
 10
75.97606877440876
 20
-129.812575922408
 10
75.97606877440876
 20
-129.6837293512596
 10
75.97606877440876
 20
-129.5249104493896
 10
76.02051050616849
 20
-129.3812499676547
 10
76.20241154778968
 20
-129.2858208227133
 10
76.39499238541515
 20
-129.1866020727381
 10
76.62340221608721
 20
-129.1631754234384
 10
76.7970350285438
 20
-129.1631754234384
 10
76.96825627416072
 20
-129.1631754234384
 10
77.19873316212393
 20
-129.1845350154469
 10
77.3913139997494
 20
-129.2858208227133
 97
        0
 97
        0
 92
        1
 93
        1
 72
     4
 94
        3
 73
     0
 74
     1
 95
       17
 96
       13
 40
0.0
 40
0.0
 40
0.0
 40
0.0
 40
1.0
 40
1.0
 40
1.0
 40
2.0
 40
2.0
 40
2.0
 40
3.0
 40
3.0
 40
3.0
 40
4.0
 40
4.0
 40
4.0
 40
4.0
 10
76.16864961203423
 20
-129.6837293512596
 10
76.16864961203423
 20
-129.9331542643917
 10
76.4521809704703
 20
-129.9800075629911
 10
76.7970350285438
 20
-129.9800075629911
 10
77.11639538002646
 20
-129.9800075629911
 10
77.42507593550485
 20
-129.943834060396
 10
77.42507593550485
 20
-129.6837293512596
 10
77.42507593550485
 20
-129.4360269858702
 10
77.14395614390845
 20
-129.3874511395281
 10
76.7970350285438
 20
-129.3874511395281
 10
76.47733016751262
 20
-129.3874511395281
 10
76.16864961203423
 20
-129.4256916994144
 10
76.16864961203423
 20
-129.6837293512596
 97
        0
 97
        0
 75
     2
 76
     1
 98
        0
  0
POLYLINE
  5
9C
330
93
100
AcDbEntity
  8
_U+30EC_U+30A4_U+30E4_U+30FC 1
370
     0
100
AcDb2dPolyline
 66
     1
 10
0.0
 20
0.0
 30
0.0
  0
VERTEX
  5
9D
330
9C
100
AcDbEntity
  8
_U+30EC_U+30A4_U+30E4_U+30FC 1
370
     0
100
AcDbVertex
100
AcDb2dVertex
 10
77.56908092678829
 20
-128.9468234269647
 30
0.0
  0
VERTEX
  5
9E
330
9C
100
AcDbEntity
  8
_U+30EC_U+30A4_U+30E4_U+30FC 1
370
     0
100
AcDbVertex
100
AcDb2dVertex
 10
77.31724444681653
 20
-128.9468234269647
 30
0.0
  0
VERTEX
  5
9F
330
9C
100
AcDbEntity
  8
_U+30EC_U+30A4_U+30E4_U+30FC 1
370
     0
100
AcDbVertex
100
AcDb2dVertex
 10
77.31724444681653
 20
-128.6949869469929
 30
0.0
  0
VERTEX
  5
A0
330
9C
100
AcDbEntity
  8
_U+30EC_U+30A4_U+30E4_U+30FC 1
370
     0
100
AcDbVertex
100
AcDb2dVertex
 10
77.56908092678829
 20
-128.6949869469929
 30
0.0
  0
VERTEX
  5
A1
330
9C
100
AcDbEntity
  8
_U+30EC_U+30A4_U+30E4_U+30FC 1
370
     0
100
AcDbVertex
100
AcDb2dVertex
 10
77.56908092678829
 20
-128.9468234269647
 30
0.0
  0
SEQEND
  5
A2
330
9C
100
AcDbEntity
  8
_U+30EC_U+30A4_U+30E4_U+30FC 1
370
     0
  0
HATCH
  5
A3
330
93
100
AcDbEntity
  8
_U+30EC_U+30A4_U+30E4_U+30FC 1
 62
     7
420
 16777215
100
AcDbHatch
 10
0.0
 20
0.0
 30
0.0
210
0.0
220
0.0
230
1.0
  2
SOLID
 70
     1
 71
     0
 91
        1
 92
        1
 93
        4
 72
     1
 10
77.56908092678829
 20
-128.9468234269647
 11
77.31724444681653
 21
-128.9468234269647
 72
     1
 10
77.31724444681653
 20
-128.9468234269647
 11
77.31724444681653
 21
-128.6949869469929
 72
     1
 10
77.31724444681653
 20
-128.6949869469929
 11
77.56908092678829
 21
-128.6949869469929
 72
     1
 10
77.56908092678829
 20
-128.6949869469929
 11
77.56908092678829
 21
-128.9468234269647
 97
        0
 75
     2
 76
     1
 98
        0
  0
SPLINE
  5
A4
330
93
100
AcDbEntity
  8
_U+30EC_U+30A4_U+30E4_U+30FC 1
370
     0
100
AcDbSpline
210
0.0
220
0.0
230
1.0
 70
    11
 71
     3
 72
    53
 73
    49
 74
     0
 42
0.0000000001
 43
0.0000000001
 12
1.0
 22
0.0
 32
0.0
 13
1.0
 23
0.0
 33
0.0
 40
0.0
 40
0.0
 40
0.0
 40
0.0
 40
1.0
 40
1.0
 40
1.0
 40
2.0
 40
2.0
 40
2.0
 40
3.0
 40
3.0
 40
3.0
 40
4.0
 40
4.0
 40
4.0
 40
5.0
 40
5.0
 40
5.0
 40
6.0
 40
6.0
 40
6.0
 40
7.0
 40
7.0
 40
7.0
 40
8.0
 40
8.0
 40
8.0
 40
9.0
 40
9.0
 40
9.0
 40
10.0
 40
10.0
 40
10.0
 40
11.0
 40
11.0
 40
11.0
 40
12.0
 40
12.0
 40
12.0
 40
13.0
 40
13.0
 40
13.0
 40
14.0
 40
14.0
 40
14.0
 40
15.0
 40
15.0
 40
15.0
 40
16.0
 40
16.0
 40
16.0
 40
16.0
 10
77.61972383042146
 20
-127.9777180669639
 30
0.0
 10
77.61972383042146
 20
-128.0559217344791
 30
0.0
 10
77.60284286254374
 20
-128.1575520512939
 30
0.0
 10
77.53945310561514
 20
-128.2591823681088
 30
0.0
 10
77.42955455963568
 20
-128.4324706710169
 30
0.0
 10
77.29829642164765
 20
-128.4538302630254
 30
0.0
 10
77.19046493295933
 20
-128.4727782881943
 30
0.0
 10
77.19046493295933
 20
-128.4727782881943
 30
0.0
 10
77.19046493295933
 20
-128.2505696293957
 30
0.0
 10
77.19046493295933
 20
-128.2505696293957
 30
0.0
 10
77.38924694245824
 20
-128.1957926111802
 30
0.0
 10
77.4188747636314
 20
-128.0686685877745
 30
0.0
 10
77.4188747636314
 20
-127.9756510096728
 30
0.0
 10
77.4188747636314
 20
-127.8361246425201
 30
0.0
 10
77.31931150410767
 20
-127.6838514220721
 30
0.0
 10
77.08676755885331
 20
-127.6838514220721
 30
0.0
 10
76.83079696429925
 20
-127.6838514220721
 30
0.0
 10
76.76086152594868
 20
-127.8636854064021
 30
0.0
 10
76.76086152594868
 20
-127.9842637483859
 30
0.0
 10
76.76086152594868
 20
-128.0159586268502
 30
0.0
 10
76.76086152594868
 20
-128.1575520512939
 30
0.0
 10
76.89005260664554
 20
-128.2464355148134
 30
0.0
 10
76.89005260664554
 20
-128.2464355148134
 30
0.0
 10
76.87110458147667
 20
-128.4221353845611
 30
0.0
 10
76.87110458147667
 20
-128.4221353845611
 30
0.0
 10
76.87110458147667
 20
-128.4221353845611
 30
0.0
 10
76.02464462075079
 20
-128.3015570425774
 30
0.0
 10
76.02464462075079
 20
-128.3015570425774
 30
0.0
 10
76.02464462075079
 20
-128.3015570425774
 30
0.0
 10
76.02464462075079
 20
-127.5229654629109
 30
0.0
 10
76.02464462075079
 20
-127.5229654629109
 30
0.0
 10
76.02464462075079
 20
-127.5229654629109
 30
0.0
 10
76.2192925156674
 20
-127.5229654629109
 30
0.0
 10
76.2192925156674
 20
-127.5229654629109
 30
0.0
 10
76.2192925156674
 20
-127.5229654629109
 30
0.0
 10
76.2192925156674
 20
-128.1386040261251
 30
0.0
 10
76.2192925156674
 20
-128.1386040261251
 30
0.0
 10
76.2192925156674
 20
-128.1386040261251
 30
0.0
 10
76.64235024125608
 20
-128.2040608403448
 30
0.0
 10
76.64235024125608
 20
-128.2040608403448
 30
0.0
 10
76.60858830550063
 20
-128.1427381407074
 30
0.0
 10
76.56828068832321
 20
-128.0604003586099
 30
0.0
 10
76.56828068832321
 20
-127.9418890739173
 30
0.0
 10
76.56828068832321
 20
-127.6879855366544
 30
0.0
 10
76.75466035407523
 20
-127.4509629672692
 30
0.0
 10
77.06781953368444
 20
-127.4509629672692
 30
0.0
 10
77.38511282787594
 20
-127.4509629672692
 30
0.0
 10
77.61972383042146
 20
-127.675238683359
 30
0.0
 10
77.61972383042146
 20
-127.9777180669639
 30
0.0
  0
HATCH
  5
A5
330
93
100
AcDbEntity
  8
_U+30EC_U+30A4_U+30E4_U+30FC 1
 62
     7
420
 16777215
100
AcDbHatch
 10
0.0
 20
0.0
 30
0.0
210
0.0
220
0.0
230
1.0
  2
SOLID
 70
     1
 71
     0
 91
        1
 92
        1
 93
        1
 72
     4
 94
        3
 73
     0
 74
     1
 95
       53
 96
       49
 40
0.0
 40
0.0
 40
0.0
 40
0.0
 40
1.0
 40
1.0
 40
1.0
 40
2.0
 40
2.0
 40
2.0
 40
3.0
 40
3.0
 40
3.0
 40
4.0
 40
4.0
 40
4.0
 40
5.0
 40
5.0
 40
5.0
 40
6.0
 40
6.0
 40
6.0
 40
7.0
 40
7.0
 40
7.0
 40
8.0
 40
8.0
 40
8.0
 40
9.0
 40
9.0
 40
9.0
 40
10.0
 40
10.0
 40
10.0
 40
11.0
 40
11.0
 40
11.0
 40
12.0
 40
12.0
 40
12.0
 40
13.0
 40
13.0
 40
13.0
 40
14.0
 40
14.0
 40
14.0
 40
15.0
 40
15.0
 40
15.0
 40
16.0
 40
16.0
 40
16.0
 40
16.0
 10
77.61972383042146
 20
-127.9777180669639
 10
77.61972383042146
 20
-128.0559217344791
 10
77.60284286254374
 20
-128.1575520512939
 10
77.53945310561514
 20
-128.2591823681088
 10
77.42955455963568
 20
-128.4324706710169
 10
77.29829642164765
 20
-128.4538302630254
 10
77.19046493295933
 20
-128.4727782881943
 10
77.19046493295933
 20
-128.4727782881943
 10
77.19046493295933
 20
-128.2505696293957
 10
77.19046493295933
 20
-128.2505696293957
 10
77.38924694245824
 20
-128.1957926111802
 10
77.4188747636314
 20
-128.0686685877745
 10
77.4188747636314
 20
-127.9756510096728
 10
77.4188747636314
 20
-127.8361246425201
 10
77.31931150410767
 20
-127.6838514220721
 10
77.08676755885331
 20
-127.6838514220721
 10
76.83079696429925
 20
-127.6838514220721
 10
76.76086152594868
 20
-127.8636854064021
 10
76.76086152594868
 20
-127.9842637483859
 10
76.76086152594868
 20
-128.0159586268502
 10
76.76086152594868
 20
-128.1575520512939
 10
76.89005260664554
 20
-128.2464355148134
 10
76.89005260664554
 20
-128.2464355148134
 10
76.87110458147667
 20
-128.4221353845611
 10
76.87110458147667
 20
-128.4221353845611
 10
76.87110458147667
 20
-128.4221353845611
 10
76.02464462075079
 20
-128.3015570425774
 10
76.02464462075079
 20
-128.3015570425774
 10
76.02464462075079
 20
-128.3015570425774
 10
76.02464462075079
 20
-127.5229654629109
 10
76.02464462075079
 20
-127.5229654629109
 10
76.02464462075079
 20
-127.5229654629109
 10
76.2192925156674
 20
-127.5229654629109
 10
76.2192925156674
 20
-127.5229654629109
 10
76.2192925156674
 20
-127.5229654629109
 10
76.2192925156674
 20
-128.1386040261251
 10
76.2192925156674
 20
-128.1386040261251
 10
76.2192925156674
 20
-128.1386040261251
 10
76.64235024125608
 20
-128.2040608403448
 10
76.64235024125608
 20
-128.2040608403448
 10
76.60858830550063
 20
-128.1427381407074
 10
76.56828068832321
 20
-128.0604003586099
 10
76.56828068832321
 20
-127.9418890739173
 10
76.56828068832321
 20
-127.6879855366544
 10
76.75466035407523
 20
-127.4509629672692
 10
77.06781953368444
 20
-127.4509629672692
 10
77.38511282787594
 20
-127.4509629672692
 10
77.61972383042146
 20
-127.675238683359
 10
77.61972383042146
 20
-127.9777180669639
 97
        0
 97
        0
 75
     2
 76
     1
 98
        0
  0
ENDBLK
  5
96
330
93
100
AcDbEntity
  8
0
100
AcDbBlockEnd
  0
BLOCK
  5
D6
330
D4
100
AcDbEntity
  8
0
100
AcDbBlockBegin
  2
block 5
 70
     0
 10
0.0
 20
0.0
 30
0.0
  3
block 5
  1

  0
SPLINE
  5
D8
330
D4
100
AcDbEntity
  8
_U+30EC_U+30A4_U+30E4_U+30FC 1
370
     0
100
AcDbSpline
210
0.0
220
0.0
230
1.0
 70
    11
 71
     3
 72
    26
 73
    22
 74
     0
 42
0.0000000001
 43
0.0000000001
 12
1.0
 22
0.0
 32
0.0
 13
1.0
 23
0.0
 33
0.0
 40
0.0
 40
0.0
 40
0.0
 40
0.0
 40
1.0
 40
1.0
 40
1.0
 40
2.0
 40
2.0
 40
2.0
 40
3.0
 40
3.0
 40
3.0
 40
4.0
 40
4.0
 40
4.0
 40
5.0
 40
5.0
 40
5.0
 40
6.0
 40
6.0
 40
6.0
 40
7.0
 40
7.0
 40
7.0
 40
7.0
 10
95.06017521495023
 20
-138.2906114020593
 30
0.0
 10
95.06017521495023
 20
-138.2906114020593
 30
0.0
 10
95.06017521495023
 20
-137.1864582990367
 30
0.0
 10
95.06017521495023
 20
-137.1864582990367
 30
0.0
 10
95.06017521495023
 20
-137.1864582990367
 30
0.0
 10
94.73013506746331
 20
-137.1864582990367
 30
0.0
 10
94.73013506746331
 20
-137.1864582990367
 30
0.0
 10
94.73013506746331
 20
-137.1864582990367
 30
0.0
 10
94.73013506746331
 20
-137.038319193171
 30
0.0
 10
94.73013506746331
 20
-137.038319193171
 30
0.0
 10
95.06224227224139
 20
-137.0235052825844
 30
0.0
 10
95.10875106129227
 20
-136.8605522661321
 30
0.0
 10
95.1383788824654
 20
-136.7461750960218
 30
0.0
 10
95.1383788824654
 20
-136.7461750960218
 30
0.0
 10
95.28445093104
 20
-136.7461750960218
 30
0.0
 10
95.28445093104
 20
-136.7461750960218
 30
0.0
 10
95.28445093104
 20
-136.7461750960218
 30
0.0
 10
95.28445093104
 20
-138.2906114020593
 30
0.0
 10
95.28445093104
 20
-138.2906114020593
 30
0.0
 10
95.28445093104
 20
-138.2906114020593
 30
0.0
 10
95.06017521495023
 20
-138.2906114020593
 30
0.0
 10
95.06017521495023
 20
-138.2906114020593
 30
0.0
  0
HATCH
  5
D9
330
D4
100
AcDbEntity
  8
_U+30EC_U+30A4_U+30E4_U+30FC 1
 62
     7
420
 16777215
100
AcDbHatch
 10
0.0
 20
0.0
 30
0.0
210
0.0
220
0.0
230
1.0
  2
SOLID
 70
     1
 71
     0
 91
        1
 92
        1
 93
        1
 72
     4
 94
        3
 73
     0
 74
     1
 95
       26
 96
       22
 40
0.0
 40
0.0
 40
0.0
 40
0.0
 40
1.0
 40
1.0
 40
1.0
 40
2.0
 40
2.0
 40
2.0
 40
3.0
 40
3.0
 40
3.0
 40
4.0
 40
4.0
 40
4.0
 40
5.0
 40
5.0
 40
5.0
 40
6.0
 40
6.0
 40
6.0
 40
7.0
 40
7.0
 40
7.0
 40
7.0
 10
95.06017521495023
 20
-138.2906114020593
 10
95.06017521495023
 20
-138.2906114020593
 10
95.06017521495023
 20
-137.1864582990367
 10
95.06017521495023
 20
-137.1864582990367
 10
95.06017521495023
 20
-137.1864582990367
 10
94.73013506746331
 20
-137.1864582990367
 10
94.73013506746331
 20
-137.1864582990367
 10
94.73013506746331
 20
-137.1864582990367
 10
94.73013506746331
 20
-137.038319193171
 10
94.73013506746331
 20
-137.038319193171
 10
95.06224227224139
 20
-137.0235052825844
 10
95.10875106129227
 20
-136.8605522661321
 10
95.1383788824654
 20
-136.7461750960218
 10
95.1383788824654
 20
-136.7461750960218
 10
95.28445093104
 20
-136.7461750960218
 10
95.28445093104
 20
-136.7461750960218
 10
95.28445093104
 20
-136.7461750960218
 10
95.28445093104
 20
-138.2906114020593
 10
95.28445093104
 20
-138.2906114020593
 10
95.28445093104
 20
-138.2906114020593
 10
95.06017521495023
 20
-138.2906114020593
 10
95.06017521495023
 20
-138.2906114020593
 97
        0
 97
        0
 75
     2
 76
     1
 98
        0
  0
SPLINE
  5
DA
330
D4
100
AcDbEntity
  8
_U+30EC_U+30A4_U+30E4_U+30FC 1
370
     0
100
AcDbSpline
210
0.0
220
0.0
230
1.0
 70
    11
 71
     3
 72
    26
 73
    22
 74
     0
 42
0.0000000001
 43
0.0000000001
 12
1.0
 22
0.0
 32
0.0
 13
1.0
 23
0.0
 33
0.0
 40
0.0
 40
0.0
 40
0.0
 40
0.0
 40
1.0
 40
1.0
 40
1.0
 40
2.0
 40
2.0
 40
2.0
 40
3.0
 40
3.0
 40
3.0
 40
4.0
 40
4.0
 40
4.0
 40
5.0
 40
5.0
 40
5.0
 40
6.0
 40
6.0
 40
6.0
 40
7.0
 40
7.0
 40
7.0
 40
7.0
 10
96.23701983271158
 20
-138.2906114020593
 30
0.0
 10
96.23701983271158
 20
-138.2906114020593
 30
0.0
 10
96.23701983271158
 20
-137.1864582990367
 30
0.0
 10
96.23701983271158
 20
-137.1864582990367
 30
0.0
 10
96.23701983271158
 20
-137.1864582990367
 30
0.0
 10
95.90697968522466
 20
-137.1864582990367
 30
0.0
 10
95.90697968522466
 20
-137.1864582990367
 30
0.0
 10
95.90697968522466
 20
-137.1864582990367
 30
0.0
 10
95.90697968522466
 20
-137.038319193171
 30
0.0
 10
95.90697968522466
 20
-137.038319193171
 30
0.0
 10
96.23908689000274
 20
-137.0235052825844
 30
0.0
 10
96.2855956790536
 20
-136.8605522661321
 30
0.0
 10
96.31522350022675
 20
-136.7461750960218
 30
0.0
 10
96.31522350022675
 20
-136.7461750960218
 30
0.0
 10
96.46129554880135
 20
-136.7461750960218
 30
0.0
 10
96.46129554880135
 20
-136.7461750960218
 30
0.0
 10
96.46129554880135
 20
-136.7461750960218
 30
0.0
 10
96.46129554880135
 20
-138.2906114020593
 30
0.0
 10
96.46129554880135
 20
-138.2906114020593
 30
0.0
 10
96.46129554880135
 20
-138.2906114020593
 30
0.0
 10
96.23701983271158
 20
-138.2906114020593
 30
0.0
 10
96.23701983271158
 20
-138.2906114020593
 30
0.0
  0
HATCH
  5
DB
330
D4
100
AcDbEntity
  8
_U+30EC_U+30A4_U+30E4_U+30FC 1
 62
     7
420
 16777215
100
AcDbHatch
 10
0.0
 20
0.0
 30
0.0
210
0.0
220
0.0
230
1.0
  2
SOLID
 70
     1
 71
     0
 91
        1
 92
        1
 93
        1
 72
     4
 94
        3
 73
     0
 74
     1
 95
       26
 96
       22
 40
0.0
 40
0.0
 40
0.0
 40
0.0
 40
1.0
 40
1.0
 40
1.0
 40
2.0
 40
2.0
 40
2.0
 40
3.0
 40
3.0
 40
3.0
 40
4.0
 40
4.0
 40
4.0
 40
5.0
 40
5.0
 40
5.0
 40
6.0
 40
6.0
 40
6.0
 40
7.0
 40
7.0
 40
7.0
 40
7.0
 10
96.23701983271158
 20
-138.2906114020593
 10
96.23701983271158
 20
-138.2906114020593
 10
96.23701983271158
 20
-137.1864582990367
 10
96.23701983271158
 20
-137.1864582990367
 10
96.23701983271158
 20
-137.1864582990367
 10
95.90697968522466
 20
-137.1864582990367
 10
95.90697968522466
 20
-137.1864582990367
 10
95.90697968522466
 20
-137.1864582990367
 10
95.90697968522466
 20
-137.038319193171
 10
95.90697968522466
 20
-137.038319193171
 10
96.23908689000274
 20
-137.0235052825844
 10
96.2855956790536
 20
-136.8605522661321
 10
96.31522350022675
 20
-136.7461750960218
 10
96.31522350022675
 20
-136.7461750960218
 10
96.46129554880135
 20
-136.7461750960218
 10
96.46129554880135
 20
-136.7461750960218
 10
96.46129554880135
 20
-136.7461750960218
 10
96.46129554880135
 20
-138.2906114020593
 10
96.46129554880135
 20
-138.2906114020593
 10
96.46129554880135
 20
-138.2906114020593
 10
96.23701983271158
 20
-138.2906114020593
 10
96.23701983271158
 20
-138.2906114020593
 97
        0
 97
        0
 75
     2
 76
     1
 98
        0
  0
POLYLINE
  5
DC
330
D4
100
AcDbEntity
  8
_U+30EC_U+30A4_U+30E4_U+30FC 1
370
     0
100
AcDb2dPolyline
 66
     1
 10
0.0
 20
0.0
 30
0.0
  0
VERTEX
  5
DD
330
DC
100
AcDbEntity
  8
_U+30EC_U+30A4_U+30E4_U+30FC 1
370
     0
100
AcDbVertex
100
AcDb2dVertex
 10
97.02250160334854
 20
-138.2906114020593
 30
0.0
  0
VERTEX
  5
DE
330
DC
100
AcDbEntity
  8
_U+30EC_U+30A4_U+30E4_U+30FC 1
370
     0
100
AcDbVertex
100
AcDb2dVertex
 10
97.02250160334854
 20
-138.0387749220875
 30
0.0
  0
VERTEX
  5
DF
330
DC
100
AcDbEntity
  8
_U+30EC_U+30A4_U+30E4_U+30FC 1
370
     0
100
AcDbVertex
100
AcDb2dVertex
 10
97.2743380833203
 20
-138.0387749220875
 30
0.0
  0
VERTEX
  5
E0
330
DC
100
AcDbEntity
  8
_U+30EC_U+30A4_U+30E4_U+30FC 1
370
     0
100
AcDbVertex
100
AcDb2dVertex
 10
97.2743380833203
 20
-138.2906114020593
 30
0.0
  0
VERTEX
  5
E1
330
DC
100
AcDbEntity
  8
_U+30EC_U+30A4_U+30E4_U+30FC 1
370
     0
100
AcDbVertex
100
AcDb2dVertex
 10
97.02250160334854
 20
-138.2906114020593
 30
0.0
  0
SEQEND
  5
E2
330
DC
100
AcDbEntity
  8
_U+30EC_U+30A4_U+30E4_U+30FC 1
370
     0
  0
HATCH
  5
E3
330
D4
100
AcDbEntity
  8
_U+30EC_U+30A4_U+30E4_U+30FC 1
 62
     7
420
 16777215
100
AcDbHatch
 10
0.0
 20
0.0
 30
0.0
210
0.0
220
0.0
230
1.0
  2
SOLID
 70
     1
 71
     0
 91
        1
 92
        1
 93
        4
 72
     1
 10
97.02250160334854
 20
-138.2906114020593
 11
97.02250160334854
 21
-138.0387749220875
 72
     1
 10
97.02250160334854
 20
-138.0387749220875
 11
97.2743380833203
 21
-138.0387749220875
 72
     1
 10
97.2743380833203
 20
-138.0387749220875
 11
97.2743380833203
 21
-138.2906114020593
 72
     1
 10
97.2743380833203
 20
-138.2906114020593
 11
97.02250160334854
 21
-138.2906114020593
 97
        0
 75
     2
 76
     1
 98
        0
  0
SPLINE
  5
E4
330
D4
100
AcDbEntity
  8
_U+30EC_U+30A4_U+30E4_U+30FC 1
370
     0
100
AcDbSpline
210
0.0
220
0.0
230
1.0
 70
    11
 71
     3
 72
    53
 73
    49
 74
     0
 42
0.0000000001
 43
0.0000000001
 12
1.0
 22
0.0
 32
0.0
 13
1.0
 23
0.0
 33
0.0
 40
0.0
 40
0.0
 40
0.0
 40
0.0
 40
1.0
 40
1.0
 40
1.0
 40
2.0
 40
2.0
 40
2.0
 40
3.0
 40
3.0
 40
3.0
 40
4.0
 40
4.0
 40
4.0
 40
5.0
 40
5.0
 40
5.0
 40
6.0
 40
6.0
 40
6.0
 40
7.0
 40
7.0
 40
7.0
 40
8.0
 40
8.0
 40
8.0
 40
9.0
 40
9.0
 40
9.0
 40
10.0
 40
10.0
 40
10.0
 40
11.0
 40
11.0
 40
11.0
 40
12.0
 40
12.0
 40
12.0
 40
13.0
 40
13.0
 40
13.0
 40
14.0
 40
14.0
 40
14.0
 40
15.0
 40
15.0
 40
15.0
 40
16.0
 40
16.0
 40
16.0
 40
16.0
 10
97.99160696334933
 20
-138.3412543056925
 30
0.0
 10
97.91340329583416
 20
-138.3412543056925
 30
0.0
 10
97.81177297901928
 20
-138.3243733378147
 30
0.0
 10
97.71014266220442
 20
-138.2609835808861
 30
0.0
 10
97.53685435929634
 20
-138.1510850349067
 30
0.0
 10
97.51549476728779
 20
-138.0198268969187
 30
0.0
 10
97.49654674211892
 20
-137.9119954082304
 30
0.0
 10
97.49654674211892
 20
-137.9119954082304
 30
0.0
 10
97.71875540091754
 20
-137.9119954082304
 30
0.0
 10
97.71875540091754
 20
-137.9119954082304
 30
0.0
 10
97.773532419133
 20
-138.1107774177293
 30
0.0
 10
97.90065644253873
 20
-138.1404052389024
 30
0.0
 10
97.99367402064047
 20
-138.1404052389024
 30
0.0
 10
98.1332003877931
 20
-138.1404052389024
 30
0.0
 10
98.28547360824113
 20
-138.0408419793787
 30
0.0
 10
98.28547360824113
 20
-137.8082980341243
 30
0.0
 10
98.28547360824113
 20
-137.5523274395703
 30
0.0
 10
98.10563962391109
 20
-137.4823920012197
 30
0.0
 10
97.98506128192734
 20
-137.4823920012197
 30
0.0
 10
97.95336640346305
 20
-137.4823920012197
 30
0.0
 10
97.81177297901928
 20
-137.4823920012197
 30
0.0
 10
97.72288951549984
 20
-137.6115830819166
 30
0.0
 10
97.72288951549984
 20
-137.6115830819166
 30
0.0
 10
97.5471896457521
 20
-137.5926350567477
 30
0.0
 10
97.5471896457521
 20
-137.5926350567477
 30
0.0
 10
97.5471896457521
 20
-137.5926350567477
 30
0.0
 10
97.66776798773584
 20
-136.7461750960218
 30
0.0
 10
97.66776798773584
 20
-136.7461750960218
 30
0.0
 10
97.66776798773584
 20
-136.7461750960218
 30
0.0
 10
98.4463595674023
 20
-136.7461750960218
 30
0.0
 10
98.4463595674023
 20
-136.7461750960218
 30
0.0
 10
98.4463595674023
 20
-136.7461750960218
 30
0.0
 10
98.4463595674023
 20
-136.9408229909384
 30
0.0
 10
98.4463595674023
 20
-136.9408229909384
 30
0.0
 10
98.4463595674023
 20
-136.9408229909384
 30
0.0
 10
97.83072100418816
 20
-136.9408229909384
 30
0.0
 10
97.83072100418816
 20
-136.9408229909384
 30
0.0
 10
97.83072100418816
 20
-136.9408229909384
 30
0.0
 10
97.7652641899684
 20
-137.3638807165271
 30
0.0
 10
97.7652641899684
 20
-137.3638807165271
 30
0.0
 10
97.82658688960586
 20
-137.3301187807716
 30
0.0
 10
97.90892467170333
 20
-137.2898111635942
 30
0.0
 10
98.02743595639592
 20
-137.2898111635942
 30
0.0
 10
98.28133949365883
 20
-137.2898111635942
 30
0.0
 10
98.51836206304402
 20
-137.4761908293462
 30
0.0
 10
98.51836206304402
 20
-137.7893500089554
 30
0.0
 10
98.51836206304402
 20
-138.106643303147
 30
0.0
 10
98.29408634695426
 20
-138.3412543056925
 30
0.0
 10
97.99160696334933
 20
-138.3412543056925
 30
0.0
  0
HATCH
  5
E5
330
D4
100
AcDbEntity
  8
_U+30EC_U+30A4_U+30E4_U+30FC 1
 62
     7
420
 16777215
100
AcDbHatch
 10
0.0
 20
0.0
 30
0.0
210
0.0
220
0.0
230
1.0
  2
SOLID
 70
     1
 71
     0
 91
        1
 92
        1
 93
        1
 72
     4
 94
        3
 73
     0
 74
     1
 95
       53
 96
       49
 40
0.0
 40
0.0
 40
0.0
 40
0.0
 40
1.0
 40
1.0
 40
1.0
 40
2.0
 40
2.0
 40
2.0
 40
3.0
 40
3.0
 40
3.0
 40
4.0
 40
4.0
 40
4.0
 40
5.0
 40
5.0
 40
5.0
 40
6.0
 40
6.0
 40
6.0
 40
7.0
 40
7.0
 40
7.0
 40
8.0
 40
8.0
 40
8.0
 40
9.0
 40
9.0
 40
9.0
 40
10.0
 40
10.0
 40
10.0
 40
11.0
 40
11.0
 40
11.0
 40
12.0
 40
12.0
 40
12.0
 40
13.0
 40
13.0
 40
13.0
 40
14.0
 40
14.0
 40
14.0
 40
15.0
 40
15.0
 40
15.0
 40
16.0
 40
16.0
 40
16.0
 40
16.0
 10
97.99160696334933
 20
-138.3412543056925
 10
97.91340329583416
 20
-138.3412543056925
 10
97.81177297901928
 20
-138.3243733378147
 10
97.71014266220442
 20
-138.2609835808861
 10
97.53685435929634
 20
-138.1510850349067
 10
97.51549476728779
 20
-138.0198268969187
 10
97.49654674211892
 20
-137.9119954082304
 10
97.49654674211892
 20
-137.9119954082304
 10
97.71875540091754
 20
-137.9119954082304
 10
97.71875540091754
 20
-137.9119954082304
 10
97.773532419133
 20
-138.1107774177293
 10
97.90065644253873
 20
-138.1404052389024
 10
97.99367402064047
 20
-138.1404052389024
 10
98.1332003877931
 20
-138.1404052389024
 10
98.28547360824113
 20
-138.0408419793787
 10
98.28547360824113
 20
-137.8082980341243
 10
98.28547360824113
 20
-137.5523274395703
 10
98.10563962391109
 20
-137.4823920012197
 10
97.98506128192734
 20
-137.4823920012197
 10
97.95336640346305
 20
-137.4823920012197
 10
97.81177297901928
 20
-137.4823920012197
 10
97.72288951549984
 20
-137.6115830819166
 10
97.72288951549984
 20
-137.6115830819166
 10
97.5471896457521
 20
-137.5926350567477
 10
97.5471896457521
 20
-137.5926350567477
 10
97.5471896457521
 20
-137.5926350567477
 10
97.66776798773584
 20
-136.7461750960218
 10
97.66776798773584
 20
-136.7461750960218
 10
97.66776798773584
 20
-136.7461750960218
 10
98.4463595674023
 20
-136.7461750960218
 10
98.4463595674023
 20
-136.7461750960218
 10
98.4463595674023
 20
-136.7461750960218
 10
98.4463595674023
 20
-136.9408229909384
 10
98.4463595674023
 20
-136.9408229909384
 10
98.4463595674023
 20
-136.9408229909384
 10
97.83072100418816
 20
-136.9408229909384
 10
97.83072100418816
 20
-136.9408229909384
 10
97.83072100418816
 20
-136.9408229909384
 10
97.7652641899684
 20
-137.3638807165271
 10
97.7652641899684
 20
-137.3638807165271
 10
97.82658688960586
 20
-137.3301187807716
 10
97.90892467170333
 20
-137.2898111635942
 10
98.02743595639592
 20
-137.2898111635942
 10
98.28133949365883
 20
-137.2898111635942
 10
98.51836206304402
 20
-137.4761908293462
 10
98.51836206304402
 20
-137.7893500089554
 10
98.51836206304402
 20
-138.106643303147
 10
98.29408634695426
 20
-138.3412543056925
 10
97.99160696334933
 20
-138.3412543056925
 97
        0
 97
        0
 75
     2
 76
     1
 98
        0
  0
ENDBLK
  5
D7
330
D4
100
AcDbEntity
  8
0
100
AcDbBlockEnd
  0
BLOCK
  5
F6
330
F4
100
AcDbEntity
  8
0
100
AcDbBlockBegin
  2
block 6
 70
     0
 10
0.0
 20
0.0
 30
0.0
  3
block 6
  1

  0
SPLINE
  5
F8
330
F4
100
AcDbEntity
  8
_U+30EC_U+30A4_U+30E4_U+30FC 1
370
     0
100
AcDbSpline
210
0.0
220
0.0
230
1.0
 70
    11
 71
     3
 72
    26
 73
    22
 74
     0
 42
0.0000000001
 43
0.0000000001
 12
1.0
 22
0.0
 32
0.0
 13
1.0
 23
0.0
 33
0.0
 40
0.0
 40
0.0
 40
0.0
 40
0.0
 40
1.0
 40
1.0
 40
1.0
 40
2.0
 40
2.0
 40
2.0
 40
3.0
 40
3.0
 40
3.0
 40
4.0
 40
4.0
 40
4.0
 40
5.0
 40
5.0
 40
5.0
 40
6.0
 40
6.0
 40
6.0
 40
7.0
 40
7.0
 40
7.0
 40
7.0
 10
84.95984427129477
 20
-120.2989447398905
 30
0.0
 10
84.95984427129477
 20
-120.2989447398905
 30
0.0
 10
84.95984427129477
 20
-119.194791636868
 30
0.0
 10
84.95984427129477
 20
-119.194791636868
 30
0.0
 10
84.95984427129477
 20
-119.194791636868
 30
0.0
 10
84.62980412380783
 20
-119.194791636868
 30
0.0
 10
84.62980412380783
 20
-119.194791636868
 30
0.0
 10
84.62980412380783
 20
-119.194791636868
 30
0.0
 10
84.62980412380783
 20
-119.0466525310022
 30
0.0
 10
84.62980412380783
 20
-119.0466525310022
 30
0.0
 10
84.96191132858591
 20
-119.0318386204157
 30
0.0
 10
85.00842011763679
 20
-118.8688856039633
 30
0.0
 10
85.03804793880994
 20
-118.754508433853
 30
0.0
 10
85.03804793880994
 20
-118.754508433853
 30
0.0
 10
85.18411998738453
 20
-118.754508433853
 30
0.0
 10
85.18411998738453
 20
-118.754508433853
 30
0.0
 10
85.18411998738453
 20
-118.754508433853
 30
0.0
 10
85.18411998738453
 20
-120.2989447398905
 30
0.0
 10
85.18411998738453
 20
-120.2989447398905
 30
0.0
 10
85.18411998738453
 20
-120.2989447398905
 30
0.0
 10
84.95984427129477
 20
-120.2989447398905
 30
0.0
 10
84.95984427129477
 20
-120.2989447398905
 30
0.0
  0
HATCH
  5
F9
330
F4
100
AcDbEntity
  8
_U+30EC_U+30A4_U+30E4_U+30FC 1
 62
     7
420
 16777215
100
AcDbHatch
 10
0.0
 20
0.0
 30
0.0
210
0.0
220
0.0
230
1.0
  2
SOLID
 70
     1
 71
     0
 91
        1
 92
        1
 93
        1
 72
     4
 94
        3
 73
     0
 74
     1
 95
       26
 96
       22
 40
0.0
 40
0.0
 40
0.0
 40
0.0
 40
1.0
 40
1.0
 40
1.0
 40
2.0
 40
2.0
 40
2.0
 40
3.0
 40
3.0
 40
3.0
 40
4.0
 40
4.0
 40
4.0
 40
5.0
 40
5.0
 40
5.0
 40
6.0
 40
6.0
 40
6.0
 40
7.0
 40
7.0
 40
7.0
 40
7.0
 10
84.95984427129477
 20
-120.2989447398905
 10
84.95984427129477
 20
-120.2989447398905
 10
84.95984427129477
 20
-119.194791636868
 10
84.95984427129477
 20
-119.194791636868
 10
84.95984427129477
 20
-119.194791636868
 10
84.62980412380783
 20
-119.194791636868
 10
84.62980412380783
 20
-119.194791636868
 10
84.62980412380783
 20
-119.194791636868
 10
84.62980412380783
 20
-119.0466525310022
 10
84.62980412380783
 20
-119.0466525310022
 10
84.96191132858591
 20
-119.0318386204157
 10
85.00842011763679
 20
-118.8688856039633
 10
85.03804793880994
 20
-118.754508433853
 10
85.03804793880994
 20
-118.754508433853
 10
85.18411998738453
 20
-118.754508433853
 10
85.18411998738453
 20
-118.754508433853
 10
85.18411998738453
 20
-118.754508433853
 10
85.18411998738453
 20
-120.2989447398905
 10
85.18411998738453
 20
-120.2989447398905
 10
85.18411998738453
 20
-120.2989447398905
 10
84.95984427129477
 20
-120.2989447398905
 10
84.95984427129477
 20
-120.2989447398905
 97
        0
 97
        0
 75
     2
 76
     1
 98
        0
  0
SPLINE
  5
FA
330
F4
100
AcDbEntity
  8
_U+30EC_U+30A4_U+30E4_U+30FC 1
370
     0
100
AcDbSpline
210
0.0
220
0.0
230
1.0
 70
    11
 71
     3
 72
    26
 73
    22
 74
     0
 42
0.0000000001
 43
0.0000000001
 12
1.0
 22
0.0
 32
0.0
 13
1.0
 23
0.0
 33
0.0
 40
0.0
 40
0.0
 40
0.0
 40
0.0
 40
1.0
 40
1.0
 40
1.0
 40
2.0
 40
2.0
 40
2.0
 40
3.0
 40
3.0
 40
3.0
 40
4.0
 40
4.0
 40
4.0
 40
5.0
 40
5.0
 40
5.0
 40
6.0
 40
6.0
 40
6.0
 40
7.0
 40
7.0
 40
7.0
 40
7.0
 10
86.1366888890561
 20
-120.2989447398905
 30
0.0
 10
86.1366888890561
 20
-120.2989447398905
 30
0.0
 10
86.1366888890561
 20
-119.194791636868
 30
0.0
 10
86.1366888890561
 20
-119.194791636868
 30
0.0
 10
86.1366888890561
 20
-119.194791636868
 30
0.0
 10
85.80664874156918
 20
-119.194791636868
 30
0.0
 10
85.80664874156918
 20
-119.194791636868
 30
0.0
 10
85.80664874156918
 20
-119.194791636868
 30
0.0
 10
85.80664874156918
 20
-119.0466525310022
 30
0.0
 10
85.80664874156918
 20
-119.0466525310022
 30
0.0
 10
86.13875594634726
 20
-119.0318386204157
 30
0.0
 10
86.18526473539814
 20
-118.8688856039633
 30
0.0
 10
86.21489255657129
 20
-118.754508433853
 30
0.0
 10
86.21489255657129
 20
-118.754508433853
 30
0.0
 10
86.36096460514587
 20
-118.754508433853
 30
0.0
 10
86.36096460514587
 20
-118.754508433853
 30
0.0
 10
86.36096460514587
 20
-118.754508433853
 30
0.0
 10
86.36096460514587
 20
-120.2989447398905
 30
0.0
 10
86.36096460514587
 20
-120.2989447398905
 30
0.0
 10
86.36096460514587
 20
-120.2989447398905
 30
0.0
 10
86.1366888890561
 20
-120.2989447398905
 30
0.0
 10
86.1366888890561
 20
-120.2989447398905
 30
0.0
  0
HATCH
  5
FB
330
F4
100
AcDbEntity
  8
_U+30EC_U+30A4_U+30E4_U+30FC 1
 62
     7
420
 16777215
100
AcDbHatch
 10
0.0
 20
0.0
 30
0.0
210
0.0
220
0.0
230
1.0
  2
SOLID
 70
     1
 71
     0
 91
        1
 92
        1
 93
        1
 72
     4
 94
        3
 73
     0
 74
     1
 95
       26
 96
       22
 40
0.0
 40
0.0
 40
0.0
 40
0.0
 40
1.0
 40
1.0
 40
1.0
 40
2.0
 40
2.0
 40
2.0
 40
3.0
 40
3.0
 40
3.0
 40
4.0
 40
4.0
 40
4.0
 40
5.0
 40
5.0
 40
5.0
 40
6.0
 40
6.0
 40
6.0
 40
7.0
 40
7.0
 40
7.0
 40
7.0
 10
86.1366888890561
 20
-120.2989447398905
 10
86.1366888890561
 20
-120.2989447398905
 10
86.1366888890561
 20
-119.194791636868
 10
86.1366888890561
 20
-119.194791636868
 10
86.1366888890561
 20
-119.194791636868
 10
85.80664874156918
 20
-119.194791636868
 10
85.80664874156918
 20
-119.194791636868
 10
85.80664874156918
 20
-119.194791636868
 10
85.80664874156918
 20
-119.0466525310022
 10
85.80664874156918
 20
-119.0466525310022
 10
86.13875594634726
 20
-119.0318386204157
 10
86.18526473539814
 20
-118.8688856039633
 10
86.21489255657129
 20
-118.754508433853
 10
86.21489255657129
 20
-118.754508433853
 10
86.36096460514587
 20
-118.754508433853
 10
86.36096460514587
 20
-118.754508433853
 10
86.36096460514587
 20
-118.754508433853
 10
86.36096460514587
 20
-120.2989447398905
 10
86.36096460514587
 20
-120.2989447398905
 10
86.36096460514587
 20
-120.2989447398905
 10
86.1366888890561
 20
-120.2989447398905
 10
86.1366888890561
 20
-120.2989447398905
 97
        0
 97
        0
 75
     2
 76
     1
 98
        0
  0
POLYLINE
  5
FC
330
F4
100
AcDbEntity
  8
_U+30EC_U+30A4_U+30E4_U+30FC 1
370
     0
100
AcDb2dPolyline
 66
     1
 10
0.0
 20
0.0
 30
0.0
  0
VERTEX
  5
FD
330
FC
100
AcDbEntity
  8
_U+30EC_U+30A4_U+30E4_U+30FC 1
370
     0
100
AcDbVertex
100
AcDb2dVertex
 10
86.92217065969307
 20
-120.2989447398905
 30
0.0
  0
VERTEX
  5
FE
330
FC
100
AcDbEntity
  8
_U+30EC_U+30A4_U+30E4_U+30FC 1
370
     0
100
AcDbVertex
100
AcDb2dVertex
 10
86.92217065969307
 20
-120.0471082599188
 30
0.0
  0
VERTEX
  5
FF
330
FC
100
AcDbEntity
  8
_U+30EC_U+30A4_U+30E4_U+30FC 1
370
     0
100
AcDbVertex
100
AcDb2dVertex
 10
87.17400713966484
 20
-120.0471082599188
 30
0.0
  0
VERTEX
  5
100
330
FC
100
AcDbEntity
  8
_U+30EC_U+30A4_U+30E4_U+30FC 1
370
     0
100
AcDbVertex
100
AcDb2dVertex
 10
87.17400713966484
 20
-120.2989447398905
 30
0.0
  0
VERTEX
  5
101
330
FC
100
AcDbEntity
  8
_U+30EC_U+30A4_U+30E4_U+30FC 1
370
     0
100
AcDbVertex
100
AcDb2dVertex
 10
86.92217065969307
 20
-120.2989447398905
 30
0.0
  0
SEQEND
  5
102
330
FC
100
AcDbEntity
  8
_U+30EC_U+30A4_U+30E4_U+30FC 1
370
     0
  0
HATCH
  5
103
330
F4
100
AcDbEntity
  8
_U+30EC_U+30A4_U+30E4_U+30FC 1
 62
     7
420
 16777215
100
AcDbHatch
 10
0.0
 20
0.0
 30
0.0
210
0.0
220
0.0
230
1.0
  2
SOLID
 70
     1
 71
     0
 91
        1
 92
        1
 93
        4
 72
     1
 10
86.92217065969307
 20
-120.2989447398905
 11
86.92217065969307
 21
-120.0471082599188
 72
     1
 10
86.92217065969307
 20
-120.0471082599188
 11
87.17400713966484
 21
-120.0471082599188
 72
     1
 10
87.17400713966484
 20
-120.0471082599188
 11
87.17400713966484
 21
-120.2989447398905
 72
     1
 10
87.17400713966484
 20
-120.2989447398905
 11
86.92217065969307
 21
-120.2989447398905
 97
        0
 75
     2
 76
     1
 98
        0
  0
SPLINE
  5
104
330
F4
100
AcDbEntity
  8
_U+30EC_U+30A4_U+30E4_U+30FC 1
370
     0
100
AcDbSpline
210
0.0
220
0.0
230
1.0
 70
    11
 71
     3
 72
    53
 73
    49
 74
     0
 42
0.0000000001
 43
0.0000000001
 12
1.0
 22
0.0
 32
0.0
 13
1.0
 23
0.0
 33
0.0
 40
0.0
 40
0.0
 40
0.0
 40
0.0
 40
1.0
 40
1.0
 40
1.0
 40
2.0
 40
2.0
 40
2.0
 40
3.0
 40
3.0
 40
3.0
 40
4.0
 40
4.0
 40
4.0
 40
5.0
 40
5.0
 40
5.0
 40
6.0
 40
6.0
 40
6.0
 40
7.0
 40
7.0
 40
7.0
 40
8.0
 40
8.0
 40
8.0
 40
9.0
 40
9.0
 40
9.0
 40
10.0
 40
10.0
 40
10.0
 40
11.0
 40
11.0
 40
11.0
 40
12.0
 40
12.0
 40
12.0
 40
13.0
 40
13.0
 40
13.0
 40
14.0
 40
14.0
 40
14.0
 40
15.0
 40
15.0
 40
15.0
 40
16.0
 40
16.0
 40
16.0
 40
16.0
 10
87.89127601969385
 20
-120.3495876435237
 30
0.0
 10
87.81307235217868
 20
-120.3495876435237
 30
0.0
 10
87.71144203536382
 20
-120.332706675646
 30
0.0
 10
87.60981171854894
 20
-120.2693169187174
 30
0.0
 10
87.43652341564088
 20
-120.1594183727379
 30
0.0
 10
87.41516382363233
 20
-120.0281602347499
 30
0.0
 10
87.39621579846344
 20
-119.9203287460616
 30
0.0
 10
87.39621579846344
 20
-119.9203287460616
 30
0.0
 10
87.61842445726207
 20
-119.9203287460616
 30
0.0
 10
87.61842445726207
 20
-119.9203287460616
 30
0.0
 10
87.67320147547754
 20
-120.1191107555605
 30
0.0
 10
87.80032549888325
 20
-120.1487385767336
 30
0.0
 10
87.893343076985
 20
-120.1487385767336
 30
0.0
 10
88.03286944413762
 20
-120.1487385767336
 30
0.0
 10
88.18514266458567
 20
-120.0491753172099
 30
0.0
 10
88.18514266458567
 20
-119.8166313719556
 30
0.0
 10
88.18514266458567
 20
-119.5606607774015
 30
0.0
 10
88.00530868025562
 20
-119.4907253390509
 30
0.0
 10
87.88473033827188
 20
-119.4907253390509
 30
0.0
 10
87.85303545980757
 20
-119.4907253390509
 30
0.0
 10
87.71144203536382
 20
-119.4907253390509
 30
0.0
 10
87.62255857184437
 20
-119.6199164197478
 30
0.0
 10
87.62255857184437
 20
-119.6199164197478
 30
0.0
 10
87.44685870209662
 20
-119.6009683945789
 30
0.0
 10
87.44685870209662
 20
-119.6009683945789
 30
0.0
 10
87.44685870209662
 20
-119.6009683945789
 30
0.0
 10
87.56743704408036
 20
-118.754508433853
 30
0.0
 10
87.56743704408036
 20
-118.754508433853
 30
0.0
 10
87.56743704408036
 20
-118.754508433853
 30
0.0
 10
88.34602862374683
 20
-118.754508433853
 30
0.0
 10
88.34602862374683
 20
-118.754508433853
 30
0.0
 10
88.34602862374683
 20
-118.754508433853
 30
0.0
 10
88.34602862374683
 20
-118.9491563287697
 30
0.0
 10
88.34602862374683
 20
-118.9491563287697
 30
0.0
 10
88.34602862374683
 20
-118.9491563287697
 30
0.0
 10
87.73039006053268
 20
-118.9491563287697
 30
0.0
 10
87.73039006053268
 20
-118.9491563287697
 30
0.0
 10
87.73039006053268
 20
-118.9491563287697
 30
0.0
 10
87.66493324631294
 20
-119.3722140543583
 30
0.0
 10
87.66493324631294
 20
-119.3722140543583
 30
0.0
 10
87.72625594595038
 20
-119.3384521186029
 30
0.0
 10
87.80859372804785
 20
-119.2981445014255
 30
0.0
 10
87.92710501274045
 20
-119.2981445014255
 30
0.0
 10
88.18100855000337
 20
-119.2981445014255
 30
0.0
 10
88.41803111938856
 20
-119.4845241671775
 30
0.0
 10
88.41803111938856
 20
-119.7976833467867
 30
0.0
 10
88.41803111938856
 20
-120.1149766409782
 30
0.0
 10
88.19375540329878
 20
-120.3495876435237
 30
0.0
 10
87.89127601969385
 20
-120.3495876435237
 30
0.0
  0
HATCH
  5
105
330
F4
100
AcDbEntity
  8
_U+30EC_U+30A4_U+30E4_U+30FC 1
 62
     7
420
 16777215
100
AcDbHatch
 10
0.0
 20
0.0
 30
0.0
210
0.0
220
0.0
230
1.0
  2
SOLID
 70
     1
 71
     0
 91
        1
 92
        1
 93
        1
 72
     4
 94
        3
 73
     0
 74
     1
 95
       53
 96
       49
 40
0.0
 40
0.0
 40
0.0
 40
0.0
 40
1.0
 40
1.0
 40
1.0
 40
2.0
 40
2.0
 40
2.0
 40
3.0
 40
3.0
 40
3.0
 40
4.0
 40
4.0
 40
4.0
 40
5.0
 40
5.0
 40
5.0
 40
6.0
 40
6.0
 40
6.0
 40
7.0
 40
7.0
 40
7.0
 40
8.0
 40
8.0
 40
8.0
 40
9.0
 40
9.0
 40
9.0
 40
10.0
 40
10.0
 40
10.0
 40
11.0
 40
11.0
 40
11.0
 40
12.0
 40
12.0
 40
12.0
 40
13.0
 40
13.0
 40
13.0
 40
14.0
 40
14.0
 40
14.0
 40
15.0
 40
15.0
 40
15.0
 40
16.0
 40
16.0
 40
16.0
 40
16.0
 10
87.89127601969385
 20
-120.3495876435237
 10
87.81307235217868
 20
-120.3495876435237
 10
87.71144203536382
 20
-120.332706675646
 10
87.60981171854894
 20
-120.2693169187174
 10
87.43652341564088
 20
-120.1594183727379
 10
87.41516382363233
 20
-120.0281602347499
 10
87.39621579846344
 20
-119.9203287460616
 10
87.39621579846344
 20
-119.9203287460616
 10
87.61842445726207
 20
-119.9203287460616
 10
87.61842445726207
 20
-119.9203287460616
 10
87.67320147547754
 20
-120.1191107555605
 10
87.80032549888325
 20
-120.1487385767336
 10
87.893343076985
 20
-120.1487385767336
 10
88.03286944413762
 20
-120.1487385767336
 10
88.18514266458567
 20
-120.0491753172099
 10
88.18514266458567
 20
-119.8166313719556
 10
88.18514266458567
 20
-119.5606607774015
 10
88.00530868025562
 20
-119.4907253390509
 10
87.88473033827188
 20
-119.4907253390509
 10
87.85303545980757
 20
-119.4907253390509
 10
87.71144203536382
 20
-119.4907253390509
 10
87.62255857184437
 20
-119.6199164197478
 10
87.62255857184437
 20
-119.6199164197478
 10
87.44685870209662
 20
-119.6009683945789
 10
87.44685870209662
 20
-119.6009683945789
 10
87.44685870209662
 20
-119.6009683945789
 10
87.56743704408036
 20
-118.754508433853
 10
87.56743704408036
 20
-118.754508433853
 10
87.56743704408036
 20
-118.754508433853
 10
88.34602862374683
 20
-118.754508433853
 10
88.34602862374683
 20
-118.754508433853
 10
88.34602862374683
 20
-118.754508433853
 10
88.34602862374683
 20
-118.9491563287697
 10
88.34602862374683
 20
-118.9491563287697
 10
88.34602862374683
 20
-118.9491563287697
 10
87.73039006053268
 20
-118.9491563287697
 10
87.73039006053268
 20
-118.9491563287697
 10
87.73039006053268
 20
-118.9491563287697
 10
87.66493324631294
 20
-119.3722140543583
 10
87.66493324631294
 20
-119.3722140543583
 10
87.72625594595038
 20
-119.3384521186029
 10
87.80859372804785
 20
-119.2981445014255
 10
87.92710501274045
 20
-119.2981445014255
 10
88.18100855000337
 20
-119.2981445014255
 10
88.41803111938856
 20
-119.4845241671775
 10
88.41803111938856
 20
-119.7976833467867
 10
88.41803111938856
 20
-120.1149766409782
 10
88.19375540329878
 20
-120.3495876435237
 10
87.89127601969385
 20
-120.3495876435237
 97
        0
 97
        0
 75
     2
 76
     1
 98
        0
  0
ENDBLK
  5
F7
330
F4
100
AcDbEntity
  8
0
100
AcDbBlockEnd
  0
ENDSEC
  0
SECTION
  2
ENTITIES
  0
POLYLINE
  5
41
330
1F
100
AcDbEntity
  8
_U+30EC_U+30A4_U+30E4_U+30FC 1
370
     0
100
AcDb2dPolyline
 66
     1
 10
0.0
 20
0.0
 30
0.0
  0
VERTEX
  5
42
330
41
100
AcDbEntity
  8
_U+30EC_U+30A4_U+30E4_U+30FC 1
370
     0
100
AcDbVertex
100
AcDb2dVertex
 10
80.60972220206979
 20
-124.1186874689705
 30
0.0
  0
VERTEX
  5
43
330
41
100
AcDbEntity
  8
_U+30EC_U+30A4_U+30E4_U+30FC 1
370
     0
100
AcDbVertex
100
AcDb2dVertex
 10
80.60972220206979
 20
-125.2359346909132
 30
0.0
  0
VERTEX
  5
44
330
41
100
AcDbEntity
  8
_U+30EC_U+30A4_U+30E4_U+30FC 1
370
     0
100
AcDbVertex
100
AcDb2dVertex
 10
90.84027775506772
 20
-125.2359346909132
 30
0.0
  0
VERTEX
  5
45
330
41
100
AcDbEntity
  8
_U+30EC_U+30A4_U+30E4_U+30FC 1
370
     0
100
AcDbVertex
100
AcDb2dVertex
 10
90.84027775506772
 20
-134.5254555219243
 30
0.0
  0
VERTEX
  5
46
330
41
100
AcDbEntity
  8
_U+30EC_U+30A4_U+30E4_U+30FC 1
370
     0
100
AcDbVertex
100
AcDb2dVertex
 10
102.4233833077278
 20
-134.5254555219243
 30
0.0
  0
VERTEX
  5
47
330
41
100
AcDbEntity
  8
_U+30EC_U+30A4_U+30E4_U+30FC 1
370
     0
100
AcDbVertex
100
AcDb2dVertex
 10
102.4233833077278
 20
-133.4671221888556
 30
0.0
  0
VERTEX
  5
48
330
41
100
AcDbEntity
  8
_U+30EC_U+30A4_U+30E4_U+30FC 1
370
     0
100
AcDbVertex
100
AcDb2dVertex
 10
92.07499997698126
 20
-133.4671221888556
 30
0.0
  0
VERTEX
  5
49
330
41
100
AcDbEntity
  8
_U+30EC_U+30A4_U+30E4_U+30FC 1
370
     0
100
AcDbVertex
100
AcDb2dVertex
 10
92.07499997698126
 20
-124.060126357874
 30
0.0
  0
VERTEX
  5
4A
330
41
100
AcDbEntity
  8
_U+30EC_U+30A4_U+30E4_U+30FC 1
370
     0
100
AcDbVertex
100
AcDb2dVertex
 10
80.60972220206979
 20
-124.1186874689705
 30
0.0
  0
SEQEND
  5
4C
330
41
100
AcDbEntity
  8
_U+30EC_U+30A4_U+30E4_U+30FC 1
370
     0
  0
HATCH
  5
4B
330
1F
100
AcDbEntity
  8
_U+30EC_U+30A4_U+30E4_U+30FC 1
 62
   253
420
 11711154
100
AcDbHatch
 10
0.0
 20
0.0
 30
0.0
210
0.0
220
0.0
230
1.0
  2
SOLID
 70
     1
 71
     0
 91
        1
 92
        1
 93
        8
 72
     1
 10
80.60972220206979
 20
-124.1186874689705
 11
80.60972220206979
 21
-125.2359346909132
 72
     1
 10
80.60972220206979
 20
-125.2359346909132
 11
90.84027775506772
 21
-125.2359346909132
 72
     1
 10
90.84027775506772
 20
-125.2359346909132
 11
90.84027775506772
 21
-134.5254555219243
 72
     1
 10
90.84027775506772
 20
-134.5254555219243
 11
102.4233833077278
 21
-134.5254555219243
 72
     1
 10
102.4233833077278
 20
-134.5254555219243
 11
102.4233833077278
 21
-133.4671221888556
 72
     1
 10
102.4233833077278
 20
-133.4671221888556
 11
92.07499997698126
 21
-133.4671221888556
 72
     1
 10
92.07499997698126
 20
-133.4671221888556
 11
92.07499997698126
 21
-124.060126357874
 72
     1
 10
92.07499997698126
 20
-124.060126357874
 11
80.60972220206979
 21
-124.1186874689705
 97
        0
 75
     2
 76
     1
 98
        0
  0
SPLINE
  5
4D
330
1F
100
AcDbEntity
  8
_U+30EC_U+30A4_U+30E4_U+30FC 1
 62
     7
420
 16777215
370
     9
100
AcDbSpline
210
0.0
220
0.0
230
1.0
 70
    11
 71
     3
 72
    17
 73
    13
 74
     0
 42
0.0000000001
 43
0.0000000001
 12
1.0
 22
0.0
 32
0.0
 13
1.0
 23
0.0
 33
0.0
 40
0.0
 40
0.0
 40
0.0
 40
0.0
 40
1.0
 40
1.0
 40
1.0
 40
2.0
 40
2.0
 40
2.0
 40
3.0
 40
3.0
 40
3.0
 40
4.0
 40
4.0
 40
4.0
 40
4.0
 10
107.0666769907237
 20
-134.460015244163
 30
0.0
 10
107.0666769907237
 20
-134.40487607751
 30
0.0
 10
107.021874214089
 20
-134.3601085775214
 30
0.0
 10
106.9667703266059
 20
-134.3601085775214
 30
0.0
 10
106.9116311613459
 20
-134.3601085775214
 30
0.0
 10
106.8668636624881
 20
-134.40487607751
 30
0.0
 10
106.8668636624881
 20
-134.460015244163
 30
0.0
 10
106.8668636624881
 20
-134.515119133038
 30
0.0
 10
106.9116311613459
 20
-134.5599219108047
 30
0.0
 10
106.9667703266059
 20
-134.5599219108047
 30
0.0
 10
107.021874214089
 20
-134.5599219108047
 30
0.0
 10
107.0666769907237
 20
-134.515119133038
 30
0.0
 10
107.0666769907237
 20
-134.460015244163
 30
0.0
  0
SPLINE
  5
4E
330
1F
100
AcDbEntity
  8
_U+30EC_U+30A4_U+30E4_U+30FC 1
 62
     7
420
 16777215
370
     9
100
AcDbSpline
210
0.0
220
0.0
230
1.0
 70
    11
 71
     3
 72
    17
 73
    13
 74
     0
 42
0.0000000001
 43
0.0000000001
 12
1.0
 22
0.0
 32
0.0
 13
1.0
 23
0.0
 33
0.0
 40
0.0
 40
0.0
 40
0.0
 40
0.0
 40
1.0
 40
1.0
 40
1.0
 40
2.0
 40
2.0
 40
2.0
 40
3.0
 40
3.0
 40
3.0
 40
4.0
 40
4.0
 40
4.0
 40
4.0
 10
107.0666769907237
 20
-133.1598174667101
 30
0.0
 10
107.0666769907237
 20
-133.1047135778352
 30
0.0
 10
107.021874214089
 20
-133.0599108000684
 30
0.0
 10
106.9667703266059
 20
-133.0599108000684
 30
0.0
 10
106.9116311613459
 20
-133.0599108000684
 30
0.0
 10
106.8668636624881
 20
-133.1047135778352
 30
0.0
 10
106.8668636624881
 20
-133.1598174667101
 30
0.0
 10
106.8668636624881
 20
-133.2149566333631
 30
0.0
 10
106.9116311613459
 20
-133.2597241333517
 30
0.0
 10
106.9667703266059
 20
-133.2597241333517
 30
0.0
 10
107.021874214089
 20
-133.2597241333517
 30
0.0
 10
107.0666769907237
 20
-133.2149566333631
 30
0.0
 10
107.0666769907237
 20
-133.1598174667101
 30
0.0
  0
SPLINE
  5
4F
330
1F
100
AcDbEntity
  8
_U+30EC_U+30A4_U+30E4_U+30FC 1
 62
     7
420
 16777215
370
     9
100
AcDbSpline
210
0.0
220
0.0
230
1.0
 70
    11
 71
     3
 72
    17
 73
    13
 74
     0
 42
0.0000000001
 43
0.0000000001
 12
1.0
 22
0.0
 32
0.0
 13
1.0
 23
0.0
 33
0.0
 40
0.0
 40
0.0
 40
0.0
 40
0.0
 40
1.0
 40
1.0
 40
1.0
 40
2.0
 40
2.0
 40
2.0
 40
3.0
 40
3.0
 40
3.0
 40
4.0
 40
4.0
 40
4.0
 40
4.0
 10
107.0666769907237
 20
-123.8596074690352
 30
0.0
 10
107.0666769907237
 20
-123.8045035801599
 30
0.0
 10
107.021874214089
 20
-123.7597008023935
 30
0.0
 10
106.9667703266059
 20
-123.7597008023935
 30
0.0
 10
106.9116311613459
 20
-123.7597008023935
 30
0.0
 10
106.8668636624881
 20
-123.8045035801599
 30
0.0
 10
106.8668636624881
 20
-123.8596074690352
 30
0.0
 10
106.8668636624881
 20
-123.9150994134657
 30
0.0
 10
106.9116311613459
 20
-123.9595141356768
 30
0.0
 10
106.9667703266059
 20
-123.9595141356768
 30
0.0
 10
107.021874214089
 20
-123.9595141356768
 30
0.0
 10
107.0666769907237
 20
-123.9150994134657
 30
0.0
 10
107.0666769907237
 20
-123.8596074690352
 30
0.0
  0
POLYLINE
  5
50
330
1F
100
AcDbEntity
  8
_U+30EC_U+30A4_U+30E4_U+30FC 1
 62
     7
420
 16777215
370
     9
100
AcDb2dPolyline
 66
     1
 10
0.0
 20
0.0
 30
0.0
  0
VERTEX
  5
51
330
50
100
AcDbEntity
  8
_U+30EC_U+30A4_U+30E4_U+30FC 1
 62
     7
420
 16777215
370
     9
100
AcDbVertex
100
AcDb2dVertex
 10
106.9667703266059
 20
-133.2597241333517
 30
0.0
  0
VERTEX
  5
52
330
50
100
AcDbEntity
  8
_U+30EC_U+30A4_U+30E4_U+30FC 1
 62
     7
420
 16777215
370
     9
100
AcDbVertex
100
AcDb2dVertex
 10
106.9667703266059
 20
-134.460015244163
 30
0.0
  0
SEQEND
  5
53
330
50
100
AcDbEntity
  8
_U+30EC_U+30A4_U+30E4_U+30FC 1
 62
     7
420
 16777215
370
     9
  0
POLYLINE
  5
54
330
1F
100
AcDbEntity
  8
_U+30EC_U+30A4_U+30E4_U+30FC 1
 62
     7
420
 16777215
370
     9
100
AcDb2dPolyline
 66
     1
 10
0.0
 20
0.0
 30
0.0
  0
VERTEX
  5
55
330
54
100
AcDbEntity
  8
_U+30EC_U+30A4_U+30E4_U+30FC 1
 62
     7
420
 16777215
370
     9
100
AcDbVertex
100
AcDb2dVertex
 10
105.5067289749658
 20
-133.1598174667101
 30
0.0
  0
VERTEX
  5
56
330
54
100
AcDbEntity
  8
_U+30EC_U+30A4_U+30E4_U+30FC 1
 62
     7
420
 16777215
370
     9
100
AcDbVertex
100
AcDb2dVertex
 10
107.9665425233218
 20
-133.1598174667101
 30
0.0
  0
SEQEND
  5
57
330
54
100
AcDbEntity
  8
_U+30EC_U+30A4_U+30E4_U+30FC 1
 62
     7
420
 16777215
370
     9
  0
POLYLINE
  5
58
330
1F
100
AcDbEntity
  8
_U+30EC_U+30A4_U+30E4_U+30FC 1
 62
     7
420
 16777215
370
     9
100
AcDb2dPolyline
 66
     1
 10
0.0
 20
0.0
 30
0.0
  0
VERTEX
  5
59
330
58
100
AcDbEntity
  8
_U+30EC_U+30A4_U+30E4_U+30FC 1
 62
     7
420
 16777215
370
     9
100
AcDbVertex
100
AcDb2dVertex
 10
105.5067289749658
 20
-134.460015244163
 30
0.0
  0
VERTEX
  5
5A
330
58
100
AcDbEntity
  8
_U+30EC_U+30A4_U+30E4_U+30FC 1
 62
     7
420
 16777215
370
     9
100
AcDbVertex
100
AcDb2dVertex
 10
107.9665425233218
 20
-134.460015244163
 30
0.0
  0
SEQEND
  5
5B
330
58
100
AcDbEntity
  8
_U+30EC_U+30A4_U+30E4_U+30FC 1
 62
     7
420
 16777215
370
     9
  0
INSERT
  5
5D
330
1F
100
AcDbEntity
  8
_U+30EC_U+30A4_U+30E4_U+30FC 1
100
AcDbBlockReference
  2
block 2
 10
0.0
 20
0.0
 30
0.0
  0
POLYLINE
  5
6C
330
1F
100
AcDbEntity
  8
_U+30EC_U+30A4_U+30E4_U+30FC 1
 62
     7
420
 16777215
370
     9
100
AcDb2dPolyline
 66
     1
 10
0.0
 20
0.0
 30
0.0
  0
VERTEX
  5
6D
330
6C
100
AcDbEntity
  8
_U+30EC_U+30A4_U+30E4_U+30FC 1
 62
     7
420
 16777215
370
     9
100
AcDbVertex
100
AcDb2dVertex
 10
106.9667703266059
 20
-133.1598174667101
 30
0.0
  0
VERTEX
  5
6E
330
6C
100
AcDbEntity
  8
_U+30EC_U+30A4_U+30E4_U+30FC 1
 62
     7
420
 16777215
370
     9
100
AcDbVertex
100
AcDb2dVertex
 10
106.9667703266059
 20
-123.8596074690352
 30
0.0
  0
SEQEND
  5
6F
330
6C
100
AcDbEntity
  8
_U+30EC_U+30A4_U+30E4_U+30FC 1
 62
     7
420
 16777215
370
     9
  0
POLYLINE
  5
70
330
1F
100
AcDbEntity
  8
_U+30EC_U+30A4_U+30E4_U+30FC 1
 62
     7
420
 16777215
370
     9
100
AcDb2dPolyline
 66
     1
 10
0.0
 20
0.0
 30
0.0
  0
VERTEX
  5
71
330
70
100
AcDbEntity
  8
_U+30EC_U+30A4_U+30E4_U+30FC 1
 62
     7
420
 16777215
370
     9
100
AcDbVertex
100
AcDb2dVertex
 10
96.00585921735315
 20
-123.8596074690352
 30
0.0
  0
VERTEX
  5
72
330
70
100
AcDbEntity
  8
_U+30EC_U+30A4_U+30E4_U+30FC 1
 62
     7
420
 16777215
370
     9
100
AcDbVertex
100
AcDb2dVertex
 10
107.9665425233218
 20
-123.8596074690352
 30
0.0
  0
SEQEND
  5
73
330
70
100
AcDbEntity
  8
_U+30EC_U+30A4_U+30E4_U+30FC 1
 62
     7
420
 16777215
370
     9
  0
INSERT
  5
75
330
1F
100
AcDbEntity
  8
_U+30EC_U+30A4_U+30E4_U+30FC 1
100
AcDbBlockReference
  2
block 3
 10
0.0
 20
0.0
 30
0.0
  0
SPLINE
  5
85
330
1F
100
AcDbEntity
  8
_U+30EC_U+30A4_U+30E4_U+30FC 1
 62
     7
420
 16777215
370
     9
100
AcDbSpline
210
0.0
220
0.0
230
1.0
 70
    11
 71
     3
 72
    17
 73
    13
 74
     0
 42
0.0000000001
 43
0.0000000001
 12
1.0
 22
0.0
 32
0.0
 13
1.0
 23
0.0
 33
0.0
 40
0.0
 40
0.0
 40
0.0
 40
0.0
 40
1.0
 40
1.0
 40
1.0
 40
2.0
 40
2.0
 40
2.0
 40
3.0
 40
3.0
 40
3.0
 40
4.0
 40
4.0
 40
4.0
 40
4.0
 10
78.3850330002312
 20
-124.1600330245156
 30
0.0
 10
78.3850330002312
 20
-124.2151721911683
 30
0.0
 10
78.42983577686597
 20
-124.2599396911572
 30
0.0
 10
78.48529442482315
 20
-124.2599396911572
 30
0.0
 10
78.54043160737777
 20
-124.2599396911572
 30
0.0
 10
78.58519910623565
 20
-124.2151721911683
 30
0.0
 10
78.58519910623565
 20
-124.1600330245156
 30
0.0
 10
78.58519910623565
 20
-124.1049291356404
 30
0.0
 10
78.54043160737777
 20
-124.060126357874
 30
0.0
 10
78.48529442482315
 20
-124.060126357874
 30
0.0
 10
78.42983577686597
 20
-124.060126357874
 30
0.0
 10
78.3850330002312
 20
-124.1049291356404
 30
0.0
 10
78.3850330002312
 20
-124.1600330245156
 30
0.0
  0
SPLINE
  5
86
330
1F
100
AcDbEntity
  8
_U+30EC_U+30A4_U+30E4_U+30FC 1
 62
     7
420
 16777215
370
     9
100
AcDbSpline
210
0.0
220
0.0
230
1.0
 70
    11
 71
     3
 72
    17
 73
    13
 74
     0
 42
0.0000000001
 43
0.0000000001
 12
1.0
 22
0.0
 32
0.0
 13
1.0
 23
0.0
 33
0.0
 40
0.0
 40
0.0
 40
0.0
 40
0.0
 40
1.0
 40
1.0
 40
1.0
 40
2.0
 40
2.0
 40
2.0
 40
3.0
 40
3.0
 40
3.0
 40
4.0
 40
4.0
 40
4.0
 40
4.0
 10
78.3850330002312
 20
-134.6598285774463
 30
0.0
 10
78.3850330002312
 20
-134.7149324663212
 30
0.0
 10
78.42983577686597
 20
-134.7597352440879
 30
0.0
 10
78.48529442482315
 20
-134.7597352440879
 30
0.0
 10
78.54043160737777
 20
-134.7597352440879
 30
0.0
 10
78.58519910623565
 20
-134.7149324663212
 30
0.0
 10
78.58519910623565
 20
-134.6598285774463
 30
0.0
 10
78.58519910623565
 20
-134.6046894107932
 30
0.0
 10
78.54043160737777
 20
-134.5599219108047
 30
0.0
 10
78.48529442482315
 20
-134.5599219108047
 30
0.0
 10
78.42983577686597
 20
-134.5599219108047
 30
0.0
 10
78.3850330002312
 20
-134.6046894107932
 30
0.0
 10
78.3850330002312
 20
-134.6598285774463
 30
0.0
  0
POLYLINE
  5
87
330
1F
100
AcDbEntity
  8
_U+30EC_U+30A4_U+30E4_U+30FC 1
 62
     7
420
 16777215
370
     9
100
AcDb2dPolyline
 66
     1
 10
0.0
 20
0.0
 30
0.0
  0
VERTEX
  5
88
330
87
100
AcDbEntity
  8
_U+30EC_U+30A4_U+30E4_U+30FC 1
 62
     7
420
 16777215
370
     9
100
AcDbVertex
100
AcDb2dVertex
 10
79.94533379375795
 20
-124.1600330245156
 30
0.0
  0
VERTEX
  5
89
330
87
100
AcDbEntity
  8
_U+30EC_U+30A4_U+30E4_U+30FC 1
 62
     7
420
 16777215
370
     9
100
AcDbVertex
100
AcDb2dVertex
 10
77.48520274541
 20
-124.1600330245156
 30
0.0
  0
SEQEND
  5
8A
330
87
100
AcDbEntity
  8
_U+30EC_U+30A4_U+30E4_U+30FC 1
 62
     7
420
 16777215
370
     9
  0
POLYLINE
  5
8B
330
1F
100
AcDbEntity
  8
_U+30EC_U+30A4_U+30E4_U+30FC 1
 62
     7
420
 16777215
370
     9
100
AcDb2dPolyline
 66
     1
 10
0.0
 20
0.0
 30
0.0
  0
VERTEX
  5
8C
330
8B
100
AcDbEntity
  8
_U+30EC_U+30A4_U+30E4_U+30FC 1
 62
     7
420
 16777215
370
     9
100
AcDbVertex
100
AcDb2dVertex
 10
78.48529442482315
 20
-124.1600330245156
 30
0.0
  0
VERTEX
  5
8D
330
8B
100
AcDbEntity
  8
_U+30EC_U+30A4_U+30E4_U+30FC 1
 62
     7
420
 16777215
370
     9
100
AcDbVertex
100
AcDb2dVertex
 10
78.48529442482315
 20
-134.6598285774463
 30
0.0
  0
SEQEND
  5
8E
330
8B
100
AcDbEntity
  8
_U+30EC_U+30A4_U+30E4_U+30FC 1
 62
     7
420
 16777215
370
     9
  0
POLYLINE
  5
8F
330
1F
100
AcDbEntity
  8
_U+30EC_U+30A4_U+30E4_U+30FC 1
 62
     7
420
 16777215
370
     9
100
AcDb2dPolyline
 66
     1
 10
0.0
 20
0.0
 30
0.0
  0
VERTEX
  5
90
330
8F
100
AcDbEntity
  8
_U+30EC_U+30A4_U+30E4_U+30FC 1
 62
     7
420
 16777215
370
     9
100
AcDbVertex
100
AcDb2dVertex
 10
89.44588605137866
 20
-134.6598285774463
 30
0.0
  0
VERTEX
  5
91
330
8F
100
AcDbEntity
  8
_U+30EC_U+30A4_U+30E4_U+30FC 1
 62
     7
420
 16777215
370
     9
100
AcDbVertex
100
AcDb2dVertex
 10
77.48520274541
 20
-134.6598285774463
 30
0.0
  0
SEQEND
  5
92
330
8F
100
AcDbEntity
  8
_U+30EC_U+30A4_U+30E4_U+30FC 1
 62
     7
420
 16777215
370
     9
  0
INSERT
  5
94
330
1F
100
AcDbEntity
  8
_U+30EC_U+30A4_U+30E4_U+30FC 1
100
AcDbBlockReference
  2
block 4
 10
0.0
 20
0.0
 30
0.0
  0
POLYLINE
  5
A6
330
1F
100
AcDbEntity
  8
_U+30EC_U+30A4_U+30E4_U+30FC 1
 62
     7
420
 16777215
370
    25
100
AcDb2dPolyline
 66
     1
 10
0.0
 20
0.0
 30
0.0
  0
VERTEX
  5
A7
330
A6
100
AcDbEntity
  8
_U+30EC_U+30A4_U+30E4_U+30FC 1
 62
     7
420
 16777215
370
    25
100
AcDbVertex
100
AcDb2dVertex
 10
80.60972220206979
 20
-124.060126357874
 30
0.0
  0
VERTEX
  5
A8
330
A6
100
AcDbEntity
  8
_U+30EC_U+30A4_U+30E4_U+30FC 1
 62
     7
420
 16777215
370
    25
100
AcDbVertex
100
AcDb2dVertex
 10
80.60972220206979
 20
-125.2600646909072
 30
0.0
  0
SEQEND
  5
A9
330
A6
100
AcDbEntity
  8
_U+30EC_U+30A4_U+30E4_U+30FC 1
 62
     7
420
 16777215
370
    25
  0
POLYLINE
  5
AA
330
1F
100
AcDbEntity
  8
_U+30EC_U+30A4_U+30E4_U+30FC 1
 62
     7
420
 16777215
370
    25
100
AcDb2dPolyline
 66
     1
 10
0.0
 20
0.0
 30
0.0
  0
VERTEX
  5
AB
330
AA
100
AcDbEntity
  8
_U+30EC_U+30A4_U+30E4_U+30FC 1
 62
     7
420
 16777215
370
    25
100
AcDbVertex
100
AcDb2dVertex
 10
80.60972220206979
 20
-124.060126357874
 30
0.0
  0
VERTEX
  5
AC
330
AA
100
AcDbEntity
  8
_U+30EC_U+30A4_U+30E4_U+30FC 1
 62
     7
420
 16777215
370
    25
100
AcDbVertex
100
AcDb2dVertex
 10
92.10978153897258
 20
-124.060126357874
 30
0.0
  0
SEQEND
  5
AD
330
AA
100
AcDbEntity
  8
_U+30EC_U+30A4_U+30E4_U+30FC 1
 62
     7
420
 16777215
370
    25
  0
POLYLINE
  5
AE
330
1F
100
AcDbEntity
  8
_U+30EC_U+30A4_U+30E4_U+30FC 1
 62
     7
420
 16777215
370
    25
100
AcDb2dPolyline
 66
     1
 10
0.0
 20
0.0
 30
0.0
  0
VERTEX
  5
AF
330
AE
100
AcDbEntity
  8
_U+30EC_U+30A4_U+30E4_U+30FC 1
 62
     7
420
 16777215
370
    25
100
AcDbVertex
100
AcDb2dVertex
 10
92.10978153897258
 20
-133.3603363555489
 30
0.0
  0
VERTEX
  5
B0
330
AE
100
AcDbEntity
  8
_U+30EC_U+30A4_U+30E4_U+30FC 1
 62
     7
420
 16777215
370
    25
100
AcDbVertex
100
AcDb2dVertex
 10
92.10978153897258
 20
-124.060126357874
 30
0.0
  0
SEQEND
  5
B1
330
AE
100
AcDbEntity
  8
_U+30EC_U+30A4_U+30E4_U+30FC 1
 62
     7
420
 16777215
370
    25
  0
POLYLINE
  5
B2
330
1F
100
AcDbEntity
  8
_U+30EC_U+30A4_U+30E4_U+30FC 1
 62
     7
420
 16777215
370
    25
100
AcDb2dPolyline
 66
     1
 10
0.0
 20
0.0
 30
0.0
  0
VERTEX
  5
B3
330
B2
100
AcDbEntity
  8
_U+30EC_U+30A4_U+30E4_U+30FC 1
 62
     7
420
 16777215
370
    25
100
AcDbVertex
100
AcDb2dVertex
 10
90.9098785140291
 20
-134.5599219108047
 30
0.0
  0
VERTEX
  5
B4
330
B2
100
AcDbEntity
  8
_U+30EC_U+30A4_U+30E4_U+30FC 1
 62
     7
420
 16777215
370
    25
100
AcDbVertex
100
AcDb2dVertex
 10
90.9098785140291
 20
-125.2600646909072
 30
0.0
  0
SEQEND
  5
B5
330
B2
100
AcDbEntity
  8
_U+30EC_U+30A4_U+30E4_U+30FC 1
 62
     7
420
 16777215
370
    25
  0
POLYLINE
  5
B6
330
1F
100
AcDbEntity
  8
_U+30EC_U+30A4_U+30E4_U+30FC 1
 62
     7
420
 16777215
370
    25
100
AcDb2dPolyline
 66
     1
 10
0.0
 20
0.0
 30
0.0
  0
VERTEX
  5
B7
330
B6
100
AcDbEntity
  8
_U+30EC_U+30A4_U+30E4_U+30FC 1
 62
     7
420
 16777215
370
    25
100
AcDbVertex
100
AcDb2dVertex
 10
80.60972220206979
 20
-125.2600646909072
 30
0.0
  0
VERTEX
  5
B8
330
B6
100
AcDbEntity
  8
_U+30EC_U+30A4_U+30E4_U+30FC 1
 62
     7
420
 16777215
370
    25
100
AcDbVertex
100
AcDb2dVertex
 10
90.9098785140291
 20
-125.2600646909072
 30
0.0
  0
SEQEND
  5
B9
330
B6
100
AcDbEntity
  8
_U+30EC_U+30A4_U+30E4_U+30FC 1
 62
     7
420
 16777215
370
    25
  0
POLYLINE
  5
BA
330
1F
100
AcDbEntity
  8
_U+30EC_U+30A4_U+30E4_U+30FC 1
 62
     7
420
 16777215
370
    25
100
AcDb2dPolyline
 66
     1
 10
0.0
 20
0.0
 30
0.0
  0
VERTEX
  5
BB
330
BA
100
AcDbEntity
  8
_U+30EC_U+30A4_U+30E4_U+30FC 1
 62
     7
420
 16777215
370
    25
100
AcDbVertex
100
AcDb2dVertex
 10
102.4099398873048
 20
-134.5599219108047
 30
0.0
  0
VERTEX
  5
BC
330
BA
100
AcDbEntity
  8
_U+30EC_U+30A4_U+30E4_U+30FC 1
 62
     7
420
 16777215
370
    25
100
AcDbVertex
100
AcDb2dVertex
 10
102.4099398873048
 20
-133.3603363555489
 30
0.0
  0
SEQEND
  5
BD
330
BA
100
AcDbEntity
  8
_U+30EC_U+30A4_U+30E4_U+30FC 1
 62
     7
420
 16777215
370
    25
  0
POLYLINE
  5
BE
330
1F
100
AcDbEntity
  8
_U+30EC_U+30A4_U+30E4_U+30FC 1
 62
     7
420
 16777215
370
    25
100
AcDb2dPolyline
 66
     1
 10
0.0
 20
0.0
 30
0.0
  0
VERTEX
  5
BF
330
BE
100
AcDbEntity
  8
_U+30EC_U+30A4_U+30E4_U+30FC 1
 62
     7
420
 16777215
370
    25
100
AcDbVertex
100
AcDb2dVertex
 10
102.4099398873048
 20
-134.5599219108047
 30
0.0
  0
VERTEX
  5
C0
330
BE
100
AcDbEntity
  8
_U+30EC_U+30A4_U+30E4_U+30FC 1
 62
     7
420
 16777215
370
    25
100
AcDbVertex
100
AcDb2dVertex
 10
90.9098785140291
 20
-134.5599219108047
 30
0.0
  0
SEQEND
  5
C1
330
BE
100
AcDbEntity
  8
_U+30EC_U+30A4_U+30E4_U+30FC 1
 62
     7
420
 16777215
370
    25
  0
POLYLINE
  5
C2
330
1F
100
AcDbEntity
  8
_U+30EC_U+30A4_U+30E4_U+30FC 1
 62
     7
420
 16777215
370
    25
100
AcDb2dPolyline
 66
     1
 10
0.0
 20
0.0
 30
0.0
  0
VERTEX
  5
C3
330
C2
100
AcDbEntity
  8
_U+30EC_U+30A4_U+30E4_U+30FC 1
 62
     7
420
 16777215
370
    25
100
AcDbVertex
100
AcDb2dVertex
 10
102.4099398873048
 20
-133.3603363555489
 30
0.0
  0
VERTEX
  5
C4
330
C2
100
AcDbEntity
  8
_U+30EC_U+30A4_U+30E4_U+30FC 1
 62
     7
420
 16777215
370
    25
100
AcDbVertex
100
AcDb2dVertex
 10
92.10978153897258
 20
-133.3603363555489
 30
0.0
  0
SEQEND
  5
C5
330
C2
100
AcDbEntity
  8
_U+30EC_U+30A4_U+30E4_U+30FC 1
 62
     7
420
 16777215
370
    25
  0
SPLINE
  5
C6
330
1F
100
AcDbEntity
  8
_U+30EC_U+30A4_U+30E4_U+30FC 1
 62
     7
420
 16777215
370
     9
100
AcDbSpline
210
0.0
220
0.0
230
1.0
 70
    11
 71
     3
 72
    17
 73
    13
 74
     0
 42
0.0000000001
 43
0.0000000001
 12
1.0
 22
0.0
 32
0.0
 13
1.0
 23
0.0
 33
0.0
 40
0.0
 40
0.0
 40
0.0
 40
0.0
 40
1.0
 40
1.0
 40
1.0
 40
2.0
 40
2.0
 40
2.0
 40
3.0
 40
3.0
 40
3.0
 40
4.0
 40
4.0
 40
4.0
 40
4.0
 10
90.9098785140291
 20
-138.9372591319325
 30
0.0
 10
90.9098785140291
 20
-138.8821199652794
 30
0.0
 10
90.86507573739435
 20
-138.8373524652909
 30
0.0
 10
90.80997184991128
 20
-138.8373524652909
 30
0.0
 10
90.75483268465132
 20
-138.8373524652909
 30
0.0
 10
90.71006518579344
 20
-138.8821199652794
 30
0.0
 10
90.71006518579344
 20
-138.9372591319325
 30
0.0
 10
90.71006518579344
 20
-138.9923630208074
 30
0.0
 10
90.75483268465132
 20
-139.0371657985742
 30
0.0
 10
90.80997184991128
 20
-139.0371657985742
 30
0.0
 10
90.86507573739435
 20
-139.0371657985742
 30
0.0
 10
90.9098785140291
 20
-138.9923630208074
 30
0.0
 10
90.9098785140291
 20
-138.9372591319325
 30
0.0
  0
SPLINE
  5
C7
330
1F
100
AcDbEntity
  8
_U+30EC_U+30A4_U+30E4_U+30FC 1
 62
     7
420
 16777215
370
     9
100
AcDbSpline
210
0.0
220
0.0
230
1.0
 70
    11
 71
     3
 72
    17
 73
    13
 74
     0
 42
0.0000000001
 43
0.0000000001
 12
1.0
 22
0.0
 32
0.0
 13
1.0
 23
0.0
 33
0.0
 40
0.0
 40
0.0
 40
0.0
 40
0.0
 40
1.0
 40
1.0
 40
1.0
 40
2.0
 40
2.0
 40
2.0
 40
3.0
 40
3.0
 40
3.0
 40
4.0
 40
4.0
 40
4.0
 40
4.0
 10
102.4099398873048
 20
-138.9372591319325
 30
0.0
 10
102.4099398873048
 20
-138.8821199652794
 30
0.0
 10
102.36513711067
 20
-138.8373524652909
 30
0.0
 10
102.3100332231869
 20
-138.8373524652909
 30
0.0
 10
102.2545765579351
 20
-138.8373524652909
 30
0.0
 10
102.2097737813003
 20
-138.8821199652794
 30
0.0
 10
102.2097737813003
 20
-138.9372591319325
 30
0.0
 10
102.2097737813003
 20
-138.9923630208074
 30
0.0
 10
102.2545765579351
 20
-139.0371657985742
 30
0.0
 10
102.3100332231869
 20
-139.0371657985742
 30
0.0
 10
102.36513711067
 20
-139.0371657985742
 30
0.0
 10
102.4099398873048
 20
-138.9923630208074
 30
0.0
 10
102.4099398873048
 20
-138.9372591319325
 30
0.0
  0
POLYLINE
  5
C8
330
1F
100
AcDbEntity
  8
_U+30EC_U+30A4_U+30E4_U+30FC 1
 62
     7
420
 16777215
370
     9
100
AcDb2dPolyline
 66
     1
 10
0.0
 20
0.0
 30
0.0
  0
VERTEX
  5
C9
330
C8
100
AcDbEntity
  8
_U+30EC_U+30A4_U+30E4_U+30FC 1
 62
     7
420
 16777215
370
     9
100
AcDbVertex
100
AcDb2dVertex
 10
90.80997184991128
 20
-138.9372591319325
 30
0.0
  0
VERTEX
  5
CA
330
C8
100
AcDbEntity
  8
_U+30EC_U+30A4_U+30E4_U+30FC 1
 62
     7
420
 16777215
370
     9
100
AcDbVertex
100
AcDb2dVertex
 10
102.3100332231869
 20
-138.9372591319325
 30
0.0
  0
SEQEND
  5
CB
330
C8
100
AcDbEntity
  8
_U+30EC_U+30A4_U+30E4_U+30FC 1
 62
     7
420
 16777215
370
     9
  0
POLYLINE
  5
CC
330
1F
100
AcDbEntity
  8
_U+30EC_U+30A4_U+30E4_U+30FC 1
 62
     7
420
 16777215
370
     9
100
AcDb2dPolyline
 66
     1
 10
0.0
 20
0.0
 30
0.0
  0
VERTEX
  5
CD
330
CC
100
AcDbEntity
  8
_U+30EC_U+30A4_U+30E4_U+30FC 1
 62
     7
420
 16777215
370
     9
100
AcDbVertex
100
AcDb2dVertex
 10
90.80997184991128
 20
-137.4772177434082
 30
0.0
  0
VERTEX
  5
CE
330
CC
100
AcDbEntity
  8
_U+30EC_U+30A4_U+30E4_U+30FC 1
 62
     7
420
 16777215
370
     9
100
AcDbVertex
100
AcDb2dVertex
 10
90.80997184991128
 20
-139.9370313539044
 30
0.0
  0
SEQEND
  5
CF
330
CC
100
AcDbEntity
  8
_U+30EC_U+30A4_U+30E4_U+30FC 1
 62
     7
420
 16777215
370
     9
  0
POLYLINE
  5
D0
330
1F
100
AcDbEntity
  8
_U+30EC_U+30A4_U+30E4_U+30FC 1
 62
     7
420
 16777215
370
     9
100
AcDb2dPolyline
 66
     1
 10
0.0
 20
0.0
 30
0.0
  0
VERTEX
  5
D1
330
D0
100
AcDbEntity
  8
_U+30EC_U+30A4_U+30E4_U+30FC 1
 62
     7
420
 16777215
370
     9
100
AcDbVertex
100
AcDb2dVertex
 10
102.3100332231869
 20
-137.4772177434082
 30
0.0
  0
VERTEX
  5
D2
330
D0
100
AcDbEntity
  8
_U+30EC_U+30A4_U+30E4_U+30FC 1
 62
     7
420
 16777215
370
     9
100
AcDbVertex
100
AcDb2dVertex
 10
102.3100332231869
 20
-139.9370313539044
 30
0.0
  0
SEQEND
  5
D3
330
D0
100
AcDbEntity
  8
_U+30EC_U+30A4_U+30E4_U+30FC 1
 62
     7
420
 16777215
370
     9
  0
INSERT
  5
D5
330
1F
100
AcDbEntity
  8
_U+30EC_U+30A4_U+30E4_U+30FC 1
100
AcDbBlockReference
  2
block 5
 10
0.0
 20
0.0
 30
0.0
  0
SPLINE
  5
E6
330
1F
100
AcDbEntity
  8
_U+30EC_U+30A4_U+30E4_U+30FC 1
 62
     7
420
 16777215
370
     9
100
AcDbSpline
210
0.0
220
0.0
230
1.0
 70
    11
 71
     3
 72
    17
 73
    13
 74
     0
 42
0.0000000001
 43
0.0000000001
 12
1.0
 22
0.0
 32
0.0
 13
1.0
 23
0.0
 33
0.0
 40
0.0
 40
0.0
 40
0.0
 40
0.0
 40
1.0
 40
1.0
 40
1.0
 40
2.0
 40
2.0
 40
2.0
 40
3.0
 40
3.0
 40
3.0
 40
4.0
 40
4.0
 40
4.0
 40
4.0
 10
80.8095334939326
 20
-120.9454160808749
 30
0.0
 10
80.8095334939326
 20
-120.8903121919996
 30
0.0
 10
80.76476599507471
 20
-120.8455094142332
 30
0.0
 10
80.70962682981477
 20
-120.8455094142332
 30
0.0
 10
80.65452497983651
 20
-120.8455094142332
 30
0.0
 10
80.60972220206979
 20
-120.8903121919996
 30
0.0
 10
80.60972220206979
 20
-120.9454160808749
 30
0.0
 10
80.60972220206979
 20
-121.0008727475276
 30
0.0
 10
80.65452497983651
 20
-121.0456755252943
 30
0.0
 10
80.70962682981477
 20
-121.0456755252943
 30
0.0
 10
80.76476599507471
 20
-121.0456755252943
 30
0.0
 10
80.8095334939326
 20
-121.0008727475276
 30
0.0
 10
80.8095334939326
 20
-120.9454160808749
 30
0.0
  0
SPLINE
  5
E7
330
1F
100
AcDbEntity
  8
_U+30EC_U+30A4_U+30E4_U+30FC 1
 62
     7
420
 16777215
370
     9
100
AcDbSpline
210
0.0
220
0.0
230
1.0
 70
    11
 71
     3
 72
    17
 73
    13
 74
     0
 42
0.0000000001
 43
0.0000000001
 12
1.0
 22
0.0
 32
0.0
 13
1.0
 23
0.0
 33
0.0
 40
0.0
 40
0.0
 40
0.0
 40
0.0
 40
1.0
 40
1.0
 40
1.0
 40
2.0
 40
2.0
 40
2.0
 40
3.0
 40
3.0
 40
3.0
 40
4.0
 40
4.0
 40
4.0
 40
4.0
 10
92.30959719914513
 20
-120.9454160808749
 30
0.0
 10
92.30959719914513
 20
-120.8903121919996
 30
0.0
 10
92.26482736835037
 20
-120.8455094142332
 30
0.0
 10
92.20968820309042
 20
-120.8455094142332
 30
0.0
 10
92.15423153783857
 20
-120.8455094142332
 30
0.0
 10
92.10946403898069
 20
-120.8903121919996
 30
0.0
 10
92.10946403898069
 20
-120.9454160808749
 30
0.0
 10
92.10946403898069
 20
-121.0008727475276
 30
0.0
 10
92.15423153783857
 20
-121.0456755252943
 30
0.0
 10
92.20968820309042
 20
-121.0456755252943
 30
0.0
 10
92.26482736835037
 20
-121.0456755252943
 30
0.0
 10
92.30959719914513
 20
-121.0008727475276
 30
0.0
 10
92.30959719914513
 20
-120.9454160808749
 30
0.0
  0
POLYLINE
  5
E8
330
1F
100
AcDbEntity
  8
_U+30EC_U+30A4_U+30E4_U+30FC 1
 62
     7
420
 16777215
370
     9
100
AcDb2dPolyline
 66
     1
 10
0.0
 20
0.0
 30
0.0
  0
VERTEX
  5
E9
330
E8
100
AcDbEntity
  8
_U+30EC_U+30A4_U+30E4_U+30FC 1
 62
     7
420
 16777215
370
     9
100
AcDbVertex
100
AcDb2dVertex
 10
80.70962682981477
 20
-120.9454160808749
 30
0.0
  0
VERTEX
  5
EA
330
E8
100
AcDbEntity
  8
_U+30EC_U+30A4_U+30E4_U+30FC 1
 62
     7
420
 16777215
370
     9
100
AcDbVertex
100
AcDb2dVertex
 10
92.20968820309042
 20
-120.9454160808749
 30
0.0
  0
SEQEND
  5
EB
330
E8
100
AcDbEntity
  8
_U+30EC_U+30A4_U+30E4_U+30FC 1
 62
     7
420
 16777215
370
     9
  0
POLYLINE
  5
EC
330
1F
100
AcDbEntity
  8
_U+30EC_U+30A4_U+30E4_U+30FC 1
 62
     7
420
 16777215
370
     9
100
AcDb2dPolyline
 66
     1
 10
0.0
 20
0.0
 30
0.0
  0
VERTEX
  5
ED
330
EC
100
AcDbEntity
  8
_U+30EC_U+30A4_U+30E4_U+30FC 1
 62
     7
420
 16777215
370
     9
100
AcDbVertex
100
AcDb2dVertex
 10
80.70962682981477
 20
-119.4853746923509
 30
0.0
  0
VERTEX
  5
EE
330
EC
100
AcDbEntity
  8
_U+30EC_U+30A4_U+30E4_U+30FC 1
 62
     7
420
 16777215
370
     9
100
AcDbVertex
100
AcDb2dVertex
 10
80.70962682981477
 20
-121.9455410806249
 30
0.0
  0
SEQEND
  5
EF
330
EC
100
AcDbEntity
  8
_U+30EC_U+30A4_U+30E4_U+30FC 1
 62
     7
420
 16777215
370
     9
  0
POLYLINE
  5
F0
330
1F
100
AcDbEntity
  8
_U+30EC_U+30A4_U+30E4_U+30FC 1
 62
     7
420
 16777215
370
     9
100
AcDb2dPolyline
 66
     1
 10
0.0
 20
0.0
 30
0.0
  0
VERTEX
  5
F1
330
F0
100
AcDbEntity
  8
_U+30EC_U+30A4_U+30E4_U+30FC 1
 62
     7
420
 16777215
370
     9
100
AcDbVertex
100
AcDb2dVertex
 10
92.20968820309042
 20
-119.4853746923509
 30
0.0
  0
VERTEX
  5
F2
330
F0
100
AcDbEntity
  8
_U+30EC_U+30A4_U+30E4_U+30FC 1
 62
     7
420
 16777215
370
     9
100
AcDbVertex
100
AcDb2dVertex
 10
92.20968820309042
 20
-121.9455410806249
 30
0.0
  0
SEQEND
  5
F3
330
F0
100
AcDbEntity
  8
_U+30EC_U+30A4_U+30E4_U+30FC 1
 62
     7
420
 16777215
370
     9
  0
INSERT
  5
F5
330
1F
100
AcDbEntity
  8
_U+30EC_U+30A4_U+30E4_U+30FC 1
100
AcDbBlockReference
  2
block 6
 10
0.0
 20
0.0
 30
0.0
  0
ENDSEC
  0
SECTION
  2
OBJECTS
  0
DICTIONARY
  5
C
330
0
100
AcDbDictionary
281
     1
  3
ACAD_GROUP
350
D
  3
ACAD_LAYOUT
350
1A
  3
ACAD_MATERIAL
350
3B
  3
ACAD_MLEADERSTYLE
350
107
  3
ACAD_MLINESTYLE
350
17
  3
ACAD_PLOTSETTINGS
350
19
  3
ACAD_PLOTSTYLENAME
350
E
  3
ACAD_TABLESTYLE
350
106
  3
ACAD_VISUALSTYLE
350
2A
  0
SUN
  5
3F
330
29
100
AcDbSun
 90
        1
290
     0
 63
     7
421
 16777215
 40
1.0
291
     1
 91
  2455826
 92
 54000000
292
     0
 70
     2
 71
   256
280
     1
  0
DICTIONARY
  5
D
102
{ACAD_REACTORS
330
C
102
}
330
C
100
AcDbDictionary
281
     1
  0
DICTIONARY
  5
1A
102
{ACAD_REACTORS
330
C
102
}
330
C
100
AcDbDictionary
281
     1
  3
Layout1
350
1E
  3
Layout2
350
26
  3
Model
350
22
  0
DICTIONARY
  5
3B
102
{ACAD_REACTORS
330
C
102
}
330
C
100
AcDbDictionary
281
     1
  3
ByBlock
350
3D
  3
ByLayer
350
3C
  3
Global
350
3E
  0
DICTIONARY
  5
107
102
{ACAD_REACTORS
330
C
102
}
330
C
100
AcDbDictionary
281
     1
  0
DICTIONARY
  5
17
102
{ACAD_REACTORS
330
C
102
}
330
C
100
AcDbDictionary
281
     1
  3
Standard
350
18
  0
DICTIONARY
  5
19
102
{ACAD_REACTORS
330
C
102
}
330
C
100
AcDbDictionary
281
     1
  0
ACDBDICTIONARYWDFLT
  5
E
102
{ACAD_REACTORS
330
C
102
}
330
C
100
AcDbDictionary
281
     1
  3
Normal
350
F
100
AcDbDictionaryWithDefault
340
F
  0
DICTIONARY
  5
106
102
{ACAD_REACTORS
330
C
102
}
330
C
100
AcDbDictionary
281
     1
  0
DICTIONARY
  5
2A
102
{ACAD_REACTORS
330
C
102
}
330
C
100
AcDbDictionary
281
     1
  3
2dWireframe
350
2F
  3
3D Hidden
350
31
  3
3dWireframe
350
30
  3
Basic
350
32
  3
Brighten
350
36
  3
ColorChange
350
3A
  3
Conceptual
350
34
  3
Dim
350
35
  3
Facepattern
350
39
  3
Flat
350
2B
  3
FlatWithEdges
350
2C
  3
Gouraud
350
2D
  3
GouraudWithEdges
350
2E
  3
Linepattern
350
38
  3
Realistic
350
33
  3
Thicken
350
37
  0
LAYOUT
  5
1E
102
{ACAD_REACTORS
330
1A
102
}
330
1A
100
AcDbPlotSettings
  1

  2
none_device
  4

  6

 40
0.0
 41
0.0
 42
0.0
 43
0.0
 44
0.0
 45
0.0
 46
0.0
 47
0.0
 48
0.0
 49
0.0
140
0.0
141
0.0
142
1.0
143
1.0
 70
   688
 72
     0
 73
     0
 74
     5
  7

 75
    16
 76
     0
 77
     2
 78
   300
147
1.0
148
0.0
149
0.0
100
AcDbLayout
  1
Layout1
 70
     1
 71
     1
 10
0.0
 20
0.0
 11
12.0
 21
9.0
 12
0.0
 22
0.0
 32
0.0
 14
1.000000000000000E+20
 24
1.000000000000000E+20
 34
1.000000000000000E+20
 15
-1.000000000000000E+20
 25
-1.000000000000000E+20
 35
-1.000000000000000E+20
146
0.0
 13
0.0
 23
0.0
 33
0.0
 16
1.0
 26
0.0
 36
0.0
 17
0.0
 27
1.0
 37
0.0
 76
     0
330
1B
  0
LAYOUT
  5
26
102
{ACAD_REACTORS
330
1A
102
}
330
1A
100
AcDbPlotSettings
  1

  2
none_device
  4

  6

 40
0.0
 41
0.0
 42
0.0
 43
0.0
 44
0.0
 45
0.0
 46
0.0
 47
0.0
 48
0.0
 49
0.0
140
0.0
141
0.0
142
1.0
143
1.0
 70
   688
 72
     0
 73
     0
 74
     5
  7

 75
    16
 76
     0
 77
     2
 78
   300
147
1.0
148
0.0
149
0.0
100
AcDbLayout
  1
Layout2
 70
     1
 71
     2
 10
0.0
 20
0.0
 11
0.0
 21
0.0
 12
0.0
 22
0.0
 32
0.0
 14
0.0
 24
0.0
 34
0.0
 15
0.0
 25
0.0
 35
0.0
146
0.0
 13
0.0
 23
0.0
 33
0.0
 16
1.0
 26
0.0
 36
0.0
 17
0.0
 27
1.0
 37
0.0
 76
     0
330
23
  0
LAYOUT
  5
22
102
{ACAD_REACTORS
330
1A
102
}
330
1A
100
AcDbPlotSettings
  1

  2
none_device
  4

  6

 40
0.0
 41
0.0
 42
0.0
 43
0.0
 44
0.0
 45
0.0
 46
0.0
 47
0.0
 48
0.0
 49
0.0
140
0.0
141
0.0
142
1.0
143
1.0
 70
  1712
 72
     0
 73
     0
 74
     0
  7

 75
     0
 76
     0
 77
     2
 78
   300
147
1.0
148
0.0
149
0.0
100
AcDbLayout
  1
Model
 70
     1
 71
     0
 10
0.0
 20
0.0
 11
12.0
 21
9.0
 12
0.0
 22
0.0
 32
0.0
 14
1.000000000000000E+20
 24
1.000000000000000E+20
 34
1.000000000000000E+20
 15
-1.000000000000000E+20
 25
-1.000000000000000E+20
 35
-1.000000000000000E+20
146
0.0
 13
0.0
 23
0.0
 33
0.0
 16
1.0
 26
0.0
 36
0.0
 17
0.0
 27
1.0
 37
0.0
 76
     0
330
1F
331
29
  0
MATERIAL
  5
3D
102
{ACAD_REACTORS
330
3B
102
}
330
3B
100
AcDbMaterial
  1
ByBlock
 72
     1
 94
      127
  0
MATERIAL
  5
3C
102
{ACAD_REACTORS
330
3B
102
}
330
3B
100
AcDbMaterial
  1
ByLayer
 72
     1
 94
      127
  0
MATERIAL
  5
3E
102
{ACAD_REACTORS
330
3B
102
}
330
3B
100
AcDbMaterial
  1
Global
 72
     1
 94
      127
  0
MLINESTYLE
  5
18
102
{ACAD_REACTORS
330
17
102
}
330
17
100
AcDbMlineStyle
  2
Standard
 70
     0
  3

 62
   256
 51
90.0
 52
90.0
 71
     2
 49
0.5
 62
   256
  6
BYLAYER
 49
-0.5
 62
   256
  6
BYLAYER
  0
ACDBPLACEHOLDER
  5
F
102
{ACAD_REACTORS
330
E
102
}
330
E
  0
VISUALSTYLE
  5
2F
102
{ACAD_REACTORS
330
2A
102
}
330
2A
100
AcDbVisualStyle
  2
2dWireframe
 70
     4
177
     2
291
     0
 71
     0
176
     1
 72
     2
176
     1
 73
     0
176
     1
 90
        0
176
     1
 40
-0.6
176
     1
 41
-30.0
176
     1
 62
     5
 63
     7
421
 16777215
176
     1
 74
     1
176
     1
 91
        4
176
     1
 64
     7
176
     1
 65
   257
176
     1
 75
     1
176
     1
175
     1
176
     1
 42
1.0
176
     1
 92
        0
176
     1
 66
   257
176
     1
 43
1.0
176
     1
 76
     1
176
     1
 77
     6
176
     1
 78
     2
176
     1
 67
     7
176
     1
 79
     5
176
     1
170
     0
176
     1
171
     0
176
     1
290
     0
176
     1
 93
        1
176
     1
 44
0.0
176
     1
173
     0
176
     1
  0
VISUALSTYLE
  5
31
102
{ACAD_REACTORS
330
2A
102
}
330
2A
100
AcDbVisualStyle
  2
3D Hidden
 70
     6
177
     2
291
     0
 71
     1
176
     1
 72
     2
176
     1
 73
     2
176
     1
 90
        0
176
     1
 40
-0.6
176
     1
 41
-30.0
176
     1
 62
     5
 63
     7
421
 16777215
176
     1
 74
     2
176
     1
 91
        2
176
     1
 64
     7
176
     1
 65
   257
176
     1
 75
     2
176
     1
175
     1
176
     1
 42
40.0
176
     1
 92
        0
176
     1
 66
   257
176
     1
 43
1.0
176
     1
 76
     1
176
     1
 77
     6
176
     1
 78
     2
176
     1
 67
     7
176
     1
 79
     3
176
     1
170
     0
176
     1
171
     0
176
     1
290
     0
176
     1
 93
        1
176
     1
 44
0.0
176
     1
173
     0
176
     1
  0
VISUALSTYLE
  5
30
102
{ACAD_REACTORS
330
2A
102
}
330
2A
100
AcDbVisualStyle
  2
3dWireframe
 70
     5
177
     2
291
     0
 71
     0
176
     1
 72
     2
176
     1
 73
     0
176
     1
 90
        0
176
     1
 40
-0.6
176
     1
 41
-30.0
176
     1
 62
     5
 63
     7
421
 16777215
176
     1
 74
     1
176
     1
 91
        4
176
     1
 64
     7
176
     1
 65
   257
176
     1
 75
     1
176
     1
175
     1
176
     1
 42
1.0
176
     1
 92
        0
176
     1
 66
   257
176
     1
 43
1.0
176
     1
 76
     1
176
     1
 77
     6
176
     1
 78
     2
176
     1
 67
     7
176
     1
 79
     5
176
     1
170
     0
176
     1
171
     0
176
     1
290
     0
176
     1
 93
        1
176
     1
 44
0.0
176
     1
173
     0
176
     1
  0
VISUALSTYLE
  5
32
102
{ACAD_REACTORS
330
2A
102
}
330
2A
100
AcDbVisualStyle
  2
Basic
 70
     7
177
     2
291
     1
 71
     1
176
     1
 72
     0
176
     1
 73
     1
176
     1
 90
        0
176
     1
 40
-0.6
176
     1
 41
-30.0
176
     1
 62
     5
 63
     7
421
 16777215
176
     1
 74
     0
176
     1
 91
        4
176
     1
 64
     7
176
     1
 65
   257
176
     1
 75
     1
176
     1
175
     1
176
     1
 42
1.0
176
     1
 92
        8
176
     1
 66
     7
176
     1
 43
1.0
176
     1
 76
     1
176
     1
 77
     6
176
     1
 78
     2
176
     1
 67
     7
176
     1
 79
     5
176
     1
170
     0
176
     1
171
     0
176
     1
290
     0
176
     1
 93
        1
176
     1
 44
0.0
176
     1
173
     0
176
     1
  0
VISUALSTYLE
  5
36
102
{ACAD_REACTORS
330
2A
102
}
330
2A
100
AcDbVisualStyle
  2
Brighten
 70
    12
177
     2
291
     1
 71
     2
176
     1
 72
     2
176
     1
 73
     0
176
     1
 90
        0
176
     1
 40
-0.6
176
     1
 41
-30.0
176
     1
 62
     5
 63
     7
421
 16777215
176
     1
 74
     1
176
     1
 91
        4
176
     1
 64
     7
176
     1
 65
   257
176
     1
 75
     1
176
     1
175
     1
176
     1
 42
1.0
176
     1
 92
        8
176
     1
 66
     7
176
     1
 43
1.0
176
     1
 76
     1
176
     1
 77
     6
176
     1
 78
     2
176
     1
 67
     7
176
     1
 79
     5
176
     1
170
     0
176
     1
171
     0
176
     1
290
     0
176
     1
 93
        1
176
     1
 44
50.0
176
     1
173
     0
176
     1
  0
VISUALSTYLE
  5
3A
102
{ACAD_REACTORS
330
2A
102
}
330
2A
100
AcDbVisualStyle
  2
ColorChange
 70
    16
177
     2
291
     1
 71
     2
176
     1
 72
     2
176
     1
 73
     3
176
     1
 90
        0
176
     1
 40
-0.6
176
     1
 41
-30.0
176
     1
 62
     5
 63
     8
421
  8421504
176
     1
 74
     1
176
     1
 91
        4
176
     1
 64
     7
176
     1
 65
   257
176
     1
 75
     1
176
     1
175
     1
176
     1
 42
1.0
176
     1
 92
        8
176
     1
 66
     8
424
  8421504
176
     1
 43
1.0
176
     1
 76
     1
176
     1
 77
     6
176
     1
 78
     2
176
     1
 67
     7
176
     1
 79
     5
176
     1
170
     0
176
     1
171
     0
176
     1
290
     0
176
     1
 93
        1
176
     1
 44
0.0
176
     1
173
     0
176
     1
  0
VISUALSTYLE
  5
34
102
{ACAD_REACTORS
330
2A
102
}
330
2A
100
AcDbVisualStyle
  2
Conceptual
 70
     9
177
     2
291
     0
 71
     3
176
     1
 72
     2
176
     1
 73
     0
176
     1
 90
        0
176
     1
 40
-0.6
176
     1
 41
-30.0
176
     1
 62
     5
 63
     7
421
 16777215
176
     1
 74
     2
176
     1
 91
        2
176
     1
 64
     7
176
     1
 65
   257
176
     1
 75
     1
176
     1
175
     1
176
     1
 42
40.0
176
     1
 92
        8
176
     1
 66
     7
176
     1
 43
1.0
176
     1
 76
     1
176
     1
 77
     6
176
     1
 78
     2
176
     1
 67
     7
176
     1
 79
     3
176
     1
170
     0
176
     1
171
     0
176
     1
290
     0
176
     1
 93
        1
176
     1
 44
0.0
176
     1
173
     0
176
     1
  0
VISUALSTYLE
  5
35
102
{ACAD_REACTORS
330
2A
102
}
330
2A
100
AcDbVisualStyle
  2
Dim
 70
    11
177
     2
291
     1
 71
     2
176
     1
 72
     2
176
     1
 73
     0
176
     1
 90
        0
176
     1
 40
-0.6
176
     1
 41
-30.0
176
     1
 62
     5
 63
     7
421
 16777215
176
     1
 74
     1
176
     1
 91
        4
176
     1
 64
     7
176
     1
 65
   257
176
     1
 75
     1
176
     1
175
     1
176
     1
 42
1.0
176
     1
 92
        8
176
     1
 66
     7
176
     1
 43
1.0
176
     1
 76
     1
176
     1
 77
     6
176
     1
 78
     2
176
     1
 67
     7
176
     1
 79
     5
176
     1
170
     0
176
     1
171
     0
176
     1
290
     0
176
     1
 93
        1
176
     1
 44
-50.0
176
     1
173
     0
176
     1
  0
VISUALSTYLE
  5
39
102
{ACAD_REACTORS
330
2A
102
}
330
2A
100
AcDbVisualStyle
  2
Facepattern
 70
    15
177
     2
291
     1
 71
     2
176
     1
 72
     2
176
     1
 73
     0
176
     1
 90
        0
176
     1
 40
-0.6
176
     1
 41
-30.0
176
     1
 62
     5
 63
     7
421
 16777215
176
     1
 74
     1
176
     1
 91
        4
176
     1
 64
     7
176
     1
 65
   257
176
     1
 75
     1
176
     1
175
     1
176
     1
 42
1.0
176
     1
 92
        8
176
     1
 66
     7
176
     1
 43
1.0
176
     1
 76
     1
176
     1
 77
     6
176
     1
 78
     2
176
     1
 67
     7
176
     1
 79
     5
176
     1
170
     0
176
     1
171
     0
176
     1
290
     0
176
     1
 93
        1
176
     1
 44
0.0
176
     1
173
     0
176
     1
  0
VISUALSTYLE
  5
2B
102
{ACAD_REACTORS
330
2A
102
}
330
2A
100
AcDbVisualStyle
  2
Flat
 70
     0
177
     2
291
     1
 71
     2
176
     1
 72
     1
176
     1
 73
     1
176
     1
 90
        2
176
     1
 40
-0.6
176
     1
 41
30.0
176
     1
 62
     5
 63
     7
421
 16777215
176
     1
 74
     0
176
     1
 91
        4
176
     1
 64
     7
176
     1
 65
   257
176
     1
 75
     1
176
     1
175
     1
176
     1
 42
1.0
176
     1
 92
        8
176
     1
 66
     7
176
     1
 43
1.0
176
     1
 76
     1
176
     1
 77
     6
176
     1
 78
     2
176
     1
 67
     7
176
     1
 79
     5
176
     1
170
     0
176
     1
171
     0
176
     1
290
     0
176
     1
 93
       13
176
     1
 44
0.0
176
     1
173
     0
176
     1
  0
VISUALSTYLE
  5
2C
102
{ACAD_REACTORS
330
2A
102
}
330
2A
100
AcDbVisualStyle
  2
FlatWithEdges
 70
     1
177
     2
291
     1
 71
     2
176
     1
 72
     1
176
     1
 73
     1
176
     1
 90
        2
176
     1
 40
-0.6
176
     1
 41
30.0
176
     1
 62
     5
 63
     7
421
 16777215
176
     1
 74
     1
176
     1
 91
        4
176
     1
 64
     7
176
     1
 65
   257
176
     1
 75
     1
176
     1
175
     1
176
     1
 42
1.0
176
     1
 92
        0
176
     1
 66
   257
176
     1
 43
1.0
176
     1
 76
     1
176
     1
 77
     6
176
     1
 78
     2
176
     1
 67
     7
176
     1
 79
     5
176
     1
170
     0
176
     1
171
     0
176
     1
290
     0
176
     1
 93
       13
176
     1
 44
0.0
176
     1
173
     0
176
     1
  0
VISUALSTYLE
  5
2D
102
{ACAD_REACTORS
330
2A
102
}
330
2A
100
AcDbVisualStyle
  2
Gouraud
 70
     2
177
     2
291
     1
 71
     2
176
     1
 72
     2
176
     1
 73
     1
176
     1
 90
        2
176
     1
 40
-0.6
176
     1
 41
30.0
176
     1
 62
     5
 63
     7
421
 16777215
176
     1
 74
     0
176
     1
 91
        4
176
     1
 64
     7
176
     1
 65
   257
176
     1
 75
     1
176
     1
175
     1
176
     1
 42
1.0
176
     1
 92
        0
176
     1
 66
     7
176
     1
 43
1.0
176
     1
 76
     1
176
     1
 77
     6
176
     1
 78
     2
176
     1
 67
     7
176
     1
 79
     5
176
     1
170
     0
176
     1
171
     0
176
     1
290
     0
176
     1
 93
       13
176
     1
 44
0.0
176
     1
173
     0
176
     1
  0
VISUALSTYLE
  5
2E
102
{ACAD_REACTORS
330
2A
102
}
330
2A
100
AcDbVisualStyle
  2
GouraudWithEdges
 70
     3
177
     2
291
     1
 71
     2
176
     1
 72
     2
176
     1
 73
     1
176
     1
 90
        2
176
     1
 40
-0.6
176
     1
 41
30.0
176
     1
 62
     5
 63
     7
421
 16777215
176
     1
 74
     1
176
     1
 91
        4
176
     1
 64
     7
176
     1
 65
   257
176
     1
 75
     1
176
     1
175
     1
176
     1
 42
1.0
176
     1
 92
        0
176
     1
 66
   257
176
     1
 43
1.0
176
     1
 76
     1
176
     1
 77
     6
176
     1
 78
     2
176
     1
 67
     7
176
     1
 79
     5
176
     1
170
     0
176
     1
171
     0
176
     1
290
     0
176
     1
 93
       13
176
     1
 44
0.0
176
     1
173
     0
176
     1
  0
VISUALSTYLE
  5
38
102
{ACAD_REACTORS
330
2A
102
}
330
2A
100
AcDbVisualStyle
  2
Linepattern
 70
    14
177
     2
291
     1
 71
     2
176
     1
 72
     2
176
     1
 73
     0
176
     1
 90
        0
176
     1
 40
-0.6
176
     1
 41
-30.0
176
     1
 62
     5
 63
     7
421
 16777215
176
     1
 74
     1
176
     1
 91
        4
176
     1
 64
     7
176
     1
 65
   257
176
     1
 75
     7
176
     1
175
     7
176
     1
 42
1.0
176
     1
 92
        8
176
     1
 66
     7
176
     1
 43
1.0
176
     1
 76
     1
176
     1
 77
     6
176
     1
 78
     2
176
     1
 67
     7
176
     1
 79
     5
176
     1
170
     0
176
     1
171
     0
176
     1
290
     0
176
     1
 93
        1
176
     1
 44
0.0
176
     1
173
     0
176
     1
  0
VISUALSTYLE
  5
33
102
{ACAD_REACTORS
330
2A
102
}
330
2A
100
AcDbVisualStyle
  2
Realistic
 70
     8
177
     2
291
     0
 71
     2
176
     1
 72
     2
176
     1
 73
     0
176
     1
 90
        0
176
     1
 40
-0.6
176
     1
 41
-30.0
176
     1
 62
     5
 63
     7
421
 16777215
176
     1
 74
     1
176
     1
 91
        0
176
     1
 64
     7
176
     1
 65
   257
176
     1
 75
     1
176
     1
175
     1
176
     1
 42
1.0
176
     1
 92
        8
176
     1
 66
     8
424
  7895160
176
     1
 43
1.0
176
     1
 76
     1
176
     1
 77
     6
176
     1
 78
     2
176
     1
 67
     7
176
     1
 79
     5
176
     1
170
     0
176
     1
171
     0
176
     1
290
     0
176
     1
 93
       13
176
     1
 44
0.0
176
     1
173
     0
176
     1
  0
VISUALSTYLE
  5
37
102
{ACAD_REACTORS
330
2A
102
}
330
2A
100
AcDbVisualStyle
  2
Thicken
 70
    13
177
     2
291
     1
 71
     2
176
     1
 72
     2
176
     1
 73
     0
176
     1
 90
        0
176
     1
 40
-0.6
176
     1
 41
-30.0
176
     1
 62
     5
 63
     7
421
 16777215
176
     1
 74
     1
176
     1
 91
        4
176
     1
 64
     7
176
     1
 65
   257
176
     1
 75
     1
176
     1
175
     1
176
     1
 42
1.0
176
     1
 92
       12
176
     1
 66
     7
176
     1
 43
1.0
176
     1
 76
     1
176
     1
 77
     6
176
     1
 78
     2
176
     1
 67
     7
176
     1
 79
     5
176
     1
170
     0
176
     1
171
     0
176
     1
290
     0
176
     1
 93
        1
176
     1
 44
0.0
176
     1
173
     0
176
     1
  0
ENDSEC
  0
EOF
