  0
SECTION
  2
HEADER
  9
$ACADVER
  1
AC1024
  9
$ACADMAINTVER
 70
     6
  9
$DWGCODEPAGE
  3
UNDEFINED
  9
$INSBASE
 10
0.0
 20
0.0
 30
0.0
  9
$EXTMIN
 10
1.000000000000000E+20
 20
1.000000000000000E+20
 30
1.000000000000000E+20
  9
$EXTMAX
 10
-1.000000000000000E+20
 20
-1.000000000000000E+20
 30
-1.000000000000000E+20
  9
$LIMMIN
 10
0.0
 20
0.0
  9
$LIMMAX
 10
12.0
 20
9.0
  9
$ORTHOMODE
 70
     0
  9
$REGENMODE
 70
     1
  9
$FILLMODE
 70
     1
  9
$QTEXTMODE
 70
     0
  9
$MIRRTEXT
 70
     1
  9
$LTSCALE
 40
1.0
  9
$ATTMODE
 70
     1
  9
$TEXTSIZE
 40
0.2
  9
$TRACEWID
 40
0.05
  9
$TEXTSTYLE
  7
Standard
  9
$CLAYER
  8
0
  9
$CELTYPE
  6
ByLayer
  9
$CECOLOR
 62
   256
  9
$CELTSCALE
 40
1.0
  9
$DISPSILH
 70
     0
  9
$DIMSCALE
 40
1.0
  9
$DIMASZ
 40
0.18
  9
$DIMEXO
 40
0.0625
  9
$DIMDLI
 40
0.38
  9
$DIMRND
 40
0.0
  9
$DIMDLE
 40
0.0
  9
$DIMEXE
 40
0.18
  9
$DIMTP
 40
0.0
  9
$DIMTM
 40
0.0
  9
$DIMTXT
 40
0.18
  9
$DIMCEN
 40
0.09
  9
$DIMTSZ
 40
0.0
  9
$DIMTOL
 70
     0
  9
$DIMLIM
 70
     0
  9
$DIMTIH
 70
     1
  9
$DIMTOH
 70
     1
  9
$DIMSE1
 70
     0
  9
$DIMSE2
 70
     0
  9
$DIMTAD
 70
     0
  9
$DIMZIN
 70
     0
  9
$DIMBLK
  1

  9
$DIMASO
 70
     1
  9
$DIMSHO
 70
     1
  9
$DIMPOST
  1

  9
$DIMAPOST
  1

  9
$DIMALT
 70
     0
  9
$DIMALTD
 70
     2
  9
$DIMALTF
 40
25.4
  9
$DIMLFAC
 40
1.0
  9
$DIMTOFL
 70
     0
  9
$DIMTVP
 40
0.0
  9
$DIMTIX
 70
     0
  9
$DIMSOXD
 70
     0
  9
$DIMSAH
 70
     0
  9
$DIMBLK1
  1

  9
$DIMBLK2
  1

  9
$DIMSTYLE
  2
Standard
  9
$DIMCLRD
 70
     0
  9
$DIMCLRE
 70
     0
  9
$DIMCLRT
 70
     0
  9
$DIMTFAC
 40
1.0
  9
$DIMGAP
 40
0.09
  9
$DIMJUST
 70
     0
  9
$DIMSD1
 70
     0
  9
$DIMSD2
 70
     0
  9
$DIMTOLJ
 70
     1
  9
$DIMTZIN
 70
     0
  9
$DIMALTZ
 70
     0
  9
$DIMALTTZ
 70
     0
  9
$DIMUPT
 70
     0
  9
$DIMDEC
 70
     4
  9
$DIMTDEC
 70
     4
  9
$DIMALTU
 70
     2
  9
$DIMALTTD
 70
     2
  9
$DIMTXSTY
  7
Standard
  9
$DIMAUNIT
 70
     0
  9
$DIMADEC
 70
     0
  9
$DIMALTRND
 40
0.0
  9
$DIMAZIN
 70
     0
  9
$DIMDSEP
 70
    46
  9
$DIMATFIT
 70
     3
  9
$DIMFRAC
 70
     0
  9
$DIMLDRBLK
  1

  9
$DIMLUNIT
 70
     2
  9
$DIMLWD
 70
    -2
  9
$DIMLWE
 70
    -2
  9
$DIMTMOVE
 70
     0
  9
$DIMFXL
 40
1.0
  9
$DIMFXLON
 70
     0
  9
$DIMJOGANG
 40
0.7853981633974483
  9
$DIMTFILL
 70
     0
  9
$DIMTFILLCLR
 70
     0
  9
$DIMARCSYM
 70
     0
  9
$DIMLTYPE
  6

  9
$DIMLTEX1
  6

  9
$DIMLTEX2
  6

  9
$DIMTXTDIRECTION
 70
     0
  9
$LUNITS
 70
     2
  9
$LUPREC
 70
     4
  9
$SKETCHINC
 40
0.1
  9
$FILLETRAD
 40
0.5
  9
$AUNITS
 70
     0
  9
$AUPREC
 70
     0
  9
$MENU
  1
.
  9
$ELEVATION
 40
0.0
  9
$PELEVATION
 40
0.0
  9
$THICKNESS
 40
0.0
  9
$LIMCHECK
 70
     0
  9
$CHAMFERA
 40
0.5
  9
$CHAMFERB
 40
0.5
  9
$CHAMFERC
 40
1.0
  9
$CHAMFERD
 40
0.0
  9
$SKPOLY
 70
     0
  9
$TDCREATE
 40
2457917.624097211
  9
$TDUCREATE
 40
2457917.249097222
  9
$TDUPDATE
 40
2457917.624097211
  9
$TDUUPDATE
 40
2457917.249097222
  9
$TDINDWG
 40
0.0000000116
  9
$TDUSRTIMER
 40
0.0000000116
  9
$USRTIMER
 70
     1
  9
$ANGBASE
 50
0.0
  9
$ANGDIR
 70
     0
  9
$PDMODE
 70
     0
  9
$PDSIZE
 40
0.0
  9
$PLINEWID
 40
0.0
  9
$SPLFRAME
 70
     0
  9
$SPLINETYPE
 70
     6
  9
$SPLINESEGS
 70
     8
  9
$HANDSEED
  5
BE
  9
$SURFTAB1
 70
     6
  9
$SURFTAB2
 70
     6
  9
$SURFTYPE
 70
     6
  9
$SURFU
 70
     6
  9
$SURFV
 70
     6
  9
$UCSBASE
  2

  9
$UCSNAME
  2

  9
$UCSORG
 10
0.0
 20
0.0
 30
0.0
  9
$UCSXDIR
 10
1.0
 20
0.0
 30
0.0
  9
$UCSYDIR
 10
0.0
 20
1.0
 30
0.0
  9
$UCSORTHOREF
  2

  9
$UCSORTHOVIEW
 70
     0
  9
$UCSORGTOP
 10
0.0
 20
0.0
 30
0.0
  9
$UCSORGBOTTOM
 10
0.0
 20
0.0
 30
0.0
  9
$UCSORGLEFT
 10
0.0
 20
0.0
 30
0.0
  9
$UCSORGRIGHT
 10
0.0
 20
0.0
 30
0.0
  9
$UCSORGFRONT
 10
0.0
 20
0.0
 30
0.0
  9
$UCSORGBACK
 10
0.0
 20
0.0
 30
0.0
  9
$PUCSBASE
  2

  9
$PUCSNAME
  2

  9
$PUCSORG
 10
0.0
 20
0.0
 30
0.0
  9
$PUCSXDIR
 10
1.0
 20
0.0
 30
0.0
  9
$PUCSYDIR
 10
0.0
 20
1.0
 30
0.0
  9
$PUCSORTHOREF
  2

  9
$PUCSORTHOVIEW
 70
     0
  9
$PUCSORGTOP
 10
0.0
 20
0.0
 30
0.0
  9
$PUCSORGBOTTOM
 10
0.0
 20
0.0
 30
0.0
  9
$PUCSORGLEFT
 10
0.0
 20
0.0
 30
0.0
  9
$PUCSORGRIGHT
 10
0.0
 20
0.0
 30
0.0
  9
$PUCSORGFRONT
 10
0.0
 20
0.0
 30
0.0
  9
$PUCSORGBACK
 10
0.0
 20
0.0
 30
0.0
  9
$USERI1
 70
     0
  9
$USERI2
 70
     0
  9
$USERI3
 70
     0
  9
$USERI4
 70
     0
  9
$USERI5
 70
     0
  9
$USERR1
 40
0.0
  9
$USERR2
 40
0.0
  9
$USERR3
 40
0.0
  9
$USERR4
 40
0.0
  9
$USERR5
 40
0.0
  9
$WORLDVIEW
 70
     1
  9
$SHADEDGE
 70
     3
  9
$SHADEDIF
 70
    70
  9
$TILEMODE
 70
     1
  9
$MAXACTVP
 70
    64
  9
$PINSBASE
 10
0.0
 20
0.0
 30
0.0
  9
$PLIMCHECK
 70
     0
  9
$PEXTMIN
 10
1.000000000000000E+20
 20
1.000000000000000E+20
 30
1.000000000000000E+20
  9
$PEXTMAX
 10
-1.000000000000000E+20
 20
-1.000000000000000E+20
 30
-1.000000000000000E+20
  9
$PLIMMIN
 10
0.0
 20
0.0
  9
$PLIMMAX
 10
12.0
 20
9.0
  9
$UNITMODE
 70
     0
  9
$VISRETAIN
 70
     1
  9
$PLINEGEN
 70
     0
  9
$PSLTSCALE
 70
     1
  9
$TREEDEPTH
 70
  3020
  9
$CMLSTYLE
  2
Standard
  9
$CMLJUST
 70
     0
  9
$CMLSCALE
 40
1.0
  9
$PROXYGRAPHICS
 70
     1
  9
$MEASUREMENT
 70
     0
  9
$CELWEIGHT
370
    -1
  9
$ENDCAPS
280
     0
  9
$JOINSTYLE
280
     0
  9
$LWDISPLAY
290
     1
  9
$INSUNITS
 70
     1
  9
$HYPERLINKBASE
  1

  9
$STYLESHEET
  1

  9
$XEDIT
290
     1
  9
$CEPSNTYPE
380
     0
  9
$PSTYLEMODE
290
     1
  9
$FINGERPRINTGUID
  2
{8C7061FA-92FD-40BE-65DF-4136698B261D}
  9
$VERSIONGUID
  2
{FAEB1C32-E019-11D5-929B-00C0DF256EC4}
  9
$EXTNAMES
290
     1
  9
$PSVPSCALE
 40
0.0
  9
$OLESTARTUP
290
     0
  9
$SORTENTS
280
   127
  9
$INDEXCTL
280
     0
  9
$HIDETEXT
280
     1
  9
$XCLIPFRAME
280
     2
  9
$HALOGAP
280
     0
  9
$OBSCOLOR
 70
   257
  9
$OBSLTYPE
280
     0
  9
$INTERSECTIONDISPLAY
280
     0
  9
$INTERSECTIONCOLOR
 70
   257
  9
$DIMASSOC
280
     2
  9
$PROJECTNAME
  1

  9
$CAMERADISPLAY
290
     0
  9
$LENSLENGTH
 40
50.0
  9
$CAMERAHEIGHT
 40
0.0
  9
$STEPSPERSEC
 40
2.0
  9
$STEPSIZE
 40
6.0
  9
$3DDWFPREC
 40
2.0
  9
$PSOLWIDTH
 40
0.25
  9
$PSOLHEIGHT
 40
4.0
  9
$LOFTANG1
 40
1.570796326794897
  9
$LOFTANG2
 40
1.570796326794897
  9
$LOFTMAG1
 40
0.0
  9
$LOFTMAG2
 40
0.0
  9
$LOFTPARAM
 70
     7
  9
$LOFTNORMALS
280
     1
  9
$LATITUDE
 40
37.795
  9
$LONGITUDE
 40
-122.394
  9
$NORTHDIRECTION
 40
0.0
  9
$TIMEZONE
 70
 -8000
  9
$LIGHTGLYPHDISPLAY
280
     1
  9
$TILEMODELIGHTSYNCH
280
     1
  9
$CMATERIAL
347
3C
  9
$SOLIDHIST
280
     1
  9
$SHOWHIST
280
     1
  9
$DWFFRAME
280
     2
  9
$DGNFRAME
280
     2
  9
$REALWORLDSCALE
290
     1
  9
$INTERFERECOLOR
 62
   256
  9
$CSHADOW
280
     0
  9
$SHADOWPLANELOCATION
 40
0.0
  0
ENDSEC
  0
SECTION
  2
CLASSES
  0
CLASS
  1
ACDBDICTIONARYWDFLT
  2
AcDbDictionaryWithDefault
  3
ObjectDBX Classes
 90
        0
 91
        4
280
     0
281
     0
  0
CLASS
  1
VISUALSTYLE
  2
AcDbVisualStyle
  3
ObjectDBX Classes
 90
     4095
 91
        4
280
     0
281
     0
  0
CLASS
  1
MATERIAL
  2
AcDbMaterial
  3
ObjectDBX Classes
 90
     1153
 91
        4
280
     0
281
     0
  0
CLASS
  1
SUN
  2
AcDbSun
  3
SCENEOE
 90
     1024
 91
        4
280
     0
281
     0
  0
ENDSEC
  0
SECTION
  2
TABLES
  0
TABLE
  2
VPORT
  5
8
330
0
100
AcDbSymbolTable
 70
     1
  0
VPORT
  5
29
330
8
100
AcDbSymbolTableRecord
100
AcDbViewportTableRecord
  2
*Active
 70
     0
 10
0.0
 20
0.0
 11
1.0
 21
1.0
 12
0.0
 22
0.0
 13
0.0
 23
0.0
 14
0.5
 24
0.5
 15
0.5
 25
0.5
 16
0.0
 26
0.0
 36
1.0
 17
91.00082462281999
 27
-128.4993055234307
 37
0.0
 40
256.9986110468615
 41
0.7081814508812795
 42
50.0
 43
0.0
 44
0.0
 50
0.0
 51
0.0
 71
     0
 72
   100
 73
     1
 74
     3
 75
     0
 76
     0
 77
     0
 78
     0
281
     0
 65
     1
110
0.0
120
0.0
130
0.0
111
1.0
121
0.0
131
0.0
112
0.0
122
1.0
132
0.0
 79
     0
146
0.0
 60
     3
 61
     5
292
     1
282
     1
141
0.0
142
0.0
 63
   250
361
3F
  0
ENDTAB
  0
TABLE
  2
LTYPE
  5
5
330
0
100
AcDbSymbolTable
 70
     1
  0
LTYPE
  5
14
330
5
100
AcDbSymbolTableRecord
100
AcDbLinetypeTableRecord
  2
ByBlock
 70
     0
  3

 72
    65
 73
     0
 40
0.0
  0
LTYPE
  5
15
330
5
100
AcDbSymbolTableRecord
100
AcDbLinetypeTableRecord
  2
ByLayer
 70
     0
  3

 72
    65
 73
     0
 40
0.0
  0
LTYPE
  5
16
330
5
100
AcDbSymbolTableRecord
100
AcDbLinetypeTableRecord
  2
Continuous
 70
     0
  3
Solid line
 72
    65
 73
     0
 40
0.0
  0
ENDTAB
  0
TABLE
  2
LAYER
  5
2
330
0
100
AcDbSymbolTable
 70
     2
  0
LAYER
  5
10
330
2
100
AcDbSymbolTableRecord
100
AcDbLayerTableRecord
  2
0
 70
     0
 62
     7
  6
Continuous
370
    -3
390
F
347
3E
  0
LAYER
  5
40
330
2
100
AcDbSymbolTableRecord
100
AcDbLayerTableRecord
  2
_U+30EC_U+30A4_U+30E4_U+30FC 1
 70
     0
 62
     7
  6
Continuous
370
    -3
390
F
347
3E
  0
ENDTAB
  0
TABLE
  2
STYLE
  5
3
330
0
100
AcDbSymbolTable
 70
     1
  0
STYLE
  5
11
330
3
100
AcDbSymbolTableRecord
100
AcDbTextStyleTableRecord
  2
Standard
 70
     0
 40
0.0
 41
1.0
 50
0.0
 71
     0
 42
0.2
  3
txt
  4

  0
ENDTAB
  0
TABLE
  2
VIEW
  5
6
330
0
100
AcDbSymbolTable
 70
     0
  0
ENDTAB
  0
TABLE
  2
UCS
  5
7
330
0
100
AcDbSymbolTable
 70
     0
  0
ENDTAB
  0
TABLE
  2
APPID
  5
9
330
0
100
AcDbSymbolTable
 70
     1
  0
APPID
  5
12
330
9
100
AcDbSymbolTableRecord
100
AcDbRegAppTableRecord
  2
ACAD
 70
     0
  0
ENDTAB
  0
TABLE
  2
DIMSTYLE
  5
A
330
0
100
AcDbSymbolTable
 70
     1
100
AcDbDimStyleTable
  0
DIMSTYLE
105
27
330
A
100
AcDbSymbolTableRecord
100
AcDbDimStyleTableRecord
  2
Standard
 70
     0
178
     0
340
11
  0
ENDTAB
  0
TABLE
  2
BLOCK_RECORD
  5
1
330
0
100
AcDbSymbolTable
 70
     5
  0
BLOCK_RECORD
  5
1F
330
1
100
AcDbSymbolTableRecord
100
AcDbBlockTableRecord
  2
*Model_Space
340
22
 70
     0
280
     1
281
     0
  0
BLOCK_RECORD
  5
1B
330
1
100
AcDbSymbolTableRecord
100
AcDbBlockTableRecord
  2
*Paper_Space
340
1E
 70
     0
280
     1
281
     0
  0
BLOCK_RECORD
  5
23
330
1
100
AcDbSymbolTableRecord
100
AcDbBlockTableRecord
  2
*Paper_Space0
340
26
 70
     0
280
     1
281
     0
  0
BLOCK_RECORD
  5
80
330
1
100
AcDbSymbolTableRecord
100
AcDbBlockTableRecord
  2
block 2
340
0
102
{BLKREFS
331
81
102
}
 70
     0
280
     1
281
     0
  0
BLOCK_RECORD
  5
8E
330
1
100
AcDbSymbolTableRecord
100
AcDbBlockTableRecord
  2
block 3
340
0
102
{BLKREFS
331
8F
102
}
 70
     0
280
     1
281
     0
  0
BLOCK_RECORD
  5
A2
330
1
100
AcDbSymbolTableRecord
100
AcDbBlockTableRecord
  2
block 4
340
0
102
{BLKREFS
331
A3
102
}
 70
     0
280
     1
281
     0
  0
BLOCK_RECORD
  5
B4
330
1
100
AcDbSymbolTableRecord
100
AcDbBlockTableRecord
  2
block 5
340
0
102
{BLKREFS
331
B5
102
}
 70
     0
280
     1
281
     0
  0
ENDTAB
  0
ENDSEC
  0
SECTION
  2
BLOCKS
  0
BLOCK
  5
20
330
1F
100
AcDbEntity
  8
0
100
AcDbBlockBegin
  2
*Model_Space
 70
     0
 10
0.0
 20
0.0
 30
0.0
  3
*Model_Space
  1

  0
ENDBLK
  5
21
330
1F
100
AcDbEntity
  8
0
100
AcDbBlockEnd
  0
BLOCK
  5
1C
330
1B
100
AcDbEntity
 67
     1
  8
0
100
AcDbBlockBegin
  2
*Paper_Space
 70
     0
 10
0.0
 20
0.0
 30
0.0
  3
*Paper_Space
  1

  0
ENDBLK
  5
1D
330
1B
100
AcDbEntity
 67
     1
  8
0
100
AcDbBlockEnd
  0
BLOCK
  5
24
330
23
100
AcDbEntity
  8
0
100
AcDbBlockBegin
  2
*Paper_Space0
 70
     0
 10
0.0
 20
0.0
 30
0.0
  3
*Paper_Space0
  1

  0
ENDBLK
  5
25
330
23
100
AcDbEntity
  8
0
100
AcDbBlockEnd
  0
BLOCK
  5
82
330
80
100
AcDbEntity
  8
0
100
AcDbBlockBegin
  2
block 2
 70
     0
 10
0.0
 20
0.0
 30
0.0
  3
block 2
  1

  0
SPLINE
  5
84
330
80
100
AcDbEntity
  8
_U+30EC_U+30A4_U+30E4_U+30FC 1
370
     0
100
AcDbSpline
210
0.0
220
0.0
230
1.0
 70
    11
 71
     3
 72
    44
 73
    40
 74
     0
 42
0.0000000001
 43
0.0000000001
 12
1.0
 22
0.0
 32
0.0
 13
1.0
 23
0.0
 33
0.0
 40
0.0
 40
0.0
 40
0.0
 40
0.0
 40
1.0
 40
1.0
 40
1.0
 40
2.0
 40
2.0
 40
2.0
 40
3.0
 40
3.0
 40
3.0
 40
4.0
 40
4.0
 40
4.0
 40
5.0
 40
5.0
 40
5.0
 40
6.0
 40
6.0
 40
6.0
 40
7.0
 40
7.0
 40
7.0
 40
8.0
 40
8.0
 40
8.0
 40
9.0
 40
9.0
 40
9.0
 40
10.0
 40
10.0
 40
10.0
 40
11.0
 40
11.0
 40
11.0
 40
12.0
 40
12.0
 40
12.0
 40
13.0
 40
13.0
 40
13.0
 40
13.0
 10
103.6284721963151
 20
-140.8403265706927
 30
0.0
 10
103.7872910981851
 20
-141.0580566053605
 30
0.0
 10
103.861360651118
 20
-141.1510741834622
 30
0.0
 10
104.0050211328529
 20
-141.1999945393528
 30
0.0
 10
104.0050211328529
 20
-141.1999945393528
 30
0.0
 10
104.0050211328529
 20
-140.4214029596863
 30
0.0
 10
104.0050211328529
 20
-140.4214029596863
 30
0.0
 10
104.0050211328529
 20
-140.4214029596863
 30
0.0
 10
104.2103488237738
 20
-140.4214029596863
 30
0.0
 10
104.2103488237738
 20
-140.4214029596863
 30
0.0
 10
104.2103488237738
 20
-140.4214029596863
 30
0.0
 10
104.2103488237738
 20
-141.4494194524849
 30
0.0
 10
104.2103488237738
 20
-141.4494194524849
 30
0.0
 10
103.8527479124049
 20
-141.4177245740206
 30
0.0
 10
103.7745442448897
 20
-141.3522677598008
 30
0.0
 10
103.4761989758671
 20
-140.9671060845499
 30
0.0
 10
103.2774169663682
 20
-140.7111354899958
 30
0.0
 10
103.2095485853087
 20
-140.6456786757761
 30
0.0
 10
103.0720892754473
 20
-140.6456786757761
 30
0.0
 10
102.9535779907547
 20
-140.6456786757761
 30
0.0
 10
102.8226643623152
 20
-140.7176811714178
 30
0.0
 10
102.8226643623152
 20
-140.9143961236256
 30
0.0
 10
102.8226643623152
 20
-141.1745008327619
 30
0.0
 10
103.0531412502784
 20
-141.1827690619265
 30
0.0
 10
103.1695854776798
 20
-141.1872476860574
 30
0.0
 10
103.1695854776798
 20
-141.1872476860574
 30
0.0
 10
103.1695854776798
 20
-141.4115234021471
 30
0.0
 10
103.1695854776798
 20
-141.4115234021471
 30
0.0
 10
103.0424614542741
 20
-141.402910663434
 30
0.0
 10
102.9304958510035
 20
-141.3922308674297
 30
0.0
 10
102.8119845663109
 20
-141.3119601426234
 30
0.0
 10
102.6510986071497
 20
-141.2020615966439
 30
0.0
 10
102.6173366713943
 20
-141.0156819308919
 30
0.0
 10
102.6173366713943
 20
-140.899582213039
 30
0.0
 10
102.6173366713943
 20
-140.6222520264764
 30
0.0
 10
102.8013047703066
 20
-140.4148572782643
 30
0.0
 10
103.0741563327384
 20
-140.4148572782643
 30
0.0
 10
103.302910672959
 20
-140.4148572782643
 30
0.0
 10
103.4021294229342
 20
-140.5313015056658
 30
0.0
 10
103.6284721963151
 20
-140.8403265706927
 30
0.0
  0
HATCH
  5
85
330
80
100
AcDbEntity
  8
_U+30EC_U+30A4_U+30E4_U+30FC 1
 62
   179
420
  2234388
100
AcDbHatch
 10
0.0
 20
0.0
 30
0.0
210
0.0
220
0.0
230
1.0
  2
SOLID
 70
     1
 71
     0
 91
        1
 92
        1
 93
        1
 72
     4
 94
        3
 73
     0
 74
     1
 95
       44
 96
       40
 40
0.0
 40
0.0
 40
0.0
 40
0.0
 40
1.0
 40
1.0
 40
1.0
 40
2.0
 40
2.0
 40
2.0
 40
3.0
 40
3.0
 40
3.0
 40
4.0
 40
4.0
 40
4.0
 40
5.0
 40
5.0
 40
5.0
 40
6.0
 40
6.0
 40
6.0
 40
7.0
 40
7.0
 40
7.0
 40
8.0
 40
8.0
 40
8.0
 40
9.0
 40
9.0
 40
9.0
 40
10.0
 40
10.0
 40
10.0
 40
11.0
 40
11.0
 40
11.0
 40
12.0
 40
12.0
 40
12.0
 40
13.0
 40
13.0
 40
13.0
 40
13.0
 10
103.6284721963151
 20
-140.8403265706927
 10
103.7872910981851
 20
-141.0580566053605
 10
103.861360651118
 20
-141.1510741834622
 10
104.0050211328529
 20
-141.1999945393528
 10
104.0050211328529
 20
-141.1999945393528
 10
104.0050211328529
 20
-140.4214029596863
 10
104.0050211328529
 20
-140.4214029596863
 10
104.0050211328529
 20
-140.4214029596863
 10
104.2103488237738
 20
-140.4214029596863
 10
104.2103488237738
 20
-140.4214029596863
 10
104.2103488237738
 20
-140.4214029596863
 10
104.2103488237738
 20
-141.4494194524849
 10
104.2103488237738
 20
-141.4494194524849
 10
103.8527479124049
 20
-141.4177245740206
 10
103.7745442448897
 20
-141.3522677598008
 10
103.4761989758671
 20
-140.9671060845499
 10
103.2774169663682
 20
-140.7111354899958
 10
103.2095485853087
 20
-140.6456786757761
 10
103.0720892754473
 20
-140.6456786757761
 10
102.9535779907547
 20
-140.6456786757761
 10
102.8226643623152
 20
-140.7176811714178
 10
102.8226643623152
 20
-140.9143961236256
 10
102.8226643623152
 20
-141.1745008327619
 10
103.0531412502784
 20
-141.1827690619265
 10
103.1695854776798
 20
-141.1872476860574
 10
103.1695854776798
 20
-141.1872476860574
 10
103.1695854776798
 20
-141.4115234021471
 10
103.1695854776798
 20
-141.4115234021471
 10
103.0424614542741
 20
-141.402910663434
 10
102.9304958510035
 20
-141.3922308674297
 10
102.8119845663109
 20
-141.3119601426234
 10
102.6510986071497
 20
-141.2020615966439
 10
102.6173366713943
 20
-141.0156819308919
 10
102.6173366713943
 20
-140.899582213039
 10
102.6173366713943
 20
-140.6222520264764
 10
102.8013047703066
 20
-140.4148572782643
 10
103.0741563327384
 20
-140.4148572782643
 10
103.302910672959
 20
-140.4148572782643
 10
103.4021294229342
 20
-140.5313015056658
 10
103.6284721963151
 20
-140.8403265706927
 97
        0
 97
        0
 75
     2
 76
     1
 98
        0
  0
ENDBLK
  5
83
330
80
100
AcDbEntity
  8
0
100
AcDbBlockEnd
  0
BLOCK
  5
90
330
8E
100
AcDbEntity
  8
0
100
AcDbBlockBegin
  2
block 3
 70
     0
 10
0.0
 20
0.0
 30
0.0
  3
block 3
  1

  0
SPLINE
  5
92
330
8E
100
AcDbEntity
  8
_U+30EC_U+30A4_U+30E4_U+30FC 1
370
     0
100
AcDbSpline
210
0.0
220
0.0
230
1.0
 70
    11
 71
     3
 72
    44
 73
    40
 74
     0
 42
0.0000000001
 43
0.0000000001
 12
1.0
 22
0.0
 32
0.0
 13
1.0
 23
0.0
 33
0.0
 40
0.0
 40
0.0
 40
0.0
 40
0.0
 40
1.0
 40
1.0
 40
1.0
 40
2.0
 40
2.0
 40
2.0
 40
3.0
 40
3.0
 40
3.0
 40
4.0
 40
4.0
 40
4.0
 40
5.0
 40
5.0
 40
5.0
 40
6.0
 40
6.0
 40
6.0
 40
7.0
 40
7.0
 40
7.0
 40
8.0
 40
8.0
 40
8.0
 40
9.0
 40
9.0
 40
9.0
 40
10.0
 40
10.0
 40
10.0
 40
11.0
 40
11.0
 40
11.0
 40
12.0
 40
12.0
 40
12.0
 40
13.0
 40
13.0
 40
13.0
 40
13.0
 10
103.6288167058636
 20
-129.4287922853511
 30
0.0
 10
103.7876356077336
 20
-129.6465223200189
 30
0.0
 10
103.8617051606665
 20
-129.7395398981207
 30
0.0
 10
104.0053656424014
 20
-129.7884602540112
 30
0.0
 10
104.0053656424014
 20
-129.7884602540112
 30
0.0
 10
104.0053656424014
 20
-129.0098686743448
 30
0.0
 10
104.0053656424014
 20
-129.0098686743448
 30
0.0
 10
104.0053656424014
 20
-129.0098686743448
 30
0.0
 10
104.2106933333223
 20
-129.0098686743448
 30
0.0
 10
104.2106933333223
 20
-129.0098686743448
 30
0.0
 10
104.2106933333223
 20
-129.0098686743448
 30
0.0
 10
104.2106933333223
 20
-130.0378851671433
 30
0.0
 10
104.2106933333223
 20
-130.0378851671433
 30
0.0
 10
103.8530924219534
 20
-130.006190288679
 30
0.0
 10
103.7748887544382
 20
-129.9407334744593
 30
0.0
 10
103.4765434854156
 20
-129.5555717992083
 30
0.0
 10
103.2777614759167
 20
-129.2996012046543
 30
0.0
 10
103.2098930948573
 20
-129.2341443904345
 30
0.0
 10
103.0724337849958
 20
-129.2341443904345
 30
0.0
 10
102.9539225003032
 20
-129.2341443904345
 30
0.0
 10
102.8230088718637
 20
-129.3061468860762
 30
0.0
 10
102.8230088718637
 20
-129.502861838284
 30
0.0
 10
102.8230088718637
 20
-129.7629665474204
 30
0.0
 10
103.0534857598269
 20
-129.771234776585
 30
0.0
 10
103.1699299872284
 20
-129.7757134007158
 30
0.0
 10
103.1699299872284
 20
-129.7757134007158
 30
0.0
 10
103.1699299872284
 20
-129.9999891168056
 30
0.0
 10
103.1699299872284
 20
-129.9999891168056
 30
0.0
 10
103.0428059638226
 20
-129.9913763780924
 30
0.0
 10
102.930840360552
 20
-129.9806965820882
 30
0.0
 10
102.8123290758594
 20
-129.9004258572818
 30
0.0
 10
102.6514431166983
 20
-129.7905273113024
 30
0.0
 10
102.6176811809428
 20
-129.6041476455504
 30
0.0
 10
102.6176811809428
 20
-129.4880479276974
 30
0.0
 10
102.6176811809428
 20
-129.2107177411348
 30
0.0
 10
102.8016492798551
 20
-129.0033229929228
 30
0.0
 10
103.0745008422869
 20
-129.0033229929228
 30
0.0
 10
103.3032551825075
 20
-129.0033229929228
 30
0.0
 10
103.4024739324827
 20
-129.1197672203242
 30
0.0
 10
103.6288167058636
 20
-129.4287922853511
 30
0.0
  0
HATCH
  5
93
330
8E
100
AcDbEntity
  8
_U+30EC_U+30A4_U+30E4_U+30FC 1
 62
   179
420
  2234388
100
AcDbHatch
 10
0.0
 20
0.0
 30
0.0
210
0.0
220
0.0
230
1.0
  2
SOLID
 70
     1
 71
     0
 91
        1
 92
        1
 93
        1
 72
     4
 94
        3
 73
     0
 74
     1
 95
       44
 96
       40
 40
0.0
 40
0.0
 40
0.0
 40
0.0
 40
1.0
 40
1.0
 40
1.0
 40
2.0
 40
2.0
 40
2.0
 40
3.0
 40
3.0
 40
3.0
 40
4.0
 40
4.0
 40
4.0
 40
5.0
 40
5.0
 40
5.0
 40
6.0
 40
6.0
 40
6.0
 40
7.0
 40
7.0
 40
7.0
 40
8.0
 40
8.0
 40
8.0
 40
9.0
 40
9.0
 40
9.0
 40
10.0
 40
10.0
 40
10.0
 40
11.0
 40
11.0
 40
11.0
 40
12.0
 40
12.0
 40
12.0
 40
13.0
 40
13.0
 40
13.0
 40
13.0
 10
103.6288167058636
 20
-129.4287922853511
 10
103.7876356077336
 20
-129.6465223200189
 10
103.8617051606665
 20
-129.7395398981207
 10
104.0053656424014
 20
-129.7884602540112
 10
104.0053656424014
 20
-129.7884602540112
 10
104.0053656424014
 20
-129.0098686743448
 10
104.0053656424014
 20
-129.0098686743448
 10
104.0053656424014
 20
-129.0098686743448
 10
104.2106933333223
 20
-129.0098686743448
 10
104.2106933333223
 20
-129.0098686743448
 10
104.2106933333223
 20
-129.0098686743448
 10
104.2106933333223
 20
-130.0378851671433
 10
104.2106933333223
 20
-130.0378851671433
 10
103.8530924219534
 20
-130.006190288679
 10
103.7748887544382
 20
-129.9407334744593
 10
103.4765434854156
 20
-129.5555717992083
 10
103.2777614759167
 20
-129.2996012046543
 10
103.2098930948573
 20
-129.2341443904345
 10
103.0724337849958
 20
-129.2341443904345
 10
102.9539225003032
 20
-129.2341443904345
 10
102.8230088718637
 20
-129.3061468860762
 10
102.8230088718637
 20
-129.502861838284
 10
102.8230088718637
 20
-129.7629665474204
 10
103.0534857598269
 20
-129.771234776585
 10
103.1699299872284
 20
-129.7757134007158
 10
103.1699299872284
 20
-129.7757134007158
 10
103.1699299872284
 20
-129.9999891168056
 10
103.1699299872284
 20
-129.9999891168056
 10
103.0428059638226
 20
-129.9913763780924
 10
102.930840360552
 20
-129.9806965820882
 10
102.8123290758594
 20
-129.9004258572818
 10
102.6514431166983
 20
-129.7905273113024
 10
102.6176811809428
 20
-129.6041476455504
 10
102.6176811809428
 20
-129.4880479276974
 10
102.6176811809428
 20
-129.2107177411348
 10
102.8016492798551
 20
-129.0033229929228
 10
103.0745008422869
 20
-129.0033229929228
 10
103.3032551825075
 20
-129.0033229929228
 10
103.4024739324827
 20
-129.1197672203242
 10
103.6288167058636
 20
-129.4287922853511
 97
        0
 97
        0
 75
     2
 76
     1
 98
        0
  0
SPLINE
  5
94
330
8E
100
AcDbEntity
  8
_U+30EC_U+30A4_U+30E4_U+30FC 1
370
     0
100
AcDbSpline
210
0.0
220
0.0
230
1.0
 70
    11
 71
     3
 72
    44
 73
    40
 74
     0
 42
0.0000000001
 43
0.0000000001
 12
1.0
 22
0.0
 32
0.0
 13
1.0
 23
0.0
 33
0.0
 40
0.0
 40
0.0
 40
0.0
 40
0.0
 40
1.0
 40
1.0
 40
1.0
 40
2.0
 40
2.0
 40
2.0
 40
3.0
 40
3.0
 40
3.0
 40
4.0
 40
4.0
 40
4.0
 40
5.0
 40
5.0
 40
5.0
 40
6.0
 40
6.0
 40
6.0
 40
7.0
 40
7.0
 40
7.0
 40
8.0
 40
8.0
 40
8.0
 40
9.0
 40
9.0
 40
9.0
 40
10.0
 40
10.0
 40
10.0
 40
11.0
 40
11.0
 40
11.0
 40
12.0
 40
12.0
 40
12.0
 40
13.0
 40
13.0
 40
13.0
 40
13.0
 10
103.6288167058636
 20
-128.2519476675898
 30
0.0
 10
103.7876356077336
 20
-128.4696777022576
 30
0.0
 10
103.8617051606665
 20
-128.5626952803593
 30
0.0
 10
104.0053656424014
 20
-128.6116156362499
 30
0.0
 10
104.0053656424014
 20
-128.6116156362499
 30
0.0
 10
104.0053656424014
 20
-127.8330240565834
 30
0.0
 10
104.0053656424014
 20
-127.8330240565834
 30
0.0
 10
104.0053656424014
 20
-127.8330240565834
 30
0.0
 10
104.2106933333223
 20
-127.8330240565834
 30
0.0
 10
104.2106933333223
 20
-127.8330240565834
 30
0.0
 10
104.2106933333223
 20
-127.8330240565834
 30
0.0
 10
104.2106933333223
 20
-128.861040549382
 30
0.0
 10
104.2106933333223
 20
-128.861040549382
 30
0.0
 10
103.8530924219534
 20
-128.8293456709177
 30
0.0
 10
103.7748887544382
 20
-128.7638888566979
 30
0.0
 10
103.4765434854156
 20
-128.378727181447
 30
0.0
 10
103.2777614759167
 20
-128.1227565868929
 30
0.0
 10
103.2098930948573
 20
-128.0572997726732
 30
0.0
 10
103.0724337849958
 20
-128.0572997726732
 30
0.0
 10
102.9539225003032
 20
-128.0572997726732
 30
0.0
 10
102.8230088718637
 20
-128.1293022683149
 30
0.0
 10
102.8230088718637
 20
-128.3260172205227
 30
0.0
 10
102.8230088718637
 20
-128.586121929659
 30
0.0
 10
103.0534857598269
 20
-128.5943901588236
 30
0.0
 10
103.1699299872284
 20
-128.5988687829545
 30
0.0
 10
103.1699299872284
 20
-128.5988687829545
 30
0.0
 10
103.1699299872284
 20
-128.8231444990442
 30
0.0
 10
103.1699299872284
 20
-128.8231444990442
 30
0.0
 10
103.0428059638226
 20
-128.8145317603311
 30
0.0
 10
102.930840360552
 20
-128.8038519643268
 30
0.0
 10
102.8123290758594
 20
-128.7235812395205
 30
0.0
 10
102.6514431166983
 20
-128.613682693541
 30
0.0
 10
102.6176811809428
 20
-128.427303027789
 30
0.0
 10
102.6176811809428
 20
-128.3112033099361
 30
0.0
 10
102.6176811809428
 20
-128.0338731233735
 30
0.0
 10
102.8016492798551
 20
-127.8264783751614
 30
0.0
 10
103.0745008422869
 20
-127.8264783751614
 30
0.0
 10
103.3032551825075
 20
-127.8264783751614
 30
0.0
 10
103.4024739324827
 20
-127.9429226025629
 30
0.0
 10
103.6288167058636
 20
-128.2519476675898
 30
0.0
  0
HATCH
  5
95
330
8E
100
AcDbEntity
  8
_U+30EC_U+30A4_U+30E4_U+30FC 1
 62
   179
420
  2234388
100
AcDbHatch
 10
0.0
 20
0.0
 30
0.0
210
0.0
220
0.0
230
1.0
  2
SOLID
 70
     1
 71
     0
 91
        1
 92
        1
 93
        1
 72
     4
 94
        3
 73
     0
 74
     1
 95
       44
 96
       40
 40
0.0
 40
0.0
 40
0.0
 40
0.0
 40
1.0
 40
1.0
 40
1.0
 40
2.0
 40
2.0
 40
2.0
 40
3.0
 40
3.0
 40
3.0
 40
4.0
 40
4.0
 40
4.0
 40
5.0
 40
5.0
 40
5.0
 40
6.0
 40
6.0
 40
6.0
 40
7.0
 40
7.0
 40
7.0
 40
8.0
 40
8.0
 40
8.0
 40
9.0
 40
9.0
 40
9.0
 40
10.0
 40
10.0
 40
10.0
 40
11.0
 40
11.0
 40
11.0
 40
12.0
 40
12.0
 40
12.0
 40
13.0
 40
13.0
 40
13.0
 40
13.0
 10
103.6288167058636
 20
-128.2519476675898
 10
103.7876356077336
 20
-128.4696777022576
 10
103.8617051606665
 20
-128.5626952803593
 10
104.0053656424014
 20
-128.6116156362499
 10
104.0053656424014
 20
-128.6116156362499
 10
104.0053656424014
 20
-127.8330240565834
 10
104.0053656424014
 20
-127.8330240565834
 10
104.0053656424014
 20
-127.8330240565834
 10
104.2106933333223
 20
-127.8330240565834
 10
104.2106933333223
 20
-127.8330240565834
 10
104.2106933333223
 20
-127.8330240565834
 10
104.2106933333223
 20
-128.861040549382
 10
104.2106933333223
 20
-128.861040549382
 10
103.8530924219534
 20
-128.8293456709177
 10
103.7748887544382
 20
-128.7638888566979
 10
103.4765434854156
 20
-128.378727181447
 10
103.2777614759167
 20
-128.1227565868929
 10
103.2098930948573
 20
-128.0572997726732
 10
103.0724337849958
 20
-128.0572997726732
 10
102.9539225003032
 20
-128.0572997726732
 10
102.8230088718637
 20
-128.1293022683149
 10
102.8230088718637
 20
-128.3260172205227
 10
102.8230088718637
 20
-128.586121929659
 10
103.0534857598269
 20
-128.5943901588236
 10
103.1699299872284
 20
-128.5988687829545
 10
103.1699299872284
 20
-128.5988687829545
 10
103.1699299872284
 20
-128.8231444990442
 10
103.1699299872284
 20
-128.8231444990442
 10
103.0428059638226
 20
-128.8145317603311
 10
102.930840360552
 20
-128.8038519643268
 10
102.8123290758594
 20
-128.7235812395205
 10
102.6514431166983
 20
-128.613682693541
 10
102.6176811809428
 20
-128.427303027789
 10
102.6176811809428
 20
-128.3112033099361
 10
102.6176811809428
 20
-128.0338731233735
 10
102.8016492798551
 20
-127.8264783751614
 10
103.0745008422869
 20
-127.8264783751614
 10
103.3032551825075
 20
-127.8264783751614
 10
103.4024739324827
 20
-127.9429226025629
 10
103.6288167058636
 20
-128.2519476675898
 97
        0
 97
        0
 75
     2
 76
     1
 98
        0
  0
ENDBLK
  5
91
330
8E
100
AcDbEntity
  8
0
100
AcDbBlockEnd
  0
BLOCK
  5
A4
330
A2
100
AcDbEntity
  8
0
100
AcDbBlockBegin
  2
block 4
 70
     0
 10
0.0
 20
0.0
 30
0.0
  3
block 4
  1

  0
SPLINE
  5
A6
330
A2
100
AcDbEntity
  8
_U+30EC_U+30A4_U+30E4_U+30FC 1
370
     0
100
AcDbSpline
210
0.0
220
0.0
230
1.0
 70
    11
 71
     3
 72
    44
 73
    40
 74
     0
 42
0.0000000001
 43
0.0000000001
 12
1.0
 22
0.0
 32
0.0
 13
1.0
 23
0.0
 33
0.0
 40
0.0
 40
0.0
 40
0.0
 40
0.0
 40
1.0
 40
1.0
 40
1.0
 40
2.0
 40
2.0
 40
2.0
 40
3.0
 40
3.0
 40
3.0
 40
4.0
 40
4.0
 40
4.0
 40
5.0
 40
5.0
 40
5.0
 40
6.0
 40
6.0
 40
6.0
 40
7.0
 40
7.0
 40
7.0
 40
8.0
 40
8.0
 40
8.0
 40
9.0
 40
9.0
 40
9.0
 40
10.0
 40
10.0
 40
10.0
 40
11.0
 40
11.0
 40
11.0
 40
12.0
 40
12.0
 40
12.0
 40
13.0
 40
13.0
 40
13.0
 40
13.0
 10
88.44972599785285
 20
-112.7057820356256
 30
0.0
 10
88.23199596318506
 20
-112.8644286827214
 30
0.0
 10
88.13897838508332
 20
-112.9384982356543
 30
0.0
 10
88.09005802919276
 20
-113.0823309721634
 30
0.0
 10
88.09005802919276
 20
-113.0823309721634
 30
0.0
 10
88.86864960885923
 20
-113.0823309721634
 30
0.0
 10
88.86864960885923
 20
-113.0823309721634
 30
0.0
 10
88.86864960885923
 20
-113.0823309721634
 30
0.0
 10
88.86864960885923
 20
-113.2874864083101
 30
0.0
 10
88.86864960885923
 20
-113.2874864083101
 30
0.0
 10
88.86864960885923
 20
-113.2874864083101
 30
0.0
 10
87.84063311606067
 20
-113.2874864083101
 30
0.0
 10
87.84063311606067
 20
-113.2874864083101
 30
0.0
 10
87.87232799452498
 20
-112.9298854969411
 30
0.0
 10
87.93778480874472
 20
-112.851681829426
 30
0.0
 10
88.32294648399565
 20
-112.5533365604033
 30
0.0
 10
88.57891707854972
 20
-112.3545545509044
 30
0.0
 10
88.64437389276947
 20
-112.2868584246193
 30
0.0
 10
88.64437389276947
 20
-112.1493991147578
 30
0.0
 10
88.64437389276947
 20
-112.0308878300652
 30
0.0
 10
88.57237139712774
 20
-111.8998019468514
 30
0.0
 10
88.37565644491998
 20
-111.8998019468514
 30
0.0
 10
88.11555173578361
 20
-111.8998019468514
 30
0.0
 10
88.10693899707049
 20
-112.1302788348147
 30
0.0
 10
88.10280488248819
 20
-112.2467230622161
 30
0.0
 10
88.10280488248819
 20
-112.2467230622161
 30
0.0
 10
87.87852916639842
 20
-112.2467230622161
 30
0.0
 10
87.87852916639842
 20
-112.2467230622161
 30
0.0
 10
87.88714190511155
 20
-112.1197712935846
 30
0.0
 10
87.89782170111583
 20
-112.0076334355398
 30
0.0
 10
87.97809242592214
 20
-111.8891221508472
 30
0.0
 10
88.08799097190162
 20
-111.7284084464603
 30
0.0
 10
88.27437063765363
 20
-111.6944742559306
 30
0.0
 10
88.39047035550655
 20
-111.6944742559306
 30
0.0
 10
88.66780054206916
 20
-111.6944742559306
 30
0.0
 10
88.87519529028121
 20
-111.8786146096172
 30
0.0
 10
88.87519529028121
 20
-112.1514661720489
 30
0.0
 10
88.87519529028121
 20
-112.379876002721
 30
0.0
 10
88.75875106287977
 20
-112.4794392622447
 30
0.0
 10
88.44972599785285
 20
-112.7057820356256
 30
0.0
  0
HATCH
  5
A7
330
A2
100
AcDbEntity
  8
_U+30EC_U+30A4_U+30E4_U+30FC 1
 62
   179
420
  2234388
100
AcDbHatch
 10
0.0
 20
0.0
 30
0.0
210
0.0
220
0.0
230
1.0
  2
SOLID
 70
     1
 71
     0
 91
        1
 92
        1
 93
        1
 72
     4
 94
        3
 73
     0
 74
     1
 95
       44
 96
       40
 40
0.0
 40
0.0
 40
0.0
 40
0.0
 40
1.0
 40
1.0
 40
1.0
 40
2.0
 40
2.0
 40
2.0
 40
3.0
 40
3.0
 40
3.0
 40
4.0
 40
4.0
 40
4.0
 40
5.0
 40
5.0
 40
5.0
 40
6.0
 40
6.0
 40
6.0
 40
7.0
 40
7.0
 40
7.0
 40
8.0
 40
8.0
 40
8.0
 40
9.0
 40
9.0
 40
9.0
 40
10.0
 40
10.0
 40
10.0
 40
11.0
 40
11.0
 40
11.0
 40
12.0
 40
12.0
 40
12.0
 40
13.0
 40
13.0
 40
13.0
 40
13.0
 10
88.44972599785285
 20
-112.7057820356256
 10
88.23199596318506
 20
-112.8644286827214
 10
88.13897838508332
 20
-112.9384982356543
 10
88.09005802919276
 20
-113.0823309721634
 10
88.09005802919276
 20
-113.0823309721634
 10
88.86864960885923
 20
-113.0823309721634
 10
88.86864960885923
 20
-113.0823309721634
 10
88.86864960885923
 20
-113.0823309721634
 10
88.86864960885923
 20
-113.2874864083101
 10
88.86864960885923
 20
-113.2874864083101
 10
88.86864960885923
 20
-113.2874864083101
 10
87.84063311606067
 20
-113.2874864083101
 10
87.84063311606067
 20
-113.2874864083101
 10
87.87232799452498
 20
-112.9298854969411
 10
87.93778480874472
 20
-112.851681829426
 10
88.32294648399565
 20
-112.5533365604033
 10
88.57891707854972
 20
-112.3545545509044
 10
88.64437389276947
 20
-112.2868584246193
 10
88.64437389276947
 20
-112.1493991147578
 10
88.64437389276947
 20
-112.0308878300652
 10
88.57237139712774
 20
-111.8998019468514
 10
88.37565644491998
 20
-111.8998019468514
 10
88.11555173578361
 20
-111.8998019468514
 10
88.10693899707049
 20
-112.1302788348147
 10
88.10280488248819
 20
-112.2467230622161
 10
88.10280488248819
 20
-112.2467230622161
 10
87.87852916639842
 20
-112.2467230622161
 10
87.87852916639842
 20
-112.2467230622161
 10
87.88714190511155
 20
-112.1197712935846
 10
87.89782170111583
 20
-112.0076334355398
 10
87.97809242592214
 20
-111.8891221508472
 10
88.08799097190162
 20
-111.7284084464603
 10
88.27437063765363
 20
-111.6944742559306
 10
88.39047035550655
 20
-111.6944742559306
 10
88.66780054206916
 20
-111.6944742559306
 10
88.87519529028121
 20
-111.8786146096172
 10
88.87519529028121
 20
-112.1514661720489
 10
88.87519529028121
 20
-112.379876002721
 10
88.75875106287977
 20
-112.4794392622447
 10
88.44972599785285
 20
-112.7057820356256
 97
        0
 97
        0
 75
     2
 76
     1
 98
        0
  0
ENDBLK
  5
A5
330
A2
100
AcDbEntity
  8
0
100
AcDbBlockEnd
  0
BLOCK
  5
B6
330
B4
100
AcDbEntity
  8
0
100
AcDbBlockBegin
  2
block 5
 70
     0
 10
0.0
 20
0.0
 30
0.0
  3
block 5
  1

  0
SPLINE
  5
B8
330
B4
100
AcDbEntity
  8
_U+30EC_U+30A4_U+30E4_U+30FC 1
370
     0
100
AcDbSpline
210
0.0
220
0.0
230
1.0
 70
    11
 71
     3
 72
    44
 73
    40
 74
     0
 42
0.0000000001
 43
0.0000000001
 12
1.0
 22
0.0
 32
0.0
 13
1.0
 23
0.0
 33
0.0
 40
0.0
 40
0.0
 40
0.0
 40
0.0
 40
1.0
 40
1.0
 40
1.0
 40
2.0
 40
2.0
 40
2.0
 40
3.0
 40
3.0
 40
3.0
 40
4.0
 40
4.0
 40
4.0
 40
5.0
 40
5.0
 40
5.0
 40
6.0
 40
6.0
 40
6.0
 40
7.0
 40
7.0
 40
7.0
 40
8.0
 40
8.0
 40
8.0
 40
9.0
 40
9.0
 40
9.0
 40
10.0
 40
10.0
 40
10.0
 40
11.0
 40
11.0
 40
11.0
 40
12.0
 40
12.0
 40
12.0
 40
13.0
 40
13.0
 40
13.0
 40
13.0
 10
87.86130368897217
 20
-144.7053791955945
 30
0.0
 10
87.64357365430439
 20
-144.8641980974645
 30
0.0
 10
87.55055607620264
 20
-144.9382676503974
 30
0.0
 10
87.5016357203121
 20
-145.0819281321323
 30
0.0
 10
87.5016357203121
 20
-145.0819281321323
 30
0.0
 10
88.28022729997856
 20
-145.0819281321323
 30
0.0
 10
88.28022729997856
 20
-145.0819281321323
 30
0.0
 10
88.28022729997856
 20
-145.0819281321323
 30
0.0
 10
88.28022729997856
 20
-145.2872558230532
 30
0.0
 10
88.28022729997856
 20
-145.2872558230532
 30
0.0
 10
88.28022729997856
 20
-145.2872558230532
 30
0.0
 10
87.25221080718
 20
-145.2872558230532
 30
0.0
 10
87.25221080718
 20
-145.2872558230532
 30
0.0
 10
87.2839056856443
 20
-144.9296549116843
 30
0.0
 10
87.34936249986406
 20
-144.8514512441691
 30
0.0
 10
87.73452417511498
 20
-144.5531059751465
 30
0.0
 10
87.99049476966904
 20
-144.3543239656475
 30
0.0
 10
88.0559515838888
 20
-144.2864555845881
 30
0.0
 10
88.0559515838888
 20
-144.1489962747266
 30
0.0
 10
88.0559515838888
 20
-144.030484990034
 30
0.0
 10
87.98394908824707
 20
-143.8995713615946
 30
0.0
 10
87.7872341360393
 20
-143.8995713615946
 30
0.0
 10
87.52712942690295
 20
-143.8995713615946
 30
0.0
 10
87.51851668818982
 20
-144.1300482495578
 30
0.0
 10
87.51438257360752
 20
-144.2464924769592
 30
0.0
 10
87.51438257360752
 20
-144.2464924769592
 30
0.0
 10
87.29010685751776
 20
-144.2464924769592
 30
0.0
 10
87.29010685751776
 20
-144.2464924769592
 30
0.0
 10
87.29871959623088
 20
-144.1193684535535
 30
0.0
 10
87.30939939223515
 20
-144.0074028502829
 30
0.0
 10
87.38967011704148
 20
-143.8888915655903
 30
0.0
 10
87.49956866302095
 20
-143.7280056064291
 30
0.0
 10
87.68594832877297
 20
-143.6942436706737
 30
0.0
 10
87.80204804662588
 20
-143.6942436706737
 30
0.0
 10
88.07937823318849
 20
-143.6942436706737
 30
0.0
 10
88.28677298140053
 20
-143.878211769586
 30
0.0
 10
88.28677298140053
 20
-144.1510633320178
 30
0.0
 10
88.28677298140053
 20
-144.3798176722384
 30
0.0
 10
88.17032875399909
 20
-144.4790364222136
 30
0.0
 10
87.86130368897217
 20
-144.7053791955945
 30
0.0
  0
HATCH
  5
B9
330
B4
100
AcDbEntity
  8
_U+30EC_U+30A4_U+30E4_U+30FC 1
 62
   179
420
  2234388
100
AcDbHatch
 10
0.0
 20
0.0
 30
0.0
210
0.0
220
0.0
230
1.0
  2
SOLID
 70
     1
 71
     0
 91
        1
 92
        1
 93
        1
 72
     4
 94
        3
 73
     0
 74
     1
 95
       44
 96
       40
 40
0.0
 40
0.0
 40
0.0
 40
0.0
 40
1.0
 40
1.0
 40
1.0
 40
2.0
 40
2.0
 40
2.0
 40
3.0
 40
3.0
 40
3.0
 40
4.0
 40
4.0
 40
4.0
 40
5.0
 40
5.0
 40
5.0
 40
6.0
 40
6.0
 40
6.0
 40
7.0
 40
7.0
 40
7.0
 40
8.0
 40
8.0
 40
8.0
 40
9.0
 40
9.0
 40
9.0
 40
10.0
 40
10.0
 40
10.0
 40
11.0
 40
11.0
 40
11.0
 40
12.0
 40
12.0
 40
12.0
 40
13.0
 40
13.0
 40
13.0
 40
13.0
 10
87.86130368897217
 20
-144.7053791955945
 10
87.64357365430439
 20
-144.8641980974645
 10
87.55055607620264
 20
-144.9382676503974
 10
87.5016357203121
 20
-145.0819281321323
 10
87.5016357203121
 20
-145.0819281321323
 10
88.28022729997856
 20
-145.0819281321323
 10
88.28022729997856
 20
-145.0819281321323
 10
88.28022729997856
 20
-145.0819281321323
 10
88.28022729997856
 20
-145.2872558230532
 10
88.28022729997856
 20
-145.2872558230532
 10
88.28022729997856
 20
-145.2872558230532
 10
87.25221080718
 20
-145.2872558230532
 10
87.25221080718
 20
-145.2872558230532
 10
87.2839056856443
 20
-144.9296549116843
 10
87.34936249986406
 20
-144.8514512441691
 10
87.73452417511498
 20
-144.5531059751465
 10
87.99049476966904
 20
-144.3543239656475
 10
88.0559515838888
 20
-144.2864555845881
 10
88.0559515838888
 20
-144.1489962747266
 10
88.0559515838888
 20
-144.030484990034
 10
87.98394908824707
 20
-143.8995713615946
 10
87.7872341360393
 20
-143.8995713615946
 10
87.52712942690295
 20
-143.8995713615946
 10
87.51851668818982
 20
-144.1300482495578
 10
87.51438257360752
 20
-144.2464924769592
 10
87.51438257360752
 20
-144.2464924769592
 10
87.29010685751776
 20
-144.2464924769592
 10
87.29010685751776
 20
-144.2464924769592
 10
87.29871959623088
 20
-144.1193684535535
 10
87.30939939223515
 20
-144.0074028502829
 10
87.38967011704148
 20
-143.8888915655903
 10
87.49956866302095
 20
-143.7280056064291
 10
87.68594832877297
 20
-143.6942436706737
 10
87.80204804662588
 20
-143.6942436706737
 10
88.07937823318849
 20
-143.6942436706737
 10
88.28677298140053
 20
-143.878211769586
 10
88.28677298140053
 20
-144.1510633320178
 10
88.28677298140053
 20
-144.3798176722384
 10
88.17032875399909
 20
-144.4790364222136
 10
87.86130368897217
 20
-144.7053791955945
 97
        0
 97
        0
 75
     2
 76
     1
 98
        0
  0
SPLINE
  5
BA
330
B4
100
AcDbEntity
  8
_U+30EC_U+30A4_U+30E4_U+30FC 1
370
     0
100
AcDbSpline
210
0.0
220
0.0
230
1.0
 70
    11
 71
     3
 72
    53
 73
    49
 74
     0
 42
0.0000000001
 43
0.0000000001
 12
1.0
 22
0.0
 32
0.0
 13
1.0
 23
0.0
 33
0.0
 40
0.0
 40
0.0
 40
0.0
 40
0.0
 40
1.0
 40
1.0
 40
1.0
 40
2.0
 40
2.0
 40
2.0
 40
3.0
 40
3.0
 40
3.0
 40
4.0
 40
4.0
 40
4.0
 40
5.0
 40
5.0
 40
5.0
 40
6.0
 40
6.0
 40
6.0
 40
7.0
 40
7.0
 40
7.0
 40
8.0
 40
8.0
 40
8.0
 40
9.0
 40
9.0
 40
9.0
 40
10.0
 40
10.0
 40
10.0
 40
11.0
 40
11.0
 40
11.0
 40
12.0
 40
12.0
 40
12.0
 40
13.0
 40
13.0
 40
13.0
 40
14.0
 40
14.0
 40
14.0
 40
15.0
 40
15.0
 40
15.0
 40
16.0
 40
16.0
 40
16.0
 40
16.0
 10
88.9261827034629
 20
-145.3378987266864
 30
0.0
 10
88.84797903594773
 20
-145.3378987266864
 30
0.0
 10
88.74634871913287
 20
-145.3210177588086
 30
0.0
 10
88.64471840231799
 20
-145.2576280018801
 30
0.0
 10
88.47143009940993
 20
-145.1477294559006
 30
0.0
 10
88.45007050740138
 20
-145.0164713179126
 30
0.0
 10
88.4311224822325
 20
-144.9086398292242
 30
0.0
 10
88.4311224822325
 20
-144.9086398292242
 30
0.0
 10
88.65333114103112
 20
-144.9086398292242
 30
0.0
 10
88.65333114103112
 20
-144.9086398292242
 30
0.0
 10
88.70810815924659
 20
-145.1074218387232
 30
0.0
 10
88.8352321826523
 20
-145.1370496598963
 30
0.0
 10
88.92824976075406
 20
-145.1370496598963
 30
0.0
 10
89.06777612790667
 20
-145.1370496598963
 30
0.0
 10
89.22004934835472
 20
-145.0374864003726
 30
0.0
 10
89.22004934835472
 20
-144.8049424551182
 30
0.0
 10
89.22004934835472
 20
-144.5489718605642
 30
0.0
 10
89.04021536402468
 20
-144.4790364222136
 30
0.0
 10
88.91963702204093
 20
-144.4790364222136
 30
0.0
 10
88.88794214357662
 20
-144.4790364222136
 30
0.0
 10
88.74634871913287
 20
-144.4790364222136
 30
0.0
 10
88.65746525561342
 20
-144.6082275029104
 30
0.0
 10
88.65746525561342
 20
-144.6082275029104
 30
0.0
 10
88.48176538586567
 20
-144.5892794777416
 30
0.0
 10
88.48176538586567
 20
-144.5892794777416
 30
0.0
 10
88.48176538586567
 20
-144.5892794777416
 30
0.0
 10
88.60234372784942
 20
-143.7428195170157
 30
0.0
 10
88.60234372784942
 20
-143.7428195170157
 30
0.0
 10
88.60234372784942
 20
-143.7428195170157
 30
0.0
 10
89.38093530751588
 20
-143.7428195170157
 30
0.0
 10
89.38093530751588
 20
-143.7428195170157
 30
0.0
 10
89.38093530751588
 20
-143.7428195170157
 30
0.0
 10
89.38093530751588
 20
-143.9374674119323
 30
0.0
 10
89.38093530751588
 20
-143.9374674119323
 30
0.0
 10
89.38093530751588
 20
-143.9374674119323
 30
0.0
 10
88.76529674430174
 20
-143.9374674119323
 30
0.0
 10
88.76529674430174
 20
-143.9374674119323
 30
0.0
 10
88.76529674430174
 20
-143.9374674119323
 30
0.0
 10
88.69983993008199
 20
-144.360525137521
 30
0.0
 10
88.69983993008199
 20
-144.360525137521
 30
0.0
 10
88.76116262971944
 20
-144.3267632017655
 30
0.0
 10
88.8435004118169
 20
-144.2864555845881
 30
0.0
 10
88.9620116965095
 20
-144.2864555845881
 30
0.0
 10
89.21591523377242
 20
-144.2864555845881
 30
0.0
 10
89.4529378031576
 20
-144.4728352503401
 30
0.0
 10
89.4529378031576
 20
-144.7859944299493
 30
0.0
 10
89.4529378031576
 20
-145.1032877241408
 30
0.0
 10
89.22866208706783
 20
-145.3378987266864
 30
0.0
 10
88.9261827034629
 20
-145.3378987266864
 30
0.0
  0
HATCH
  5
BB
330
B4
100
AcDbEntity
  8
_U+30EC_U+30A4_U+30E4_U+30FC 1
 62
   179
420
  2234388
100
AcDbHatch
 10
0.0
 20
0.0
 30
0.0
210
0.0
220
0.0
230
1.0
  2
SOLID
 70
     1
 71
     0
 91
        1
 92
        1
 93
        1
 72
     4
 94
        3
 73
     0
 74
     1
 95
       53
 96
       49
 40
0.0
 40
0.0
 40
0.0
 40
0.0
 40
1.0
 40
1.0
 40
1.0
 40
2.0
 40
2.0
 40
2.0
 40
3.0
 40
3.0
 40
3.0
 40
4.0
 40
4.0
 40
4.0
 40
5.0
 40
5.0
 40
5.0
 40
6.0
 40
6.0
 40
6.0
 40
7.0
 40
7.0
 40
7.0
 40
8.0
 40
8.0
 40
8.0
 40
9.0
 40
9.0
 40
9.0
 40
10.0
 40
10.0
 40
10.0
 40
11.0
 40
11.0
 40
11.0
 40
12.0
 40
12.0
 40
12.0
 40
13.0
 40
13.0
 40
13.0
 40
14.0
 40
14.0
 40
14.0
 40
15.0
 40
15.0
 40
15.0
 40
16.0
 40
16.0
 40
16.0
 40
16.0
 10
88.9261827034629
 20
-145.3378987266864
 10
88.84797903594773
 20
-145.3378987266864
 10
88.74634871913287
 20
-145.3210177588086
 10
88.64471840231799
 20
-145.2576280018801
 10
88.47143009940993
 20
-145.1477294559006
 10
88.45007050740138
 20
-145.0164713179126
 10
88.4311224822325
 20
-144.9086398292242
 10
88.4311224822325
 20
-144.9086398292242
 10
88.65333114103112
 20
-144.9086398292242
 10
88.65333114103112
 20
-144.9086398292242
 10
88.70810815924659
 20
-145.1074218387232
 10
88.8352321826523
 20
-145.1370496598963
 10
88.92824976075406
 20
-145.1370496598963
 10
89.06777612790667
 20
-145.1370496598963
 10
89.22004934835472
 20
-145.0374864003726
 10
89.22004934835472
 20
-144.8049424551182
 10
89.22004934835472
 20
-144.5489718605642
 10
89.04021536402468
 20
-144.4790364222136
 10
88.91963702204093
 20
-144.4790364222136
 10
88.88794214357662
 20
-144.4790364222136
 10
88.74634871913287
 20
-144.4790364222136
 10
88.65746525561342
 20
-144.6082275029104
 10
88.65746525561342
 20
-144.6082275029104
 10
88.48176538586567
 20
-144.5892794777416
 10
88.48176538586567
 20
-144.5892794777416
 10
88.48176538586567
 20
-144.5892794777416
 10
88.60234372784942
 20
-143.7428195170157
 10
88.60234372784942
 20
-143.7428195170157
 10
88.60234372784942
 20
-143.7428195170157
 10
89.38093530751588
 20
-143.7428195170157
 10
89.38093530751588
 20
-143.7428195170157
 10
89.38093530751588
 20
-143.7428195170157
 10
89.38093530751588
 20
-143.9374674119323
 10
89.38093530751588
 20
-143.9374674119323
 10
89.38093530751588
 20
-143.9374674119323
 10
88.76529674430174
 20
-143.9374674119323
 10
88.76529674430174
 20
-143.9374674119323
 10
88.76529674430174
 20
-143.9374674119323
 10
88.69983993008199
 20
-144.360525137521
 10
88.69983993008199
 20
-144.360525137521
 10
88.76116262971944
 20
-144.3267632017655
 10
88.8435004118169
 20
-144.2864555845881
 10
88.9620116965095
 20
-144.2864555845881
 10
89.21591523377242
 20
-144.2864555845881
 10
89.4529378031576
 20
-144.4728352503401
 10
89.4529378031576
 20
-144.7859944299493
 10
89.4529378031576
 20
-145.1032877241408
 10
89.22866208706783
 20
-145.3378987266864
 10
88.9261827034629
 20
-145.3378987266864
 97
        0
 97
        0
 75
     2
 76
     1
 98
        0
  0
ENDBLK
  5
B7
330
B4
100
AcDbEntity
  8
0
100
AcDbBlockEnd
  0
ENDSEC
  0
SECTION
  2
ENTITIES
  0
POLYLINE
  5
41
330
1F
100
AcDbEntity
  8
_U+30EC_U+30A4_U+30E4_U+30FC 1
370
     0
100
AcDb2dPolyline
 66
     1
 10
0.0
 20
0.0
 30
0.0
  0
VERTEX
  5
42
330
41
100
AcDbEntity
  8
_U+30EC_U+30A4_U+30E4_U+30FC 1
370
     0
100
AcDbVertex
100
AcDb2dVertex
 10
89.35680966476231
 20
-117.9333641371832
 30
0.0
  0
VERTEX
  5
43
330
41
100
AcDbEntity
  8
_U+30EC_U+30A4_U+30E4_U+30FC 1
370
     0
100
AcDbVertex
100
AcDb2dVertex
 10
87.3573027559386
 20
-117.9333641371832
 30
0.0
  0
VERTEX
  5
44
330
41
100
AcDbEntity
  8
_U+30EC_U+30A4_U+30E4_U+30FC 1
370
     0
100
AcDbVertex
100
AcDb2dVertex
 10
87.3573027559386
 20
-139.9335741316831
 30
0.0
  0
VERTEX
  5
45
330
41
100
AcDbEntity
  8
_U+30EC_U+30A4_U+30E4_U+30FC 1
370
     0
100
AcDbVertex
100
AcDb2dVertex
 10
75.85685112028605
 20
-139.9335741316831
 30
0.0
  0
VERTEX
  5
46
330
41
100
AcDbEntity
  8
_U+30EC_U+30A4_U+30E4_U+30FC 1
370
     0
100
AcDbVertex
100
AcDb2dVertex
 10
75.85685112028605
 20
-141.9337888534056
 30
0.0
  0
VERTEX
  5
47
330
41
100
AcDbEntity
  8
_U+30EC_U+30A4_U+30E4_U+30FC 1
370
     0
100
AcDbVertex
100
AcDb2dVertex
 10
100.8572238158067
 20
-141.9337888534056
 30
0.0
  0
VERTEX
  5
48
330
41
100
AcDbEntity
  8
_U+30EC_U+30A4_U+30E4_U+30FC 1
370
     0
100
AcDbVertex
100
AcDb2dVertex
 10
100.8572238158067
 20
-139.9335741316831
 30
0.0
  0
VERTEX
  5
49
330
41
100
AcDbEntity
  8
_U+30EC_U+30A4_U+30E4_U+30FC 1
370
     0
100
AcDbVertex
100
AcDb2dVertex
 10
89.35680966476231
 20
-139.9335741316831
 30
0.0
  0
VERTEX
  5
4A
330
41
100
AcDbEntity
  8
_U+30EC_U+30A4_U+30E4_U+30FC 1
370
     0
100
AcDbVertex
100
AcDb2dVertex
 10
89.35680966476231
 20
-117.9333641371832
 30
0.0
  0
SEQEND
  5
4C
330
41
100
AcDbEntity
  8
_U+30EC_U+30A4_U+30E4_U+30FC 1
370
     0
  0
HATCH
  5
4B
330
1F
100
AcDbEntity
  8
_U+30EC_U+30A4_U+30E4_U+30FC 1
 62
   253
420
 11711154
100
AcDbHatch
 10
0.0
 20
0.0
 30
0.0
210
0.0
220
0.0
230
1.0
  2
SOLID
 70
     1
 71
     0
 91
        1
 92
        1
 93
        8
 72
     1
 10
89.35680966476231
 20
-117.9333641371832
 11
87.3573027559386
 21
-117.9333641371832
 72
     1
 10
87.3573027559386
 20
-117.9333641371832
 11
87.3573027559386
 21
-139.9335741316831
 72
     1
 10
87.3573027559386
 20
-139.9335741316831
 11
75.85685112028605
 21
-139.9335741316831
 72
     1
 10
75.85685112028605
 20
-139.9335741316831
 11
75.85685112028605
 21
-141.9337888534056
 72
     1
 10
75.85685112028605
 20
-141.9337888534056
 11
100.8572238158067
 21
-141.9337888534056
 72
     1
 10
100.8572238158067
 20
-141.9337888534056
 11
100.8572238158067
 21
-139.9335741316831
 72
     1
 10
100.8572238158067
 20
-139.9335741316831
 11
89.35680966476231
 21
-139.9335741316831
 72
     1
 10
89.35680966476231
 20
-139.9335741316831
 11
89.35680966476231
 21
-117.9333641371832
 97
        0
 75
     2
 76
     1
 98
        0
  0
POLYLINE
  5
4D
330
1F
100
AcDbEntity
  8
_U+30EC_U+30A4_U+30E4_U+30FC 1
 62
   179
420
  2234388
370
    25
100
AcDb2dPolyline
 66
     1
 10
0.0
 20
0.0
 30
0.0
  0
VERTEX
  5
4E
330
4D
100
AcDbEntity
  8
_U+30EC_U+30A4_U+30E4_U+30FC 1
 62
   179
420
  2234388
370
    25
100
AcDbVertex
100
AcDb2dVertex
 10
75.85685112028605
 20
-141.9337888534056
 30
0.0
  0
VERTEX
  5
4F
330
4D
100
AcDbEntity
  8
_U+30EC_U+30A4_U+30E4_U+30FC 1
 62
   179
420
  2234388
370
    25
100
AcDbVertex
100
AcDb2dVertex
 10
100.8572238158067
 20
-141.9337888534056
 30
0.0
  0
SEQEND
  5
50
330
4D
100
AcDbEntity
  8
_U+30EC_U+30A4_U+30E4_U+30FC 1
 62
   179
420
  2234388
370
    25
  0
POLYLINE
  5
51
330
1F
100
AcDbEntity
  8
_U+30EC_U+30A4_U+30E4_U+30FC 1
 62
   179
420
  2234388
370
    25
100
AcDb2dPolyline
 66
     1
 10
0.0
 20
0.0
 30
0.0
  0
VERTEX
  5
52
330
51
100
AcDbEntity
  8
_U+30EC_U+30A4_U+30E4_U+30FC 1
 62
   179
420
  2234388
370
    25
100
AcDbVertex
100
AcDb2dVertex
 10
87.3573027559386
 20
-117.9333641371832
 30
0.0
  0
VERTEX
  5
53
330
51
100
AcDbEntity
  8
_U+30EC_U+30A4_U+30E4_U+30FC 1
 62
   179
420
  2234388
370
    25
100
AcDbVertex
100
AcDb2dVertex
 10
87.3573027559386
 20
-139.9335741316831
 30
0.0
  0
SEQEND
  5
54
330
51
100
AcDbEntity
  8
_U+30EC_U+30A4_U+30E4_U+30FC 1
 62
   179
420
  2234388
370
    25
  0
POLYLINE
  5
55
330
1F
100
AcDbEntity
  8
_U+30EC_U+30A4_U+30E4_U+30FC 1
 62
   179
420
  2234388
370
    25
100
AcDb2dPolyline
 66
     1
 10
0.0
 20
0.0
 30
0.0
  0
VERTEX
  5
56
330
55
100
AcDbEntity
  8
_U+30EC_U+30A4_U+30E4_U+30FC 1
 62
   179
420
  2234388
370
    25
100
AcDbVertex
100
AcDb2dVertex
 10
89.35680966476231
 20
-117.9333641371832
 30
0.0
  0
VERTEX
  5
57
330
55
100
AcDbEntity
  8
_U+30EC_U+30A4_U+30E4_U+30FC 1
 62
   179
420
  2234388
370
    25
100
AcDbVertex
100
AcDb2dVertex
 10
89.35680966476231
 20
-139.9335741316831
 30
0.0
  0
SEQEND
  5
58
330
55
100
AcDbEntity
  8
_U+30EC_U+30A4_U+30E4_U+30FC 1
 62
   179
420
  2234388
370
    25
  0
POLYLINE
  5
59
330
1F
100
AcDbEntity
  8
_U+30EC_U+30A4_U+30E4_U+30FC 1
 62
   179
420
  2234388
370
    25
100
AcDb2dPolyline
 66
     1
 10
0.0
 20
0.0
 30
0.0
  0
VERTEX
  5
5A
330
59
100
AcDbEntity
  8
_U+30EC_U+30A4_U+30E4_U+30FC 1
 62
   179
420
  2234388
370
    25
100
AcDbVertex
100
AcDb2dVertex
 10
100.8572238158067
 20
-139.9335741316831
 30
0.0
  0
VERTEX
  5
5B
330
59
100
AcDbEntity
  8
_U+30EC_U+30A4_U+30E4_U+30FC 1
 62
   179
420
  2234388
370
    25
100
AcDbVertex
100
AcDb2dVertex
 10
100.8572238158067
 20
-141.9337888534056
 30
0.0
  0
SEQEND
  5
5C
330
59
100
AcDbEntity
  8
_U+30EC_U+30A4_U+30E4_U+30FC 1
 62
   179
420
  2234388
370
    25
  0
POLYLINE
  5
5D
330
1F
100
AcDbEntity
  8
_U+30EC_U+30A4_U+30E4_U+30FC 1
 62
   179
420
  2234388
370
    25
100
AcDb2dPolyline
 66
     1
 10
0.0
 20
0.0
 30
0.0
  0
VERTEX
  5
5E
330
5D
100
AcDbEntity
  8
_U+30EC_U+30A4_U+30E4_U+30FC 1
 62
   179
420
  2234388
370
    25
100
AcDbVertex
100
AcDb2dVertex
 10
75.85685112028605
 20
-139.9335741316831
 30
0.0
  0
VERTEX
  5
5F
330
5D
100
AcDbEntity
  8
_U+30EC_U+30A4_U+30E4_U+30FC 1
 62
   179
420
  2234388
370
    25
100
AcDbVertex
100
AcDb2dVertex
 10
75.85685112028605
 20
-141.9337888534056
 30
0.0
  0
SEQEND
  5
60
330
5D
100
AcDbEntity
  8
_U+30EC_U+30A4_U+30E4_U+30FC 1
 62
   179
420
  2234388
370
    25
  0
POLYLINE
  5
61
330
1F
100
AcDbEntity
  8
_U+30EC_U+30A4_U+30E4_U+30FC 1
 62
   179
420
  2234388
370
    25
100
AcDb2dPolyline
 66
     1
 10
0.0
 20
0.0
 30
0.0
  0
VERTEX
  5
62
330
61
100
AcDbEntity
  8
_U+30EC_U+30A4_U+30E4_U+30FC 1
 62
   179
420
  2234388
370
    25
100
AcDbVertex
100
AcDb2dVertex
 10
75.85685112028605
 20
-139.9335741316831
 30
0.0
  0
VERTEX
  5
63
330
61
100
AcDbEntity
  8
_U+30EC_U+30A4_U+30E4_U+30FC 1
 62
   179
420
  2234388
370
    25
100
AcDbVertex
100
AcDb2dVertex
 10
87.3573027559386
 20
-139.9335741316831
 30
0.0
  0
SEQEND
  5
64
330
61
100
AcDbEntity
  8
_U+30EC_U+30A4_U+30E4_U+30FC 1
 62
   179
420
  2234388
370
    25
  0
POLYLINE
  5
65
330
1F
100
AcDbEntity
  8
_U+30EC_U+30A4_U+30E4_U+30FC 1
 62
   179
420
  2234388
370
    25
100
AcDb2dPolyline
 66
     1
 10
0.0
 20
0.0
 30
0.0
  0
VERTEX
  5
66
330
65
100
AcDbEntity
  8
_U+30EC_U+30A4_U+30E4_U+30FC 1
 62
   179
420
  2234388
370
    25
100
AcDbVertex
100
AcDb2dVertex
 10
87.3573027559386
 20
-117.9333641371832
 30
0.0
  0
VERTEX
  5
67
330
65
100
AcDbEntity
  8
_U+30EC_U+30A4_U+30E4_U+30FC 1
 62
   179
420
  2234388
370
    25
100
AcDbVertex
100
AcDb2dVertex
 10
89.35680966476231
 20
-117.9333641371832
 30
0.0
  0
SEQEND
  5
68
330
65
100
AcDbEntity
  8
_U+30EC_U+30A4_U+30E4_U+30FC 1
 62
   179
420
  2234388
370
    25
  0
POLYLINE
  5
69
330
1F
100
AcDbEntity
  8
_U+30EC_U+30A4_U+30E4_U+30FC 1
 62
   179
420
  2234388
370
    25
100
AcDb2dPolyline
 66
     1
 10
0.0
 20
0.0
 30
0.0
  0
VERTEX
  5
6A
330
69
100
AcDbEntity
  8
_U+30EC_U+30A4_U+30E4_U+30FC 1
 62
   179
420
  2234388
370
    25
100
AcDbVertex
100
AcDb2dVertex
 10
89.35680966476231
 20
-139.9335741316831
 30
0.0
  0
VERTEX
  5
6B
330
69
100
AcDbEntity
  8
_U+30EC_U+30A4_U+30E4_U+30FC 1
 62
   179
420
  2234388
370
    25
100
AcDbVertex
100
AcDb2dVertex
 10
100.8572238158067
 20
-139.9335741316831
 30
0.0
  0
SEQEND
  5
6C
330
69
100
AcDbEntity
  8
_U+30EC_U+30A4_U+30E4_U+30FC 1
 62
   179
420
  2234388
370
    25
  0
SPLINE
  5
6D
330
1F
100
AcDbEntity
  8
_U+30EC_U+30A4_U+30E4_U+30FC 1
 62
   179
420
  2234388
370
     9
100
AcDbSpline
210
0.0
220
0.0
230
1.0
 70
    11
 71
     3
 72
    17
 73
    13
 74
     0
 42
0.0000000001
 43
0.0000000001
 12
1.0
 22
0.0
 32
0.0
 13
1.0
 23
0.0
 33
0.0
 40
0.0
 40
0.0
 40
0.0
 40
0.0
 40
1.0
 40
1.0
 40
1.0
 40
2.0
 40
2.0
 40
2.0
 40
3.0
 40
3.0
 40
3.0
 40
4.0
 40
4.0
 40
4.0
 40
4.0
 10
87.4572072132252
 20
-113.9334285826278
 30
0.0
 10
87.4572072132252
 20
-113.8783246937525
 30
0.0
 10
87.41240443659044
 20
-113.8335219159861
 30
0.0
 10
87.3573027559386
 20
-113.8335219159861
 30
0.0
 10
87.30149110608674
 20
-113.8335219159861
 30
0.0
 10
87.25668832945198
 20
-113.8783246937525
 30
0.0
 10
87.25668832945198
 20
-113.9334285826278
 30
0.0
 10
87.25668832945198
 20
-113.9887441381694
 30
0.0
 10
87.30149110608674
 20
-114.0335116381583
 30
0.0
 10
87.3573027559386
 20
-114.0335116381583
 30
0.0
 10
87.41240443659044
 20
-114.0335116381583
 30
0.0
 10
87.4572072132252
 20
-113.9887441381694
 30
0.0
 10
87.4572072132252
 20
-113.9334285826278
 30
0.0
  0
SPLINE
  5
6E
330
1F
100
AcDbEntity
  8
_U+30EC_U+30A4_U+30E4_U+30FC 1
 62
   179
420
  2234388
370
     9
100
AcDbSpline
210
0.0
220
0.0
230
1.0
 70
    11
 71
     3
 72
    17
 73
    13
 74
     0
 42
0.0000000001
 43
0.0000000001
 12
1.0
 22
0.0
 32
0.0
 13
1.0
 23
0.0
 33
0.0
 40
0.0
 40
0.0
 40
0.0
 40
0.0
 40
1.0
 40
1.0
 40
1.0
 40
2.0
 40
2.0
 40
2.0
 40
3.0
 40
3.0
 40
3.0
 40
4.0
 40
4.0
 40
4.0
 40
4.0
 10
89.45671632888015
 20
-113.9334285826278
 30
0.0
 10
89.45671632888015
 20
-113.8783246937525
 30
0.0
 10
89.41194883002225
 20
-113.8335219159861
 30
0.0
 10
89.35680966476231
 20
-113.8335219159861
 30
0.0
 10
89.30170577727924
 20
-113.8335219159861
 30
0.0
 10
89.25690300064447
 20
-113.8783246937525
 30
0.0
 10
89.25690300064447
 20
-113.9334285826278
 30
0.0
 10
89.25690300064447
 20
-113.9887441381694
 30
0.0
 10
89.30170577727924
 20
-114.0335116381583
 30
0.0
 10
89.35680966476231
 20
-114.0335116381583
 30
0.0
 10
89.41194883002225
 20
-114.0335116381583
 30
0.0
 10
89.45671632888015
 20
-113.9887441381694
 30
0.0
 10
89.45671632888015
 20
-113.9334285826278
 30
0.0
  0
SPLINE
  5
6F
330
1F
100
AcDbEntity
  8
_U+30EC_U+30A4_U+30E4_U+30FC 1
 62
   179
420
  2234388
370
     9
100
AcDbSpline
210
0.0
220
0.0
230
1.0
 70
    11
 71
     3
 72
    17
 73
    13
 74
     0
 42
0.0000000001
 43
0.0000000001
 12
1.0
 22
0.0
 32
0.0
 13
1.0
 23
0.0
 33
0.0
 40
0.0
 40
0.0
 40
0.0
 40
0.0
 40
1.0
 40
1.0
 40
1.0
 40
2.0
 40
2.0
 40
2.0
 40
3.0
 40
3.0
 40
3.0
 40
4.0
 40
4.0
 40
4.0
 40
4.0
 10
75.95675778440389
 20
-145.9335480190724
 30
0.0
 10
75.95675778440389
 20
-145.8784441301969
 30
0.0
 10
75.911990285546
 20
-145.8336413524302
 30
0.0
 10
75.85685112028605
 20
-145.8336413524302
 30
0.0
 10
75.80174723280298
 20
-145.8336413524302
 30
0.0
 10
75.75694445616821
 20
-145.8784441301969
 30
0.0
 10
75.75694445616821
 20
-145.9335480190724
 30
0.0
 10
75.75694445616821
 20
-145.9886871857249
 30
0.0
 10
75.80174723280298
 20
-146.0334546857141
 30
0.0
 10
75.85685112028605
 20
-146.0334546857141
 30
0.0
 10
75.911990285546
 20
-146.0334546857141
 30
0.0
 10
75.95675778440389
 20
-145.9886871857249
 30
0.0
 10
75.95675778440389
 20
-145.9335480190724
 30
0.0
  0
SPLINE
  5
70
330
1F
100
AcDbEntity
  8
_U+30EC_U+30A4_U+30E4_U+30FC 1
 62
   179
420
  2234388
370
     9
100
AcDbSpline
210
0.0
220
0.0
230
1.0
 70
    11
 71
     3
 72
    17
 73
    13
 74
     0
 42
0.0000000001
 43
0.0000000001
 12
1.0
 22
0.0
 32
0.0
 13
1.0
 23
0.0
 33
0.0
 40
0.0
 40
0.0
 40
0.0
 40
0.0
 40
1.0
 40
1.0
 40
1.0
 40
2.0
 40
2.0
 40
2.0
 40
3.0
 40
3.0
 40
3.0
 40
4.0
 40
4.0
 40
4.0
 40
4.0
 10
100.9571304799246
 20
-145.9335480190724
 30
0.0
 10
100.9571304799246
 20
-145.8784441301969
 30
0.0
 10
100.9123629810667
 20
-145.8336413524302
 30
0.0
 10
100.8572238158067
 20
-145.8336413524302
 30
0.0
 10
100.8014143727861
 20
-145.8336413524302
 30
0.0
 10
100.7566468739282
 20
-145.8784441301969
 30
0.0
 10
100.7566468739282
 20
-145.9335480190724
 30
0.0
 10
100.7566468739282
 20
-145.9886871857249
 30
0.0
 10
100.8014143727861
 20
-146.0334546857141
 30
0.0
 10
100.8572238158067
 20
-146.0334546857141
 30
0.0
 10
100.9123629810667
 20
-146.0334546857141
 30
0.0
 10
100.9571304799246
 20
-145.9886871857249
 30
0.0
 10
100.9571304799246
 20
-145.9335480190724
 30
0.0
  0
SPLINE
  5
71
330
1F
100
AcDbEntity
  8
_U+30EC_U+30A4_U+30E4_U+30FC 1
 62
   179
420
  2234388
370
     9
100
AcDbSpline
210
0.0
220
0.0
230
1.0
 70
    11
 71
     3
 72
    17
 73
    13
 74
     0
 42
0.0000000001
 43
0.0000000001
 12
1.0
 22
0.0
 32
0.0
 13
1.0
 23
0.0
 33
0.0
 40
0.0
 40
0.0
 40
0.0
 40
0.0
 40
1.0
 40
1.0
 40
1.0
 40
2.0
 40
2.0
 40
2.0
 40
3.0
 40
3.0
 40
3.0
 40
4.0
 40
4.0
 40
4.0
 40
4.0
 10
104.9568895445489
 20
-141.9337888534056
 30
0.0
 10
104.9568895445489
 20
-141.8779794089751
 30
0.0
 10
104.912122045691
 20
-141.8332119089859
 30
0.0
 10
104.8569828804311
 20
-141.8332119089859
 30
0.0
 10
104.801878992948
 20
-141.8332119089859
 30
0.0
 10
104.7570762163132
 20
-141.8779794089751
 30
0.0
 10
104.7570762163132
 20
-141.9337888534056
 30
0.0
 10
104.7570762163132
 20
-141.9889280200586
 30
0.0
 10
104.801878992948
 20
-142.0336955200472
 30
0.0
 10
104.8569828804311
 20
-142.0336955200472
 30
0.0
 10
104.912122045691
 20
-142.0336955200472
 30
0.0
 10
104.9568895445489
 20
-141.9889280200586
 30
0.0
 10
104.9568895445489
 20
-141.9337888534056
 30
0.0
  0
SPLINE
  5
72
330
1F
100
AcDbEntity
  8
_U+30EC_U+30A4_U+30E4_U+30FC 1
 62
   179
420
  2234388
370
     9
100
AcDbSpline
210
0.0
220
0.0
230
1.0
 70
    11
 71
     3
 72
    17
 73
    13
 74
     0
 42
0.0000000001
 43
0.0000000001
 12
1.0
 22
0.0
 32
0.0
 13
1.0
 23
0.0
 33
0.0
 40
0.0
 40
0.0
 40
0.0
 40
0.0
 40
1.0
 40
1.0
 40
1.0
 40
2.0
 40
2.0
 40
2.0
 40
3.0
 40
3.0
 40
3.0
 40
4.0
 40
4.0
 40
4.0
 40
4.0
 10
104.9568895445489
 20
-139.9335741316831
 30
0.0
 10
104.9568895445489
 20
-139.8784702428082
 30
0.0
 10
104.912122045691
 20
-139.8336674650415
 30
0.0
 10
104.8569828804311
 20
-139.8336674650415
 30
0.0
 10
104.801878992948
 20
-139.8336674650415
 30
0.0
 10
104.7570762163132
 20
-139.8784702428082
 30
0.0
 10
104.7570762163132
 20
-139.9335741316831
 30
0.0
 10
104.7570762163132
 20
-139.9887132983362
 30
0.0
 10
104.801878992948
 20
-140.0334807983248
 30
0.0
 10
104.8569828804311
 20
-140.0334807983248
 30
0.0
 10
104.912122045691
 20
-140.0334807983248
 30
0.0
 10
104.9568895445489
 20
-139.9887132983362
 30
0.0
 10
104.9568895445489
 20
-139.9335741316831
 30
0.0
  0
SPLINE
  5
73
330
1F
100
AcDbEntity
  8
_U+30EC_U+30A4_U+30E4_U+30FC 1
 62
   179
420
  2234388
370
     9
100
AcDbSpline
210
0.0
220
0.0
230
1.0
 70
    11
 71
     3
 72
    17
 73
    13
 74
     0
 42
0.0000000001
 43
0.0000000001
 12
1.0
 22
0.0
 32
0.0
 13
1.0
 23
0.0
 33
0.0
 40
0.0
 40
0.0
 40
0.0
 40
0.0
 40
1.0
 40
1.0
 40
1.0
 40
2.0
 40
2.0
 40
2.0
 40
3.0
 40
3.0
 40
3.0
 40
4.0
 40
4.0
 40
4.0
 40
4.0
 10
104.9568895445489
 20
-117.9333641371832
 30
0.0
 10
104.9568895445489
 20
-117.8782602483083
 30
0.0
 10
104.912122045691
 20
-117.8334574705416
 30
0.0
 10
104.8569828804311
 20
-117.8334574705416
 30
0.0
 10
104.801878992948
 20
-117.8334574705416
 30
0.0
 10
104.7570762163132
 20
-117.8782602483083
 30
0.0
 10
104.7570762163132
 20
-117.9333641371832
 30
0.0
 10
104.7570762163132
 20
-117.9888208038362
 30
0.0
 10
104.801878992948
 20
-118.0332708038252
 30
0.0
 10
104.8569828804311
 20
-118.0332708038252
 30
0.0
 10
104.912122045691
 20
-118.0332708038252
 30
0.0
 10
104.9568895445489
 20
-117.9888208038362
 30
0.0
 10
104.9568895445489
 20
-117.9333641371832
 30
0.0
  0
POLYLINE
  5
74
330
1F
100
AcDbEntity
  8
_U+30EC_U+30A4_U+30E4_U+30FC 1
 62
   179
420
  2234388
370
     9
100
AcDb2dPolyline
 66
     1
 10
0.0
 20
0.0
 30
0.0
  0
VERTEX
  5
75
330
74
100
AcDbEntity
  8
_U+30EC_U+30A4_U+30E4_U+30FC 1
 62
   179
420
  2234388
370
     9
100
AcDbVertex
100
AcDb2dVertex
 10
104.8569828804311
 20
-139.9335741316831
 30
0.0
  0
VERTEX
  5
76
330
74
100
AcDbEntity
  8
_U+30EC_U+30A4_U+30E4_U+30FC 1
 62
   179
420
  2234388
370
     9
100
AcDbVertex
100
AcDb2dVertex
 10
104.8569828804311
 20
-142.9335610753775
 30
0.0
  0
SEQEND
  5
77
330
74
100
AcDbEntity
  8
_U+30EC_U+30A4_U+30E4_U+30FC 1
 62
   179
420
  2234388
370
     9
  0
POLYLINE
  5
78
330
1F
100
AcDbEntity
  8
_U+30EC_U+30A4_U+30E4_U+30FC 1
 62
   179
420
  2234388
370
     9
100
AcDb2dPolyline
 66
     1
 10
0.0
 20
0.0
 30
0.0
  0
VERTEX
  5
79
330
78
100
AcDbEntity
  8
_U+30EC_U+30A4_U+30E4_U+30FC 1
 62
   179
420
  2234388
370
     9
100
AcDbVertex
100
AcDb2dVertex
 10
103.3969768065678
 20
-139.9335741316831
 30
0.0
  0
VERTEX
  5
7A
330
78
100
AcDbEntity
  8
_U+30EC_U+30A4_U+30E4_U+30FC 1
 62
   179
420
  2234388
370
     9
100
AcDbVertex
100
AcDb2dVertex
 10
105.856755077147
 20
-139.9335741316831
 30
0.0
  0
SEQEND
  5
7B
330
78
100
AcDbEntity
  8
_U+30EC_U+30A4_U+30E4_U+30FC 1
 62
   179
420
  2234388
370
     9
  0
POLYLINE
  5
7C
330
1F
100
AcDbEntity
  8
_U+30EC_U+30A4_U+30E4_U+30FC 1
 62
   179
420
  2234388
370
     9
100
AcDb2dPolyline
 66
     1
 10
0.0
 20
0.0
 30
0.0
  0
VERTEX
  5
7D
330
7C
100
AcDbEntity
  8
_U+30EC_U+30A4_U+30E4_U+30FC 1
 62
   179
420
  2234388
370
     9
100
AcDbVertex
100
AcDb2dVertex
 10
103.3969768065678
 20
-141.9337888534056
 30
0.0
  0
VERTEX
  5
7E
330
7C
100
AcDbEntity
  8
_U+30EC_U+30A4_U+30E4_U+30FC 1
 62
   179
420
  2234388
370
     9
100
AcDbVertex
100
AcDb2dVertex
 10
105.856755077147
 20
-141.9337888534056
 30
0.0
  0
SEQEND
  5
7F
330
7C
100
AcDbEntity
  8
_U+30EC_U+30A4_U+30E4_U+30FC 1
 62
   179
420
  2234388
370
     9
  0
INSERT
  5
81
330
1F
100
AcDbEntity
  8
_U+30EC_U+30A4_U+30E4_U+30FC 1
100
AcDbBlockReference
  2
block 2
 10
0.0
 20
0.0
 30
0.0
  0
POLYLINE
  5
86
330
1F
100
AcDbEntity
  8
_U+30EC_U+30A4_U+30E4_U+30FC 1
 62
   179
420
  2234388
370
     9
100
AcDb2dPolyline
 66
     1
 10
0.0
 20
0.0
 30
0.0
  0
VERTEX
  5
87
330
86
100
AcDbEntity
  8
_U+30EC_U+30A4_U+30E4_U+30FC 1
 62
   179
420
  2234388
370
     9
100
AcDbVertex
100
AcDb2dVertex
 10
104.8569828804311
 20
-139.9335741316831
 30
0.0
  0
VERTEX
  5
88
330
86
100
AcDbEntity
  8
_U+30EC_U+30A4_U+30E4_U+30FC 1
 62
   179
420
  2234388
370
     9
100
AcDbVertex
100
AcDb2dVertex
 10
104.8569828804311
 20
-117.9333641371832
 30
0.0
  0
SEQEND
  5
89
330
86
100
AcDbEntity
  8
_U+30EC_U+30A4_U+30E4_U+30FC 1
 62
   179
420
  2234388
370
     9
  0
POLYLINE
  5
8A
330
1F
100
AcDbEntity
  8
_U+30EC_U+30A4_U+30E4_U+30FC 1
 62
   179
420
  2234388
370
     9
100
AcDb2dPolyline
 66
     1
 10
0.0
 20
0.0
 30
0.0
  0
VERTEX
  5
8B
330
8A
100
AcDbEntity
  8
_U+30EC_U+30A4_U+30E4_U+30FC 1
 62
   179
420
  2234388
370
     9
100
AcDbVertex
100
AcDb2dVertex
 10
91.89723293328404
 20
-117.9333641371832
 30
0.0
  0
VERTEX
  5
8C
330
8A
100
AcDbEntity
  8
_U+30EC_U+30A4_U+30E4_U+30FC 1
 62
   179
420
  2234388
370
     9
100
AcDbVertex
100
AcDb2dVertex
 10
105.856755077147
 20
-117.9333641371832
 30
0.0
  0
SEQEND
  5
8D
330
8A
100
AcDbEntity
  8
_U+30EC_U+30A4_U+30E4_U+30FC 1
 62
   179
420
  2234388
370
     9
  0
INSERT
  5
8F
330
1F
100
AcDbEntity
  8
_U+30EC_U+30A4_U+30E4_U+30FC 1
100
AcDbBlockReference
  2
block 3
 10
0.0
 20
0.0
 30
0.0
  0
POLYLINE
  5
96
330
1F
100
AcDbEntity
  8
_U+30EC_U+30A4_U+30E4_U+30FC 1
 62
   179
420
  2234388
370
     9
100
AcDb2dPolyline
 66
     1
 10
0.0
 20
0.0
 30
0.0
  0
VERTEX
  5
97
330
96
100
AcDbEntity
  8
_U+30EC_U+30A4_U+30E4_U+30FC 1
 62
   179
420
  2234388
370
     9
100
AcDbVertex
100
AcDb2dVertex
 10
86.35682497841086
 20
-113.9334285826278
 30
0.0
  0
VERTEX
  5
98
330
96
100
AcDbEntity
  8
_U+30EC_U+30A4_U+30E4_U+30FC 1
 62
   179
420
  2234388
370
     9
100
AcDbVertex
100
AcDb2dVertex
 10
90.35728741701577
 20
-113.9334285826278
 30
0.0
  0
SEQEND
  5
99
330
96
100
AcDbEntity
  8
_U+30EC_U+30A4_U+30E4_U+30FC 1
 62
   179
420
  2234388
370
     9
  0
POLYLINE
  5
9A
330
1F
100
AcDbEntity
  8
_U+30EC_U+30A4_U+30E4_U+30FC 1
 62
   179
420
  2234388
370
     9
100
AcDb2dPolyline
 66
     1
 10
0.0
 20
0.0
 30
0.0
  0
VERTEX
  5
9B
330
9A
100
AcDbEntity
  8
_U+30EC_U+30A4_U+30E4_U+30FC 1
 62
   179
420
  2234388
370
     9
100
AcDbVertex
100
AcDb2dVertex
 10
87.3573027559386
 20
-115.3934699711515
 30
0.0
  0
VERTEX
  5
9C
330
9A
100
AcDbEntity
  8
_U+30EC_U+30A4_U+30E4_U+30FC 1
 62
   179
420
  2234388
370
     9
100
AcDbVertex
100
AcDb2dVertex
 10
87.3573027559386
 20
-112.9335152495445
 30
0.0
  0
SEQEND
  5
9D
330
9A
100
AcDbEntity
  8
_U+30EC_U+30A4_U+30E4_U+30FC 1
 62
   179
420
  2234388
370
     9
  0
POLYLINE
  5
9E
330
1F
100
AcDbEntity
  8
_U+30EC_U+30A4_U+30E4_U+30FC 1
 62
   179
420
  2234388
370
     9
100
AcDb2dPolyline
 66
     1
 10
0.0
 20
0.0
 30
0.0
  0
VERTEX
  5
9F
330
9E
100
AcDbEntity
  8
_U+30EC_U+30A4_U+30E4_U+30FC 1
 62
   179
420
  2234388
370
     9
100
AcDbVertex
100
AcDb2dVertex
 10
89.35680966476231
 20
-115.3934699711515
 30
0.0
  0
VERTEX
  5
A0
330
9E
100
AcDbEntity
  8
_U+30EC_U+30A4_U+30E4_U+30FC 1
 62
   179
420
  2234388
370
     9
100
AcDbVertex
100
AcDb2dVertex
 10
89.35680966476231
 20
-112.9335152495445
 30
0.0
  0
SEQEND
  5
A1
330
9E
100
AcDbEntity
  8
_U+30EC_U+30A4_U+30E4_U+30FC 1
 62
   179
420
  2234388
370
     9
  0
INSERT
  5
A3
330
1F
100
AcDbEntity
  8
_U+30EC_U+30A4_U+30E4_U+30FC 1
100
AcDbBlockReference
  2
block 4
 10
0.0
 20
0.0
 30
0.0
  0
POLYLINE
  5
A8
330
1F
100
AcDbEntity
  8
_U+30EC_U+30A4_U+30E4_U+30FC 1
 62
   179
420
  2234388
370
     9
100
AcDb2dPolyline
 66
     1
 10
0.0
 20
0.0
 30
0.0
  0
VERTEX
  5
A9
330
A8
100
AcDbEntity
  8
_U+30EC_U+30A4_U+30E4_U+30FC 1
 62
   179
420
  2234388
370
     9
100
AcDbVertex
100
AcDb2dVertex
 10
75.85685112028605
 20
-145.9335480190724
 30
0.0
  0
VERTEX
  5
AA
330
A8
100
AcDbEntity
  8
_U+30EC_U+30A4_U+30E4_U+30FC 1
 62
   179
420
  2234388
370
     9
100
AcDbVertex
100
AcDb2dVertex
 10
100.8572238158067
 20
-145.9335480190724
 30
0.0
  0
SEQEND
  5
AB
330
A8
100
AcDbEntity
  8
_U+30EC_U+30A4_U+30E4_U+30FC 1
 62
   179
420
  2234388
370
     9
  0
POLYLINE
  5
AC
330
1F
100
AcDbEntity
  8
_U+30EC_U+30A4_U+30E4_U+30FC 1
 62
   179
420
  2234388
370
     9
100
AcDb2dPolyline
 66
     1
 10
0.0
 20
0.0
 30
0.0
  0
VERTEX
  5
AD
330
AC
100
AcDbEntity
  8
_U+30EC_U+30A4_U+30E4_U+30FC 1
 62
   179
420
  2234388
370
     9
100
AcDbVertex
100
AcDb2dVertex
 10
75.85685112028605
 20
-144.4735419083263
 30
0.0
  0
VERTEX
  5
AE
330
AC
100
AcDbEntity
  8
_U+30EC_U+30A4_U+30E4_U+30FC 1
 62
   179
420
  2234388
370
     9
100
AcDbVertex
100
AcDb2dVertex
 10
75.85685112028605
 20
-146.9333202410444
 30
0.0
  0
SEQEND
  5
AF
330
AC
100
AcDbEntity
  8
_U+30EC_U+30A4_U+30E4_U+30FC 1
 62
   179
420
  2234388
370
     9
  0
POLYLINE
  5
B0
330
1F
100
AcDbEntity
  8
_U+30EC_U+30A4_U+30E4_U+30FC 1
 62
   179
420
  2234388
370
     9
100
AcDb2dPolyline
 66
     1
 10
0.0
 20
0.0
 30
0.0
  0
VERTEX
  5
B1
330
B0
100
AcDbEntity
  8
_U+30EC_U+30A4_U+30E4_U+30FC 1
 62
   179
420
  2234388
370
     9
100
AcDbVertex
100
AcDb2dVertex
 10
100.8572238158067
 20
-144.4735419083263
 30
0.0
  0
VERTEX
  5
B2
330
B0
100
AcDbEntity
  8
_U+30EC_U+30A4_U+30E4_U+30FC 1
 62
   179
420
  2234388
370
     9
100
AcDbVertex
100
AcDb2dVertex
 10
100.8572238158067
 20
-146.9333202410444
 30
0.0
  0
SEQEND
  5
B3
330
B0
100
AcDbEntity
  8
_U+30EC_U+30A4_U+30E4_U+30FC 1
 62
   179
420
  2234388
370
     9
  0
INSERT
  5
B5
330
1F
100
AcDbEntity
  8
_U+30EC_U+30A4_U+30E4_U+30FC 1
100
AcDbBlockReference
  2
block 5
 10
0.0
 20
0.0
 30
0.0
  0
ENDSEC
  0
SECTION
  2
OBJECTS
  0
DICTIONARY
  5
C
330
0
100
AcDbDictionary
281
     1
  3
ACAD_GROUP
350
D
  3
ACAD_LAYOUT
350
1A
  3
ACAD_MATERIAL
350
3B
  3
ACAD_MLEADERSTYLE
350
BD
  3
ACAD_MLINESTYLE
350
17
  3
ACAD_PLOTSETTINGS
350
19
  3
ACAD_PLOTSTYLENAME
350
E
  3
ACAD_TABLESTYLE
350
BC
  3
ACAD_VISUALSTYLE
350
2A
  0
SUN
  5
3F
330
29
100
AcDbSun
 90
        1
290
     0
 63
     7
421
 16777215
 40
1.0
291
     1
 91
  2455826
 92
 54000000
292
     0
 70
     2
 71
   256
280
     1
  0
DICTIONARY
  5
D
102
{ACAD_REACTORS
330
C
102
}
330
C
100
AcDbDictionary
281
     1
  0
DICTIONARY
  5
1A
102
{ACAD_REACTORS
330
C
102
}
330
C
100
AcDbDictionary
281
     1
  3
Layout1
350
1E
  3
Layout2
350
26
  3
Model
350
22
  0
DICTIONARY
  5
3B
102
{ACAD_REACTORS
330
C
102
}
330
C
100
AcDbDictionary
281
     1
  3
ByBlock
350
3D
  3
ByLayer
350
3C
  3
Global
350
3E
  0
DICTIONARY
  5
BD
102
{ACAD_REACTORS
330
C
102
}
330
C
100
AcDbDictionary
281
     1
  0
DICTIONARY
  5
17
102
{ACAD_REACTORS
330
C
102
}
330
C
100
AcDbDictionary
281
     1
  3
Standard
350
18
  0
DICTIONARY
  5
19
102
{ACAD_REACTORS
330
C
102
}
330
C
100
AcDbDictionary
281
     1
  0
ACDBDICTIONARYWDFLT
  5
E
102
{ACAD_REACTORS
330
C
102
}
330
C
100
AcDbDictionary
281
     1
  3
Normal
350
F
100
AcDbDictionaryWithDefault
340
F
  0
DICTIONARY
  5
BC
102
{ACAD_REACTORS
330
C
102
}
330
C
100
AcDbDictionary
281
     1
  0
DICTIONARY
  5
2A
102
{ACAD_REACTORS
330
C
102
}
330
C
100
AcDbDictionary
281
     1
  3
2dWireframe
350
2F
  3
3D Hidden
350
31
  3
3dWireframe
350
30
  3
Basic
350
32
  3
Brighten
350
36
  3
ColorChange
350
3A
  3
Conceptual
350
34
  3
Dim
350
35
  3
Facepattern
350
39
  3
Flat
350
2B
  3
FlatWithEdges
350
2C
  3
Gouraud
350
2D
  3
GouraudWithEdges
350
2E
  3
Linepattern
350
38
  3
Realistic
350
33
  3
Thicken
350
37
  0
LAYOUT
  5
1E
102
{ACAD_REACTORS
330
1A
102
}
330
1A
100
AcDbPlotSettings
  1

  2
none_device
  4

  6

 40
0.0
 41
0.0
 42
0.0
 43
0.0
 44
0.0
 45
0.0
 46
0.0
 47
0.0
 48
0.0
 49
0.0
140
0.0
141
0.0
142
1.0
143
1.0
 70
   688
 72
     0
 73
     0
 74
     5
  7

 75
    16
 76
     0
 77
     2
 78
   300
147
1.0
148
0.0
149
0.0
100
AcDbLayout
  1
Layout1
 70
     1
 71
     1
 10
0.0
 20
0.0
 11
12.0
 21
9.0
 12
0.0
 22
0.0
 32
0.0
 14
1.000000000000000E+20
 24
1.000000000000000E+20
 34
1.000000000000000E+20
 15
-1.000000000000000E+20
 25
-1.000000000000000E+20
 35
-1.000000000000000E+20
146
0.0
 13
0.0
 23
0.0
 33
0.0
 16
1.0
 26
0.0
 36
0.0
 17
0.0
 27
1.0
 37
0.0
 76
     0
330
1B
  0
LAYOUT
  5
26
102
{ACAD_REACTORS
330
1A
102
}
330
1A
100
AcDbPlotSettings
  1

  2
none_device
  4

  6

 40
0.0
 41
0.0
 42
0.0
 43
0.0
 44
0.0
 45
0.0
 46
0.0
 47
0.0
 48
0.0
 49
0.0
140
0.0
141
0.0
142
1.0
143
1.0
 70
   688
 72
     0
 73
     0
 74
     5
  7

 75
    16
 76
     0
 77
     2
 78
   300
147
1.0
148
0.0
149
0.0
100
AcDbLayout
  1
Layout2
 70
     1
 71
     2
 10
0.0
 20
0.0
 11
0.0
 21
0.0
 12
0.0
 22
0.0
 32
0.0
 14
0.0
 24
0.0
 34
0.0
 15
0.0
 25
0.0
 35
0.0
146
0.0
 13
0.0
 23
0.0
 33
0.0
 16
1.0
 26
0.0
 36
0.0
 17
0.0
 27
1.0
 37
0.0
 76
     0
330
23
  0
LAYOUT
  5
22
102
{ACAD_REACTORS
330
1A
102
}
330
1A
100
AcDbPlotSettings
  1

  2
none_device
  4

  6

 40
0.0
 41
0.0
 42
0.0
 43
0.0
 44
0.0
 45
0.0
 46
0.0
 47
0.0
 48
0.0
 49
0.0
140
0.0
141
0.0
142
1.0
143
1.0
 70
  1712
 72
     0
 73
     0
 74
     0
  7

 75
     0
 76
     0
 77
     2
 78
   300
147
1.0
148
0.0
149
0.0
100
AcDbLayout
  1
Model
 70
     1
 71
     0
 10
0.0
 20
0.0
 11
12.0
 21
9.0
 12
0.0
 22
0.0
 32
0.0
 14
1.000000000000000E+20
 24
1.000000000000000E+20
 34
1.000000000000000E+20
 15
-1.000000000000000E+20
 25
-1.000000000000000E+20
 35
-1.000000000000000E+20
146
0.0
 13
0.0
 23
0.0
 33
0.0
 16
1.0
 26
0.0
 36
0.0
 17
0.0
 27
1.0
 37
0.0
 76
     0
330
1F
331
29
  0
MATERIAL
  5
3D
102
{ACAD_REACTORS
330
3B
102
}
330
3B
100
AcDbMaterial
  1
ByBlock
 72
     1
 94
      127
  0
MATERIAL
  5
3C
102
{ACAD_REACTORS
330
3B
102
}
330
3B
100
AcDbMaterial
  1
ByLayer
 72
     1
 94
      127
  0
MATERIAL
  5
3E
102
{ACAD_REACTORS
330
3B
102
}
330
3B
100
AcDbMaterial
  1
Global
 72
     1
 94
      127
  0
MLINESTYLE
  5
18
102
{ACAD_REACTORS
330
17
102
}
330
17
100
AcDbMlineStyle
  2
Standard
 70
     0
  3

 62
   256
 51
90.0
 52
90.0
 71
     2
 49
0.5
 62
   256
  6
BYLAYER
 49
-0.5
 62
   256
  6
BYLAYER
  0
ACDBPLACEHOLDER
  5
F
102
{ACAD_REACTORS
330
E
102
}
330
E
  0
VISUALSTYLE
  5
2F
102
{ACAD_REACTORS
330
2A
102
}
330
2A
100
AcDbVisualStyle
  2
2dWireframe
 70
     4
177
     2
291
     0
 71
     0
176
     1
 72
     2
176
     1
 73
     0
176
     1
 90
        0
176
     1
 40
-0.6
176
     1
 41
-30.0
176
     1
 62
     5
 63
     7
421
 16777215
176
     1
 74
     1
176
     1
 91
        4
176
     1
 64
     7
176
     1
 65
   257
176
     1
 75
     1
176
     1
175
     1
176
     1
 42
1.0
176
     1
 92
        0
176
     1
 66
   257
176
     1
 43
1.0
176
     1
 76
     1
176
     1
 77
     6
176
     1
 78
     2
176
     1
 67
     7
176
     1
 79
     5
176
     1
170
     0
176
     1
171
     0
176
     1
290
     0
176
     1
 93
        1
176
     1
 44
0.0
176
     1
173
     0
176
     1
  0
VISUALSTYLE
  5
31
102
{ACAD_REACTORS
330
2A
102
}
330
2A
100
AcDbVisualStyle
  2
3D Hidden
 70
     6
177
     2
291
     0
 71
     1
176
     1
 72
     2
176
     1
 73
     2
176
     1
 90
        0
176
     1
 40
-0.6
176
     1
 41
-30.0
176
     1
 62
     5
 63
     7
421
 16777215
176
     1
 74
     2
176
     1
 91
        2
176
     1
 64
     7
176
     1
 65
   257
176
     1
 75
     2
176
     1
175
     1
176
     1
 42
40.0
176
     1
 92
        0
176
     1
 66
   257
176
     1
 43
1.0
176
     1
 76
     1
176
     1
 77
     6
176
     1
 78
     2
176
     1
 67
     7
176
     1
 79
     3
176
     1
170
     0
176
     1
171
     0
176
     1
290
     0
176
     1
 93
        1
176
     1
 44
0.0
176
     1
173
     0
176
     1
  0
VISUALSTYLE
  5
30
102
{ACAD_REACTORS
330
2A
102
}
330
2A
100
AcDbVisualStyle
  2
3dWireframe
 70
     5
177
     2
291
     0
 71
     0
176
     1
 72
     2
176
     1
 73
     0
176
     1
 90
        0
176
     1
 40
-0.6
176
     1
 41
-30.0
176
     1
 62
     5
 63
     7
421
 16777215
176
     1
 74
     1
176
     1
 91
        4
176
     1
 64
     7
176
     1
 65
   257
176
     1
 75
     1
176
     1
175
     1
176
     1
 42
1.0
176
     1
 92
        0
176
     1
 66
   257
176
     1
 43
1.0
176
     1
 76
     1
176
     1
 77
     6
176
     1
 78
     2
176
     1
 67
     7
176
     1
 79
     5
176
     1
170
     0
176
     1
171
     0
176
     1
290
     0
176
     1
 93
        1
176
     1
 44
0.0
176
     1
173
     0
176
     1
  0
VISUALSTYLE
  5
32
102
{ACAD_REACTORS
330
2A
102
}
330
2A
100
AcDbVisualStyle
  2
Basic
 70
     7
177
     2
291
     1
 71
     1
176
     1
 72
     0
176
     1
 73
     1
176
     1
 90
        0
176
     1
 40
-0.6
176
     1
 41
-30.0
176
     1
 62
     5
 63
     7
421
 16777215
176
     1
 74
     0
176
     1
 91
        4
176
     1
 64
     7
176
     1
 65
   257
176
     1
 75
     1
176
     1
175
     1
176
     1
 42
1.0
176
     1
 92
        8
176
     1
 66
     7
176
     1
 43
1.0
176
     1
 76
     1
176
     1
 77
     6
176
     1
 78
     2
176
     1
 67
     7
176
     1
 79
     5
176
     1
170
     0
176
     1
171
     0
176
     1
290
     0
176
     1
 93
        1
176
     1
 44
0.0
176
     1
173
     0
176
     1
  0
VISUALSTYLE
  5
36
102
{ACAD_REACTORS
330
2A
102
}
330
2A
100
AcDbVisualStyle
  2
Brighten
 70
    12
177
     2
291
     1
 71
     2
176
     1
 72
     2
176
     1
 73
     0
176
     1
 90
        0
176
     1
 40
-0.6
176
     1
 41
-30.0
176
     1
 62
     5
 63
     7
421
 16777215
176
     1
 74
     1
176
     1
 91
        4
176
     1
 64
     7
176
     1
 65
   257
176
     1
 75
     1
176
     1
175
     1
176
     1
 42
1.0
176
     1
 92
        8
176
     1
 66
     7
176
     1
 43
1.0
176
     1
 76
     1
176
     1
 77
     6
176
     1
 78
     2
176
     1
 67
     7
176
     1
 79
     5
176
     1
170
     0
176
     1
171
     0
176
     1
290
     0
176
     1
 93
        1
176
     1
 44
50.0
176
     1
173
     0
176
     1
  0
VISUALSTYLE
  5
3A
102
{ACAD_REACTORS
330
2A
102
}
330
2A
100
AcDbVisualStyle
  2
ColorChange
 70
    16
177
     2
291
     1
 71
     2
176
     1
 72
     2
176
     1
 73
     3
176
     1
 90
        0
176
     1
 40
-0.6
176
     1
 41
-30.0
176
     1
 62
     5
 63
     8
421
  8421504
176
     1
 74
     1
176
     1
 91
        4
176
     1
 64
     7
176
     1
 65
   257
176
     1
 75
     1
176
     1
175
     1
176
     1
 42
1.0
176
     1
 92
        8
176
     1
 66
     8
424
  8421504
176
     1
 43
1.0
176
     1
 76
     1
176
     1
 77
     6
176
     1
 78
     2
176
     1
 67
     7
176
     1
 79
     5
176
     1
170
     0
176
     1
171
     0
176
     1
290
     0
176
     1
 93
        1
176
     1
 44
0.0
176
     1
173
     0
176
     1
  0
VISUALSTYLE
  5
34
102
{ACAD_REACTORS
330
2A
102
}
330
2A
100
AcDbVisualStyle
  2
Conceptual
 70
     9
177
     2
291
     0
 71
     3
176
     1
 72
     2
176
     1
 73
     0
176
     1
 90
        0
176
     1
 40
-0.6
176
     1
 41
-30.0
176
     1
 62
     5
 63
     7
421
 16777215
176
     1
 74
     2
176
     1
 91
        2
176
     1
 64
     7
176
     1
 65
   257
176
     1
 75
     1
176
     1
175
     1
176
     1
 42
40.0
176
     1
 92
        8
176
     1
 66
     7
176
     1
 43
1.0
176
     1
 76
     1
176
     1
 77
     6
176
     1
 78
     2
176
     1
 67
     7
176
     1
 79
     3
176
     1
170
     0
176
     1
171
     0
176
     1
290
     0
176
     1
 93
        1
176
     1
 44
0.0
176
     1
173
     0
176
     1
  0
VISUALSTYLE
  5
35
102
{ACAD_REACTORS
330
2A
102
}
330
2A
100
AcDbVisualStyle
  2
Dim
 70
    11
177
     2
291
     1
 71
     2
176
     1
 72
     2
176
     1
 73
     0
176
     1
 90
        0
176
     1
 40
-0.6
176
     1
 41
-30.0
176
     1
 62
     5
 63
     7
421
 16777215
176
     1
 74
     1
176
     1
 91
        4
176
     1
 64
     7
176
     1
 65
   257
176
     1
 75
     1
176
     1
175
     1
176
     1
 42
1.0
176
     1
 92
        8
176
     1
 66
     7
176
     1
 43
1.0
176
     1
 76
     1
176
     1
 77
     6
176
     1
 78
     2
176
     1
 67
     7
176
     1
 79
     5
176
     1
170
     0
176
     1
171
     0
176
     1
290
     0
176
     1
 93
        1
176
     1
 44
-50.0
176
     1
173
     0
176
     1
  0
VISUALSTYLE
  5
39
102
{ACAD_REACTORS
330
2A
102
}
330
2A
100
AcDbVisualStyle
  2
Facepattern
 70
    15
177
     2
291
     1
 71
     2
176
     1
 72
     2
176
     1
 73
     0
176
     1
 90
        0
176
     1
 40
-0.6
176
     1
 41
-30.0
176
     1
 62
     5
 63
     7
421
 16777215
176
     1
 74
     1
176
     1
 91
        4
176
     1
 64
     7
176
     1
 65
   257
176
     1
 75
     1
176
     1
175
     1
176
     1
 42
1.0
176
     1
 92
        8
176
     1
 66
     7
176
     1
 43
1.0
176
     1
 76
     1
176
     1
 77
     6
176
     1
 78
     2
176
     1
 67
     7
176
     1
 79
     5
176
     1
170
     0
176
     1
171
     0
176
     1
290
     0
176
     1
 93
        1
176
     1
 44
0.0
176
     1
173
     0
176
     1
  0
VISUALSTYLE
  5
2B
102
{ACAD_REACTORS
330
2A
102
}
330
2A
100
AcDbVisualStyle
  2
Flat
 70
     0
177
     2
291
     1
 71
     2
176
     1
 72
     1
176
     1
 73
     1
176
     1
 90
        2
176
     1
 40
-0.6
176
     1
 41
30.0
176
     1
 62
     5
 63
     7
421
 16777215
176
     1
 74
     0
176
     1
 91
        4
176
     1
 64
     7
176
     1
 65
   257
176
     1
 75
     1
176
     1
175
     1
176
     1
 42
1.0
176
     1
 92
        8
176
     1
 66
     7
176
     1
 43
1.0
176
     1
 76
     1
176
     1
 77
     6
176
     1
 78
     2
176
     1
 67
     7
176
     1
 79
     5
176
     1
170
     0
176
     1
171
     0
176
     1
290
     0
176
     1
 93
       13
176
     1
 44
0.0
176
     1
173
     0
176
     1
  0
VISUALSTYLE
  5
2C
102
{ACAD_REACTORS
330
2A
102
}
330
2A
100
AcDbVisualStyle
  2
FlatWithEdges
 70
     1
177
     2
291
     1
 71
     2
176
     1
 72
     1
176
     1
 73
     1
176
     1
 90
        2
176
     1
 40
-0.6
176
     1
 41
30.0
176
     1
 62
     5
 63
     7
421
 16777215
176
     1
 74
     1
176
     1
 91
        4
176
     1
 64
     7
176
     1
 65
   257
176
     1
 75
     1
176
     1
175
     1
176
     1
 42
1.0
176
     1
 92
        0
176
     1
 66
   257
176
     1
 43
1.0
176
     1
 76
     1
176
     1
 77
     6
176
     1
 78
     2
176
     1
 67
     7
176
     1
 79
     5
176
     1
170
     0
176
     1
171
     0
176
     1
290
     0
176
     1
 93
       13
176
     1
 44
0.0
176
     1
173
     0
176
     1
  0
VISUALSTYLE
  5
2D
102
{ACAD_REACTORS
330
2A
102
}
330
2A
100
AcDbVisualStyle
  2
Gouraud
 70
     2
177
     2
291
     1
 71
     2
176
     1
 72
     2
176
     1
 73
     1
176
     1
 90
        2
176
     1
 40
-0.6
176
     1
 41
30.0
176
     1
 62
     5
 63
     7
421
 16777215
176
     1
 74
     0
176
     1
 91
        4
176
     1
 64
     7
176
     1
 65
   257
176
     1
 75
     1
176
     1
175
     1
176
     1
 42
1.0
176
     1
 92
        0
176
     1
 66
     7
176
     1
 43
1.0
176
     1
 76
     1
176
     1
 77
     6
176
     1
 78
     2
176
     1
 67
     7
176
     1
 79
     5
176
     1
170
     0
176
     1
171
     0
176
     1
290
     0
176
     1
 93
       13
176
     1
 44
0.0
176
     1
173
     0
176
     1
  0
VISUALSTYLE
  5
2E
102
{ACAD_REACTORS
330
2A
102
}
330
2A
100
AcDbVisualStyle
  2
GouraudWithEdges
 70
     3
177
     2
291
     1
 71
     2
176
     1
 72
     2
176
     1
 73
     1
176
     1
 90
        2
176
     1
 40
-0.6
176
     1
 41
30.0
176
     1
 62
     5
 63
     7
421
 16777215
176
     1
 74
     1
176
     1
 91
        4
176
     1
 64
     7
176
     1
 65
   257
176
     1
 75
     1
176
     1
175
     1
176
     1
 42
1.0
176
     1
 92
        0
176
     1
 66
   257
176
     1
 43
1.0
176
     1
 76
     1
176
     1
 77
     6
176
     1
 78
     2
176
     1
 67
     7
176
     1
 79
     5
176
     1
170
     0
176
     1
171
     0
176
     1
290
     0
176
     1
 93
       13
176
     1
 44
0.0
176
     1
173
     0
176
     1
  0
VISUALSTYLE
  5
38
102
{ACAD_REACTORS
330
2A
102
}
330
2A
100
AcDbVisualStyle
  2
Linepattern
 70
    14
177
     2
291
     1
 71
     2
176
     1
 72
     2
176
     1
 73
     0
176
     1
 90
        0
176
     1
 40
-0.6
176
     1
 41
-30.0
176
     1
 62
     5
 63
     7
421
 16777215
176
     1
 74
     1
176
     1
 91
        4
176
     1
 64
     7
176
     1
 65
   257
176
     1
 75
     7
176
     1
175
     7
176
     1
 42
1.0
176
     1
 92
        8
176
     1
 66
     7
176
     1
 43
1.0
176
     1
 76
     1
176
     1
 77
     6
176
     1
 78
     2
176
     1
 67
     7
176
     1
 79
     5
176
     1
170
     0
176
     1
171
     0
176
     1
290
     0
176
     1
 93
        1
176
     1
 44
0.0
176
     1
173
     0
176
     1
  0
VISUALSTYLE
  5
33
102
{ACAD_REACTORS
330
2A
102
}
330
2A
100
AcDbVisualStyle
  2
Realistic
 70
     8
177
     2
291
     0
 71
     2
176
     1
 72
     2
176
     1
 73
     0
176
     1
 90
        0
176
     1
 40
-0.6
176
     1
 41
-30.0
176
     1
 62
     5
 63
     7
421
 16777215
176
     1
 74
     1
176
     1
 91
        0
176
     1
 64
     7
176
     1
 65
   257
176
     1
 75
     1
176
     1
175
     1
176
     1
 42
1.0
176
     1
 92
        8
176
     1
 66
     8
424
  7895160
176
     1
 43
1.0
176
     1
 76
     1
176
     1
 77
     6
176
     1
 78
     2
176
     1
 67
     7
176
     1
 79
     5
176
     1
170
     0
176
     1
171
     0
176
     1
290
     0
176
     1
 93
       13
176
     1
 44
0.0
176
     1
173
     0
176
     1
  0
VISUALSTYLE
  5
37
102
{ACAD_REACTORS
330
2A
102
}
330
2A
100
AcDbVisualStyle
  2
Thicken
 70
    13
177
     2
291
     1
 71
     2
176
     1
 72
     2
176
     1
 73
     0
176
     1
 90
        0
176
     1
 40
-0.6
176
     1
 41
-30.0
176
     1
 62
     5
 63
     7
421
 16777215
176
     1
 74
     1
176
     1
 91
        4
176
     1
 64
     7
176
     1
 65
   257
176
     1
 75
     1
176
     1
175
     1
176
     1
 42
1.0
176
     1
 92
       12
176
     1
 66
     7
176
     1
 43
1.0
176
     1
 76
     1
176
     1
 77
     6
176
     1
 78
     2
176
     1
 67
     7
176
     1
 79
     5
176
     1
170
     0
176
     1
171
     0
176
     1
290
     0
176
     1
 93
        1
176
     1
 44
0.0
176
     1
173
     0
176
     1
  0
ENDSEC
  0
EOF
