  0
SECTION
  2
HEADER
  9
$ACADVER
  1
AC1024
  9
$ACADMAINTVER
 70
     6
  9
$DWGCODEPAGE
  3
UNDEFINED
  9
$INSBASE
 10
0.0
 20
0.0
 30
0.0
  9
$EXTMIN
 10
1.000000000000000E+20
 20
1.000000000000000E+20
 30
1.000000000000000E+20
  9
$EXTMAX
 10
-1.000000000000000E+20
 20
-1.000000000000000E+20
 30
-1.000000000000000E+20
  9
$LIMMIN
 10
0.0
 20
0.0
  9
$LIMMAX
 10
12.0
 20
9.0
  9
$ORTHOMODE
 70
     0
  9
$REGENMODE
 70
     1
  9
$FILLMODE
 70
     1
  9
$QTEXTMODE
 70
     0
  9
$MIRRTEXT
 70
     1
  9
$LTSCALE
 40
1.0
  9
$ATTMODE
 70
     1
  9
$TEXTSIZE
 40
0.2
  9
$TRACEWID
 40
0.05
  9
$TEXTSTYLE
  7
Standard
  9
$CLAYER
  8
0
  9
$CELTYPE
  6
ByLayer
  9
$CECOLOR
 62
   256
  9
$CELTSCALE
 40
1.0
  9
$DISPSILH
 70
     0
  9
$DIMSCALE
 40
1.0
  9
$DIMASZ
 40
0.18
  9
$DIMEXO
 40
0.0625
  9
$DIMDLI
 40
0.38
  9
$DIMRND
 40
0.0
  9
$DIMDLE
 40
0.0
  9
$DIMEXE
 40
0.18
  9
$DIMTP
 40
0.0
  9
$DIMTM
 40
0.0
  9
$DIMTXT
 40
0.18
  9
$DIMCEN
 40
0.09
  9
$DIMTSZ
 40
0.0
  9
$DIMTOL
 70
     0
  9
$DIMLIM
 70
     0
  9
$DIMTIH
 70
     1
  9
$DIMTOH
 70
     1
  9
$DIMSE1
 70
     0
  9
$DIMSE2
 70
     0
  9
$DIMTAD
 70
     0
  9
$DIMZIN
 70
     0
  9
$DIMBLK
  1

  9
$DIMASO
 70
     1
  9
$DIMSHO
 70
     1
  9
$DIMPOST
  1

  9
$DIMAPOST
  1

  9
$DIMALT
 70
     0
  9
$DIMALTD
 70
     2
  9
$DIMALTF
 40
25.4
  9
$DIMLFAC
 40
1.0
  9
$DIMTOFL
 70
     0
  9
$DIMTVP
 40
0.0
  9
$DIMTIX
 70
     0
  9
$DIMSOXD
 70
     0
  9
$DIMSAH
 70
     0
  9
$DIMBLK1
  1

  9
$DIMBLK2
  1

  9
$DIMSTYLE
  2
Standard
  9
$DIMCLRD
 70
     0
  9
$DIMCLRE
 70
     0
  9
$DIMCLRT
 70
     0
  9
$DIMTFAC
 40
1.0
  9
$DIMGAP
 40
0.09
  9
$DIMJUST
 70
     0
  9
$DIMSD1
 70
     0
  9
$DIMSD2
 70
     0
  9
$DIMTOLJ
 70
     1
  9
$DIMTZIN
 70
     0
  9
$DIMALTZ
 70
     0
  9
$DIMALTTZ
 70
     0
  9
$DIMUPT
 70
     0
  9
$DIMDEC
 70
     4
  9
$DIMTDEC
 70
     4
  9
$DIMALTU
 70
     2
  9
$DIMALTTD
 70
     2
  9
$DIMTXSTY
  7
Standard
  9
$DIMAUNIT
 70
     0
  9
$DIMADEC
 70
     0
  9
$DIMALTRND
 40
0.0
  9
$DIMAZIN
 70
     0
  9
$DIMDSEP
 70
    46
  9
$DIMATFIT
 70
     3
  9
$DIMFRAC
 70
     0
  9
$DIMLDRBLK
  1

  9
$DIMLUNIT
 70
     2
  9
$DIMLWD
 70
    -2
  9
$DIMLWE
 70
    -2
  9
$DIMTMOVE
 70
     0
  9
$DIMFXL
 40
1.0
  9
$DIMFXLON
 70
     0
  9
$DIMJOGANG
 40
0.7853981633974483
  9
$DIMTFILL
 70
     0
  9
$DIMTFILLCLR
 70
     0
  9
$DIMARCSYM
 70
     0
  9
$DIMLTYPE
  6

  9
$DIMLTEX1
  6

  9
$DIMLTEX2
  6

  9
$DIMTXTDIRECTION
 70
     0
  9
$LUNITS
 70
     2
  9
$LUPREC
 70
     4
  9
$SKETCHINC
 40
0.1
  9
$FILLETRAD
 40
0.5
  9
$AUNITS
 70
     0
  9
$AUPREC
 70
     0
  9
$MENU
  1
.
  9
$ELEVATION
 40
0.0
  9
$PELEVATION
 40
0.0
  9
$THICKNESS
 40
0.0
  9
$LIMCHECK
 70
     0
  9
$CHAMFERA
 40
0.5
  9
$CHAMFERB
 40
0.5
  9
$CHAMFERC
 40
1.0
  9
$CHAMFERD
 40
0.0
  9
$SKPOLY
 70
     0
  9
$TDCREATE
 40
2457917.624039352
  9
$TDUCREATE
 40
2457917.249039352
  9
$TDUPDATE
 40
2457917.624039352
  9
$TDUUPDATE
 40
2457917.249039352
  9
$TDINDWG
 40
0.0000000116
  9
$TDUSRTIMER
 40
0.0000000116
  9
$USRTIMER
 70
     1
  9
$ANGBASE
 50
0.0
  9
$ANGDIR
 70
     0
  9
$PDMODE
 70
     0
  9
$PDSIZE
 40
0.0
  9
$PLINEWID
 40
0.0
  9
$SPLFRAME
 70
     0
  9
$SPLINETYPE
 70
     6
  9
$SPLINESEGS
 70
     8
  9
$HANDSEED
  5
E0
  9
$SURFTAB1
 70
     6
  9
$SURFTAB2
 70
     6
  9
$SURFTYPE
 70
     6
  9
$SURFU
 70
     6
  9
$SURFV
 70
     6
  9
$UCSBASE
  2

  9
$UCSNAME
  2

  9
$UCSORG
 10
0.0
 20
0.0
 30
0.0
  9
$UCSXDIR
 10
1.0
 20
0.0
 30
0.0
  9
$UCSYDIR
 10
0.0
 20
1.0
 30
0.0
  9
$UCSORTHOREF
  2

  9
$UCSORTHOVIEW
 70
     0
  9
$UCSORGTOP
 10
0.0
 20
0.0
 30
0.0
  9
$UCSORGBOTTOM
 10
0.0
 20
0.0
 30
0.0
  9
$UCSORGLEFT
 10
0.0
 20
0.0
 30
0.0
  9
$UCSORGRIGHT
 10
0.0
 20
0.0
 30
0.0
  9
$UCSORGFRONT
 10
0.0
 20
0.0
 30
0.0
  9
$UCSORGBACK
 10
0.0
 20
0.0
 30
0.0
  9
$PUCSBASE
  2

  9
$PUCSNAME
  2

  9
$PUCSORG
 10
0.0
 20
0.0
 30
0.0
  9
$PUCSXDIR
 10
1.0
 20
0.0
 30
0.0
  9
$PUCSYDIR
 10
0.0
 20
1.0
 30
0.0
  9
$PUCSORTHOREF
  2

  9
$PUCSORTHOVIEW
 70
     0
  9
$PUCSORGTOP
 10
0.0
 20
0.0
 30
0.0
  9
$PUCSORGBOTTOM
 10
0.0
 20
0.0
 30
0.0
  9
$PUCSORGLEFT
 10
0.0
 20
0.0
 30
0.0
  9
$PUCSORGRIGHT
 10
0.0
 20
0.0
 30
0.0
  9
$PUCSORGFRONT
 10
0.0
 20
0.0
 30
0.0
  9
$PUCSORGBACK
 10
0.0
 20
0.0
 30
0.0
  9
$USERI1
 70
     0
  9
$USERI2
 70
     0
  9
$USERI3
 70
     0
  9
$USERI4
 70
     0
  9
$USERI5
 70
     0
  9
$USERR1
 40
0.0
  9
$USERR2
 40
0.0
  9
$USERR3
 40
0.0
  9
$USERR4
 40
0.0
  9
$USERR5
 40
0.0
  9
$WORLDVIEW
 70
     1
  9
$SHADEDGE
 70
     3
  9
$SHADEDIF
 70
    70
  9
$TILEMODE
 70
     1
  9
$MAXACTVP
 70
    64
  9
$PINSBASE
 10
0.0
 20
0.0
 30
0.0
  9
$PLIMCHECK
 70
     0
  9
$PEXTMIN
 10
1.000000000000000E+20
 20
1.000000000000000E+20
 30
1.000000000000000E+20
  9
$PEXTMAX
 10
-1.000000000000000E+20
 20
-1.000000000000000E+20
 30
-1.000000000000000E+20
  9
$PLIMMIN
 10
0.0
 20
0.0
  9
$PLIMMAX
 10
12.0
 20
9.0
  9
$UNITMODE
 70
     0
  9
$VISRETAIN
 70
     1
  9
$PLINEGEN
 70
     0
  9
$PSLTSCALE
 70
     1
  9
$TREEDEPTH
 70
  3020
  9
$CMLSTYLE
  2
Standard
  9
$CMLJUST
 70
     0
  9
$CMLSCALE
 40
1.0
  9
$PROXYGRAPHICS
 70
     1
  9
$MEASUREMENT
 70
     0
  9
$CELWEIGHT
370
    -1
  9
$ENDCAPS
280
     0
  9
$JOINSTYLE
280
     0
  9
$LWDISPLAY
290
     1
  9
$INSUNITS
 70
     1
  9
$HYPERLINKBASE
  1

  9
$STYLESHEET
  1

  9
$XEDIT
290
     1
  9
$CEPSNTYPE
380
     0
  9
$PSTYLEMODE
290
     1
  9
$FINGERPRINTGUID
  2
{04DD3CDD-EA95-DEB2-3082-78A2B0D0001A}
  9
$VERSIONGUID
  2
{FAEB1C32-E019-11D5-929B-00C0DF256EC4}
  9
$EXTNAMES
290
     1
  9
$PSVPSCALE
 40
0.0
  9
$OLESTARTUP
290
     0
  9
$SORTENTS
280
   127
  9
$INDEXCTL
280
     0
  9
$HIDETEXT
280
     1
  9
$XCLIPFRAME
280
     2
  9
$HALOGAP
280
     0
  9
$OBSCOLOR
 70
   257
  9
$OBSLTYPE
280
     0
  9
$INTERSECTIONDISPLAY
280
     0
  9
$INTERSECTIONCOLOR
 70
   257
  9
$DIMASSOC
280
     2
  9
$PROJECTNAME
  1

  9
$CAMERADISPLAY
290
     0
  9
$LENSLENGTH
 40
50.0
  9
$CAMERAHEIGHT
 40
0.0
  9
$STEPSPERSEC
 40
2.0
  9
$STEPSIZE
 40
6.0
  9
$3DDWFPREC
 40
2.0
  9
$PSOLWIDTH
 40
0.25
  9
$PSOLHEIGHT
 40
4.0
  9
$LOFTANG1
 40
1.570796326794897
  9
$LOFTANG2
 40
1.570796326794897
  9
$LOFTMAG1
 40
0.0
  9
$LOFTMAG2
 40
0.0
  9
$LOFTPARAM
 70
     7
  9
$LOFTNORMALS
280
     1
  9
$LATITUDE
 40
37.795
  9
$LONGITUDE
 40
-122.394
  9
$NORTHDIRECTION
 40
0.0
  9
$TIMEZONE
 70
 -8000
  9
$LIGHTGLYPHDISPLAY
280
     1
  9
$TILEMODELIGHTSYNCH
280
     1
  9
$CMATERIAL
347
3C
  9
$SOLIDHIST
280
     1
  9
$SHOWHIST
280
     1
  9
$DWFFRAME
280
     2
  9
$DGNFRAME
280
     2
  9
$REALWORLDSCALE
290
     1
  9
$INTERFERECOLOR
 62
   256
  9
$CSHADOW
280
     0
  9
$SHADOWPLANELOCATION
 40
0.0
  0
ENDSEC
  0
SECTION
  2
CLASSES
  0
CLASS
  1
ACDBDICTIONARYWDFLT
  2
AcDbDictionaryWithDefault
  3
ObjectDBX Classes
 90
        0
 91
        4
280
     0
281
     0
  0
CLASS
  1
VISUALSTYLE
  2
AcDbVisualStyle
  3
ObjectDBX Classes
 90
     4095
 91
        4
280
     0
281
     0
  0
CLASS
  1
MATERIAL
  2
AcDbMaterial
  3
ObjectDBX Classes
 90
     1153
 91
        4
280
     0
281
     0
  0
CLASS
  1
SUN
  2
AcDbSun
  3
SCENEOE
 90
     1024
 91
        4
280
     0
281
     0
  0
ENDSEC
  0
SECTION
  2
TABLES
  0
TABLE
  2
VPORT
  5
8
330
0
100
AcDbSymbolTable
 70
     1
  0
VPORT
  5
29
330
8
100
AcDbSymbolTableRecord
100
AcDbViewportTableRecord
  2
*Active
 70
     0
 10
0.0
 20
0.0
 11
1.0
 21
1.0
 12
0.0
 22
0.0
 13
0.0
 23
0.0
 14
0.5
 24
0.5
 15
0.5
 25
0.5
 16
0.0
 26
0.0
 36
1.0
 17
91.00082462281999
 27
-128.4993055234307
 37
0.0
 40
256.9986110468615
 41
0.7081814508812795
 42
50.0
 43
0.0
 44
0.0
 50
0.0
 51
0.0
 71
     0
 72
   100
 73
     1
 74
     3
 75
     0
 76
     0
 77
     0
 78
     0
281
     0
 65
     1
110
0.0
120
0.0
130
0.0
111
1.0
121
0.0
131
0.0
112
0.0
122
1.0
132
0.0
 79
     0
146
0.0
 60
     3
 61
     5
292
     1
282
     1
141
0.0
142
0.0
 63
   250
361
3F
  0
ENDTAB
  0
TABLE
  2
LTYPE
  5
5
330
0
100
AcDbSymbolTable
 70
     1
  0
LTYPE
  5
14
330
5
100
AcDbSymbolTableRecord
100
AcDbLinetypeTableRecord
  2
ByBlock
 70
     0
  3

 72
    65
 73
     0
 40
0.0
  0
LTYPE
  5
15
330
5
100
AcDbSymbolTableRecord
100
AcDbLinetypeTableRecord
  2
ByLayer
 70
     0
  3

 72
    65
 73
     0
 40
0.0
  0
LTYPE
  5
16
330
5
100
AcDbSymbolTableRecord
100
AcDbLinetypeTableRecord
  2
Continuous
 70
     0
  3
Solid line
 72
    65
 73
     0
 40
0.0
  0
ENDTAB
  0
TABLE
  2
LAYER
  5
2
330
0
100
AcDbSymbolTable
 70
     2
  0
LAYER
  5
10
330
2
100
AcDbSymbolTableRecord
100
AcDbLayerTableRecord
  2
0
 70
     0
 62
     7
  6
Continuous
370
    -3
390
F
347
3E
  0
LAYER
  5
40
330
2
100
AcDbSymbolTableRecord
100
AcDbLayerTableRecord
  2
_U+30EC_U+30A4_U+30E4_U+30FC 1
 70
     0
 62
     7
  6
Continuous
370
    -3
390
F
347
3E
  0
ENDTAB
  0
TABLE
  2
STYLE
  5
3
330
0
100
AcDbSymbolTable
 70
     1
  0
STYLE
  5
11
330
3
100
AcDbSymbolTableRecord
100
AcDbTextStyleTableRecord
  2
Standard
 70
     0
 40
0.0
 41
1.0
 50
0.0
 71
     0
 42
0.2
  3
txt
  4

  0
ENDTAB
  0
TABLE
  2
VIEW
  5
6
330
0
100
AcDbSymbolTable
 70
     0
  0
ENDTAB
  0
TABLE
  2
UCS
  5
7
330
0
100
AcDbSymbolTable
 70
     0
  0
ENDTAB
  0
TABLE
  2
APPID
  5
9
330
0
100
AcDbSymbolTable
 70
     1
  0
APPID
  5
12
330
9
100
AcDbSymbolTableRecord
100
AcDbRegAppTableRecord
  2
ACAD
 70
     0
  0
ENDTAB
  0
TABLE
  2
DIMSTYLE
  5
A
330
0
100
AcDbSymbolTable
 70
     1
100
AcDbDimStyleTable
  0
DIMSTYLE
105
27
330
A
100
AcDbSymbolTableRecord
100
AcDbDimStyleTableRecord
  2
Standard
 70
     0
178
     0
340
11
  0
ENDTAB
  0
TABLE
  2
BLOCK_RECORD
  5
1
330
0
100
AcDbSymbolTable
 70
     5
  0
BLOCK_RECORD
  5
1F
330
1
100
AcDbSymbolTableRecord
100
AcDbBlockTableRecord
  2
*Model_Space
340
22
 70
     0
280
     1
281
     0
  0
BLOCK_RECORD
  5
1B
330
1
100
AcDbSymbolTableRecord
100
AcDbBlockTableRecord
  2
*Paper_Space
340
1E
 70
     0
280
     1
281
     0
  0
BLOCK_RECORD
  5
23
330
1
100
AcDbSymbolTableRecord
100
AcDbBlockTableRecord
  2
*Paper_Space0
340
26
 70
     0
280
     1
281
     0
  0
BLOCK_RECORD
  5
80
330
1
100
AcDbSymbolTableRecord
100
AcDbBlockTableRecord
  2
block 2
340
0
102
{BLKREFS
331
81
102
}
 70
     0
280
     1
281
     0
  0
BLOCK_RECORD
  5
98
330
1
100
AcDbSymbolTableRecord
100
AcDbBlockTableRecord
  2
block 3
340
0
102
{BLKREFS
331
99
102
}
 70
     0
280
     1
281
     0
  0
BLOCK_RECORD
  5
B8
330
1
100
AcDbSymbolTableRecord
100
AcDbBlockTableRecord
  2
block 4
340
0
102
{BLKREFS
331
B9
102
}
 70
     0
280
     1
281
     0
  0
BLOCK_RECORD
  5
D4
330
1
100
AcDbSymbolTableRecord
100
AcDbBlockTableRecord
  2
block 5
340
0
102
{BLKREFS
331
D5
102
}
 70
     0
280
     1
281
     0
  0
ENDTAB
  0
ENDSEC
  0
SECTION
  2
BLOCKS
  0
BLOCK
  5
20
330
1F
100
AcDbEntity
  8
0
100
AcDbBlockBegin
  2
*Model_Space
 70
     0
 10
0.0
 20
0.0
 30
0.0
  3
*Model_Space
  1

  0
ENDBLK
  5
21
330
1F
100
AcDbEntity
  8
0
100
AcDbBlockEnd
  0
BLOCK
  5
1C
330
1B
100
AcDbEntity
 67
     1
  8
0
100
AcDbBlockBegin
  2
*Paper_Space
 70
     0
 10
0.0
 20
0.0
 30
0.0
  3
*Paper_Space
  1

  0
ENDBLK
  5
1D
330
1B
100
AcDbEntity
 67
     1
  8
0
100
AcDbBlockEnd
  0
BLOCK
  5
24
330
23
100
AcDbEntity
  8
0
100
AcDbBlockBegin
  2
*Paper_Space0
 70
     0
 10
0.0
 20
0.0
 30
0.0
  3
*Paper_Space0
  1

  0
ENDBLK
  5
25
330
23
100
AcDbEntity
  8
0
100
AcDbBlockEnd
  0
BLOCK
  5
82
330
80
100
AcDbEntity
  8
0
100
AcDbBlockBegin
  2
block 2
 70
     0
 10
0.0
 20
0.0
 30
0.0
  3
block 2
  1

  0
SPLINE
  5
84
330
80
100
AcDbEntity
  8
_U+30EC_U+30A4_U+30E4_U+30FC 1
370
     0
100
AcDbSpline
210
0.0
220
0.0
230
1.0
 70
    11
 71
     3
 72
    26
 73
    22
 74
     0
 42
0.0000000001
 43
0.0000000001
 12
1.0
 22
0.0
 32
0.0
 13
1.0
 23
0.0
 33
0.0
 40
0.0
 40
0.0
 40
0.0
 40
0.0
 40
1.0
 40
1.0
 40
1.0
 40
2.0
 40
2.0
 40
2.0
 40
3.0
 40
3.0
 40
3.0
 40
4.0
 40
4.0
 40
4.0
 40
5.0
 40
5.0
 40
5.0
 40
6.0
 40
6.0
 40
6.0
 40
7.0
 40
7.0
 40
7.0
 40
7.0
 10
99.27628306979899
 20
-139.4343831031622
 30
0.0
 10
99.27628306979899
 20
-139.4343831031622
 30
0.0
 10
98.17212996677641
 20
-139.4343831031622
 30
0.0
 10
98.17212996677641
 20
-139.4343831031622
 30
0.0
 10
98.17212996677641
 20
-139.4343831031622
 30
0.0
 10
98.17212996677641
 20
-139.7644232506492
 30
0.0
 10
98.17212996677641
 20
-139.7644232506492
 30
0.0
 10
98.17212996677641
 20
-139.7644232506492
 30
0.0
 10
98.02399086091067
 20
-139.7644232506492
 30
0.0
 10
98.02399086091067
 20
-139.7644232506492
 30
0.0
 10
98.0091769503241
 20
-139.4323160458711
 30
0.0
 10
97.84622393387178
 20
-139.3858072568202
 30
0.0
 10
97.73184676376148
 20
-139.3561794356471
 30
0.0
 10
97.73184676376148
 20
-139.3561794356471
 30
0.0
 10
97.73184676376148
 20
-139.2101073870725
 30
0.0
 10
97.73184676376148
 20
-139.2101073870725
 30
0.0
 10
97.73184676376148
 20
-139.2101073870725
 30
0.0
 10
99.27628306979899
 20
-139.2101073870725
 30
0.0
 10
99.27628306979899
 20
-139.2101073870725
 30
0.0
 10
99.27628306979899
 20
-139.2101073870725
 30
0.0
 10
99.27628306979899
 20
-139.4343831031622
 30
0.0
 10
99.27628306979899
 20
-139.4343831031622
 30
0.0
  0
HATCH
  5
85
330
80
100
AcDbEntity
  8
_U+30EC_U+30A4_U+30E4_U+30FC 1
 62
   179
420
  2234388
100
AcDbHatch
 10
0.0
 20
0.0
 30
0.0
210
0.0
220
0.0
230
1.0
  2
SOLID
 70
     1
 71
     0
 91
        1
 92
        1
 93
        1
 72
     4
 94
        3
 73
     0
 74
     1
 95
       26
 96
       22
 40
0.0
 40
0.0
 40
0.0
 40
0.0
 40
1.0
 40
1.0
 40
1.0
 40
2.0
 40
2.0
 40
2.0
 40
3.0
 40
3.0
 40
3.0
 40
4.0
 40
4.0
 40
4.0
 40
5.0
 40
5.0
 40
5.0
 40
6.0
 40
6.0
 40
6.0
 40
7.0
 40
7.0
 40
7.0
 40
7.0
 10
99.27628306979899
 20
-139.4343831031622
 10
99.27628306979899
 20
-139.4343831031622
 10
98.17212996677641
 20
-139.4343831031622
 10
98.17212996677641
 20
-139.4343831031622
 10
98.17212996677641
 20
-139.4343831031622
 10
98.17212996677641
 20
-139.7644232506492
 10
98.17212996677641
 20
-139.7644232506492
 10
98.17212996677641
 20
-139.7644232506492
 10
98.02399086091067
 20
-139.7644232506492
 10
98.02399086091067
 20
-139.7644232506492
 10
98.0091769503241
 20
-139.4323160458711
 10
97.84622393387178
 20
-139.3858072568202
 10
97.73184676376148
 20
-139.3561794356471
 10
97.73184676376148
 20
-139.3561794356471
 10
97.73184676376148
 20
-139.2101073870725
 10
97.73184676376148
 20
-139.2101073870725
 10
97.73184676376148
 20
-139.2101073870725
 10
99.27628306979899
 20
-139.2101073870725
 10
99.27628306979899
 20
-139.2101073870725
 10
99.27628306979899
 20
-139.2101073870725
 10
99.27628306979899
 20
-139.4343831031622
 10
99.27628306979899
 20
-139.4343831031622
 97
        0
 97
        0
 75
     2
 76
     1
 98
        0
  0
POLYLINE
  5
86
330
80
100
AcDbEntity
  8
_U+30EC_U+30A4_U+30E4_U+30FC 1
370
     0
100
AcDb2dPolyline
 66
     1
 10
0.0
 20
0.0
 30
0.0
  0
VERTEX
  5
87
330
86
100
AcDbEntity
  8
_U+30EC_U+30A4_U+30E4_U+30FC 1
370
     0
100
AcDbVertex
100
AcDb2dVertex
 10
99.27628306979899
 20
-138.6489013325253
 30
0.0
  0
VERTEX
  5
88
330
86
100
AcDbEntity
  8
_U+30EC_U+30A4_U+30E4_U+30FC 1
370
     0
100
AcDbVertex
100
AcDb2dVertex
 10
99.02444658982722
 20
-138.6489013325253
 30
0.0
  0
VERTEX
  5
89
330
86
100
AcDbEntity
  8
_U+30EC_U+30A4_U+30E4_U+30FC 1
370
     0
100
AcDbVertex
100
AcDb2dVertex
 10
99.02444658982722
 20
-138.3970648525535
 30
0.0
  0
VERTEX
  5
8A
330
86
100
AcDbEntity
  8
_U+30EC_U+30A4_U+30E4_U+30FC 1
370
     0
100
AcDbVertex
100
AcDb2dVertex
 10
99.27628306979899
 20
-138.3970648525535
 30
0.0
  0
VERTEX
  5
8B
330
86
100
AcDbEntity
  8
_U+30EC_U+30A4_U+30E4_U+30FC 1
370
     0
100
AcDbVertex
100
AcDb2dVertex
 10
99.27628306979899
 20
-138.6489013325253
 30
0.0
  0
SEQEND
  5
8C
330
86
100
AcDbEntity
  8
_U+30EC_U+30A4_U+30E4_U+30FC 1
370
     0
  0
HATCH
  5
8D
330
80
100
AcDbEntity
  8
_U+30EC_U+30A4_U+30E4_U+30FC 1
 62
   179
420
  2234388
100
AcDbHatch
 10
0.0
 20
0.0
 30
0.0
210
0.0
220
0.0
230
1.0
  2
SOLID
 70
     1
 71
     0
 91
        1
 92
        1
 93
        4
 72
     1
 10
99.27628306979899
 20
-138.6489013325253
 11
99.02444658982722
 21
-138.6489013325253
 72
     1
 10
99.02444658982722
 20
-138.6489013325253
 11
99.02444658982722
 21
-138.3970648525535
 72
     1
 10
99.02444658982722
 20
-138.3970648525535
 11
99.27628306979899
 21
-138.3970648525535
 72
     1
 10
99.27628306979899
 20
-138.3970648525535
 11
99.27628306979899
 21
-138.6489013325253
 97
        0
 75
     2
 76
     1
 98
        0
  0
SPLINE
  5
8E
330
80
100
AcDbEntity
  8
_U+30EC_U+30A4_U+30E4_U+30FC 1
370
     0
100
AcDbSpline
210
0.0
220
0.0
230
1.0
 70
    11
 71
     3
 72
    44
 73
    40
 74
     0
 42
0.0000000001
 43
0.0000000001
 12
1.0
 22
0.0
 32
0.0
 13
1.0
 23
0.0
 33
0.0
 40
0.0
 40
0.0
 40
0.0
 40
0.0
 40
1.0
 40
1.0
 40
1.0
 40
2.0
 40
2.0
 40
2.0
 40
3.0
 40
3.0
 40
3.0
 40
4.0
 40
4.0
 40
4.0
 40
5.0
 40
5.0
 40
5.0
 40
6.0
 40
6.0
 40
6.0
 40
7.0
 40
7.0
 40
7.0
 40
8.0
 40
8.0
 40
8.0
 40
9.0
 40
9.0
 40
9.0
 40
10.0
 40
10.0
 40
10.0
 40
11.0
 40
11.0
 40
11.0
 40
12.0
 40
12.0
 40
12.0
 40
13.0
 40
13.0
 40
13.0
 40
13.0
 10
98.6944064423403
 20
-137.5678303692539
 30
0.0
 10
98.85322534421032
 20
-137.7855604039217
 30
0.0
 10
98.92729489714318
 20
-137.8785779820234
 30
0.0
 10
99.0709553788781
 20
-137.927498337914
 30
0.0
 10
99.0709553788781
 20
-137.927498337914
 30
0.0
 10
99.0709553788781
 20
-137.1489067582475
 30
0.0
 10
99.0709553788781
 20
-137.1489067582475
 30
0.0
 10
99.0709553788781
 20
-137.1489067582475
 30
0.0
 10
99.27628306979899
 20
-137.1489067582475
 30
0.0
 10
99.27628306979899
 20
-137.1489067582475
 30
0.0
 10
99.27628306979899
 20
-137.1489067582475
 30
0.0
 10
99.27628306979899
 20
-138.176923251046
 30
0.0
 10
99.27628306979899
 20
-138.176923251046
 30
0.0
 10
98.91868215843006
 20
-138.1452283725818
 30
0.0
 10
98.84047849091489
 20
-138.079771558362
 30
0.0
 10
98.54213322189224
 20
-137.6946098831111
 30
0.0
 10
98.34335121239333
 20
-137.438639288557
 30
0.0
 10
98.27548283133392
 20
-137.3731824743373
 30
0.0
 10
98.13802352147245
 20
-137.3731824743373
 30
0.0
 10
98.01951223677985
 20
-137.3731824743373
 30
0.0
 10
97.88859860834036
 20
-137.445184969979
 30
0.0
 10
97.88859860834036
 20
-137.6418999221868
 30
0.0
 10
97.88859860834036
 20
-137.9020046313231
 30
0.0
 10
98.11907549630357
 20
-137.9106173700362
 30
0.0
 10
98.23551972370501
 20
-137.9147514846185
 30
0.0
 10
98.23551972370501
 20
-137.9147514846185
 30
0.0
 10
98.23551972370501
 20
-138.1390272007083
 30
0.0
 10
98.23551972370501
 20
-138.1390272007083
 30
0.0
 10
98.1083957002993
 20
-138.1304144619952
 30
0.0
 10
97.99643009702868
 20
-138.1197346659909
 30
0.0
 10
97.87791881233608
 20
-138.0394639411846
 30
0.0
 10
97.71703285317491
 20
-137.9295653952051
 30
0.0
 10
97.68327091741946
 20
-137.7431857294531
 30
0.0
 10
97.68327091741946
 20
-137.6270860116002
 30
0.0
 10
97.68327091741946
 20
-137.3497558250376
 30
0.0
 10
97.86723901633181
 20
-137.1423610768255
 30
0.0
 10
98.14009057876359
 20
-137.1423610768255
 30
0.0
 10
98.36884491898418
 20
-137.1423610768255
 30
0.0
 10
98.46806366895937
 20
-137.258805304227
 30
0.0
 10
98.6944064423403
 20
-137.5678303692539
 30
0.0
  0
HATCH
  5
8F
330
80
100
AcDbEntity
  8
_U+30EC_U+30A4_U+30E4_U+30FC 1
 62
   179
420
  2234388
100
AcDbHatch
 10
0.0
 20
0.0
 30
0.0
210
0.0
220
0.0
230
1.0
  2
SOLID
 70
     1
 71
     0
 91
        1
 92
        1
 93
        1
 72
     4
 94
        3
 73
     0
 74
     1
 95
       44
 96
       40
 40
0.0
 40
0.0
 40
0.0
 40
0.0
 40
1.0
 40
1.0
 40
1.0
 40
2.0
 40
2.0
 40
2.0
 40
3.0
 40
3.0
 40
3.0
 40
4.0
 40
4.0
 40
4.0
 40
5.0
 40
5.0
 40
5.0
 40
6.0
 40
6.0
 40
6.0
 40
7.0
 40
7.0
 40
7.0
 40
8.0
 40
8.0
 40
8.0
 40
9.0
 40
9.0
 40
9.0
 40
10.0
 40
10.0
 40
10.0
 40
11.0
 40
11.0
 40
11.0
 40
12.0
 40
12.0
 40
12.0
 40
13.0
 40
13.0
 40
13.0
 40
13.0
 10
98.6944064423403
 20
-137.5678303692539
 10
98.85322534421032
 20
-137.7855604039217
 10
98.92729489714318
 20
-137.8785779820234
 10
99.0709553788781
 20
-137.927498337914
 10
99.0709553788781
 20
-137.927498337914
 10
99.0709553788781
 20
-137.1489067582475
 10
99.0709553788781
 20
-137.1489067582475
 10
99.0709553788781
 20
-137.1489067582475
 10
99.27628306979899
 20
-137.1489067582475
 10
99.27628306979899
 20
-137.1489067582475
 10
99.27628306979899
 20
-137.1489067582475
 10
99.27628306979899
 20
-138.176923251046
 10
99.27628306979899
 20
-138.176923251046
 10
98.91868215843006
 20
-138.1452283725818
 10
98.84047849091489
 20
-138.079771558362
 10
98.54213322189224
 20
-137.6946098831111
 10
98.34335121239333
 20
-137.438639288557
 10
98.27548283133392
 20
-137.3731824743373
 10
98.13802352147245
 20
-137.3731824743373
 10
98.01951223677985
 20
-137.3731824743373
 10
97.88859860834036
 20
-137.445184969979
 10
97.88859860834036
 20
-137.6418999221868
 10
97.88859860834036
 20
-137.9020046313231
 10
98.11907549630357
 20
-137.9106173700362
 10
98.23551972370501
 20
-137.9147514846185
 10
98.23551972370501
 20
-137.9147514846185
 10
98.23551972370501
 20
-138.1390272007083
 10
98.23551972370501
 20
-138.1390272007083
 10
98.1083957002993
 20
-138.1304144619952
 10
97.99643009702868
 20
-138.1197346659909
 10
97.87791881233608
 20
-138.0394639411846
 10
97.71703285317491
 20
-137.9295653952051
 10
97.68327091741946
 20
-137.7431857294531
 10
97.68327091741946
 20
-137.6270860116002
 10
97.68327091741946
 20
-137.3497558250376
 10
97.86723901633181
 20
-137.1423610768255
 10
98.14009057876359
 20
-137.1423610768255
 10
98.36884491898418
 20
-137.1423610768255
 10
98.46806366895937
 20
-137.258805304227
 10
98.6944064423403
 20
-137.5678303692539
 97
        0
 97
        0
 75
     2
 76
     1
 98
        0
  0
ENDBLK
  5
83
330
80
100
AcDbEntity
  8
0
100
AcDbBlockEnd
  0
BLOCK
  5
9A
330
98
100
AcDbEntity
  8
0
100
AcDbBlockBegin
  2
block 3
 70
     0
 10
0.0
 20
0.0
 30
0.0
  3
block 3
  1

  0
SPLINE
  5
9C
330
98
100
AcDbEntity
  8
_U+30EC_U+30A4_U+30E4_U+30FC 1
370
     0
100
AcDbSpline
210
0.0
220
0.0
230
1.0
 70
    11
 71
     3
 72
    26
 73
    22
 74
     0
 42
0.0000000001
 43
0.0000000001
 12
1.0
 22
0.0
 32
0.0
 13
1.0
 23
0.0
 33
0.0
 40
0.0
 40
0.0
 40
0.0
 40
0.0
 40
1.0
 40
1.0
 40
1.0
 40
2.0
 40
2.0
 40
2.0
 40
3.0
 40
3.0
 40
3.0
 40
4.0
 40
4.0
 40
4.0
 40
5.0
 40
5.0
 40
5.0
 40
6.0
 40
6.0
 40
6.0
 40
7.0
 40
7.0
 40
7.0
 40
7.0
 10
100.4228108472901
 20
-131.2739854272509
 30
0.0
 10
100.4228108472901
 20
-131.2739854272509
 30
0.0
 10
99.31865774426757
 20
-131.2739854272509
 30
0.0
 10
99.31865774426757
 20
-131.2739854272509
 30
0.0
 10
99.31865774426757
 20
-131.2739854272509
 30
0.0
 10
99.31865774426757
 20
-131.6040255747379
 30
0.0
 10
99.31865774426757
 20
-131.6040255747379
 30
0.0
 10
99.31865774426757
 20
-131.6040255747379
 30
0.0
 10
99.17051863840182
 20
-131.6040255747379
 30
0.0
 10
99.17051863840182
 20
-131.6040255747379
 30
0.0
 10
99.15570472781525
 20
-131.2719183699598
 30
0.0
 10
98.99275171136293
 20
-131.2254095809089
 30
0.0
 10
98.87837454125264
 20
-131.1957817597358
 30
0.0
 10
98.87837454125264
 20
-131.1957817597358
 30
0.0
 10
98.87837454125264
 20
-131.0497097111612
 30
0.0
 10
98.87837454125264
 20
-131.0497097111612
 30
0.0
 10
98.87837454125264
 20
-131.0497097111612
 30
0.0
 10
100.4228108472901
 20
-131.0497097111612
 30
0.0
 10
100.4228108472901
 20
-131.0497097111612
 30
0.0
 10
100.4228108472901
 20
-131.0497097111612
 30
0.0
 10
100.4228108472901
 20
-131.2739854272509
 30
0.0
 10
100.4228108472901
 20
-131.2739854272509
 30
0.0
  0
HATCH
  5
9D
330
98
100
AcDbEntity
  8
_U+30EC_U+30A4_U+30E4_U+30FC 1
 62
   179
420
  2234388
100
AcDbHatch
 10
0.0
 20
0.0
 30
0.0
210
0.0
220
0.0
230
1.0
  2
SOLID
 70
     1
 71
     0
 91
        1
 92
        1
 93
        1
 72
     4
 94
        3
 73
     0
 74
     1
 95
       26
 96
       22
 40
0.0
 40
0.0
 40
0.0
 40
0.0
 40
1.0
 40
1.0
 40
1.0
 40
2.0
 40
2.0
 40
2.0
 40
3.0
 40
3.0
 40
3.0
 40
4.0
 40
4.0
 40
4.0
 40
5.0
 40
5.0
 40
5.0
 40
6.0
 40
6.0
 40
6.0
 40
7.0
 40
7.0
 40
7.0
 40
7.0
 10
100.4228108472901
 20
-131.2739854272509
 10
100.4228108472901
 20
-131.2739854272509
 10
99.31865774426757
 20
-131.2739854272509
 10
99.31865774426757
 20
-131.2739854272509
 10
99.31865774426757
 20
-131.2739854272509
 10
99.31865774426757
 20
-131.6040255747379
 10
99.31865774426757
 20
-131.6040255747379
 10
99.31865774426757
 20
-131.6040255747379
 10
99.17051863840182
 20
-131.6040255747379
 10
99.17051863840182
 20
-131.6040255747379
 10
99.15570472781525
 20
-131.2719183699598
 10
98.99275171136293
 20
-131.2254095809089
 10
98.87837454125264
 20
-131.1957817597358
 10
98.87837454125264
 20
-131.1957817597358
 10
98.87837454125264
 20
-131.0497097111612
 10
98.87837454125264
 20
-131.0497097111612
 10
98.87837454125264
 20
-131.0497097111612
 10
100.4228108472901
 20
-131.0497097111612
 10
100.4228108472901
 20
-131.0497097111612
 10
100.4228108472901
 20
-131.0497097111612
 10
100.4228108472901
 20
-131.2739854272509
 10
100.4228108472901
 20
-131.2739854272509
 97
        0
 97
        0
 75
     2
 76
     1
 98
        0
  0
SPLINE
  5
9E
330
98
100
AcDbEntity
  8
_U+30EC_U+30A4_U+30E4_U+30FC 1
370
     0
100
AcDbSpline
210
0.0
220
0.0
230
1.0
 70
    11
 71
     3
 72
    53
 73
    49
 74
     0
 42
0.0000000001
 43
0.0000000001
 12
1.0
 22
0.0
 32
0.0
 13
1.0
 23
0.0
 33
0.0
 40
0.0
 40
0.0
 40
0.0
 40
0.0
 40
1.0
 40
1.0
 40
1.0
 40
2.0
 40
2.0
 40
2.0
 40
3.0
 40
3.0
 40
3.0
 40
4.0
 40
4.0
 40
4.0
 40
5.0
 40
5.0
 40
5.0
 40
6.0
 40
6.0
 40
6.0
 40
7.0
 40
7.0
 40
7.0
 40
8.0
 40
8.0
 40
8.0
 40
9.0
 40
9.0
 40
9.0
 40
10.0
 40
10.0
 40
10.0
 40
11.0
 40
11.0
 40
11.0
 40
12.0
 40
12.0
 40
12.0
 40
13.0
 40
13.0
 40
13.0
 40
14.0
 40
14.0
 40
14.0
 40
15.0
 40
15.0
 40
15.0
 40
16.0
 40
16.0
 40
16.0
 40
16.0
 10
100.4734537509233
 20
-130.0675129883165
 30
0.0
 10
100.4734537509233
 20
-130.1457166558316
 30
0.0
 10
100.4565727830456
 20
-130.2473469726465
 30
0.0
 10
100.393183026117
 20
-130.3489772894614
 30
0.0
 10
100.2832844801375
 20
-130.5222655923695
 30
0.0
 10
100.1520263421495
 20
-130.543625184378
 30
0.0
 10
100.0441948534612
 20
-130.5625732095469
 30
0.0
 10
100.0441948534612
 20
-130.5625732095469
 30
0.0
 10
100.0441948534612
 20
-130.3403645507483
 30
0.0
 10
100.0441948534612
 20
-130.3403645507483
 30
0.0
 10
100.2429768629601
 20
-130.2855875325328
 30
0.0
 10
100.2726046841332
 20
-130.158463509127
 30
0.0
 10
100.2726046841332
 20
-130.0654459310253
 30
0.0
 10
100.2726046841332
 20
-129.9259195638727
 30
0.0
 10
100.1730414246095
 20
-129.7736463434246
 30
0.0
 10
99.94049747935516
 20
-129.7736463434246
 30
0.0
 10
99.6845268848011
 20
-129.7736463434246
 30
0.0
 10
99.61459144645052
 20
-129.9534803277547
 30
0.0
 10
99.61459144645052
 20
-130.0740586697384
 30
0.0
 10
99.61459144645052
 20
-130.1057535482027
 30
0.0
 10
99.61459144645052
 20
-130.2473469726465
 30
0.0
 10
99.74378252714739
 20
-130.3362304361659
 30
0.0
 10
99.74378252714739
 20
-130.3362304361659
 30
0.0
 10
99.72483450197852
 20
-130.5119303059137
 30
0.0
 10
99.72483450197852
 20
-130.5119303059137
 30
0.0
 10
99.72483450197852
 20
-130.5119303059137
 30
0.0
 10
98.87837454125264
 20
-130.3913519639299
 30
0.0
 10
98.87837454125264
 20
-130.3913519639299
 30
0.0
 10
98.87837454125264
 20
-130.3913519639299
 30
0.0
 10
98.87837454125264
 20
-129.6127603842635
 30
0.0
 10
98.87837454125264
 20
-129.6127603842635
 30
0.0
 10
98.87837454125264
 20
-129.6127603842635
 30
0.0
 10
99.07302243616925
 20
-129.6127603842635
 30
0.0
 10
99.07302243616925
 20
-129.6127603842635
 30
0.0
 10
99.07302243616925
 20
-129.6127603842635
 30
0.0
 10
99.07302243616925
 20
-130.2283989474776
 30
0.0
 10
99.07302243616925
 20
-130.2283989474776
 30
0.0
 10
99.07302243616925
 20
-130.2283989474776
 30
0.0
 10
99.49608016175793
 20
-130.2938557616974
 30
0.0
 10
99.49608016175793
 20
-130.2938557616974
 30
0.0
 10
99.46231822600248
 20
-130.2325330620599
 30
0.0
 10
99.42201060882506
 20
-130.1501952799624
 30
0.0
 10
99.42201060882506
 20
-130.0316839952699
 30
0.0
 10
99.42201060882506
 20
-129.777780458007
 30
0.0
 10
99.60839027457708
 20
-129.5407578886218
 30
0.0
 10
99.92154945418629
 20
-129.5407578886218
 30
0.0
 10
100.2388427483778
 20
-129.5407578886218
 30
0.0
 10
100.4734537509233
 20
-129.7650336047115
 30
0.0
 10
100.4734537509233
 20
-130.0675129883165
 30
0.0
  0
HATCH
  5
9F
330
98
100
AcDbEntity
  8
_U+30EC_U+30A4_U+30E4_U+30FC 1
 62
   179
420
  2234388
100
AcDbHatch
 10
0.0
 20
0.0
 30
0.0
210
0.0
220
0.0
230
1.0
  2
SOLID
 70
     1
 71
     0
 91
        1
 92
        1
 93
        1
 72
     4
 94
        3
 73
     0
 74
     1
 95
       53
 96
       49
 40
0.0
 40
0.0
 40
0.0
 40
0.0
 40
1.0
 40
1.0
 40
1.0
 40
2.0
 40
2.0
 40
2.0
 40
3.0
 40
3.0
 40
3.0
 40
4.0
 40
4.0
 40
4.0
 40
5.0
 40
5.0
 40
5.0
 40
6.0
 40
6.0
 40
6.0
 40
7.0
 40
7.0
 40
7.0
 40
8.0
 40
8.0
 40
8.0
 40
9.0
 40
9.0
 40
9.0
 40
10.0
 40
10.0
 40
10.0
 40
11.0
 40
11.0
 40
11.0
 40
12.0
 40
12.0
 40
12.0
 40
13.0
 40
13.0
 40
13.0
 40
14.0
 40
14.0
 40
14.0
 40
15.0
 40
15.0
 40
15.0
 40
16.0
 40
16.0
 40
16.0
 40
16.0
 10
100.4734537509233
 20
-130.0675129883165
 10
100.4734537509233
 20
-130.1457166558316
 10
100.4565727830456
 20
-130.2473469726465
 10
100.393183026117
 20
-130.3489772894614
 10
100.2832844801375
 20
-130.5222655923695
 10
100.1520263421495
 20
-130.543625184378
 10
100.0441948534612
 20
-130.5625732095469
 10
100.0441948534612
 20
-130.5625732095469
 10
100.0441948534612
 20
-130.3403645507483
 10
100.0441948534612
 20
-130.3403645507483
 10
100.2429768629601
 20
-130.2855875325328
 10
100.2726046841332
 20
-130.158463509127
 10
100.2726046841332
 20
-130.0654459310253
 10
100.2726046841332
 20
-129.9259195638727
 10
100.1730414246095
 20
-129.7736463434246
 10
99.94049747935516
 20
-129.7736463434246
 10
99.6845268848011
 20
-129.7736463434246
 10
99.61459144645052
 20
-129.9534803277547
 10
99.61459144645052
 20
-130.0740586697384
 10
99.61459144645052
 20
-130.1057535482027
 10
99.61459144645052
 20
-130.2473469726465
 10
99.74378252714739
 20
-130.3362304361659
 10
99.74378252714739
 20
-130.3362304361659
 10
99.72483450197852
 20
-130.5119303059137
 10
99.72483450197852
 20
-130.5119303059137
 10
99.72483450197852
 20
-130.5119303059137
 10
98.87837454125264
 20
-130.3913519639299
 10
98.87837454125264
 20
-130.3913519639299
 10
98.87837454125264
 20
-130.3913519639299
 10
98.87837454125264
 20
-129.6127603842635
 10
98.87837454125264
 20
-129.6127603842635
 10
98.87837454125264
 20
-129.6127603842635
 10
99.07302243616925
 20
-129.6127603842635
 10
99.07302243616925
 20
-129.6127603842635
 10
99.07302243616925
 20
-129.6127603842635
 10
99.07302243616925
 20
-130.2283989474776
 10
99.07302243616925
 20
-130.2283989474776
 10
99.07302243616925
 20
-130.2283989474776
 10
99.49608016175793
 20
-130.2938557616974
 10
99.49608016175793
 20
-130.2938557616974
 10
99.46231822600248
 20
-130.2325330620599
 10
99.42201060882506
 20
-130.1501952799624
 10
99.42201060882506
 20
-130.0316839952699
 10
99.42201060882506
 20
-129.777780458007
 10
99.60839027457708
 20
-129.5407578886218
 10
99.92154945418629
 20
-129.5407578886218
 10
100.2388427483778
 20
-129.5407578886218
 10
100.4734537509233
 20
-129.7650336047115
 10
100.4734537509233
 20
-130.0675129883165
 97
        0
 97
        0
 75
     2
 76
     1
 98
        0
  0
POLYLINE
  5
A0
330
98
100
AcDbEntity
  8
_U+30EC_U+30A4_U+30E4_U+30FC 1
370
     0
100
AcDb2dPolyline
 66
     1
 10
0.0
 20
0.0
 30
0.0
  0
VERTEX
  5
A1
330
A0
100
AcDbEntity
  8
_U+30EC_U+30A4_U+30E4_U+30FC 1
370
     0
100
AcDbVertex
100
AcDb2dVertex
 10
100.4228108472901
 20
-129.3116590388526
 30
0.0
  0
VERTEX
  5
A2
330
A0
100
AcDbEntity
  8
_U+30EC_U+30A4_U+30E4_U+30FC 1
370
     0
100
AcDbVertex
100
AcDb2dVertex
 10
100.1709743673184
 20
-129.3116590388526
 30
0.0
  0
VERTEX
  5
A3
330
A0
100
AcDbEntity
  8
_U+30EC_U+30A4_U+30E4_U+30FC 1
370
     0
100
AcDbVertex
100
AcDb2dVertex
 10
100.1709743673184
 20
-129.0598225588809
 30
0.0
  0
VERTEX
  5
A4
330
A0
100
AcDbEntity
  8
_U+30EC_U+30A4_U+30E4_U+30FC 1
370
     0
100
AcDbVertex
100
AcDb2dVertex
 10
100.4228108472901
 20
-129.0598225588809
 30
0.0
  0
VERTEX
  5
A5
330
A0
100
AcDbEntity
  8
_U+30EC_U+30A4_U+30E4_U+30FC 1
370
     0
100
AcDbVertex
100
AcDb2dVertex
 10
100.4228108472901
 20
-129.3116590388526
 30
0.0
  0
SEQEND
  5
A6
330
A0
100
AcDbEntity
  8
_U+30EC_U+30A4_U+30E4_U+30FC 1
370
     0
  0
HATCH
  5
A7
330
98
100
AcDbEntity
  8
_U+30EC_U+30A4_U+30E4_U+30FC 1
 62
   179
420
  2234388
100
AcDbHatch
 10
0.0
 20
0.0
 30
0.0
210
0.0
220
0.0
230
1.0
  2
SOLID
 70
     1
 71
     0
 91
        1
 92
        1
 93
        4
 72
     1
 10
100.4228108472901
 20
-129.3116590388526
 11
100.1709743673184
 21
-129.3116590388526
 72
     1
 10
100.1709743673184
 20
-129.3116590388526
 11
100.1709743673184
 21
-129.0598225588809
 72
     1
 10
100.1709743673184
 20
-129.0598225588809
 11
100.4228108472901
 21
-129.0598225588809
 72
     1
 10
100.4228108472901
 20
-129.0598225588809
 11
100.4228108472901
 21
-129.3116590388526
 97
        0
 75
     2
 76
     1
 98
        0
  0
SPLINE
  5
A8
330
98
100
AcDbEntity
  8
_U+30EC_U+30A4_U+30E4_U+30FC 1
370
     0
100
AcDbSpline
210
0.0
220
0.0
230
1.0
 70
    11
 71
     3
 72
    29
 73
    25
 74
     0
 42
0.0000000001
 43
0.0000000001
 12
1.0
 22
0.0
 32
0.0
 13
1.0
 23
0.0
 33
0.0
 40
0.0
 40
0.0
 40
0.0
 40
0.0
 40
1.0
 40
1.0
 40
1.0
 40
2.0
 40
2.0
 40
2.0
 40
3.0
 40
3.0
 40
3.0
 40
4.0
 40
4.0
 40
4.0
 40
5.0
 40
5.0
 40
5.0
 40
6.0
 40
6.0
 40
6.0
 40
7.0
 40
7.0
 40
7.0
 40
8.0
 40
8.0
 40
8.0
 40
8.0
 10
100.4734537509233
 20
-128.323605653683
 30
0.0
 10
100.4734537509233
 20
-128.5902560442413
 30
0.0
 10
100.3359944410618
 20
-128.8438150719557
 30
0.0
 10
99.98700626840603
 20
-128.8438150719557
 30
0.0
 10
99.73103567385196
 20
-128.8438150719557
 30
0.0
 10
99.63595103845907
 20
-128.7022216475119
 30
0.0
 10
99.57462833882163
 20
-128.5964572161148
 30
0.0
 10
99.51537269647532
 20
-128.7211696726808
 30
0.0
 10
99.40099552636504
 20
-128.7973062829049
 30
0.0
 10
99.24010956720386
 20
-128.7973062829049
 30
0.0
 10
98.96519094748093
 20
-128.7973062829049
 30
0.0
 10
98.82979869491061
 20
-128.5985242734059
 30
0.0
 10
98.82979869491061
 20
-128.323605653683
 30
0.0
 10
98.82979869491061
 20
-128.0400742952469
 30
0.0
 10
98.97380368619406
 20
-127.8495605149126
 30
0.0
 10
99.24010956720386
 20
-127.8495605149126
 30
0.0
 10
99.40099552636504
 20
-127.8495605149126
 30
0.0
 10
99.51537269647532
 20
-127.9281086919763
 30
0.0
 10
99.57462833882163
 20
-128.0528211485424
 30
0.0
 10
99.6252712424548
 20
-127.9639376850229
 30
0.0
 10
99.7203558778477
 20
-127.8051187831529
 30
0.0
 10
99.98287215382373
 20
-127.8051187831529
 30
0.0
 10
100.3573540330704
 20
-127.8051187831529
 30
0.0
 10
100.4734537509233
 20
-128.0845160270067
 30
0.0
 10
100.4734537509233
 20
-128.323605653683
 30
0.0
  0
SPLINE
  5
A9
330
98
100
AcDbEntity
  8
_U+30EC_U+30A4_U+30E4_U+30FC 1
370
     0
100
AcDbSpline
210
0.0
220
0.0
230
1.0
 70
    11
 71
     3
 72
    17
 73
    13
 74
     0
 42
0.0000000001
 43
0.0000000001
 12
1.0
 22
0.0
 32
0.0
 13
1.0
 23
0.0
 33
0.0
 40
0.0
 40
0.0
 40
0.0
 40
0.0
 40
1.0
 40
1.0
 40
1.0
 40
2.0
 40
2.0
 40
2.0
 40
3.0
 40
3.0
 40
3.0
 40
4.0
 40
4.0
 40
4.0
 40
4.0
 10
99.02237953253608
 20
-128.323605653683
 30
0.0
 10
99.02237953253608
 20
-128.4886257274265
 30
0.0
 10
99.11746416792897
 20
-128.5730305668151
 30
0.0
 10
99.25285642049928
 20
-128.5730305668151
 30
0.0
 10
99.37550181977419
 20
-128.5730305668151
 30
0.0
 10
99.49401310446677
 20
-128.5013725807219
 30
0.0
 10
99.49401310446677
 20
-128.323605653683
 30
0.0
 10
99.49401310446677
 20
-128.1458387266441
 30
0.0
 10
99.37550181977419
 20
-128.0738362310024
 30
0.0
 10
99.25285642049928
 20
-128.0738362310024
 30
0.0
 10
99.11746416792897
 20
-128.0738362310024
 30
0.0
 10
99.02237953253608
 20
-128.1606526372307
 30
0.0
 10
99.02237953253608
 20
-128.323605653683
 30
0.0
  0
SPLINE
  5
AA
330
98
100
AcDbEntity
  8
_U+30EC_U+30A4_U+30E4_U+30FC 1
370
     0
100
AcDbSpline
210
0.0
220
0.0
230
1.0
 70
    11
 71
     3
 72
    17
 73
    13
 74
     0
 42
0.0000000001
 43
0.0000000001
 12
1.0
 22
0.0
 32
0.0
 13
1.0
 23
0.0
 33
0.0
 40
0.0
 40
0.0
 40
0.0
 40
0.0
 40
1.0
 40
1.0
 40
1.0
 40
2.0
 40
2.0
 40
2.0
 40
3.0
 40
3.0
 40
3.0
 40
4.0
 40
4.0
 40
4.0
 40
4.0
 10
99.68245982750994
 20
-128.323605653683
 30
0.0
 10
99.68245982750994
 20
-128.4672661354179
 30
0.0
 10
99.76927623373824
 20
-128.6198838654145
 30
0.0
 10
99.97219235781945
 20
-128.6198838654145
 30
0.0
 10
100.1775200487403
 20
-128.6198838654145
 30
0.0
 10
100.2788058560067
 20
-128.4927598420088
 30
0.0
 10
100.2788058560067
 20
-128.323605653683
 30
0.0
 10
100.2788058560067
 20
-128.1375704974795
 30
0.0
 10
100.1561604567318
 20
-128.0273274419515
 30
0.0
 10
99.97839352969291
 20
-128.0273274419515
 30
0.0
 10
99.75652938044281
 20
-128.0273274419515
 30
0.0
 10
99.68245982750994
 20
-128.1902804584038
 30
0.0
 10
99.68245982750994
 20
-128.323605653683
 30
0.0
  0
HATCH
  5
AB
330
98
100
AcDbEntity
  8
_U+30EC_U+30A4_U+30E4_U+30FC 1
 62
   179
420
  2234388
100
AcDbHatch
 10
0.0
 20
0.0
 30
0.0
210
0.0
220
0.0
230
1.0
  2
SOLID
 70
     1
 71
     0
 91
        3
 92
        1
 93
        1
 72
     4
 94
        3
 73
     0
 74
     1
 95
       29
 96
       25
 40
0.0
 40
0.0
 40
0.0
 40
0.0
 40
1.0
 40
1.0
 40
1.0
 40
2.0
 40
2.0
 40
2.0
 40
3.0
 40
3.0
 40
3.0
 40
4.0
 40
4.0
 40
4.0
 40
5.0
 40
5.0
 40
5.0
 40
6.0
 40
6.0
 40
6.0
 40
7.0
 40
7.0
 40
7.0
 40
8.0
 40
8.0
 40
8.0
 40
8.0
 10
100.4734537509233
 20
-128.323605653683
 10
100.4734537509233
 20
-128.5902560442413
 10
100.3359944410618
 20
-128.8438150719557
 10
99.98700626840603
 20
-128.8438150719557
 10
99.73103567385196
 20
-128.8438150719557
 10
99.63595103845907
 20
-128.7022216475119
 10
99.57462833882163
 20
-128.5964572161148
 10
99.51537269647532
 20
-128.7211696726808
 10
99.40099552636504
 20
-128.7973062829049
 10
99.24010956720386
 20
-128.7973062829049
 10
98.96519094748093
 20
-128.7973062829049
 10
98.82979869491061
 20
-128.5985242734059
 10
98.82979869491061
 20
-128.323605653683
 10
98.82979869491061
 20
-128.0400742952469
 10
98.97380368619406
 20
-127.8495605149126
 10
99.24010956720386
 20
-127.8495605149126
 10
99.40099552636504
 20
-127.8495605149126
 10
99.51537269647532
 20
-127.9281086919763
 10
99.57462833882163
 20
-128.0528211485424
 10
99.6252712424548
 20
-127.9639376850229
 10
99.7203558778477
 20
-127.8051187831529
 10
99.98287215382373
 20
-127.8051187831529
 10
100.3573540330704
 20
-127.8051187831529
 10
100.4734537509233
 20
-128.0845160270067
 10
100.4734537509233
 20
-128.323605653683
 97
        0
 97
        0
 92
        1
 93
        1
 72
     4
 94
        3
 73
     0
 74
     1
 95
       17
 96
       13
 40
0.0
 40
0.0
 40
0.0
 40
0.0
 40
1.0
 40
1.0
 40
1.0
 40
2.0
 40
2.0
 40
2.0
 40
3.0
 40
3.0
 40
3.0
 40
4.0
 40
4.0
 40
4.0
 40
4.0
 10
99.02237953253608
 20
-128.323605653683
 10
99.02237953253608
 20
-128.4886257274265
 10
99.11746416792897
 20
-128.5730305668151
 10
99.25285642049928
 20
-128.5730305668151
 10
99.37550181977419
 20
-128.5730305668151
 10
99.49401310446677
 20
-128.5013725807219
 10
99.49401310446677
 20
-128.323605653683
 10
99.49401310446677
 20
-128.1458387266441
 10
99.37550181977419
 20
-128.0738362310024
 10
99.25285642049928
 20
-128.0738362310024
 10
99.11746416792897
 20
-128.0738362310024
 10
99.02237953253608
 20
-128.1606526372307
 10
99.02237953253608
 20
-128.323605653683
 97
        0
 97
        0
 92
        1
 93
        1
 72
     4
 94
        3
 73
     0
 74
     1
 95
       17
 96
       13
 40
0.0
 40
0.0
 40
0.0
 40
0.0
 40
1.0
 40
1.0
 40
1.0
 40
2.0
 40
2.0
 40
2.0
 40
3.0
 40
3.0
 40
3.0
 40
4.0
 40
4.0
 40
4.0
 40
4.0
 10
99.68245982750994
 20
-128.323605653683
 10
99.68245982750994
 20
-128.4672661354179
 10
99.76927623373824
 20
-128.6198838654145
 10
99.97219235781945
 20
-128.6198838654145
 10
100.1775200487403
 20
-128.6198838654145
 10
100.2788058560067
 20
-128.4927598420088
 10
100.2788058560067
 20
-128.323605653683
 10
100.2788058560067
 20
-128.1375704974795
 10
100.1561604567318
 20
-128.0273274419515
 10
99.97839352969291
 20
-128.0273274419515
 10
99.75652938044281
 20
-128.0273274419515
 10
99.68245982750994
 20
-128.1902804584038
 10
99.68245982750994
 20
-128.323605653683
 97
        0
 97
        0
 75
     2
 76
     1
 98
        0
  0
ENDBLK
  5
9B
330
98
100
AcDbEntity
  8
0
100
AcDbBlockEnd
  0
BLOCK
  5
BA
330
B8
100
AcDbEntity
  8
0
100
AcDbBlockBegin
  2
block 4
 70
     0
 10
0.0
 20
0.0
 30
0.0
  3
block 4
  1

  0
SPLINE
  5
BC
330
B8
100
AcDbEntity
  8
_U+30EC_U+30A4_U+30E4_U+30FC 1
370
     0
100
AcDbSpline
210
0.0
220
0.0
230
1.0
 70
    11
 71
     3
 72
    26
 73
    22
 74
     0
 42
0.0000000001
 43
0.0000000001
 12
1.0
 22
0.0
 32
0.0
 13
1.0
 23
0.0
 33
0.0
 40
0.0
 40
0.0
 40
0.0
 40
0.0
 40
1.0
 40
1.0
 40
1.0
 40
2.0
 40
2.0
 40
2.0
 40
3.0
 40
3.0
 40
3.0
 40
4.0
 40
4.0
 40
4.0
 40
5.0
 40
5.0
 40
5.0
 40
6.0
 40
6.0
 40
6.0
 40
7.0
 40
7.0
 40
7.0
 40
7.0
 10
87.31801213094828
 20
-116.1699978008186
 30
0.0
 10
87.31801213094828
 20
-116.1699978008186
 30
0.0
 10
87.31801213094828
 20
-115.0656724430218
 30
0.0
 10
87.31801213094828
 20
-115.0656724430218
 30
0.0
 10
87.31801213094828
 20
-115.0656724430218
 30
0.0
 10
86.98797198346135
 20
-115.0656724430218
 30
0.0
 10
86.98797198346135
 20
-115.0656724430218
 30
0.0
 10
86.98797198346135
 20
-115.0656724430218
 30
0.0
 10
86.98797198346135
 20
-114.9177055919303
 30
0.0
 10
86.98797198346135
 20
-114.9177055919303
 30
0.0
 10
87.32007918823943
 20
-114.9028916813437
 30
0.0
 10
87.36658797729031
 20
-114.7399386648914
 30
0.0
 10
87.39621579846344
 20
-114.6257337495554
 30
0.0
 10
87.39621579846344
 20
-114.6257337495554
 30
0.0
 10
87.54228784703804
 20
-114.6257337495554
 30
0.0
 10
87.54228784703804
 20
-114.6257337495554
 30
0.0
 10
87.54228784703804
 20
-114.6257337495554
 30
0.0
 10
87.54228784703804
 20
-116.1699978008186
 30
0.0
 10
87.54228784703804
 20
-116.1699978008186
 30
0.0
 10
87.54228784703804
 20
-116.1699978008186
 30
0.0
 10
87.31801213094828
 20
-116.1699978008186
 30
0.0
 10
87.31801213094828
 20
-116.1699978008186
 30
0.0
  0
HATCH
  5
BD
330
B8
100
AcDbEntity
  8
_U+30EC_U+30A4_U+30E4_U+30FC 1
 62
   179
420
  2234388
100
AcDbHatch
 10
0.0
 20
0.0
 30
0.0
210
0.0
220
0.0
230
1.0
  2
SOLID
 70
     1
 71
     0
 91
        1
 92
        1
 93
        1
 72
     4
 94
        3
 73
     0
 74
     1
 95
       26
 96
       22
 40
0.0
 40
0.0
 40
0.0
 40
0.0
 40
1.0
 40
1.0
 40
1.0
 40
2.0
 40
2.0
 40
2.0
 40
3.0
 40
3.0
 40
3.0
 40
4.0
 40
4.0
 40
4.0
 40
5.0
 40
5.0
 40
5.0
 40
6.0
 40
6.0
 40
6.0
 40
7.0
 40
7.0
 40
7.0
 40
7.0
 10
87.31801213094828
 20
-116.1699978008186
 10
87.31801213094828
 20
-116.1699978008186
 10
87.31801213094828
 20
-115.0656724430218
 10
87.31801213094828
 20
-115.0656724430218
 10
87.31801213094828
 20
-115.0656724430218
 10
86.98797198346135
 20
-115.0656724430218
 10
86.98797198346135
 20
-115.0656724430218
 10
86.98797198346135
 20
-115.0656724430218
 10
86.98797198346135
 20
-114.9177055919303
 10
86.98797198346135
 20
-114.9177055919303
 10
87.32007918823943
 20
-114.9028916813437
 10
87.36658797729031
 20
-114.7399386648914
 10
87.39621579846344
 20
-114.6257337495554
 10
87.39621579846344
 20
-114.6257337495554
 10
87.54228784703804
 20
-114.6257337495554
 10
87.54228784703804
 20
-114.6257337495554
 10
87.54228784703804
 20
-114.6257337495554
 10
87.54228784703804
 20
-116.1699978008186
 10
87.54228784703804
 20
-116.1699978008186
 10
87.54228784703804
 20
-116.1699978008186
 10
87.31801213094828
 20
-116.1699978008186
 10
87.31801213094828
 20
-116.1699978008186
 97
        0
 97
        0
 75
     2
 76
     1
 98
        0
  0
POLYLINE
  5
BE
330
B8
100
AcDbEntity
  8
_U+30EC_U+30A4_U+30E4_U+30FC 1
370
     0
100
AcDb2dPolyline
 66
     1
 10
0.0
 20
0.0
 30
0.0
  0
VERTEX
  5
BF
330
BE
100
AcDbEntity
  8
_U+30EC_U+30A4_U+30E4_U+30FC 1
370
     0
100
AcDbVertex
100
AcDb2dVertex
 10
88.10349390158524
 20
-116.1699978008186
 30
0.0
  0
VERTEX
  5
C0
330
BE
100
AcDbEntity
  8
_U+30EC_U+30A4_U+30E4_U+30FC 1
370
     0
100
AcDbVertex
100
AcDb2dVertex
 10
88.10349390158524
 20
-115.9183335756211
 30
0.0
  0
VERTEX
  5
C1
330
BE
100
AcDbEntity
  8
_U+30EC_U+30A4_U+30E4_U+30FC 1
370
     0
100
AcDbVertex
100
AcDb2dVertex
 10
88.35533038155701
 20
-115.9183335756211
 30
0.0
  0
VERTEX
  5
C2
330
BE
100
AcDbEntity
  8
_U+30EC_U+30A4_U+30E4_U+30FC 1
370
     0
100
AcDbVertex
100
AcDb2dVertex
 10
88.35533038155701
 20
-116.1699978008186
 30
0.0
  0
VERTEX
  5
C3
330
BE
100
AcDbEntity
  8
_U+30EC_U+30A4_U+30E4_U+30FC 1
370
     0
100
AcDbVertex
100
AcDb2dVertex
 10
88.10349390158524
 20
-116.1699978008186
 30
0.0
  0
SEQEND
  5
C4
330
BE
100
AcDbEntity
  8
_U+30EC_U+30A4_U+30E4_U+30FC 1
370
     0
  0
HATCH
  5
C5
330
B8
100
AcDbEntity
  8
_U+30EC_U+30A4_U+30E4_U+30FC 1
 62
   179
420
  2234388
100
AcDbHatch
 10
0.0
 20
0.0
 30
0.0
210
0.0
220
0.0
230
1.0
  2
SOLID
 70
     1
 71
     0
 91
        1
 92
        1
 93
        4
 72
     1
 10
88.10349390158524
 20
-116.1699978008186
 11
88.10349390158524
 21
-115.9183335756211
 72
     1
 10
88.10349390158524
 20
-115.9183335756211
 11
88.35533038155701
 21
-115.9183335756211
 72
     1
 10
88.35533038155701
 20
-115.9183335756211
 11
88.35533038155701
 21
-116.1699978008186
 72
     1
 10
88.35533038155701
 20
-116.1699978008186
 11
88.10349390158524
 21
-116.1699978008186
 97
        0
 75
     2
 76
     1
 98
        0
  0
SPLINE
  5
C6
330
B8
100
AcDbEntity
  8
_U+30EC_U+30A4_U+30E4_U+30FC 1
370
     0
100
AcDbSpline
210
0.0
220
0.0
230
1.0
 70
    11
 71
     3
 72
    44
 73
    40
 74
     0
 42
0.0000000001
 43
0.0000000001
 12
1.0
 22
0.0
 32
0.0
 13
1.0
 23
0.0
 33
0.0
 40
0.0
 40
0.0
 40
0.0
 40
0.0
 40
1.0
 40
1.0
 40
1.0
 40
2.0
 40
2.0
 40
2.0
 40
3.0
 40
3.0
 40
3.0
 40
4.0
 40
4.0
 40
4.0
 40
5.0
 40
5.0
 40
5.0
 40
6.0
 40
6.0
 40
6.0
 40
7.0
 40
7.0
 40
7.0
 40
8.0
 40
8.0
 40
8.0
 40
9.0
 40
9.0
 40
9.0
 40
10.0
 40
10.0
 40
10.0
 40
11.0
 40
11.0
 40
11.0
 40
12.0
 40
12.0
 40
12.0
 40
13.0
 40
13.0
 40
13.0
 40
13.0
 10
89.18456486485664
 20
-115.5882934281342
 30
0.0
 10
88.96683483018884
 20
-115.7469400752299
 30
0.0
 10
88.87381725208711
 20
-115.8210096281628
 30
0.0
 10
88.82489689619656
 20
-115.964842364672
 30
0.0
 10
88.82489689619656
 20
-115.964842364672
 30
0.0
 10
89.60348847586302
 20
-115.964842364672
 30
0.0
 10
89.60348847586302
 20
-115.964842364672
 30
0.0
 10
89.60348847586302
 20
-115.964842364672
 30
0.0
 10
89.60348847586302
 20
-116.1699978008186
 30
0.0
 10
89.60348847586302
 20
-116.1699978008186
 30
0.0
 10
89.60348847586302
 20
-116.1699978008186
 30
0.0
 10
88.57547198306447
 20
-116.1699978008186
 30
0.0
 10
88.57547198306447
 20
-116.1699978008186
 30
0.0
 10
88.60716686152877
 20
-115.8123968894497
 30
0.0
 10
88.67262367574851
 20
-115.7341932219345
 30
0.0
 10
89.05778535099945
 20
-115.4358479529119
 30
0.0
 10
89.31375594555351
 20
-115.237065943413
 30
0.0
 10
89.37921275977325
 20
-115.1693698171278
 30
0.0
 10
89.37921275977325
 20
-115.0319105072663
 30
0.0
 10
89.37921275977325
 20
-114.9133992225737
 30
0.0
 10
89.30721026413154
 20
-114.78231333936
 30
0.0
 10
89.11049531192377
 20
-114.78231333936
 30
0.0
 10
88.8503906027874
 20
-114.78231333936
 30
0.0
 10
88.8421223736228
 20
-115.0127902273232
 30
0.0
 10
88.83764374949199
 20
-115.1292344547246
 30
0.0
 10
88.83764374949199
 20
-115.1292344547246
 30
0.0
 10
88.61336803340222
 20
-115.1292344547246
 30
0.0
 10
88.61336803340222
 20
-115.1292344547246
 30
0.0
 10
88.62198077211534
 20
-115.0022826860932
 30
0.0
 10
88.63266056811962
 20
-114.8901448280483
 30
0.0
 10
88.71293129292594
 20
-114.7716335433557
 30
0.0
 10
88.8228298389054
 20
-114.6109198389688
 30
0.0
 10
89.00920950465742
 20
-114.5769856484391
 30
0.0
 10
89.12530922251034
 20
-114.5769856484391
 30
0.0
 10
89.40263940907296
 20
-114.5769856484391
 30
0.0
 10
89.610034157285
 20
-114.7611260021257
 30
0.0
 10
89.610034157285
 20
-115.0339775645575
 30
0.0
 10
89.610034157285
 20
-115.2623873952296
 30
0.0
 10
89.49358992988356
 20
-115.3619506547533
 30
0.0
 10
89.18456486485664
 20
-115.5882934281342
 30
0.0
  0
HATCH
  5
C7
330
B8
100
AcDbEntity
  8
_U+30EC_U+30A4_U+30E4_U+30FC 1
 62
   179
420
  2234388
100
AcDbHatch
 10
0.0
 20
0.0
 30
0.0
210
0.0
220
0.0
230
1.0
  2
SOLID
 70
     1
 71
     0
 91
        1
 92
        1
 93
        1
 72
     4
 94
        3
 73
     0
 74
     1
 95
       44
 96
       40
 40
0.0
 40
0.0
 40
0.0
 40
0.0
 40
1.0
 40
1.0
 40
1.0
 40
2.0
 40
2.0
 40
2.0
 40
3.0
 40
3.0
 40
3.0
 40
4.0
 40
4.0
 40
4.0
 40
5.0
 40
5.0
 40
5.0
 40
6.0
 40
6.0
 40
6.0
 40
7.0
 40
7.0
 40
7.0
 40
8.0
 40
8.0
 40
8.0
 40
9.0
 40
9.0
 40
9.0
 40
10.0
 40
10.0
 40
10.0
 40
11.0
 40
11.0
 40
11.0
 40
12.0
 40
12.0
 40
12.0
 40
13.0
 40
13.0
 40
13.0
 40
13.0
 10
89.18456486485664
 20
-115.5882934281342
 10
88.96683483018884
 20
-115.7469400752299
 10
88.87381725208711
 20
-115.8210096281628
 10
88.82489689619656
 20
-115.964842364672
 10
88.82489689619656
 20
-115.964842364672
 10
89.60348847586302
 20
-115.964842364672
 10
89.60348847586302
 20
-115.964842364672
 10
89.60348847586302
 20
-115.964842364672
 10
89.60348847586302
 20
-116.1699978008186
 10
89.60348847586302
 20
-116.1699978008186
 10
89.60348847586302
 20
-116.1699978008186
 10
88.57547198306447
 20
-116.1699978008186
 10
88.57547198306447
 20
-116.1699978008186
 10
88.60716686152877
 20
-115.8123968894497
 10
88.67262367574851
 20
-115.7341932219345
 10
89.05778535099945
 20
-115.4358479529119
 10
89.31375594555351
 20
-115.237065943413
 10
89.37921275977325
 20
-115.1693698171278
 10
89.37921275977325
 20
-115.0319105072663
 10
89.37921275977325
 20
-114.9133992225737
 10
89.30721026413154
 20
-114.78231333936
 10
89.11049531192377
 20
-114.78231333936
 10
88.8503906027874
 20
-114.78231333936
 10
88.8421223736228
 20
-115.0127902273232
 10
88.83764374949199
 20
-115.1292344547246
 10
88.83764374949199
 20
-115.1292344547246
 10
88.61336803340222
 20
-115.1292344547246
 10
88.61336803340222
 20
-115.1292344547246
 10
88.62198077211534
 20
-115.0022826860932
 10
88.63266056811962
 20
-114.8901448280483
 10
88.71293129292594
 20
-114.7716335433557
 10
88.8228298389054
 20
-114.6109198389688
 10
89.00920950465742
 20
-114.5769856484391
 10
89.12530922251034
 20
-114.5769856484391
 10
89.40263940907296
 20
-114.5769856484391
 10
89.610034157285
 20
-114.7611260021257
 10
89.610034157285
 20
-115.0339775645575
 10
89.610034157285
 20
-115.2623873952296
 10
89.49358992988356
 20
-115.3619506547533
 10
89.18456486485664
 20
-115.5882934281342
 97
        0
 97
        0
 75
     2
 76
     1
 98
        0
  0
ENDBLK
  5
BB
330
B8
100
AcDbEntity
  8
0
100
AcDbBlockEnd
  0
BLOCK
  5
D6
330
D4
100
AcDbEntity
  8
0
100
AcDbBlockBegin
  2
block 5
 70
     0
 10
0.0
 20
0.0
 30
0.0
  3
block 5
  1

  0
SPLINE
  5
D8
330
D4
100
AcDbEntity
  8
_U+30EC_U+30A4_U+30E4_U+30FC 1
370
     0
100
AcDbSpline
210
0.0
220
0.0
230
1.0
 70
    11
 71
     3
 72
    26
 73
    22
 74
     0
 42
0.0000000001
 43
0.0000000001
 12
1.0
 22
0.0
 32
0.0
 13
1.0
 23
0.0
 33
0.0
 40
0.0
 40
0.0
 40
0.0
 40
0.0
 40
1.0
 40
1.0
 40
1.0
 40
2.0
 40
2.0
 40
2.0
 40
3.0
 40
3.0
 40
3.0
 40
4.0
 40
4.0
 40
4.0
 40
5.0
 40
5.0
 40
5.0
 40
6.0
 40
6.0
 40
6.0
 40
7.0
 40
7.0
 40
7.0
 40
7.0
 10
87.43204479151005
 20
-142.2283555416999
 30
0.0
 10
87.43204479151005
 20
-142.2283555416999
 30
0.0
 10
87.43204479151005
 20
-141.1242024386773
 30
0.0
 10
87.43204479151005
 20
-141.1242024386773
 30
0.0
 10
87.43204479151005
 20
-141.1242024386773
 30
0.0
 10
87.10200464402311
 20
-141.1242024386773
 30
0.0
 10
87.10200464402311
 20
-141.1242024386773
 30
0.0
 10
87.10200464402311
 20
-141.1242024386773
 30
0.0
 10
87.10200464402311
 20
-140.9760633328115
 30
0.0
 10
87.10200464402311
 20
-140.9760633328115
 30
0.0
 10
87.4341118488012
 20
-140.961249422225
 30
0.0
 10
87.48062063785207
 20
-140.7982964057726
 30
0.0
 10
87.51024845902522
 20
-140.6839192356624
 30
0.0
 10
87.51024845902522
 20
-140.6839192356624
 30
0.0
 10
87.65632050759982
 20
-140.6839192356624
 30
0.0
 10
87.65632050759982
 20
-140.6839192356624
 30
0.0
 10
87.65632050759982
 20
-140.6839192356624
 30
0.0
 10
87.65632050759982
 20
-142.2283555416999
 30
0.0
 10
87.65632050759982
 20
-142.2283555416999
 30
0.0
 10
87.65632050759982
 20
-142.2283555416999
 30
0.0
 10
87.43204479151005
 20
-142.2283555416999
 30
0.0
 10
87.43204479151005
 20
-142.2283555416999
 30
0.0
  0
HATCH
  5
D9
330
D4
100
AcDbEntity
  8
_U+30EC_U+30A4_U+30E4_U+30FC 1
 62
   179
420
  2234388
100
AcDbHatch
 10
0.0
 20
0.0
 30
0.0
210
0.0
220
0.0
230
1.0
  2
SOLID
 70
     1
 71
     0
 91
        1
 92
        1
 93
        1
 72
     4
 94
        3
 73
     0
 74
     1
 95
       26
 96
       22
 40
0.0
 40
0.0
 40
0.0
 40
0.0
 40
1.0
 40
1.0
 40
1.0
 40
2.0
 40
2.0
 40
2.0
 40
3.0
 40
3.0
 40
3.0
 40
4.0
 40
4.0
 40
4.0
 40
5.0
 40
5.0
 40
5.0
 40
6.0
 40
6.0
 40
6.0
 40
7.0
 40
7.0
 40
7.0
 40
7.0
 10
87.43204479151005
 20
-142.2283555416999
 10
87.43204479151005
 20
-142.2283555416999
 10
87.43204479151005
 20
-141.1242024386773
 10
87.43204479151005
 20
-141.1242024386773
 10
87.43204479151005
 20
-141.1242024386773
 10
87.10200464402311
 20
-141.1242024386773
 10
87.10200464402311
 20
-141.1242024386773
 10
87.10200464402311
 20
-141.1242024386773
 10
87.10200464402311
 20
-140.9760633328115
 10
87.10200464402311
 20
-140.9760633328115
 10
87.4341118488012
 20
-140.961249422225
 10
87.48062063785207
 20
-140.7982964057726
 10
87.51024845902522
 20
-140.6839192356624
 10
87.51024845902522
 20
-140.6839192356624
 10
87.65632050759982
 20
-140.6839192356624
 10
87.65632050759982
 20
-140.6839192356624
 10
87.65632050759982
 20
-140.6839192356624
 10
87.65632050759982
 20
-142.2283555416999
 10
87.65632050759982
 20
-142.2283555416999
 10
87.65632050759982
 20
-142.2283555416999
 10
87.43204479151005
 20
-142.2283555416999
 10
87.43204479151005
 20
-142.2283555416999
 97
        0
 97
        0
 75
     2
 76
     1
 98
        0
  0
SPLINE
  5
DA
330
D4
100
AcDbEntity
  8
_U+30EC_U+30A4_U+30E4_U+30FC 1
370
     0
100
AcDbSpline
210
0.0
220
0.0
230
1.0
 70
    11
 71
     3
 72
    29
 73
    25
 74
     0
 42
0.0000000001
 43
0.0000000001
 12
1.0
 22
0.0
 32
0.0
 13
1.0
 23
0.0
 33
0.0
 40
0.0
 40
0.0
 40
0.0
 40
0.0
 40
1.0
 40
1.0
 40
1.0
 40
2.0
 40
2.0
 40
2.0
 40
3.0
 40
3.0
 40
3.0
 40
4.0
 40
4.0
 40
4.0
 40
5.0
 40
5.0
 40
5.0
 40
6.0
 40
6.0
 40
6.0
 40
7.0
 40
7.0
 40
7.0
 40
8.0
 40
8.0
 40
8.0
 40
8.0
 10
88.65746525561342
 20
-142.278998445333
 30
0.0
 10
88.39081486505508
 20
-142.278998445333
 30
0.0
 10
88.13725583734069
 20
-142.1415391354716
 30
0.0
 10
88.13725583734069
 20
-141.7925509628158
 30
0.0
 10
88.13725583734069
 20
-141.5365803682617
 30
0.0
 10
88.27884926178446
 20
-141.4414957328688
 30
0.0
 10
88.38461369318163
 20
-141.3801730332314
 30
0.0
 10
88.25990123661559
 20
-141.3209173908851
 30
0.0
 10
88.18376462639156
 20
-141.2065402207748
 30
0.0
 10
88.18376462639156
 20
-141.0456542616136
 30
0.0
 10
88.18376462639156
 20
-140.7707356418907
 30
0.0
 10
88.38254663589048
 20
-140.6353433893203
 30
0.0
 10
88.65746525561342
 20
-140.6353433893203
 30
0.0
 10
88.94099661404948
 20
-140.6353433893203
 30
0.0
 10
89.1315103943838
 20
-140.7793483806038
 30
0.0
 10
89.1315103943838
 20
-141.0456542616136
 30
0.0
 10
89.1315103943838
 20
-141.2065402207748
 30
0.0
 10
89.0529622173201
 20
-141.3209173908851
 30
0.0
 10
88.92824976075406
 20
-141.3801730332314
 30
0.0
 10
89.0171332242735
 20
-141.4308159368645
 30
0.0
 10
89.17595212614351
 20
-141.5259005722574
 30
0.0
 10
89.17595212614351
 20
-141.7884168482335
 30
0.0
 10
89.17595212614351
 20
-142.1628987274801
 30
0.0
 10
88.89655488228975
 20
-142.278998445333
 30
0.0
 10
88.65746525561342
 20
-142.278998445333
 30
0.0
  0
SPLINE
  5
DB
330
D4
100
AcDbEntity
  8
_U+30EC_U+30A4_U+30E4_U+30FC 1
370
     0
100
AcDbSpline
210
0.0
220
0.0
230
1.0
 70
    11
 71
     3
 72
    17
 73
    13
 74
     0
 42
0.0000000001
 43
0.0000000001
 12
1.0
 22
0.0
 32
0.0
 13
1.0
 23
0.0
 33
0.0
 40
0.0
 40
0.0
 40
0.0
 40
0.0
 40
1.0
 40
1.0
 40
1.0
 40
2.0
 40
2.0
 40
2.0
 40
3.0
 40
3.0
 40
3.0
 40
4.0
 40
4.0
 40
4.0
 40
4.0
 10
88.65746525561342
 20
-141.4880045219197
 30
0.0
 10
88.51380477387849
 20
-141.4880045219197
 30
0.0
 10
88.36118704388193
 20
-141.574820928148
 30
0.0
 10
88.36118704388193
 20
-141.7777370522292
 30
0.0
 10
88.36118704388193
 20
-141.9830647431501
 30
0.0
 10
88.48831106728765
 20
-142.0843505504164
 30
0.0
 10
88.65746525561342
 20
-142.0843505504164
 30
0.0
 10
88.8435004118169
 20
-142.0843505504164
 30
0.0
 10
88.9537434673449
 20
-141.9617051511415
 30
0.0
 10
88.9537434673449
 20
-141.7839382241026
 30
0.0
 10
88.9537434673449
 20
-141.5620740748525
 30
0.0
 10
88.79079045089259
 20
-141.4880045219197
 30
0.0
 10
88.65746525561342
 20
-141.4880045219197
 30
0.0
  0
SPLINE
  5
DC
330
D4
100
AcDbEntity
  8
_U+30EC_U+30A4_U+30E4_U+30FC 1
370
     0
100
AcDbSpline
210
0.0
220
0.0
230
1.0
 70
    11
 71
     3
 72
    17
 73
    13
 74
     0
 42
0.0000000001
 43
0.0000000001
 12
1.0
 22
0.0
 32
0.0
 13
1.0
 23
0.0
 33
0.0
 40
0.0
 40
0.0
 40
0.0
 40
0.0
 40
1.0
 40
1.0
 40
1.0
 40
2.0
 40
2.0
 40
2.0
 40
3.0
 40
3.0
 40
3.0
 40
4.0
 40
4.0
 40
4.0
 40
4.0
 10
88.65746525561342
 20
-140.8279242269458
 30
0.0
 10
88.49244518186995
 20
-140.8279242269458
 30
0.0
 10
88.40804034248133
 20
-140.9230088623387
 30
0.0
 10
88.40804034248133
 20
-141.058401114909
 30
0.0
 10
88.40804034248133
 20
-141.1810465141839
 30
0.0
 10
88.47969832857453
 20
-141.2995577988765
 30
0.0
 10
88.65746525561342
 20
-141.2995577988765
 30
0.0
 10
88.8352321826523
 20
-141.2995577988765
 30
0.0
 10
88.90723467829403
 20
-141.1810465141839
 30
0.0
 10
88.90723467829403
 20
-141.058401114909
 30
0.0
 10
88.90723467829403
 20
-140.9230088623387
 30
0.0
 10
88.82041827206574
 20
-140.8279242269458
 30
0.0
 10
88.65746525561342
 20
-140.8279242269458
 30
0.0
  0
HATCH
  5
DD
330
D4
100
AcDbEntity
  8
_U+30EC_U+30A4_U+30E4_U+30FC 1
 62
   179
420
  2234388
100
AcDbHatch
 10
0.0
 20
0.0
 30
0.0
210
0.0
220
0.0
230
1.0
  2
SOLID
 70
     1
 71
     0
 91
        3
 92
        1
 93
        1
 72
     4
 94
        3
 73
     0
 74
     1
 95
       29
 96
       25
 40
0.0
 40
0.0
 40
0.0
 40
0.0
 40
1.0
 40
1.0
 40
1.0
 40
2.0
 40
2.0
 40
2.0
 40
3.0
 40
3.0
 40
3.0
 40
4.0
 40
4.0
 40
4.0
 40
5.0
 40
5.0
 40
5.0
 40
6.0
 40
6.0
 40
6.0
 40
7.0
 40
7.0
 40
7.0
 40
8.0
 40
8.0
 40
8.0
 40
8.0
 10
88.65746525561342
 20
-142.278998445333
 10
88.39081486505508
 20
-142.278998445333
 10
88.13725583734069
 20
-142.1415391354716
 10
88.13725583734069
 20
-141.7925509628158
 10
88.13725583734069
 20
-141.5365803682617
 10
88.27884926178446
 20
-141.4414957328688
 10
88.38461369318163
 20
-141.3801730332314
 10
88.25990123661559
 20
-141.3209173908851
 10
88.18376462639156
 20
-141.2065402207748
 10
88.18376462639156
 20
-141.0456542616136
 10
88.18376462639156
 20
-140.7707356418907
 10
88.38254663589048
 20
-140.6353433893203
 10
88.65746525561342
 20
-140.6353433893203
 10
88.94099661404948
 20
-140.6353433893203
 10
89.1315103943838
 20
-140.7793483806038
 10
89.1315103943838
 20
-141.0456542616136
 10
89.1315103943838
 20
-141.2065402207748
 10
89.0529622173201
 20
-141.3209173908851
 10
88.92824976075406
 20
-141.3801730332314
 10
89.0171332242735
 20
-141.4308159368645
 10
89.17595212614351
 20
-141.5259005722574
 10
89.17595212614351
 20
-141.7884168482335
 10
89.17595212614351
 20
-142.1628987274801
 10
88.89655488228975
 20
-142.278998445333
 10
88.65746525561342
 20
-142.278998445333
 97
        0
 97
        0
 92
        1
 93
        1
 72
     4
 94
        3
 73
     0
 74
     1
 95
       17
 96
       13
 40
0.0
 40
0.0
 40
0.0
 40
0.0
 40
1.0
 40
1.0
 40
1.0
 40
2.0
 40
2.0
 40
2.0
 40
3.0
 40
3.0
 40
3.0
 40
4.0
 40
4.0
 40
4.0
 40
4.0
 10
88.65746525561342
 20
-141.4880045219197
 10
88.51380477387849
 20
-141.4880045219197
 10
88.36118704388193
 20
-141.574820928148
 10
88.36118704388193
 20
-141.7777370522292
 10
88.36118704388193
 20
-141.9830647431501
 10
88.48831106728765
 20
-142.0843505504164
 10
88.65746525561342
 20
-142.0843505504164
 10
88.8435004118169
 20
-142.0843505504164
 10
88.9537434673449
 20
-141.9617051511415
 10
88.9537434673449
 20
-141.7839382241026
 10
88.9537434673449
 20
-141.5620740748525
 10
88.79079045089259
 20
-141.4880045219197
 10
88.65746525561342
 20
-141.4880045219197
 97
        0
 97
        0
 92
        1
 93
        1
 72
     4
 94
        3
 73
     0
 74
     1
 95
       17
 96
       13
 40
0.0
 40
0.0
 40
0.0
 40
0.0
 40
1.0
 40
1.0
 40
1.0
 40
2.0
 40
2.0
 40
2.0
 40
3.0
 40
3.0
 40
3.0
 40
4.0
 40
4.0
 40
4.0
 40
4.0
 10
88.65746525561342
 20
-140.8279242269458
 10
88.49244518186995
 20
-140.8279242269458
 10
88.40804034248133
 20
-140.9230088623387
 10
88.40804034248133
 20
-141.058401114909
 10
88.40804034248133
 20
-141.1810465141839
 10
88.47969832857453
 20
-141.2995577988765
 10
88.65746525561342
 20
-141.2995577988765
 10
88.8352321826523
 20
-141.2995577988765
 10
88.90723467829403
 20
-141.1810465141839
 10
88.90723467829403
 20
-141.058401114909
 10
88.90723467829403
 20
-140.9230088623387
 10
88.82041827206574
 20
-140.8279242269458
 10
88.65746525561342
 20
-140.8279242269458
 97
        0
 97
        0
 75
     2
 76
     1
 98
        0
  0
ENDBLK
  5
D7
330
D4
100
AcDbEntity
  8
0
100
AcDbBlockEnd
  0
ENDSEC
  0
SECTION
  2
ENTITIES
  0
POLYLINE
  5
41
330
1F
100
AcDbEntity
  8
_U+30EC_U+30A4_U+30E4_U+30FC 1
370
     0
100
AcDb2dPolyline
 66
     1
 10
0.0
 20
0.0
 30
0.0
  0
VERTEX
  5
42
330
41
100
AcDbEntity
  8
_U+30EC_U+30A4_U+30E4_U+30FC 1
370
     0
100
AcDbVertex
100
AcDb2dVertex
 10
88.66899884897649
 20
-121.8743858028647
 30
0.0
  0
VERTEX
  5
43
330
41
100
AcDbEntity
  8
_U+30EC_U+30A4_U+30E4_U+30FC 1
370
     0
100
AcDbVertex
100
AcDb2dVertex
 10
87.46941332402491
 20
-121.8743858028647
 30
0.0
  0
VERTEX
  5
44
330
41
100
AcDbEntity
  8
_U+30EC_U+30A4_U+30E4_U+30FC 1
370
     0
100
AcDbVertex
100
AcDb2dVertex
 10
87.46941332402491
 20
-137.6742794100257
 30
0.0
  0
VERTEX
  5
45
330
41
100
AcDbEntity
  8
_U+30EC_U+30A4_U+30E4_U+30FC 1
370
     0
100
AcDbVertex
100
AcDb2dVertex
 10
79.06889270500672
 20
-137.6742794100257
 30
0.0
  0
VERTEX
  5
46
330
41
100
AcDbEntity
  8
_U+30EC_U+30A4_U+30E4_U+30FC 1
370
     0
100
AcDbVertex
100
AcDb2dVertex
 10
79.06889270500672
 20
-138.874570520837
 30
0.0
  0
VERTEX
  5
47
330
41
100
AcDbEntity
  8
_U+30EC_U+30A4_U+30E4_U+30FC 1
370
     0
100
AcDbVertex
100
AcDb2dVertex
 10
97.0690255791184
 20
-138.874570520837
 30
0.0
  0
VERTEX
  5
48
330
41
100
AcDbEntity
  8
_U+30EC_U+30A4_U+30E4_U+30FC 1
370
     0
100
AcDbVertex
100
AcDb2dVertex
 10
97.0690255791184
 20
-137.6742794100257
 30
0.0
  0
VERTEX
  5
49
330
41
100
AcDbEntity
  8
_U+30EC_U+30A4_U+30E4_U+30FC 1
370
     0
100
AcDbVertex
100
AcDb2dVertex
 10
88.66899884897649
 20
-137.6742794100257
 30
0.0
  0
VERTEX
  5
4A
330
41
100
AcDbEntity
  8
_U+30EC_U+30A4_U+30E4_U+30FC 1
370
     0
100
AcDbVertex
100
AcDb2dVertex
 10
88.66899884897649
 20
-121.8743858028647
 30
0.0
  0
SEQEND
  5
4C
330
41
100
AcDbEntity
  8
_U+30EC_U+30A4_U+30E4_U+30FC 1
370
     0
  0
HATCH
  5
4B
330
1F
100
AcDbEntity
  8
_U+30EC_U+30A4_U+30E4_U+30FC 1
 62
   253
420
 11711154
100
AcDbHatch
 10
0.0
 20
0.0
 30
0.0
210
0.0
220
0.0
230
1.0
  2
SOLID
 70
     1
 71
     0
 91
        1
 92
        1
 93
        8
 72
     1
 10
88.66899884897649
 20
-121.8743858028647
 11
87.46941332402491
 21
-121.8743858028647
 72
     1
 10
87.46941332402491
 20
-121.8743858028647
 11
87.46941332402491
 21
-137.6742794100257
 72
     1
 10
87.46941332402491
 20
-137.6742794100257
 11
79.06889270500672
 21
-137.6742794100257
 72
     1
 10
79.06889270500672
 20
-137.6742794100257
 11
79.06889270500672
 21
-138.874570520837
 72
     1
 10
79.06889270500672
 20
-138.874570520837
 11
97.0690255791184
 21
-138.874570520837
 72
     1
 10
97.0690255791184
 20
-138.874570520837
 11
97.0690255791184
 21
-137.6742794100257
 72
     1
 10
97.0690255791184
 20
-137.6742794100257
 11
88.66899884897649
 21
-137.6742794100257
 72
     1
 10
88.66899884897649
 20
-137.6742794100257
 11
88.66899884897649
 21
-121.8743858028647
 97
        0
 75
     2
 76
     1
 98
        0
  0
POLYLINE
  5
4D
330
1F
100
AcDbEntity
  8
_U+30EC_U+30A4_U+30E4_U+30FC 1
 62
   179
420
  2234388
370
    25
100
AcDb2dPolyline
 66
     1
 10
0.0
 20
0.0
 30
0.0
  0
VERTEX
  5
4E
330
4D
100
AcDbEntity
  8
_U+30EC_U+30A4_U+30E4_U+30FC 1
 62
   179
420
  2234388
370
    25
100
AcDbVertex
100
AcDb2dVertex
 10
79.06889270500672
 20
-138.874570520837
 30
0.0
  0
VERTEX
  5
4F
330
4D
100
AcDbEntity
  8
_U+30EC_U+30A4_U+30E4_U+30FC 1
 62
   179
420
  2234388
370
    25
100
AcDbVertex
100
AcDb2dVertex
 10
97.0690255791184
 20
-138.874570520837
 30
0.0
  0
SEQEND
  5
50
330
4D
100
AcDbEntity
  8
_U+30EC_U+30A4_U+30E4_U+30FC 1
 62
   179
420
  2234388
370
    25
  0
POLYLINE
  5
51
330
1F
100
AcDbEntity
  8
_U+30EC_U+30A4_U+30E4_U+30FC 1
 62
   179
420
  2234388
370
    25
100
AcDb2dPolyline
 66
     1
 10
0.0
 20
0.0
 30
0.0
  0
VERTEX
  5
52
330
51
100
AcDbEntity
  8
_U+30EC_U+30A4_U+30E4_U+30FC 1
 62
   179
420
  2234388
370
    25
100
AcDbVertex
100
AcDb2dVertex
 10
79.06889270500672
 20
-137.6742794100257
 30
0.0
  0
VERTEX
  5
53
330
51
100
AcDbEntity
  8
_U+30EC_U+30A4_U+30E4_U+30FC 1
 62
   179
420
  2234388
370
    25
100
AcDbVertex
100
AcDb2dVertex
 10
87.46941332402491
 20
-137.6742794100257
 30
0.0
  0
SEQEND
  5
54
330
51
100
AcDbEntity
  8
_U+30EC_U+30A4_U+30E4_U+30FC 1
 62
   179
420
  2234388
370
    25
  0
POLYLINE
  5
55
330
1F
100
AcDbEntity
  8
_U+30EC_U+30A4_U+30E4_U+30FC 1
 62
   179
420
  2234388
370
    25
100
AcDb2dPolyline
 66
     1
 10
0.0
 20
0.0
 30
0.0
  0
VERTEX
  5
56
330
55
100
AcDbEntity
  8
_U+30EC_U+30A4_U+30E4_U+30FC 1
 62
   179
420
  2234388
370
    25
100
AcDbVertex
100
AcDb2dVertex
 10
88.66899884897649
 20
-137.6742794100257
 30
0.0
  0
VERTEX
  5
57
330
55
100
AcDbEntity
  8
_U+30EC_U+30A4_U+30E4_U+30FC 1
 62
   179
420
  2234388
370
    25
100
AcDbVertex
100
AcDb2dVertex
 10
97.0690255791184
 20
-137.6742794100257
 30
0.0
  0
SEQEND
  5
58
330
55
100
AcDbEntity
  8
_U+30EC_U+30A4_U+30E4_U+30FC 1
 62
   179
420
  2234388
370
    25
  0
POLYLINE
  5
59
330
1F
100
AcDbEntity
  8
_U+30EC_U+30A4_U+30E4_U+30FC 1
 62
   179
420
  2234388
370
    25
100
AcDb2dPolyline
 66
     1
 10
0.0
 20
0.0
 30
0.0
  0
VERTEX
  5
5A
330
59
100
AcDbEntity
  8
_U+30EC_U+30A4_U+30E4_U+30FC 1
 62
   179
420
  2234388
370
    25
100
AcDbVertex
100
AcDb2dVertex
 10
87.46941332402491
 20
-121.8743858028647
 30
0.0
  0
VERTEX
  5
5B
330
59
100
AcDbEntity
  8
_U+30EC_U+30A4_U+30E4_U+30FC 1
 62
   179
420
  2234388
370
    25
100
AcDbVertex
100
AcDb2dVertex
 10
88.66899884897649
 20
-121.8743858028647
 30
0.0
  0
SEQEND
  5
5C
330
59
100
AcDbEntity
  8
_U+30EC_U+30A4_U+30E4_U+30FC 1
 62
   179
420
  2234388
370
    25
  0
POLYLINE
  5
5D
330
1F
100
AcDbEntity
  8
_U+30EC_U+30A4_U+30E4_U+30FC 1
 62
   179
420
  2234388
370
    25
100
AcDb2dPolyline
 66
     1
 10
0.0
 20
0.0
 30
0.0
  0
VERTEX
  5
5E
330
5D
100
AcDbEntity
  8
_U+30EC_U+30A4_U+30E4_U+30FC 1
 62
   179
420
  2234388
370
    25
100
AcDbVertex
100
AcDb2dVertex
 10
88.66899884897649
 20
-121.8743858028647
 30
0.0
  0
VERTEX
  5
5F
330
5D
100
AcDbEntity
  8
_U+30EC_U+30A4_U+30E4_U+30FC 1
 62
   179
420
  2234388
370
    25
100
AcDbVertex
100
AcDb2dVertex
 10
88.66899884897649
 20
-137.6742794100257
 30
0.0
  0
SEQEND
  5
60
330
5D
100
AcDbEntity
  8
_U+30EC_U+30A4_U+30E4_U+30FC 1
 62
   179
420
  2234388
370
    25
  0
POLYLINE
  5
61
330
1F
100
AcDbEntity
  8
_U+30EC_U+30A4_U+30E4_U+30FC 1
 62
   179
420
  2234388
370
    25
100
AcDb2dPolyline
 66
     1
 10
0.0
 20
0.0
 30
0.0
  0
VERTEX
  5
62
330
61
100
AcDbEntity
  8
_U+30EC_U+30A4_U+30E4_U+30FC 1
 62
   179
420
  2234388
370
    25
100
AcDbVertex
100
AcDb2dVertex
 10
87.46941332402491
 20
-121.8743858028647
 30
0.0
  0
VERTEX
  5
63
330
61
100
AcDbEntity
  8
_U+30EC_U+30A4_U+30E4_U+30FC 1
 62
   179
420
  2234388
370
    25
100
AcDbVertex
100
AcDb2dVertex
 10
87.46941332402491
 20
-137.6742794100257
 30
0.0
  0
SEQEND
  5
64
330
61
100
AcDbEntity
  8
_U+30EC_U+30A4_U+30E4_U+30FC 1
 62
   179
420
  2234388
370
    25
  0
POLYLINE
  5
65
330
1F
100
AcDbEntity
  8
_U+30EC_U+30A4_U+30E4_U+30FC 1
 62
   179
420
  2234388
370
    25
100
AcDb2dPolyline
 66
     1
 10
0.0
 20
0.0
 30
0.0
  0
VERTEX
  5
66
330
65
100
AcDbEntity
  8
_U+30EC_U+30A4_U+30E4_U+30FC 1
 62
   179
420
  2234388
370
    25
100
AcDbVertex
100
AcDb2dVertex
 10
97.0690255791184
 20
-137.6742794100257
 30
0.0
  0
VERTEX
  5
67
330
65
100
AcDbEntity
  8
_U+30EC_U+30A4_U+30E4_U+30FC 1
 62
   179
420
  2234388
370
    25
100
AcDbVertex
100
AcDb2dVertex
 10
97.0690255791184
 20
-138.874570520837
 30
0.0
  0
SEQEND
  5
68
330
65
100
AcDbEntity
  8
_U+30EC_U+30A4_U+30E4_U+30FC 1
 62
   179
420
  2234388
370
    25
  0
POLYLINE
  5
69
330
1F
100
AcDbEntity
  8
_U+30EC_U+30A4_U+30E4_U+30FC 1
 62
   179
420
  2234388
370
    25
100
AcDb2dPolyline
 66
     1
 10
0.0
 20
0.0
 30
0.0
  0
VERTEX
  5
6A
330
69
100
AcDbEntity
  8
_U+30EC_U+30A4_U+30E4_U+30FC 1
 62
   179
420
  2234388
370
    25
100
AcDbVertex
100
AcDb2dVertex
 10
79.06889270500672
 20
-137.6742794100257
 30
0.0
  0
VERTEX
  5
6B
330
69
100
AcDbEntity
  8
_U+30EC_U+30A4_U+30E4_U+30FC 1
 62
   179
420
  2234388
370
    25
100
AcDbVertex
100
AcDb2dVertex
 10
79.06889270500672
 20
-138.874570520837
 30
0.0
  0
SEQEND
  5
6C
330
69
100
AcDbEntity
  8
_U+30EC_U+30A4_U+30E4_U+30FC 1
 62
   179
420
  2234388
370
    25
  0
SPLINE
  5
6D
330
1F
100
AcDbEntity
  8
_U+30EC_U+30A4_U+30E4_U+30FC 1
 62
   179
420
  2234388
370
     9
100
AcDbSpline
210
0.0
220
0.0
230
1.0
 70
    11
 71
     3
 72
    17
 73
    13
 74
     0
 42
0.0000000001
 43
0.0000000001
 12
1.0
 22
0.0
 32
0.0
 13
1.0
 23
0.0
 33
0.0
 40
0.0
 40
0.0
 40
0.0
 40
0.0
 40
1.0
 40
1.0
 40
1.0
 40
2.0
 40
2.0
 40
2.0
 40
3.0
 40
3.0
 40
3.0
 40
4.0
 40
4.0
 40
4.0
 40
4.0
 10
87.56932220032992
 20
-117.8744502483092
 30
0.0
 10
87.56932220032992
 20
-117.8191699705451
 30
0.0
 10
87.52455248928486
 20
-117.7743671927787
 30
0.0
 10
87.46941332402491
 20
-117.7743671927787
 30
0.0
 10
87.41360388100428
 20
-117.7743671927787
 30
0.0
 10
87.3688363821464
 20
-117.8191699705451
 30
0.0
 10
87.3688363821464
 20
-117.8744502483092
 30
0.0
 10
87.3688363821464
 20
-117.9297658038509
 30
0.0
 10
87.41360388100428
 20
-117.9743569149509
 30
0.0
 10
87.46941332402491
 20
-117.9743569149509
 30
0.0
 10
87.52455248928486
 20
-117.9743569149509
 30
0.0
 10
87.56932220032992
 20
-117.9297658038509
 30
0.0
 10
87.56932220032992
 20
-117.8744502483092
 30
0.0
  0
SPLINE
  5
6E
330
1F
100
AcDbEntity
  8
_U+30EC_U+30A4_U+30E4_U+30FC 1
 62
   179
420
  2234388
370
     9
100
AcDbSpline
210
0.0
220
0.0
230
1.0
 70
    11
 71
     3
 72
    17
 73
    13
 74
     0
 42
0.0000000001
 43
0.0000000001
 12
1.0
 22
0.0
 32
0.0
 13
1.0
 23
0.0
 33
0.0
 40
0.0
 40
0.0
 40
0.0
 40
0.0
 40
1.0
 40
1.0
 40
1.0
 40
2.0
 40
2.0
 40
2.0
 40
3.0
 40
3.0
 40
3.0
 40
4.0
 40
4.0
 40
4.0
 40
4.0
 10
88.76890551309432
 20
-117.8744502483092
 30
0.0
 10
88.76890551309432
 20
-117.8191699705451
 30
0.0
 10
88.72413801423644
 20
-117.7743671927787
 30
0.0
 10
88.66899884897649
 20
-117.7743671927787
 30
0.0
 10
88.61389720006886
 20
-117.7743671927787
 30
0.0
 10
88.56909442230214
 20
-117.8191699705451
 30
0.0
 10
88.56909442230214
 20
-117.8744502483092
 30
0.0
 10
88.56909442230214
 20
-117.9297658038509
 30
0.0
 10
88.61389720006886
 20
-117.9743569149509
 30
0.0
 10
88.66899884897649
 20
-117.9743569149509
 30
0.0
 10
88.72413801423644
 20
-117.9743569149509
 30
0.0
 10
88.76890551309432
 20
-117.9297658038509
 30
0.0
 10
88.76890551309432
 20
-117.8744502483092
 30
0.0
  0
SPLINE
  5
6F
330
1F
100
AcDbEntity
  8
_U+30EC_U+30A4_U+30E4_U+30FC 1
 62
   179
420
  2234388
370
     9
100
AcDbSpline
210
0.0
220
0.0
230
1.0
 70
    11
 71
     3
 72
    17
 73
    13
 74
     0
 42
0.0000000001
 43
0.0000000001
 12
1.0
 22
0.0
 32
0.0
 13
1.0
 23
0.0
 33
0.0
 40
0.0
 40
0.0
 40
0.0
 40
0.0
 40
1.0
 40
1.0
 40
1.0
 40
2.0
 40
2.0
 40
2.0
 40
3.0
 40
3.0
 40
3.0
 40
4.0
 40
4.0
 40
4.0
 40
4.0
 10
101.1693615856212
 20
-121.8743858028647
 30
0.0
 10
101.1693615856212
 20
-121.8192819139898
 30
0.0
 10
101.1245588089865
 20
-121.7744791362231
 30
0.0
 10
101.0694549215034
 20
-121.7744791362231
 30
0.0
 10
101.0143157562434
 20
-121.7744791362231
 30
0.0
 10
100.9695482573856
 20
-121.8192819139898
 30
0.0
 10
100.9695482573856
 20
-121.8743858028647
 30
0.0
 10
100.9695482573856
 20
-121.9298424695177
 30
0.0
 10
101.0143157562434
 20
-121.9746452472841
 30
0.0
 10
101.0694549215034
 20
-121.9746452472841
 30
0.0
 10
101.1245588089865
 20
-121.9746452472841
 30
0.0
 10
101.1693615856212
 20
-121.9298424695177
 30
0.0
 10
101.1693615856212
 20
-121.8743858028647
 30
0.0
  0
SPLINE
  5
70
330
1F
100
AcDbEntity
  8
_U+30EC_U+30A4_U+30E4_U+30FC 1
 62
   179
420
  2234388
370
     9
100
AcDbSpline
210
0.0
220
0.0
230
1.0
 70
    11
 71
     3
 72
    17
 73
    13
 74
     0
 42
0.0000000001
 43
0.0000000001
 12
1.0
 22
0.0
 32
0.0
 13
1.0
 23
0.0
 33
0.0
 40
0.0
 40
0.0
 40
0.0
 40
0.0
 40
1.0
 40
1.0
 40
1.0
 40
2.0
 40
2.0
 40
2.0
 40
3.0
 40
3.0
 40
3.0
 40
4.0
 40
4.0
 40
4.0
 40
4.0
 10
101.1693615856212
 20
-137.6742794100257
 30
0.0
 10
101.1693615856212
 20
-137.6191755211508
 30
0.0
 10
101.1245588089865
 20
-137.574372743384
 30
0.0
 10
101.0694549215034
 20
-137.574372743384
 30
0.0
 10
101.0143157562434
 20
-137.574372743384
 30
0.0
 10
100.9695482573856
 20
-137.6191755211508
 30
0.0
 10
100.9695482573856
 20
-137.6742794100257
 30
0.0
 10
100.9695482573856
 20
-137.729736076679
 30
0.0
 10
101.0143157562434
 20
-137.7745388544451
 30
0.0
 10
101.0694549215034
 20
-137.7745388544451
 30
0.0
 10
101.1245588089865
 20
-137.7745388544451
 30
0.0
 10
101.1693615856212
 20
-137.729736076679
 30
0.0
 10
101.1693615856212
 20
-137.6742794100257
 30
0.0
  0
SPLINE
  5
71
330
1F
100
AcDbEntity
  8
_U+30EC_U+30A4_U+30E4_U+30FC 1
 62
   179
420
  2234388
370
     9
100
AcDbSpline
210
0.0
220
0.0
230
1.0
 70
    11
 71
     3
 72
    17
 73
    13
 74
     0
 42
0.0000000001
 43
0.0000000001
 12
1.0
 22
0.0
 32
0.0
 13
1.0
 23
0.0
 33
0.0
 40
0.0
 40
0.0
 40
0.0
 40
0.0
 40
1.0
 40
1.0
 40
1.0
 40
2.0
 40
2.0
 40
2.0
 40
3.0
 40
3.0
 40
3.0
 40
4.0
 40
4.0
 40
4.0
 40
4.0
 10
101.1693615856212
 20
-138.874570520837
 30
0.0
 10
101.1693615856212
 20
-138.8190785764062
 30
0.0
 10
101.1245588089865
 20
-138.7743110764176
 30
0.0
 10
101.0694549215034
 20
-138.7743110764176
 30
0.0
 10
101.0143157562434
 20
-138.7743110764176
 30
0.0
 10
100.9695482573856
 20
-138.8190785764062
 30
0.0
 10
100.9695482573856
 20
-138.874570520837
 30
0.0
 10
100.9695482573856
 20
-138.9296744097119
 30
0.0
 10
101.0143157562434
 20
-138.9744771874786
 30
0.0
 10
101.0694549215034
 20
-138.9744771874786
 30
0.0
 10
101.1245588089865
 20
-138.9744771874786
 30
0.0
 10
101.1693615856212
 20
-138.9296744097119
 30
0.0
 10
101.1693615856212
 20
-138.874570520837
 30
0.0
  0
SPLINE
  5
72
330
1F
100
AcDbEntity
  8
_U+30EC_U+30A4_U+30E4_U+30FC 1
 62
   179
420
  2234388
370
     9
100
AcDbSpline
210
0.0
220
0.0
230
1.0
 70
    11
 71
     3
 72
    17
 73
    13
 74
     0
 42
0.0000000001
 43
0.0000000001
 12
1.0
 22
0.0
 32
0.0
 13
1.0
 23
0.0
 33
0.0
 40
0.0
 40
0.0
 40
0.0
 40
0.0
 40
1.0
 40
1.0
 40
1.0
 40
2.0
 40
2.0
 40
2.0
 40
3.0
 40
3.0
 40
3.0
 40
4.0
 40
4.0
 40
4.0
 40
4.0
 10
79.16879936912454
 20
-142.8742944087257
 30
0.0
 10
79.16879936912454
 20
-142.8191905198508
 30
0.0
 10
79.12403187026666
 20
-142.7743877420841
 30
0.0
 10
79.06889270500672
 20
-142.7743877420841
 30
0.0
 10
79.01378881752365
 20
-142.7743877420841
 30
0.0
 10
78.96898604088888
 20
-142.8191905198508
 30
0.0
 10
78.96898604088888
 20
-142.8742944087257
 30
0.0
 10
78.96898604088888
 20
-142.9297863531566
 30
0.0
 10
79.01378881752365
 20
-142.9745538531451
 30
0.0
 10
79.06889270500672
 20
-142.9745538531451
 30
0.0
 10
79.12403187026666
 20
-142.9745538531451
 30
0.0
 10
79.16879936912454
 20
-142.9297863531566
 30
0.0
 10
79.16879936912454
 20
-142.8742944087257
 30
0.0
  0
SPLINE
  5
73
330
1F
100
AcDbEntity
  8
_U+30EC_U+30A4_U+30E4_U+30FC 1
 62
   179
420
  2234388
370
     9
100
AcDbSpline
210
0.0
220
0.0
230
1.0
 70
    11
 71
     3
 72
    17
 73
    13
 74
     0
 42
0.0000000001
 43
0.0000000001
 12
1.0
 22
0.0
 32
0.0
 13
1.0
 23
0.0
 33
0.0
 40
0.0
 40
0.0
 40
0.0
 40
0.0
 40
1.0
 40
1.0
 40
1.0
 40
2.0
 40
2.0
 40
2.0
 40
3.0
 40
3.0
 40
3.0
 40
4.0
 40
4.0
 40
4.0
 40
4.0
 10
97.16960252099692
 20
-142.8742944087257
 30
0.0
 10
97.16960252099692
 20
-142.8191905198508
 30
0.0
 10
97.12483502213902
 20
-142.7743877420841
 30
0.0
 10
97.0690255791184
 20
-142.7743877420841
 30
0.0
 10
97.01388886463542
 20
-142.7743877420841
 30
0.0
 10
96.9690860868687
 20
-142.8191905198508
 30
0.0
 10
96.9690860868687
 20
-142.8742944087257
 30
0.0
 10
96.9690860868687
 20
-142.9297863531566
 30
0.0
 10
97.01388886463542
 20
-142.9745538531451
 30
0.0
 10
97.0690255791184
 20
-142.9745538531451
 30
0.0
 10
97.12483502213902
 20
-142.9745538531451
 30
0.0
 10
97.16960252099692
 20
-142.9297863531566
 30
0.0
 10
97.16960252099692
 20
-142.8742944087257
 30
0.0
  0
POLYLINE
  5
74
330
1F
100
AcDbEntity
  8
_U+30EC_U+30A4_U+30E4_U+30FC 1
 62
   179
420
  2234388
370
     9
100
AcDb2dPolyline
 66
     1
 10
0.0
 20
0.0
 30
0.0
  0
VERTEX
  5
75
330
74
100
AcDbEntity
  8
_U+30EC_U+30A4_U+30E4_U+30FC 1
 62
   179
420
  2234388
370
     9
100
AcDbVertex
100
AcDb2dVertex
 10
101.0694549215034
 20
-137.6742794100257
 30
0.0
  0
VERTEX
  5
76
330
74
100
AcDbEntity
  8
_U+30EC_U+30A4_U+30E4_U+30FC 1
 62
   179
420
  2234388
370
     9
100
AcDbVertex
100
AcDb2dVertex
 10
101.0694549215034
 20
-138.874570520837
 30
0.0
  0
SEQEND
  5
77
330
74
100
AcDbEntity
  8
_U+30EC_U+30A4_U+30E4_U+30FC 1
 62
   179
420
  2234388
370
     9
  0
POLYLINE
  5
78
330
1F
100
AcDbEntity
  8
_U+30EC_U+30A4_U+30E4_U+30FC 1
 62
   179
420
  2234388
370
     9
100
AcDb2dPolyline
 66
     1
 10
0.0
 20
0.0
 30
0.0
  0
VERTEX
  5
79
330
78
100
AcDbEntity
  8
_U+30EC_U+30A4_U+30E4_U+30FC 1
 62
   179
420
  2234388
370
     9
100
AcDbVertex
100
AcDb2dVertex
 10
99.60941356986326
 20
-137.6742794100257
 30
0.0
  0
VERTEX
  5
7A
330
78
100
AcDbEntity
  8
_U+30EC_U+30A4_U+30E4_U+30FC 1
 62
   179
420
  2234388
370
     9
100
AcDbVertex
100
AcDb2dVertex
 10
102.0692271182193
 20
-137.6742794100257
 30
0.0
  0
SEQEND
  5
7B
330
78
100
AcDbEntity
  8
_U+30EC_U+30A4_U+30E4_U+30FC 1
 62
   179
420
  2234388
370
     9
  0
POLYLINE
  5
7C
330
1F
100
AcDbEntity
  8
_U+30EC_U+30A4_U+30E4_U+30FC 1
 62
   179
420
  2234388
370
     9
100
AcDb2dPolyline
 66
     1
 10
0.0
 20
0.0
 30
0.0
  0
VERTEX
  5
7D
330
7C
100
AcDbEntity
  8
_U+30EC_U+30A4_U+30E4_U+30FC 1
 62
   179
420
  2234388
370
     9
100
AcDbVertex
100
AcDb2dVertex
 10
99.60941356986326
 20
-138.874570520837
 30
0.0
  0
VERTEX
  5
7E
330
7C
100
AcDbEntity
  8
_U+30EC_U+30A4_U+30E4_U+30FC 1
 62
   179
420
  2234388
370
     9
100
AcDbVertex
100
AcDb2dVertex
 10
102.0692271182193
 20
-138.874570520837
 30
0.0
  0
SEQEND
  5
7F
330
7C
100
AcDbEntity
  8
_U+30EC_U+30A4_U+30E4_U+30FC 1
 62
   179
420
  2234388
370
     9
  0
INSERT
  5
81
330
1F
100
AcDbEntity
  8
_U+30EC_U+30A4_U+30E4_U+30FC 1
100
AcDbBlockReference
  2
block 2
 10
0.0
 20
0.0
 30
0.0
  0
POLYLINE
  5
90
330
1F
100
AcDbEntity
  8
_U+30EC_U+30A4_U+30E4_U+30FC 1
 62
   179
420
  2234388
370
     9
100
AcDb2dPolyline
 66
     1
 10
0.0
 20
0.0
 30
0.0
  0
VERTEX
  5
91
330
90
100
AcDbEntity
  8
_U+30EC_U+30A4_U+30E4_U+30FC 1
 62
   179
420
  2234388
370
     9
100
AcDbVertex
100
AcDb2dVertex
 10
101.0694549215034
 20
-137.6742794100257
 30
0.0
  0
VERTEX
  5
92
330
90
100
AcDbEntity
  8
_U+30EC_U+30A4_U+30E4_U+30FC 1
 62
   179
420
  2234388
370
     9
100
AcDbVertex
100
AcDb2dVertex
 10
101.0694549215034
 20
-121.8743858028647
 30
0.0
  0
SEQEND
  5
93
330
90
100
AcDbEntity
  8
_U+30EC_U+30A4_U+30E4_U+30FC 1
 62
   179
420
  2234388
370
     9
  0
POLYLINE
  5
94
330
1F
100
AcDbEntity
  8
_U+30EC_U+30A4_U+30E4_U+30FC 1
 62
   179
420
  2234388
370
     9
100
AcDb2dPolyline
 66
     1
 10
0.0
 20
0.0
 30
0.0
  0
VERTEX
  5
95
330
94
100
AcDbEntity
  8
_U+30EC_U+30A4_U+30E4_U+30FC 1
 62
   179
420
  2234388
370
     9
100
AcDbVertex
100
AcDb2dVertex
 10
91.20942211749822
 20
-121.8743858028647
 30
0.0
  0
VERTEX
  5
96
330
94
100
AcDbEntity
  8
_U+30EC_U+30A4_U+30E4_U+30FC 1
 62
   179
420
  2234388
370
     9
100
AcDbVertex
100
AcDb2dVertex
 10
102.0692271182193
 20
-121.8743858028647
 30
0.0
  0
SEQEND
  5
97
330
94
100
AcDbEntity
  8
_U+30EC_U+30A4_U+30E4_U+30FC 1
 62
   179
420
  2234388
370
     9
  0
INSERT
  5
99
330
1F
100
AcDbEntity
  8
_U+30EC_U+30A4_U+30E4_U+30FC 1
100
AcDbBlockReference
  2
block 3
 10
0.0
 20
0.0
 30
0.0
  0
POLYLINE
  5
AC
330
1F
100
AcDbEntity
  8
_U+30EC_U+30A4_U+30E4_U+30FC 1
 62
   179
420
  2234388
370
     9
100
AcDb2dPolyline
 66
     1
 10
0.0
 20
0.0
 30
0.0
  0
VERTEX
  5
AD
330
AC
100
AcDbEntity
  8
_U+30EC_U+30A4_U+30E4_U+30FC 1
 62
   179
420
  2234388
370
     9
100
AcDbVertex
100
AcDb2dVertex
 10
86.46897084954833
 20
-117.8744502483092
 30
0.0
  0
VERTEX
  5
AE
330
AC
100
AcDbEntity
  8
_U+30EC_U+30A4_U+30E4_U+30FC 1
 62
   179
420
  2234388
370
     9
100
AcDbVertex
100
AcDb2dVertex
 10
88.66899884897649
 20
-117.8744502483092
 30
0.0
  0
SEQEND
  5
AF
330
AC
100
AcDbEntity
  8
_U+30EC_U+30A4_U+30E4_U+30FC 1
 62
   179
420
  2234388
370
     9
  0
POLYLINE
  5
B0
330
1F
100
AcDbEntity
  8
_U+30EC_U+30A4_U+30E4_U+30FC 1
 62
   179
420
  2234388
370
     9
100
AcDb2dPolyline
 66
     1
 10
0.0
 20
0.0
 30
0.0
  0
VERTEX
  5
B1
330
B0
100
AcDbEntity
  8
_U+30EC_U+30A4_U+30E4_U+30FC 1
 62
   179
420
  2234388
370
     9
100
AcDbVertex
100
AcDb2dVertex
 10
87.46941332402491
 20
-119.334491636833
 30
0.0
  0
VERTEX
  5
B2
330
B0
100
AcDbEntity
  8
_U+30EC_U+30A4_U+30E4_U+30FC 1
 62
   179
420
  2234388
370
     9
100
AcDbVertex
100
AcDb2dVertex
 10
87.46941332402491
 20
-116.8745369152257
 30
0.0
  0
SEQEND
  5
B3
330
B0
100
AcDbEntity
  8
_U+30EC_U+30A4_U+30E4_U+30FC 1
 62
   179
420
  2234388
370
     9
  0
POLYLINE
  5
B4
330
1F
100
AcDbEntity
  8
_U+30EC_U+30A4_U+30E4_U+30FC 1
 62
   179
420
  2234388
370
     9
100
AcDb2dPolyline
 66
     1
 10
0.0
 20
0.0
 30
0.0
  0
VERTEX
  5
B5
330
B4
100
AcDbEntity
  8
_U+30EC_U+30A4_U+30E4_U+30FC 1
 62
   179
420
  2234388
370
     9
100
AcDbVertex
100
AcDb2dVertex
 10
88.66899884897649
 20
-119.334491636833
 30
0.0
  0
VERTEX
  5
B6
330
B4
100
AcDbEntity
  8
_U+30EC_U+30A4_U+30E4_U+30FC 1
 62
   179
420
  2234388
370
     9
100
AcDbVertex
100
AcDb2dVertex
 10
88.66899884897649
 20
-116.8745369152257
 30
0.0
  0
SEQEND
  5
B7
330
B4
100
AcDbEntity
  8
_U+30EC_U+30A4_U+30E4_U+30FC 1
 62
   179
420
  2234388
370
     9
  0
INSERT
  5
B9
330
1F
100
AcDbEntity
  8
_U+30EC_U+30A4_U+30E4_U+30FC 1
100
AcDbBlockReference
  2
block 4
 10
0.0
 20
0.0
 30
0.0
  0
POLYLINE
  5
C8
330
1F
100
AcDbEntity
  8
_U+30EC_U+30A4_U+30E4_U+30FC 1
 62
   179
420
  2234388
370
     9
100
AcDb2dPolyline
 66
     1
 10
0.0
 20
0.0
 30
0.0
  0
VERTEX
  5
C9
330
C8
100
AcDbEntity
  8
_U+30EC_U+30A4_U+30E4_U+30FC 1
 62
   179
420
  2234388
370
     9
100
AcDbVertex
100
AcDb2dVertex
 10
79.06889270500672
 20
-142.8742944087257
 30
0.0
  0
VERTEX
  5
CA
330
C8
100
AcDbEntity
  8
_U+30EC_U+30A4_U+30E4_U+30FC 1
 62
   179
420
  2234388
370
     9
100
AcDbVertex
100
AcDb2dVertex
 10
97.0690255791184
 20
-142.8742944087257
 30
0.0
  0
SEQEND
  5
CB
330
C8
100
AcDbEntity
  8
_U+30EC_U+30A4_U+30E4_U+30FC 1
 62
   179
420
  2234388
370
     9
  0
POLYLINE
  5
CC
330
1F
100
AcDbEntity
  8
_U+30EC_U+30A4_U+30E4_U+30FC 1
 62
   179
420
  2234388
370
     9
100
AcDb2dPolyline
 66
     1
 10
0.0
 20
0.0
 30
0.0
  0
VERTEX
  5
CD
330
CC
100
AcDbEntity
  8
_U+30EC_U+30A4_U+30E4_U+30FC 1
 62
   179
420
  2234388
370
     9
100
AcDbVertex
100
AcDb2dVertex
 10
79.06889270500672
 20
-141.4142882979795
 30
0.0
  0
VERTEX
  5
CE
330
CC
100
AcDbEntity
  8
_U+30EC_U+30A4_U+30E4_U+30FC 1
 62
   179
420
  2234388
370
     9
100
AcDbVertex
100
AcDb2dVertex
 10
79.06889270500672
 20
-143.874419408476
 30
0.0
  0
SEQEND
  5
CF
330
CC
100
AcDbEntity
  8
_U+30EC_U+30A4_U+30E4_U+30FC 1
 62
   179
420
  2234388
370
     9
  0
POLYLINE
  5
D0
330
1F
100
AcDbEntity
  8
_U+30EC_U+30A4_U+30E4_U+30FC 1
 62
   179
420
  2234388
370
     9
100
AcDb2dPolyline
 66
     1
 10
0.0
 20
0.0
 30
0.0
  0
VERTEX
  5
D1
330
D0
100
AcDbEntity
  8
_U+30EC_U+30A4_U+30E4_U+30FC 1
 62
   179
420
  2234388
370
     9
100
AcDbVertex
100
AcDb2dVertex
 10
97.0690255791184
 20
-141.4142882979795
 30
0.0
  0
VERTEX
  5
D2
330
D0
100
AcDbEntity
  8
_U+30EC_U+30A4_U+30E4_U+30FC 1
 62
   179
420
  2234388
370
     9
100
AcDbVertex
100
AcDb2dVertex
 10
97.0690255791184
 20
-143.874419408476
 30
0.0
  0
SEQEND
  5
D3
330
D0
100
AcDbEntity
  8
_U+30EC_U+30A4_U+30E4_U+30FC 1
 62
   179
420
  2234388
370
     9
  0
INSERT
  5
D5
330
1F
100
AcDbEntity
  8
_U+30EC_U+30A4_U+30E4_U+30FC 1
100
AcDbBlockReference
  2
block 5
 10
0.0
 20
0.0
 30
0.0
  0
ENDSEC
  0
SECTION
  2
OBJECTS
  0
DICTIONARY
  5
C
330
0
100
AcDbDictionary
281
     1
  3
ACAD_GROUP
350
D
  3
ACAD_LAYOUT
350
1A
  3
ACAD_MATERIAL
350
3B
  3
ACAD_MLEADERSTYLE
350
DF
  3
ACAD_MLINESTYLE
350
17
  3
ACAD_PLOTSETTINGS
350
19
  3
ACAD_PLOTSTYLENAME
350
E
  3
ACAD_TABLESTYLE
350
DE
  3
ACAD_VISUALSTYLE
350
2A
  0
SUN
  5
3F
330
29
100
AcDbSun
 90
        1
290
     0
 63
     7
421
 16777215
 40
1.0
291
     1
 91
  2455826
 92
 54000000
292
     0
 70
     2
 71
   256
280
     1
  0
DICTIONARY
  5
D
102
{ACAD_REACTORS
330
C
102
}
330
C
100
AcDbDictionary
281
     1
  0
DICTIONARY
  5
1A
102
{ACAD_REACTORS
330
C
102
}
330
C
100
AcDbDictionary
281
     1
  3
Layout1
350
1E
  3
Layout2
350
26
  3
Model
350
22
  0
DICTIONARY
  5
3B
102
{ACAD_REACTORS
330
C
102
}
330
C
100
AcDbDictionary
281
     1
  3
ByBlock
350
3D
  3
ByLayer
350
3C
  3
Global
350
3E
  0
DICTIONARY
  5
DF
102
{ACAD_REACTORS
330
C
102
}
330
C
100
AcDbDictionary
281
     1
  0
DICTIONARY
  5
17
102
{ACAD_REACTORS
330
C
102
}
330
C
100
AcDbDictionary
281
     1
  3
Standard
350
18
  0
DICTIONARY
  5
19
102
{ACAD_REACTORS
330
C
102
}
330
C
100
AcDbDictionary
281
     1
  0
ACDBDICTIONARYWDFLT
  5
E
102
{ACAD_REACTORS
330
C
102
}
330
C
100
AcDbDictionary
281
     1
  3
Normal
350
F
100
AcDbDictionaryWithDefault
340
F
  0
DICTIONARY
  5
DE
102
{ACAD_REACTORS
330
C
102
}
330
C
100
AcDbDictionary
281
     1
  0
DICTIONARY
  5
2A
102
{ACAD_REACTORS
330
C
102
}
330
C
100
AcDbDictionary
281
     1
  3
2dWireframe
350
2F
  3
3D Hidden
350
31
  3
3dWireframe
350
30
  3
Basic
350
32
  3
Brighten
350
36
  3
ColorChange
350
3A
  3
Conceptual
350
34
  3
Dim
350
35
  3
Facepattern
350
39
  3
Flat
350
2B
  3
FlatWithEdges
350
2C
  3
Gouraud
350
2D
  3
GouraudWithEdges
350
2E
  3
Linepattern
350
38
  3
Realistic
350
33
  3
Thicken
350
37
  0
LAYOUT
  5
1E
102
{ACAD_REACTORS
330
1A
102
}
330
1A
100
AcDbPlotSettings
  1

  2
none_device
  4

  6

 40
0.0
 41
0.0
 42
0.0
 43
0.0
 44
0.0
 45
0.0
 46
0.0
 47
0.0
 48
0.0
 49
0.0
140
0.0
141
0.0
142
1.0
143
1.0
 70
   688
 72
     0
 73
     0
 74
     5
  7

 75
    16
 76
     0
 77
     2
 78
   300
147
1.0
148
0.0
149
0.0
100
AcDbLayout
  1
Layout1
 70
     1
 71
     1
 10
0.0
 20
0.0
 11
12.0
 21
9.0
 12
0.0
 22
0.0
 32
0.0
 14
1.000000000000000E+20
 24
1.000000000000000E+20
 34
1.000000000000000E+20
 15
-1.000000000000000E+20
 25
-1.000000000000000E+20
 35
-1.000000000000000E+20
146
0.0
 13
0.0
 23
0.0
 33
0.0
 16
1.0
 26
0.0
 36
0.0
 17
0.0
 27
1.0
 37
0.0
 76
     0
330
1B
  0
LAYOUT
  5
26
102
{ACAD_REACTORS
330
1A
102
}
330
1A
100
AcDbPlotSettings
  1

  2
none_device
  4

  6

 40
0.0
 41
0.0
 42
0.0
 43
0.0
 44
0.0
 45
0.0
 46
0.0
 47
0.0
 48
0.0
 49
0.0
140
0.0
141
0.0
142
1.0
143
1.0
 70
   688
 72
     0
 73
     0
 74
     5
  7

 75
    16
 76
     0
 77
     2
 78
   300
147
1.0
148
0.0
149
0.0
100
AcDbLayout
  1
Layout2
 70
     1
 71
     2
 10
0.0
 20
0.0
 11
0.0
 21
0.0
 12
0.0
 22
0.0
 32
0.0
 14
0.0
 24
0.0
 34
0.0
 15
0.0
 25
0.0
 35
0.0
146
0.0
 13
0.0
 23
0.0
 33
0.0
 16
1.0
 26
0.0
 36
0.0
 17
0.0
 27
1.0
 37
0.0
 76
     0
330
23
  0
LAYOUT
  5
22
102
{ACAD_REACTORS
330
1A
102
}
330
1A
100
AcDbPlotSettings
  1

  2
none_device
  4

  6

 40
0.0
 41
0.0
 42
0.0
 43
0.0
 44
0.0
 45
0.0
 46
0.0
 47
0.0
 48
0.0
 49
0.0
140
0.0
141
0.0
142
1.0
143
1.0
 70
  1712
 72
     0
 73
     0
 74
     0
  7

 75
     0
 76
     0
 77
     2
 78
   300
147
1.0
148
0.0
149
0.0
100
AcDbLayout
  1
Model
 70
     1
 71
     0
 10
0.0
 20
0.0
 11
12.0
 21
9.0
 12
0.0
 22
0.0
 32
0.0
 14
1.000000000000000E+20
 24
1.000000000000000E+20
 34
1.000000000000000E+20
 15
-1.000000000000000E+20
 25
-1.000000000000000E+20
 35
-1.000000000000000E+20
146
0.0
 13
0.0
 23
0.0
 33
0.0
 16
1.0
 26
0.0
 36
0.0
 17
0.0
 27
1.0
 37
0.0
 76
     0
330
1F
331
29
  0
MATERIAL
  5
3D
102
{ACAD_REACTORS
330
3B
102
}
330
3B
100
AcDbMaterial
  1
ByBlock
 72
     1
 94
      127
  0
MATERIAL
  5
3C
102
{ACAD_REACTORS
330
3B
102
}
330
3B
100
AcDbMaterial
  1
ByLayer
 72
     1
 94
      127
  0
MATERIAL
  5
3E
102
{ACAD_REACTORS
330
3B
102
}
330
3B
100
AcDbMaterial
  1
Global
 72
     1
 94
      127
  0
MLINESTYLE
  5
18
102
{ACAD_REACTORS
330
17
102
}
330
17
100
AcDbMlineStyle
  2
Standard
 70
     0
  3

 62
   256
 51
90.0
 52
90.0
 71
     2
 49
0.5
 62
   256
  6
BYLAYER
 49
-0.5
 62
   256
  6
BYLAYER
  0
ACDBPLACEHOLDER
  5
F
102
{ACAD_REACTORS
330
E
102
}
330
E
  0
VISUALSTYLE
  5
2F
102
{ACAD_REACTORS
330
2A
102
}
330
2A
100
AcDbVisualStyle
  2
2dWireframe
 70
     4
177
     2
291
     0
 71
     0
176
     1
 72
     2
176
     1
 73
     0
176
     1
 90
        0
176
     1
 40
-0.6
176
     1
 41
-30.0
176
     1
 62
     5
 63
     7
421
 16777215
176
     1
 74
     1
176
     1
 91
        4
176
     1
 64
     7
176
     1
 65
   257
176
     1
 75
     1
176
     1
175
     1
176
     1
 42
1.0
176
     1
 92
        0
176
     1
 66
   257
176
     1
 43
1.0
176
     1
 76
     1
176
     1
 77
     6
176
     1
 78
     2
176
     1
 67
     7
176
     1
 79
     5
176
     1
170
     0
176
     1
171
     0
176
     1
290
     0
176
     1
 93
        1
176
     1
 44
0.0
176
     1
173
     0
176
     1
  0
VISUALSTYLE
  5
31
102
{ACAD_REACTORS
330
2A
102
}
330
2A
100
AcDbVisualStyle
  2
3D Hidden
 70
     6
177
     2
291
     0
 71
     1
176
     1
 72
     2
176
     1
 73
     2
176
     1
 90
        0
176
     1
 40
-0.6
176
     1
 41
-30.0
176
     1
 62
     5
 63
     7
421
 16777215
176
     1
 74
     2
176
     1
 91
        2
176
     1
 64
     7
176
     1
 65
   257
176
     1
 75
     2
176
     1
175
     1
176
     1
 42
40.0
176
     1
 92
        0
176
     1
 66
   257
176
     1
 43
1.0
176
     1
 76
     1
176
     1
 77
     6
176
     1
 78
     2
176
     1
 67
     7
176
     1
 79
     3
176
     1
170
     0
176
     1
171
     0
176
     1
290
     0
176
     1
 93
        1
176
     1
 44
0.0
176
     1
173
     0
176
     1
  0
VISUALSTYLE
  5
30
102
{ACAD_REACTORS
330
2A
102
}
330
2A
100
AcDbVisualStyle
  2
3dWireframe
 70
     5
177
     2
291
     0
 71
     0
176
     1
 72
     2
176
     1
 73
     0
176
     1
 90
        0
176
     1
 40
-0.6
176
     1
 41
-30.0
176
     1
 62
     5
 63
     7
421
 16777215
176
     1
 74
     1
176
     1
 91
        4
176
     1
 64
     7
176
     1
 65
   257
176
     1
 75
     1
176
     1
175
     1
176
     1
 42
1.0
176
     1
 92
        0
176
     1
 66
   257
176
     1
 43
1.0
176
     1
 76
     1
176
     1
 77
     6
176
     1
 78
     2
176
     1
 67
     7
176
     1
 79
     5
176
     1
170
     0
176
     1
171
     0
176
     1
290
     0
176
     1
 93
        1
176
     1
 44
0.0
176
     1
173
     0
176
     1
  0
VISUALSTYLE
  5
32
102
{ACAD_REACTORS
330
2A
102
}
330
2A
100
AcDbVisualStyle
  2
Basic
 70
     7
177
     2
291
     1
 71
     1
176
     1
 72
     0
176
     1
 73
     1
176
     1
 90
        0
176
     1
 40
-0.6
176
     1
 41
-30.0
176
     1
 62
     5
 63
     7
421
 16777215
176
     1
 74
     0
176
     1
 91
        4
176
     1
 64
     7
176
     1
 65
   257
176
     1
 75
     1
176
     1
175
     1
176
     1
 42
1.0
176
     1
 92
        8
176
     1
 66
     7
176
     1
 43
1.0
176
     1
 76
     1
176
     1
 77
     6
176
     1
 78
     2
176
     1
 67
     7
176
     1
 79
     5
176
     1
170
     0
176
     1
171
     0
176
     1
290
     0
176
     1
 93
        1
176
     1
 44
0.0
176
     1
173
     0
176
     1
  0
VISUALSTYLE
  5
36
102
{ACAD_REACTORS
330
2A
102
}
330
2A
100
AcDbVisualStyle
  2
Brighten
 70
    12
177
     2
291
     1
 71
     2
176
     1
 72
     2
176
     1
 73
     0
176
     1
 90
        0
176
     1
 40
-0.6
176
     1
 41
-30.0
176
     1
 62
     5
 63
     7
421
 16777215
176
     1
 74
     1
176
     1
 91
        4
176
     1
 64
     7
176
     1
 65
   257
176
     1
 75
     1
176
     1
175
     1
176
     1
 42
1.0
176
     1
 92
        8
176
     1
 66
     7
176
     1
 43
1.0
176
     1
 76
     1
176
     1
 77
     6
176
     1
 78
     2
176
     1
 67
     7
176
     1
 79
     5
176
     1
170
     0
176
     1
171
     0
176
     1
290
     0
176
     1
 93
        1
176
     1
 44
50.0
176
     1
173
     0
176
     1
  0
VISUALSTYLE
  5
3A
102
{ACAD_REACTORS
330
2A
102
}
330
2A
100
AcDbVisualStyle
  2
ColorChange
 70
    16
177
     2
291
     1
 71
     2
176
     1
 72
     2
176
     1
 73
     3
176
     1
 90
        0
176
     1
 40
-0.6
176
     1
 41
-30.0
176
     1
 62
     5
 63
     8
421
  8421504
176
     1
 74
     1
176
     1
 91
        4
176
     1
 64
     7
176
     1
 65
   257
176
     1
 75
     1
176
     1
175
     1
176
     1
 42
1.0
176
     1
 92
        8
176
     1
 66
     8
424
  8421504
176
     1
 43
1.0
176
     1
 76
     1
176
     1
 77
     6
176
     1
 78
     2
176
     1
 67
     7
176
     1
 79
     5
176
     1
170
     0
176
     1
171
     0
176
     1
290
     0
176
     1
 93
        1
176
     1
 44
0.0
176
     1
173
     0
176
     1
  0
VISUALSTYLE
  5
34
102
{ACAD_REACTORS
330
2A
102
}
330
2A
100
AcDbVisualStyle
  2
Conceptual
 70
     9
177
     2
291
     0
 71
     3
176
     1
 72
     2
176
     1
 73
     0
176
     1
 90
        0
176
     1
 40
-0.6
176
     1
 41
-30.0
176
     1
 62
     5
 63
     7
421
 16777215
176
     1
 74
     2
176
     1
 91
        2
176
     1
 64
     7
176
     1
 65
   257
176
     1
 75
     1
176
     1
175
     1
176
     1
 42
40.0
176
     1
 92
        8
176
     1
 66
     7
176
     1
 43
1.0
176
     1
 76
     1
176
     1
 77
     6
176
     1
 78
     2
176
     1
 67
     7
176
     1
 79
     3
176
     1
170
     0
176
     1
171
     0
176
     1
290
     0
176
     1
 93
        1
176
     1
 44
0.0
176
     1
173
     0
176
     1
  0
VISUALSTYLE
  5
35
102
{ACAD_REACTORS
330
2A
102
}
330
2A
100
AcDbVisualStyle
  2
Dim
 70
    11
177
     2
291
     1
 71
     2
176
     1
 72
     2
176
     1
 73
     0
176
     1
 90
        0
176
     1
 40
-0.6
176
     1
 41
-30.0
176
     1
 62
     5
 63
     7
421
 16777215
176
     1
 74
     1
176
     1
 91
        4
176
     1
 64
     7
176
     1
 65
   257
176
     1
 75
     1
176
     1
175
     1
176
     1
 42
1.0
176
     1
 92
        8
176
     1
 66
     7
176
     1
 43
1.0
176
     1
 76
     1
176
     1
 77
     6
176
     1
 78
     2
176
     1
 67
     7
176
     1
 79
     5
176
     1
170
     0
176
     1
171
     0
176
     1
290
     0
176
     1
 93
        1
176
     1
 44
-50.0
176
     1
173
     0
176
     1
  0
VISUALSTYLE
  5
39
102
{ACAD_REACTORS
330
2A
102
}
330
2A
100
AcDbVisualStyle
  2
Facepattern
 70
    15
177
     2
291
     1
 71
     2
176
     1
 72
     2
176
     1
 73
     0
176
     1
 90
        0
176
     1
 40
-0.6
176
     1
 41
-30.0
176
     1
 62
     5
 63
     7
421
 16777215
176
     1
 74
     1
176
     1
 91
        4
176
     1
 64
     7
176
     1
 65
   257
176
     1
 75
     1
176
     1
175
     1
176
     1
 42
1.0
176
     1
 92
        8
176
     1
 66
     7
176
     1
 43
1.0
176
     1
 76
     1
176
     1
 77
     6
176
     1
 78
     2
176
     1
 67
     7
176
     1
 79
     5
176
     1
170
     0
176
     1
171
     0
176
     1
290
     0
176
     1
 93
        1
176
     1
 44
0.0
176
     1
173
     0
176
     1
  0
VISUALSTYLE
  5
2B
102
{ACAD_REACTORS
330
2A
102
}
330
2A
100
AcDbVisualStyle
  2
Flat
 70
     0
177
     2
291
     1
 71
     2
176
     1
 72
     1
176
     1
 73
     1
176
     1
 90
        2
176
     1
 40
-0.6
176
     1
 41
30.0
176
     1
 62
     5
 63
     7
421
 16777215
176
     1
 74
     0
176
     1
 91
        4
176
     1
 64
     7
176
     1
 65
   257
176
     1
 75
     1
176
     1
175
     1
176
     1
 42
1.0
176
     1
 92
        8
176
     1
 66
     7
176
     1
 43
1.0
176
     1
 76
     1
176
     1
 77
     6
176
     1
 78
     2
176
     1
 67
     7
176
     1
 79
     5
176
     1
170
     0
176
     1
171
     0
176
     1
290
     0
176
     1
 93
       13
176
     1
 44
0.0
176
     1
173
     0
176
     1
  0
VISUALSTYLE
  5
2C
102
{ACAD_REACTORS
330
2A
102
}
330
2A
100
AcDbVisualStyle
  2
FlatWithEdges
 70
     1
177
     2
291
     1
 71
     2
176
     1
 72
     1
176
     1
 73
     1
176
     1
 90
        2
176
     1
 40
-0.6
176
     1
 41
30.0
176
     1
 62
     5
 63
     7
421
 16777215
176
     1
 74
     1
176
     1
 91
        4
176
     1
 64
     7
176
     1
 65
   257
176
     1
 75
     1
176
     1
175
     1
176
     1
 42
1.0
176
     1
 92
        0
176
     1
 66
   257
176
     1
 43
1.0
176
     1
 76
     1
176
     1
 77
     6
176
     1
 78
     2
176
     1
 67
     7
176
     1
 79
     5
176
     1
170
     0
176
     1
171
     0
176
     1
290
     0
176
     1
 93
       13
176
     1
 44
0.0
176
     1
173
     0
176
     1
  0
VISUALSTYLE
  5
2D
102
{ACAD_REACTORS
330
2A
102
}
330
2A
100
AcDbVisualStyle
  2
Gouraud
 70
     2
177
     2
291
     1
 71
     2
176
     1
 72
     2
176
     1
 73
     1
176
     1
 90
        2
176
     1
 40
-0.6
176
     1
 41
30.0
176
     1
 62
     5
 63
     7
421
 16777215
176
     1
 74
     0
176
     1
 91
        4
176
     1
 64
     7
176
     1
 65
   257
176
     1
 75
     1
176
     1
175
     1
176
     1
 42
1.0
176
     1
 92
        0
176
     1
 66
     7
176
     1
 43
1.0
176
     1
 76
     1
176
     1
 77
     6
176
     1
 78
     2
176
     1
 67
     7
176
     1
 79
     5
176
     1
170
     0
176
     1
171
     0
176
     1
290
     0
176
     1
 93
       13
176
     1
 44
0.0
176
     1
173
     0
176
     1
  0
VISUALSTYLE
  5
2E
102
{ACAD_REACTORS
330
2A
102
}
330
2A
100
AcDbVisualStyle
  2
GouraudWithEdges
 70
     3
177
     2
291
     1
 71
     2
176
     1
 72
     2
176
     1
 73
     1
176
     1
 90
        2
176
     1
 40
-0.6
176
     1
 41
30.0
176
     1
 62
     5
 63
     7
421
 16777215
176
     1
 74
     1
176
     1
 91
        4
176
     1
 64
     7
176
     1
 65
   257
176
     1
 75
     1
176
     1
175
     1
176
     1
 42
1.0
176
     1
 92
        0
176
     1
 66
   257
176
     1
 43
1.0
176
     1
 76
     1
176
     1
 77
     6
176
     1
 78
     2
176
     1
 67
     7
176
     1
 79
     5
176
     1
170
     0
176
     1
171
     0
176
     1
290
     0
176
     1
 93
       13
176
     1
 44
0.0
176
     1
173
     0
176
     1
  0
VISUALSTYLE
  5
38
102
{ACAD_REACTORS
330
2A
102
}
330
2A
100
AcDbVisualStyle
  2
Linepattern
 70
    14
177
     2
291
     1
 71
     2
176
     1
 72
     2
176
     1
 73
     0
176
     1
 90
        0
176
     1
 40
-0.6
176
     1
 41
-30.0
176
     1
 62
     5
 63
     7
421
 16777215
176
     1
 74
     1
176
     1
 91
        4
176
     1
 64
     7
176
     1
 65
   257
176
     1
 75
     7
176
     1
175
     7
176
     1
 42
1.0
176
     1
 92
        8
176
     1
 66
     7
176
     1
 43
1.0
176
     1
 76
     1
176
     1
 77
     6
176
     1
 78
     2
176
     1
 67
     7
176
     1
 79
     5
176
     1
170
     0
176
     1
171
     0
176
     1
290
     0
176
     1
 93
        1
176
     1
 44
0.0
176
     1
173
     0
176
     1
  0
VISUALSTYLE
  5
33
102
{ACAD_REACTORS
330
2A
102
}
330
2A
100
AcDbVisualStyle
  2
Realistic
 70
     8
177
     2
291
     0
 71
     2
176
     1
 72
     2
176
     1
 73
     0
176
     1
 90
        0
176
     1
 40
-0.6
176
     1
 41
-30.0
176
     1
 62
     5
 63
     7
421
 16777215
176
     1
 74
     1
176
     1
 91
        0
176
     1
 64
     7
176
     1
 65
   257
176
     1
 75
     1
176
     1
175
     1
176
     1
 42
1.0
176
     1
 92
        8
176
     1
 66
     8
424
  7895160
176
     1
 43
1.0
176
     1
 76
     1
176
     1
 77
     6
176
     1
 78
     2
176
     1
 67
     7
176
     1
 79
     5
176
     1
170
     0
176
     1
171
     0
176
     1
290
     0
176
     1
 93
       13
176
     1
 44
0.0
176
     1
173
     0
176
     1
  0
VISUALSTYLE
  5
37
102
{ACAD_REACTORS
330
2A
102
}
330
2A
100
AcDbVisualStyle
  2
Thicken
 70
    13
177
     2
291
     1
 71
     2
176
     1
 72
     2
176
     1
 73
     0
176
     1
 90
        0
176
     1
 40
-0.6
176
     1
 41
-30.0
176
     1
 62
     5
 63
     7
421
 16777215
176
     1
 74
     1
176
     1
 91
        4
176
     1
 64
     7
176
     1
 65
   257
176
     1
 75
     1
176
     1
175
     1
176
     1
 42
1.0
176
     1
 92
       12
176
     1
 66
     7
176
     1
 43
1.0
176
     1
 76
     1
176
     1
 77
     6
176
     1
 78
     2
176
     1
 67
     7
176
     1
 79
     5
176
     1
170
     0
176
     1
171
     0
176
     1
290
     0
176
     1
 93
        1
176
     1
 44
0.0
176
     1
173
     0
176
     1
  0
ENDSEC
  0
EOF
