  0
SECTION
  2
HEADER
  9
$ACADVER
  1
AC1024
  9
$ACADMAINTVER
 70
     6
  9
$DWGCODEPAGE
  3
UNDEFINED
  9
$INSBASE
 10
0.0
 20
0.0
 30
0.0
  9
$EXTMIN
 10
1.000000000000000E+20
 20
1.000000000000000E+20
 30
1.000000000000000E+20
  9
$EXTMAX
 10
-1.000000000000000E+20
 20
-1.000000000000000E+20
 30
-1.000000000000000E+20
  9
$LIMMIN
 10
0.0
 20
0.0
  9
$LIMMAX
 10
12.0
 20
9.0
  9
$ORTHOMODE
 70
     0
  9
$REGENMODE
 70
     1
  9
$FILLMODE
 70
     1
  9
$QTEXTMODE
 70
     0
  9
$MIRRTEXT
 70
     1
  9
$LTSCALE
 40
1.0
  9
$ATTMODE
 70
     1
  9
$TEXTSIZE
 40
0.2
  9
$TRACEWID
 40
0.05
  9
$TEXTSTYLE
  7
Standard
  9
$CLAYER
  8
0
  9
$CELTYPE
  6
ByLayer
  9
$CECOLOR
 62
   256
  9
$CELTSCALE
 40
1.0
  9
$DISPSILH
 70
     0
  9
$DIMSCALE
 40
1.0
  9
$DIMASZ
 40
0.18
  9
$DIMEXO
 40
0.0625
  9
$DIMDLI
 40
0.38
  9
$DIMRND
 40
0.0
  9
$DIMDLE
 40
0.0
  9
$DIMEXE
 40
0.18
  9
$DIMTP
 40
0.0
  9
$DIMTM
 40
0.0
  9
$DIMTXT
 40
0.18
  9
$DIMCEN
 40
0.09
  9
$DIMTSZ
 40
0.0
  9
$DIMTOL
 70
     0
  9
$DIMLIM
 70
     0
  9
$DIMTIH
 70
     1
  9
$DIMTOH
 70
     1
  9
$DIMSE1
 70
     0
  9
$DIMSE2
 70
     0
  9
$DIMTAD
 70
     0
  9
$DIMZIN
 70
     0
  9
$DIMBLK
  1

  9
$DIMASO
 70
     1
  9
$DIMSHO
 70
     1
  9
$DIMPOST
  1

  9
$DIMAPOST
  1

  9
$DIMALT
 70
     0
  9
$DIMALTD
 70
     2
  9
$DIMALTF
 40
25.4
  9
$DIMLFAC
 40
1.0
  9
$DIMTOFL
 70
     0
  9
$DIMTVP
 40
0.0
  9
$DIMTIX
 70
     0
  9
$DIMSOXD
 70
     0
  9
$DIMSAH
 70
     0
  9
$DIMBLK1
  1

  9
$DIMBLK2
  1

  9
$DIMSTYLE
  2
Standard
  9
$DIMCLRD
 70
     0
  9
$DIMCLRE
 70
     0
  9
$DIMCLRT
 70
     0
  9
$DIMTFAC
 40
1.0
  9
$DIMGAP
 40
0.09
  9
$DIMJUST
 70
     0
  9
$DIMSD1
 70
     0
  9
$DIMSD2
 70
     0
  9
$DIMTOLJ
 70
     1
  9
$DIMTZIN
 70
     0
  9
$DIMALTZ
 70
     0
  9
$DIMALTTZ
 70
     0
  9
$DIMUPT
 70
     0
  9
$DIMDEC
 70
     4
  9
$DIMTDEC
 70
     4
  9
$DIMALTU
 70
     2
  9
$DIMALTTD
 70
     2
  9
$DIMTXSTY
  7
Standard
  9
$DIMAUNIT
 70
     0
  9
$DIMADEC
 70
     0
  9
$DIMALTRND
 40
0.0
  9
$DIMAZIN
 70
     0
  9
$DIMDSEP
 70
    46
  9
$DIMATFIT
 70
     3
  9
$DIMFRAC
 70
     0
  9
$DIMLDRBLK
  1

  9
$DIMLUNIT
 70
     2
  9
$DIMLWD
 70
    -2
  9
$DIMLWE
 70
    -2
  9
$DIMTMOVE
 70
     0
  9
$DIMFXL
 40
1.0
  9
$DIMFXLON
 70
     0
  9
$DIMJOGANG
 40
0.7853981633974483
  9
$DIMTFILL
 70
     0
  9
$DIMTFILLCLR
 70
     0
  9
$DIMARCSYM
 70
     0
  9
$DIMLTYPE
  6

  9
$DIMLTEX1
  6

  9
$DIMLTEX2
  6

  9
$DIMTXTDIRECTION
 70
     0
  9
$LUNITS
 70
     2
  9
$LUPREC
 70
     4
  9
$SKETCHINC
 40
0.1
  9
$FILLETRAD
 40
0.5
  9
$AUNITS
 70
     0
  9
$AUPREC
 70
     0
  9
$MENU
  1
.
  9
$ELEVATION
 40
0.0
  9
$PELEVATION
 40
0.0
  9
$THICKNESS
 40
0.0
  9
$LIMCHECK
 70
     0
  9
$CHAMFERA
 40
0.5
  9
$CHAMFERB
 40
0.5
  9
$CHAMFERC
 40
1.0
  9
$CHAMFERD
 40
0.0
  9
$SKPOLY
 70
     0
  9
$TDCREATE
 40
2457917.624016204
  9
$TDUCREATE
 40
2457917.249016204
  9
$TDUPDATE
 40
2457917.624016204
  9
$TDUUPDATE
 40
2457917.249016204
  9
$TDINDWG
 40
0.0000000116
  9
$TDUSRTIMER
 40
0.0000000116
  9
$USRTIMER
 70
     1
  9
$ANGBASE
 50
0.0
  9
$ANGDIR
 70
     0
  9
$PDMODE
 70
     0
  9
$PDSIZE
 40
0.0
  9
$PLINEWID
 40
0.0
  9
$SPLFRAME
 70
     0
  9
$SPLINETYPE
 70
     6
  9
$SPLINESEGS
 70
     8
  9
$HANDSEED
  5
D2
  9
$SURFTAB1
 70
     6
  9
$SURFTAB2
 70
     6
  9
$SURFTYPE
 70
     6
  9
$SURFU
 70
     6
  9
$SURFV
 70
     6
  9
$UCSBASE
  2

  9
$UCSNAME
  2

  9
$UCSORG
 10
0.0
 20
0.0
 30
0.0
  9
$UCSXDIR
 10
1.0
 20
0.0
 30
0.0
  9
$UCSYDIR
 10
0.0
 20
1.0
 30
0.0
  9
$UCSORTHOREF
  2

  9
$UCSORTHOVIEW
 70
     0
  9
$UCSORGTOP
 10
0.0
 20
0.0
 30
0.0
  9
$UCSORGBOTTOM
 10
0.0
 20
0.0
 30
0.0
  9
$UCSORGLEFT
 10
0.0
 20
0.0
 30
0.0
  9
$UCSORGRIGHT
 10
0.0
 20
0.0
 30
0.0
  9
$UCSORGFRONT
 10
0.0
 20
0.0
 30
0.0
  9
$UCSORGBACK
 10
0.0
 20
0.0
 30
0.0
  9
$PUCSBASE
  2

  9
$PUCSNAME
  2

  9
$PUCSORG
 10
0.0
 20
0.0
 30
0.0
  9
$PUCSXDIR
 10
1.0
 20
0.0
 30
0.0
  9
$PUCSYDIR
 10
0.0
 20
1.0
 30
0.0
  9
$PUCSORTHOREF
  2

  9
$PUCSORTHOVIEW
 70
     0
  9
$PUCSORGTOP
 10
0.0
 20
0.0
 30
0.0
  9
$PUCSORGBOTTOM
 10
0.0
 20
0.0
 30
0.0
  9
$PUCSORGLEFT
 10
0.0
 20
0.0
 30
0.0
  9
$PUCSORGRIGHT
 10
0.0
 20
0.0
 30
0.0
  9
$PUCSORGFRONT
 10
0.0
 20
0.0
 30
0.0
  9
$PUCSORGBACK
 10
0.0
 20
0.0
 30
0.0
  9
$USERI1
 70
     0
  9
$USERI2
 70
     0
  9
$USERI3
 70
     0
  9
$USERI4
 70
     0
  9
$USERI5
 70
     0
  9
$USERR1
 40
0.0
  9
$USERR2
 40
0.0
  9
$USERR3
 40
0.0
  9
$USERR4
 40
0.0
  9
$USERR5
 40
0.0
  9
$WORLDVIEW
 70
     1
  9
$SHADEDGE
 70
     3
  9
$SHADEDIF
 70
    70
  9
$TILEMODE
 70
     1
  9
$MAXACTVP
 70
    64
  9
$PINSBASE
 10
0.0
 20
0.0
 30
0.0
  9
$PLIMCHECK
 70
     0
  9
$PEXTMIN
 10
1.000000000000000E+20
 20
1.000000000000000E+20
 30
1.000000000000000E+20
  9
$PEXTMAX
 10
-1.000000000000000E+20
 20
-1.000000000000000E+20
 30
-1.000000000000000E+20
  9
$PLIMMIN
 10
0.0
 20
0.0
  9
$PLIMMAX
 10
12.0
 20
9.0
  9
$UNITMODE
 70
     0
  9
$VISRETAIN
 70
     1
  9
$PLINEGEN
 70
     0
  9
$PSLTSCALE
 70
     1
  9
$TREEDEPTH
 70
  3020
  9
$CMLSTYLE
  2
Standard
  9
$CMLJUST
 70
     0
  9
$CMLSCALE
 40
1.0
  9
$PROXYGRAPHICS
 70
     1
  9
$MEASUREMENT
 70
     0
  9
$CELWEIGHT
370
    -1
  9
$ENDCAPS
280
     0
  9
$JOINSTYLE
280
     0
  9
$LWDISPLAY
290
     1
  9
$INSUNITS
 70
     1
  9
$HYPERLINKBASE
  1

  9
$STYLESHEET
  1

  9
$XEDIT
290
     1
  9
$CEPSNTYPE
380
     0
  9
$PSTYLEMODE
290
     1
  9
$FINGERPRINTGUID
  2
{F7DA3B19-6F93-E4FF-EA36-54C614A8C03C}
  9
$VERSIONGUID
  2
{FAEB1C32-E019-11D5-929B-00C0DF256EC4}
  9
$EXTNAMES
290
     1
  9
$PSVPSCALE
 40
0.0
  9
$OLESTARTUP
290
     0
  9
$SORTENTS
280
   127
  9
$INDEXCTL
280
     0
  9
$HIDETEXT
280
     1
  9
$XCLIPFRAME
280
     2
  9
$HALOGAP
280
     0
  9
$OBSCOLOR
 70
   257
  9
$OBSLTYPE
280
     0
  9
$INTERSECTIONDISPLAY
280
     0
  9
$INTERSECTIONCOLOR
 70
   257
  9
$DIMASSOC
280
     2
  9
$PROJECTNAME
  1

  9
$CAMERADISPLAY
290
     0
  9
$LENSLENGTH
 40
50.0
  9
$CAMERAHEIGHT
 40
0.0
  9
$STEPSPERSEC
 40
2.0
  9
$STEPSIZE
 40
6.0
  9
$3DDWFPREC
 40
2.0
  9
$PSOLWIDTH
 40
0.25
  9
$PSOLHEIGHT
 40
4.0
  9
$LOFTANG1
 40
1.570796326794897
  9
$LOFTANG2
 40
1.570796326794897
  9
$LOFTMAG1
 40
0.0
  9
$LOFTMAG2
 40
0.0
  9
$LOFTPARAM
 70
     7
  9
$LOFTNORMALS
280
     1
  9
$LATITUDE
 40
37.795
  9
$LONGITUDE
 40
-122.394
  9
$NORTHDIRECTION
 40
0.0
  9
$TIMEZONE
 70
 -8000
  9
$LIGHTGLYPHDISPLAY
280
     1
  9
$TILEMODELIGHTSYNCH
280
     1
  9
$CMATERIAL
347
3C
  9
$SOLIDHIST
280
     1
  9
$SHOWHIST
280
     1
  9
$DWFFRAME
280
     2
  9
$DGNFRAME
280
     2
  9
$REALWORLDSCALE
290
     1
  9
$INTERFERECOLOR
 62
   256
  9
$CSHADOW
280
     0
  9
$SHADOWPLANELOCATION
 40
0.0
  0
ENDSEC
  0
SECTION
  2
CLASSES
  0
CLASS
  1
ACDBDICTIONARYWDFLT
  2
AcDbDictionaryWithDefault
  3
ObjectDBX Classes
 90
        0
 91
        4
280
     0
281
     0
  0
CLASS
  1
VISUALSTYLE
  2
AcDbVisualStyle
  3
ObjectDBX Classes
 90
     4095
 91
        4
280
     0
281
     0
  0
CLASS
  1
MATERIAL
  2
AcDbMaterial
  3
ObjectDBX Classes
 90
     1153
 91
        4
280
     0
281
     0
  0
CLASS
  1
SUN
  2
AcDbSun
  3
SCENEOE
 90
     1024
 91
        4
280
     0
281
     0
  0
ENDSEC
  0
SECTION
  2
TABLES
  0
TABLE
  2
VPORT
  5
8
330
0
100
AcDbSymbolTable
 70
     1
  0
VPORT
  5
29
330
8
100
AcDbSymbolTableRecord
100
AcDbViewportTableRecord
  2
*Active
 70
     0
 10
0.0
 20
0.0
 11
1.0
 21
1.0
 12
0.0
 22
0.0
 13
0.0
 23
0.0
 14
0.5
 24
0.5
 15
0.5
 25
0.5
 16
0.0
 26
0.0
 36
1.0
 17
91.00082462281999
 27
-128.4993055234307
 37
0.0
 40
256.9986110468615
 41
0.7081814508812795
 42
50.0
 43
0.0
 44
0.0
 50
0.0
 51
0.0
 71
     0
 72
   100
 73
     1
 74
     3
 75
     0
 76
     0
 77
     0
 78
     0
281
     0
 65
     1
110
0.0
120
0.0
130
0.0
111
1.0
121
0.0
131
0.0
112
0.0
122
1.0
132
0.0
 79
     0
146
0.0
 60
     3
 61
     5
292
     1
282
     1
141
0.0
142
0.0
 63
   250
361
3F
  0
ENDTAB
  0
TABLE
  2
LTYPE
  5
5
330
0
100
AcDbSymbolTable
 70
     1
  0
LTYPE
  5
14
330
5
100
AcDbSymbolTableRecord
100
AcDbLinetypeTableRecord
  2
ByBlock
 70
     0
  3

 72
    65
 73
     0
 40
0.0
  0
LTYPE
  5
15
330
5
100
AcDbSymbolTableRecord
100
AcDbLinetypeTableRecord
  2
ByLayer
 70
     0
  3

 72
    65
 73
     0
 40
0.0
  0
LTYPE
  5
16
330
5
100
AcDbSymbolTableRecord
100
AcDbLinetypeTableRecord
  2
Continuous
 70
     0
  3
Solid line
 72
    65
 73
     0
 40
0.0
  0
ENDTAB
  0
TABLE
  2
LAYER
  5
2
330
0
100
AcDbSymbolTable
 70
     2
  0
LAYER
  5
10
330
2
100
AcDbSymbolTableRecord
100
AcDbLayerTableRecord
  2
0
 70
     0
 62
     7
  6
Continuous
370
    -3
390
F
347
3E
  0
LAYER
  5
40
330
2
100
AcDbSymbolTableRecord
100
AcDbLayerTableRecord
  2
_U+30EC_U+30A4_U+30E4_U+30FC 1
 70
     0
 62
     7
  6
Continuous
370
    -3
390
F
347
3E
  0
ENDTAB
  0
TABLE
  2
STYLE
  5
3
330
0
100
AcDbSymbolTable
 70
     1
  0
STYLE
  5
11
330
3
100
AcDbSymbolTableRecord
100
AcDbTextStyleTableRecord
  2
Standard
 70
     0
 40
0.0
 41
1.0
 50
0.0
 71
     0
 42
0.2
  3
txt
  4

  0
ENDTAB
  0
TABLE
  2
VIEW
  5
6
330
0
100
AcDbSymbolTable
 70
     0
  0
ENDTAB
  0
TABLE
  2
UCS
  5
7
330
0
100
AcDbSymbolTable
 70
     0
  0
ENDTAB
  0
TABLE
  2
APPID
  5
9
330
0
100
AcDbSymbolTable
 70
     1
  0
APPID
  5
12
330
9
100
AcDbSymbolTableRecord
100
AcDbRegAppTableRecord
  2
ACAD
 70
     0
  0
ENDTAB
  0
TABLE
  2
DIMSTYLE
  5
A
330
0
100
AcDbSymbolTable
 70
     1
100
AcDbDimStyleTable
  0
DIMSTYLE
105
27
330
A
100
AcDbSymbolTableRecord
100
AcDbDimStyleTableRecord
  2
Standard
 70
     0
178
     0
340
11
  0
ENDTAB
  0
TABLE
  2
BLOCK_RECORD
  5
1
330
0
100
AcDbSymbolTable
 70
     5
  0
BLOCK_RECORD
  5
1F
330
1
100
AcDbSymbolTableRecord
100
AcDbBlockTableRecord
  2
*Model_Space
340
22
 70
     0
280
     1
281
     0
  0
BLOCK_RECORD
  5
1B
330
1
100
AcDbSymbolTableRecord
100
AcDbBlockTableRecord
  2
*Paper_Space
340
1E
 70
     0
280
     1
281
     0
  0
BLOCK_RECORD
  5
23
330
1
100
AcDbSymbolTableRecord
100
AcDbBlockTableRecord
  2
*Paper_Space0
340
26
 70
     0
280
     1
281
     0
  0
BLOCK_RECORD
  5
80
330
1
100
AcDbSymbolTableRecord
100
AcDbBlockTableRecord
  2
block 2
340
0
102
{BLKREFS
331
81
102
}
 70
     0
280
     1
281
     0
  0
BLOCK_RECORD
  5
98
330
1
100
AcDbSymbolTableRecord
100
AcDbBlockTableRecord
  2
block 3
340
0
102
{BLKREFS
331
99
102
}
 70
     0
280
     1
281
     0
  0
BLOCK_RECORD
  5
AC
330
1
100
AcDbSymbolTableRecord
100
AcDbBlockTableRecord
  2
block 4
340
0
102
{BLKREFS
331
AD
102
}
 70
     0
280
     1
281
     0
  0
BLOCK_RECORD
  5
C8
330
1
100
AcDbSymbolTableRecord
100
AcDbBlockTableRecord
  2
block 5
340
0
102
{BLKREFS
331
C9
102
}
 70
     0
280
     1
281
     0
  0
ENDTAB
  0
ENDSEC
  0
SECTION
  2
BLOCKS
  0
BLOCK
  5
20
330
1F
100
AcDbEntity
  8
0
100
AcDbBlockBegin
  2
*Model_Space
 70
     0
 10
0.0
 20
0.0
 30
0.0
  3
*Model_Space
  1

  0
ENDBLK
  5
21
330
1F
100
AcDbEntity
  8
0
100
AcDbBlockEnd
  0
BLOCK
  5
1C
330
1B
100
AcDbEntity
 67
     1
  8
0
100
AcDbBlockBegin
  2
*Paper_Space
 70
     0
 10
0.0
 20
0.0
 30
0.0
  3
*Paper_Space
  1

  0
ENDBLK
  5
1D
330
1B
100
AcDbEntity
 67
     1
  8
0
100
AcDbBlockEnd
  0
BLOCK
  5
24
330
23
100
AcDbEntity
  8
0
100
AcDbBlockBegin
  2
*Paper_Space0
 70
     0
 10
0.0
 20
0.0
 30
0.0
  3
*Paper_Space0
  1

  0
ENDBLK
  5
25
330
23
100
AcDbEntity
  8
0
100
AcDbBlockEnd
  0
BLOCK
  5
82
330
80
100
AcDbEntity
  8
0
100
AcDbBlockBegin
  2
block 2
 70
     0
 10
0.0
 20
0.0
 30
0.0
  3
block 2
  1

  0
SPLINE
  5
84
330
80
100
AcDbEntity
  8
_U+30EC_U+30A4_U+30E4_U+30FC 1
370
     0
100
AcDbSpline
210
0.0
220
0.0
230
1.0
 70
    11
 71
     3
 72
    26
 73
    22
 74
     0
 42
0.0000000001
 43
0.0000000001
 12
1.0
 22
0.0
 32
0.0
 13
1.0
 23
0.0
 33
0.0
 40
0.0
 40
0.0
 40
0.0
 40
0.0
 40
1.0
 40
1.0
 40
1.0
 40
2.0
 40
2.0
 40
2.0
 40
3.0
 40
3.0
 40
3.0
 40
4.0
 40
4.0
 40
4.0
 40
5.0
 40
5.0
 40
5.0
 40
6.0
 40
6.0
 40
6.0
 40
7.0
 40
7.0
 40
7.0
 40
7.0
 10
97.9030680093784
 20
-138.7002332552555
 30
0.0
 10
97.9030680093784
 20
-138.7002332552555
 30
0.0
 10
96.79891490635583
 20
-138.7002332552555
 30
0.0
 10
96.79891490635583
 20
-138.7002332552555
 30
0.0
 10
96.79891490635583
 20
-138.7002332552555
 30
0.0
 10
96.79891490635583
 20
-139.0302734027424
 30
0.0
 10
96.79891490635583
 20
-139.0302734027424
 30
0.0
 10
96.79891490635583
 20
-139.0302734027424
 30
0.0
 10
96.6507758004901
 20
-139.0302734027424
 30
0.0
 10
96.6507758004901
 20
-139.0302734027424
 30
0.0
 10
96.63596188990351
 20
-138.6981661979644
 30
0.0
 10
96.47300887345119
 20
-138.6516574089135
 30
0.0
 10
96.3586317033409
 20
-138.6220295877403
 30
0.0
 10
96.3586317033409
 20
-138.6220295877403
 30
0.0
 10
96.3586317033409
 20
-138.4759575391657
 30
0.0
 10
96.3586317033409
 20
-138.4759575391657
 30
0.0
 10
96.3586317033409
 20
-138.4759575391657
 30
0.0
 10
97.9030680093784
 20
-138.4759575391657
 30
0.0
 10
97.9030680093784
 20
-138.4759575391657
 30
0.0
 10
97.9030680093784
 20
-138.4759575391657
 30
0.0
 10
97.9030680093784
 20
-138.7002332552555
 30
0.0
 10
97.9030680093784
 20
-138.7002332552555
 30
0.0
  0
HATCH
  5
85
330
80
100
AcDbEntity
  8
_U+30EC_U+30A4_U+30E4_U+30FC 1
 62
   179
420
  2234388
100
AcDbHatch
 10
0.0
 20
0.0
 30
0.0
210
0.0
220
0.0
230
1.0
  2
SOLID
 70
     1
 71
     0
 91
        1
 92
        1
 93
        1
 72
     4
 94
        3
 73
     0
 74
     1
 95
       26
 96
       22
 40
0.0
 40
0.0
 40
0.0
 40
0.0
 40
1.0
 40
1.0
 40
1.0
 40
2.0
 40
2.0
 40
2.0
 40
3.0
 40
3.0
 40
3.0
 40
4.0
 40
4.0
 40
4.0
 40
5.0
 40
5.0
 40
5.0
 40
6.0
 40
6.0
 40
6.0
 40
7.0
 40
7.0
 40
7.0
 40
7.0
 10
97.9030680093784
 20
-138.7002332552555
 10
97.9030680093784
 20
-138.7002332552555
 10
96.79891490635583
 20
-138.7002332552555
 10
96.79891490635583
 20
-138.7002332552555
 10
96.79891490635583
 20
-138.7002332552555
 10
96.79891490635583
 20
-139.0302734027424
 10
96.79891490635583
 20
-139.0302734027424
 10
96.79891490635583
 20
-139.0302734027424
 10
96.6507758004901
 20
-139.0302734027424
 10
96.6507758004901
 20
-139.0302734027424
 10
96.63596188990351
 20
-138.6981661979644
 10
96.47300887345119
 20
-138.6516574089135
 10
96.3586317033409
 20
-138.6220295877403
 10
96.3586317033409
 20
-138.6220295877403
 10
96.3586317033409
 20
-138.4759575391657
 10
96.3586317033409
 20
-138.4759575391657
 10
96.3586317033409
 20
-138.4759575391657
 10
97.9030680093784
 20
-138.4759575391657
 10
97.9030680093784
 20
-138.4759575391657
 10
97.9030680093784
 20
-138.4759575391657
 10
97.9030680093784
 20
-138.7002332552555
 10
97.9030680093784
 20
-138.7002332552555
 97
        0
 97
        0
 75
     2
 76
     1
 98
        0
  0
POLYLINE
  5
86
330
80
100
AcDbEntity
  8
_U+30EC_U+30A4_U+30E4_U+30FC 1
370
     0
100
AcDb2dPolyline
 66
     1
 10
0.0
 20
0.0
 30
0.0
  0
VERTEX
  5
87
330
86
100
AcDbEntity
  8
_U+30EC_U+30A4_U+30E4_U+30FC 1
370
     0
100
AcDbVertex
100
AcDb2dVertex
 10
97.9030680093784
 20
-137.9147514846185
 30
0.0
  0
VERTEX
  5
88
330
86
100
AcDbEntity
  8
_U+30EC_U+30A4_U+30E4_U+30FC 1
370
     0
100
AcDbVertex
100
AcDb2dVertex
 10
97.65123152940664
 20
-137.9147514846185
 30
0.0
  0
VERTEX
  5
89
330
86
100
AcDbEntity
  8
_U+30EC_U+30A4_U+30E4_U+30FC 1
370
     0
100
AcDbVertex
100
AcDb2dVertex
 10
97.65123152940664
 20
-137.6629150046468
 30
0.0
  0
VERTEX
  5
8A
330
86
100
AcDbEntity
  8
_U+30EC_U+30A4_U+30E4_U+30FC 1
370
     0
100
AcDbVertex
100
AcDb2dVertex
 10
97.9030680093784
 20
-137.6629150046468
 30
0.0
  0
VERTEX
  5
8B
330
86
100
AcDbEntity
  8
_U+30EC_U+30A4_U+30E4_U+30FC 1
370
     0
100
AcDbVertex
100
AcDb2dVertex
 10
97.9030680093784
 20
-137.9147514846185
 30
0.0
  0
SEQEND
  5
8C
330
86
100
AcDbEntity
  8
_U+30EC_U+30A4_U+30E4_U+30FC 1
370
     0
  0
HATCH
  5
8D
330
80
100
AcDbEntity
  8
_U+30EC_U+30A4_U+30E4_U+30FC 1
 62
   179
420
  2234388
100
AcDbHatch
 10
0.0
 20
0.0
 30
0.0
210
0.0
220
0.0
230
1.0
  2
SOLID
 70
     1
 71
     0
 91
        1
 92
        1
 93
        4
 72
     1
 10
97.9030680093784
 20
-137.9147514846185
 11
97.65123152940664
 21
-137.9147514846185
 72
     1
 10
97.65123152940664
 20
-137.9147514846185
 11
97.65123152940664
 21
-137.6629150046468
 72
     1
 10
97.65123152940664
 20
-137.6629150046468
 11
97.9030680093784
 21
-137.6629150046468
 72
     1
 10
97.9030680093784
 20
-137.6629150046468
 11
97.9030680093784
 21
-137.9147514846185
 97
        0
 75
     2
 76
     1
 98
        0
  0
SPLINE
  5
8E
330
80
100
AcDbEntity
  8
_U+30EC_U+30A4_U+30E4_U+30FC 1
370
     0
100
AcDbSpline
210
0.0
220
0.0
230
1.0
 70
    11
 71
     3
 72
    44
 73
    40
 74
     0
 42
0.0000000001
 43
0.0000000001
 12
1.0
 22
0.0
 32
0.0
 13
1.0
 23
0.0
 33
0.0
 40
0.0
 40
0.0
 40
0.0
 40
0.0
 40
1.0
 40
1.0
 40
1.0
 40
2.0
 40
2.0
 40
2.0
 40
3.0
 40
3.0
 40
3.0
 40
4.0
 40
4.0
 40
4.0
 40
5.0
 40
5.0
 40
5.0
 40
6.0
 40
6.0
 40
6.0
 40
7.0
 40
7.0
 40
7.0
 40
8.0
 40
8.0
 40
8.0
 40
9.0
 40
9.0
 40
9.0
 40
10.0
 40
10.0
 40
10.0
 40
11.0
 40
11.0
 40
11.0
 40
12.0
 40
12.0
 40
12.0
 40
13.0
 40
13.0
 40
13.0
 40
13.0
 10
97.3211913819197
 20
-136.8336805213471
 30
0.0
 10
97.48001028378972
 20
-137.0514105560149
 30
0.0
 10
97.5540798367226
 20
-137.1444281341167
 30
0.0
 10
97.69774031845752
 20
-137.1933484900072
 30
0.0
 10
97.69774031845752
 20
-137.1933484900072
 30
0.0
 10
97.69774031845752
 20
-136.4147569103408
 30
0.0
 10
97.69774031845752
 20
-136.4147569103408
 30
0.0
 10
97.69774031845752
 20
-136.4147569103408
 30
0.0
 10
97.9030680093784
 20
-136.4147569103408
 30
0.0
 10
97.9030680093784
 20
-136.4147569103408
 30
0.0
 10
97.9030680093784
 20
-136.4147569103408
 30
0.0
 10
97.9030680093784
 20
-137.4427734031393
 30
0.0
 10
97.9030680093784
 20
-137.4427734031393
 30
0.0
 10
97.54546709800947
 20
-137.411078524675
 30
0.0
 10
97.4672634304943
 20
-137.3456217104553
 30
0.0
 10
97.16891816147167
 20
-136.9604600352043
 30
0.0
 10
96.97013615197275
 20
-136.7044894406503
 30
0.0
 10
96.90226777091333
 20
-136.6390326264305
 30
0.0
 10
96.76480846105186
 20
-136.6390326264305
 30
0.0
 10
96.64629717635927
 20
-136.6390326264305
 30
0.0
 10
96.51538354791977
 20
-136.7110351220722
 30
0.0
 10
96.51538354791977
 20
-136.90775007428
 30
0.0
 10
96.51538354791977
 20
-137.1678547834164
 30
0.0
 10
96.74586043588299
 20
-137.176123012581
 30
0.0
 10
96.86230466328443
 20
-137.1806016367118
 30
0.0
 10
96.86230466328443
 20
-137.1806016367118
 30
0.0
 10
96.86230466328443
 20
-137.4048773528016
 30
0.0
 10
96.86230466328443
 20
-137.4048773528016
 30
0.0
 10
96.7351806398787
 20
-137.3962646140884
 30
0.0
 10
96.62321503660809
 20
-137.3855848180842
 30
0.0
 10
96.5047037519155
 20
-137.3053140932778
 30
0.0
 10
96.34381779275432
 20
-137.1954155472984
 30
0.0
 10
96.31005585699889
 20
-137.0090358815464
 30
0.0
 10
96.31005585699889
 20
-136.8929361636934
 30
0.0
 10
96.31005585699889
 20
-136.6156059771308
 30
0.0
 10
96.49402395591122
 20
-136.4082112289188
 30
0.0
 10
96.76687551834301
 20
-136.4082112289188
 30
0.0
 10
96.9956298585636
 20
-136.4082112289188
 30
0.0
 10
97.0948486085388
 20
-136.5246554563202
 30
0.0
 10
97.3211913819197
 20
-136.8336805213471
 30
0.0
  0
HATCH
  5
8F
330
80
100
AcDbEntity
  8
_U+30EC_U+30A4_U+30E4_U+30FC 1
 62
   179
420
  2234388
100
AcDbHatch
 10
0.0
 20
0.0
 30
0.0
210
0.0
220
0.0
230
1.0
  2
SOLID
 70
     1
 71
     0
 91
        1
 92
        1
 93
        1
 72
     4
 94
        3
 73
     0
 74
     1
 95
       44
 96
       40
 40
0.0
 40
0.0
 40
0.0
 40
0.0
 40
1.0
 40
1.0
 40
1.0
 40
2.0
 40
2.0
 40
2.0
 40
3.0
 40
3.0
 40
3.0
 40
4.0
 40
4.0
 40
4.0
 40
5.0
 40
5.0
 40
5.0
 40
6.0
 40
6.0
 40
6.0
 40
7.0
 40
7.0
 40
7.0
 40
8.0
 40
8.0
 40
8.0
 40
9.0
 40
9.0
 40
9.0
 40
10.0
 40
10.0
 40
10.0
 40
11.0
 40
11.0
 40
11.0
 40
12.0
 40
12.0
 40
12.0
 40
13.0
 40
13.0
 40
13.0
 40
13.0
 10
97.3211913819197
 20
-136.8336805213471
 10
97.48001028378972
 20
-137.0514105560149
 10
97.5540798367226
 20
-137.1444281341167
 10
97.69774031845752
 20
-137.1933484900072
 10
97.69774031845752
 20
-137.1933484900072
 10
97.69774031845752
 20
-136.4147569103408
 10
97.69774031845752
 20
-136.4147569103408
 10
97.69774031845752
 20
-136.4147569103408
 10
97.9030680093784
 20
-136.4147569103408
 10
97.9030680093784
 20
-136.4147569103408
 10
97.9030680093784
 20
-136.4147569103408
 10
97.9030680093784
 20
-137.4427734031393
 10
97.9030680093784
 20
-137.4427734031393
 10
97.54546709800947
 20
-137.411078524675
 10
97.4672634304943
 20
-137.3456217104553
 10
97.16891816147167
 20
-136.9604600352043
 10
96.97013615197275
 20
-136.7044894406503
 10
96.90226777091333
 20
-136.6390326264305
 10
96.76480846105186
 20
-136.6390326264305
 10
96.64629717635927
 20
-136.6390326264305
 10
96.51538354791977
 20
-136.7110351220722
 10
96.51538354791977
 20
-136.90775007428
 10
96.51538354791977
 20
-137.1678547834164
 10
96.74586043588299
 20
-137.176123012581
 10
96.86230466328443
 20
-137.1806016367118
 10
96.86230466328443
 20
-137.1806016367118
 10
96.86230466328443
 20
-137.4048773528016
 10
96.86230466328443
 20
-137.4048773528016
 10
96.7351806398787
 20
-137.3962646140884
 10
96.62321503660809
 20
-137.3855848180842
 10
96.5047037519155
 20
-137.3053140932778
 10
96.34381779275432
 20
-137.1954155472984
 10
96.31005585699889
 20
-137.0090358815464
 10
96.31005585699889
 20
-136.8929361636934
 10
96.31005585699889
 20
-136.6156059771308
 10
96.49402395591122
 20
-136.4082112289188
 10
96.76687551834301
 20
-136.4082112289188
 10
96.9956298585636
 20
-136.4082112289188
 10
97.0948486085388
 20
-136.5246554563202
 10
97.3211913819197
 20
-136.8336805213471
 97
        0
 97
        0
 75
     2
 76
     1
 98
        0
  0
ENDBLK
  5
83
330
80
100
AcDbEntity
  8
0
100
AcDbBlockEnd
  0
BLOCK
  5
9A
330
98
100
AcDbEntity
  8
0
100
AcDbBlockBegin
  2
block 3
 70
     0
 10
0.0
 20
0.0
 30
0.0
  3
block 3
  1

  0
SPLINE
  5
9C
330
98
100
AcDbEntity
  8
_U+30EC_U+30A4_U+30E4_U+30FC 1
370
     0
100
AcDbSpline
210
0.0
220
0.0
230
1.0
 70
    11
 71
     3
 72
    26
 73
    22
 74
     0
 42
0.0000000001
 43
0.0000000001
 12
1.0
 22
0.0
 32
0.0
 13
1.0
 23
0.0
 33
0.0
 40
0.0
 40
0.0
 40
0.0
 40
0.0
 40
1.0
 40
1.0
 40
1.0
 40
2.0
 40
2.0
 40
2.0
 40
3.0
 40
3.0
 40
3.0
 40
4.0
 40
4.0
 40
4.0
 40
5.0
 40
5.0
 40
5.0
 40
6.0
 40
6.0
 40
6.0
 40
7.0
 40
7.0
 40
7.0
 40
7.0
 10
98.90283471919791
 20
-130.1057535482027
 30
0.0
 10
98.90283471919791
 20
-130.1057535482027
 30
0.0
 10
97.79868161617533
 20
-130.1057535482027
 30
0.0
 10
97.79868161617533
 20
-130.1057535482027
 30
0.0
 10
97.79868161617533
 20
-130.1057535482027
 30
0.0
 10
97.79868161617533
 20
-130.4357936956897
 30
0.0
 10
97.79868161617533
 20
-130.4357936956897
 30
0.0
 10
97.79868161617533
 20
-130.4357936956897
 30
0.0
 10
97.65054251030959
 20
-130.4357936956897
 30
0.0
 10
97.65054251030959
 20
-130.4357936956897
 30
0.0
 10
97.63572859972302
 20
-130.1036864909116
 30
0.0
 10
97.4727755832707
 20
-130.0571777018607
 30
0.0
 10
97.3583984131604
 20
-130.0275498806876
 30
0.0
 10
97.3583984131604
 20
-130.0275498806876
 30
0.0
 10
97.3583984131604
 20
-129.881477832113
 30
0.0
 10
97.3583984131604
 20
-129.881477832113
 30
0.0
 10
97.3583984131604
 20
-129.881477832113
 30
0.0
 10
98.90283471919791
 20
-129.881477832113
 30
0.0
 10
98.90283471919791
 20
-129.881477832113
 30
0.0
 10
98.90283471919791
 20
-129.881477832113
 30
0.0
 10
98.90283471919791
 20
-130.1057535482027
 30
0.0
 10
98.90283471919791
 20
-130.1057535482027
 30
0.0
  0
HATCH
  5
9D
330
98
100
AcDbEntity
  8
_U+30EC_U+30A4_U+30E4_U+30FC 1
 62
   179
420
  2234388
100
AcDbHatch
 10
0.0
 20
0.0
 30
0.0
210
0.0
220
0.0
230
1.0
  2
SOLID
 70
     1
 71
     0
 91
        1
 92
        1
 93
        1
 72
     4
 94
        3
 73
     0
 74
     1
 95
       26
 96
       22
 40
0.0
 40
0.0
 40
0.0
 40
0.0
 40
1.0
 40
1.0
 40
1.0
 40
2.0
 40
2.0
 40
2.0
 40
3.0
 40
3.0
 40
3.0
 40
4.0
 40
4.0
 40
4.0
 40
5.0
 40
5.0
 40
5.0
 40
6.0
 40
6.0
 40
6.0
 40
7.0
 40
7.0
 40
7.0
 40
7.0
 10
98.90283471919791
 20
-130.1057535482027
 10
98.90283471919791
 20
-130.1057535482027
 10
97.79868161617533
 20
-130.1057535482027
 10
97.79868161617533
 20
-130.1057535482027
 10
97.79868161617533
 20
-130.1057535482027
 10
97.79868161617533
 20
-130.4357936956897
 10
97.79868161617533
 20
-130.4357936956897
 10
97.79868161617533
 20
-130.4357936956897
 10
97.65054251030959
 20
-130.4357936956897
 10
97.65054251030959
 20
-130.4357936956897
 10
97.63572859972302
 20
-130.1036864909116
 10
97.4727755832707
 20
-130.0571777018607
 10
97.3583984131604
 20
-130.0275498806876
 10
97.3583984131604
 20
-130.0275498806876
 10
97.3583984131604
 20
-129.881477832113
 10
97.3583984131604
 20
-129.881477832113
 10
97.3583984131604
 20
-129.881477832113
 10
98.90283471919791
 20
-129.881477832113
 10
98.90283471919791
 20
-129.881477832113
 10
98.90283471919791
 20
-129.881477832113
 10
98.90283471919791
 20
-130.1057535482027
 10
98.90283471919791
 20
-130.1057535482027
 97
        0
 97
        0
 75
     2
 76
     1
 98
        0
  0
SPLINE
  5
9E
330
98
100
AcDbEntity
  8
_U+30EC_U+30A4_U+30E4_U+30FC 1
370
     0
100
AcDbSpline
210
0.0
220
0.0
230
1.0
 70
    11
 71
     3
 72
    53
 73
    49
 74
     0
 42
0.0000000001
 43
0.0000000001
 12
1.0
 22
0.0
 32
0.0
 13
1.0
 23
0.0
 33
0.0
 40
0.0
 40
0.0
 40
0.0
 40
0.0
 40
1.0
 40
1.0
 40
1.0
 40
2.0
 40
2.0
 40
2.0
 40
3.0
 40
3.0
 40
3.0
 40
4.0
 40
4.0
 40
4.0
 40
5.0
 40
5.0
 40
5.0
 40
6.0
 40
6.0
 40
6.0
 40
7.0
 40
7.0
 40
7.0
 40
8.0
 40
8.0
 40
8.0
 40
9.0
 40
9.0
 40
9.0
 40
10.0
 40
10.0
 40
10.0
 40
11.0
 40
11.0
 40
11.0
 40
12.0
 40
12.0
 40
12.0
 40
13.0
 40
13.0
 40
13.0
 40
14.0
 40
14.0
 40
14.0
 40
15.0
 40
15.0
 40
15.0
 40
16.0
 40
16.0
 40
16.0
 40
16.0
 10
98.95347762283107
 20
-128.8992811092682
 30
0.0
 10
98.95347762283107
 20
-128.9774847767834
 30
0.0
 10
98.93659665495336
 20
-129.0791150935983
 30
0.0
 10
98.87320689802476
 20
-129.1807454104132
 30
0.0
 10
98.76330835204529
 20
-129.3540337133212
 30
0.0
 10
98.63205021405727
 20
-129.3753933053298
 30
0.0
 10
98.52421872536895
 20
-129.3943413304986
 30
0.0
 10
98.52421872536895
 20
-129.3943413304986
 30
0.0
 10
98.52421872536895
 20
-129.1721326717
 30
0.0
 10
98.52421872536895
 20
-129.1721326717
 30
0.0
 10
98.72300073486787
 20
-129.1173556534846
 30
0.0
 10
98.75262855604102
 20
-128.9902316300788
 30
0.0
 10
98.75262855604102
 20
-128.8972140519771
 30
0.0
 10
98.75262855604102
 20
-128.7576876848245
 30
0.0
 10
98.6530652965173
 20
-128.6054144643764
 30
0.0
 10
98.42052135126293
 20
-128.6054144643764
 30
0.0
 10
98.16455075670886
 20
-128.6054144643764
 30
0.0
 10
98.0946153183583
 20
-128.7852484487065
 30
0.0
 10
98.0946153183583
 20
-128.9058267906902
 30
0.0
 10
98.0946153183583
 20
-128.9375216691545
 30
0.0
 10
98.0946153183583
 20
-129.0791150935983
 30
0.0
 10
98.22380639905516
 20
-129.1679985571177
 30
0.0
 10
98.22380639905516
 20
-129.1679985571177
 30
0.0
 10
98.2048583738863
 20
-129.3436984268655
 30
0.0
 10
98.2048583738863
 20
-129.3436984268655
 30
0.0
 10
98.2048583738863
 20
-129.3436984268655
 30
0.0
 10
97.3583984131604
 20
-129.2231200848817
 30
0.0
 10
97.3583984131604
 20
-129.2231200848817
 30
0.0
 10
97.3583984131604
 20
-129.2231200848817
 30
0.0
 10
97.3583984131604
 20
-128.4445285052153
 30
0.0
 10
97.3583984131604
 20
-128.4445285052153
 30
0.0
 10
97.3583984131604
 20
-128.4445285052153
 30
0.0
 10
97.55304630807701
 20
-128.4445285052153
 30
0.0
 10
97.55304630807701
 20
-128.4445285052153
 30
0.0
 10
97.55304630807701
 20
-128.4445285052153
 30
0.0
 10
97.55304630807701
 20
-129.0601670684294
 30
0.0
 10
97.55304630807701
 20
-129.0601670684294
 30
0.0
 10
97.55304630807701
 20
-129.0601670684294
 30
0.0
 10
97.9761040336657
 20
-129.1256238826492
 30
0.0
 10
97.9761040336657
 20
-129.1256238826492
 30
0.0
 10
97.94234209791026
 20
-129.0643011830117
 30
0.0
 10
97.90203448073282
 20
-128.9819634009142
 30
0.0
 10
97.90203448073282
 20
-128.8634521162217
 30
0.0
 10
97.90203448073282
 20
-128.6095485789587
 30
0.0
 10
98.08841414648485
 20
-128.3725260095735
 30
0.0
 10
98.40157332609405
 20
-128.3725260095735
 30
0.0
 10
98.71886662028557
 20
-128.3725260095735
 30
0.0
 10
98.95347762283107
 20
-128.5968017256633
 30
0.0
 10
98.95347762283107
 20
-128.8992811092682
 30
0.0
  0
HATCH
  5
9F
330
98
100
AcDbEntity
  8
_U+30EC_U+30A4_U+30E4_U+30FC 1
 62
   179
420
  2234388
100
AcDbHatch
 10
0.0
 20
0.0
 30
0.0
210
0.0
220
0.0
230
1.0
  2
SOLID
 70
     1
 71
     0
 91
        1
 92
        1
 93
        1
 72
     4
 94
        3
 73
     0
 74
     1
 95
       53
 96
       49
 40
0.0
 40
0.0
 40
0.0
 40
0.0
 40
1.0
 40
1.0
 40
1.0
 40
2.0
 40
2.0
 40
2.0
 40
3.0
 40
3.0
 40
3.0
 40
4.0
 40
4.0
 40
4.0
 40
5.0
 40
5.0
 40
5.0
 40
6.0
 40
6.0
 40
6.0
 40
7.0
 40
7.0
 40
7.0
 40
8.0
 40
8.0
 40
8.0
 40
9.0
 40
9.0
 40
9.0
 40
10.0
 40
10.0
 40
10.0
 40
11.0
 40
11.0
 40
11.0
 40
12.0
 40
12.0
 40
12.0
 40
13.0
 40
13.0
 40
13.0
 40
14.0
 40
14.0
 40
14.0
 40
15.0
 40
15.0
 40
15.0
 40
16.0
 40
16.0
 40
16.0
 40
16.0
 10
98.95347762283107
 20
-128.8992811092682
 10
98.95347762283107
 20
-128.9774847767834
 10
98.93659665495336
 20
-129.0791150935983
 10
98.87320689802476
 20
-129.1807454104132
 10
98.76330835204529
 20
-129.3540337133212
 10
98.63205021405727
 20
-129.3753933053298
 10
98.52421872536895
 20
-129.3943413304986
 10
98.52421872536895
 20
-129.3943413304986
 10
98.52421872536895
 20
-129.1721326717
 10
98.52421872536895
 20
-129.1721326717
 10
98.72300073486787
 20
-129.1173556534846
 10
98.75262855604102
 20
-128.9902316300788
 10
98.75262855604102
 20
-128.8972140519771
 10
98.75262855604102
 20
-128.7576876848245
 10
98.6530652965173
 20
-128.6054144643764
 10
98.42052135126293
 20
-128.6054144643764
 10
98.16455075670886
 20
-128.6054144643764
 10
98.0946153183583
 20
-128.7852484487065
 10
98.0946153183583
 20
-128.9058267906902
 10
98.0946153183583
 20
-128.9375216691545
 10
98.0946153183583
 20
-129.0791150935983
 10
98.22380639905516
 20
-129.1679985571177
 10
98.22380639905516
 20
-129.1679985571177
 10
98.2048583738863
 20
-129.3436984268655
 10
98.2048583738863
 20
-129.3436984268655
 10
98.2048583738863
 20
-129.3436984268655
 10
97.3583984131604
 20
-129.2231200848817
 10
97.3583984131604
 20
-129.2231200848817
 10
97.3583984131604
 20
-129.2231200848817
 10
97.3583984131604
 20
-128.4445285052153
 10
97.3583984131604
 20
-128.4445285052153
 10
97.3583984131604
 20
-128.4445285052153
 10
97.55304630807701
 20
-128.4445285052153
 10
97.55304630807701
 20
-128.4445285052153
 10
97.55304630807701
 20
-128.4445285052153
 10
97.55304630807701
 20
-129.0601670684294
 10
97.55304630807701
 20
-129.0601670684294
 10
97.55304630807701
 20
-129.0601670684294
 10
97.9761040336657
 20
-129.1256238826492
 10
97.9761040336657
 20
-129.1256238826492
 10
97.94234209791026
 20
-129.0643011830117
 10
97.90203448073282
 20
-128.9819634009142
 10
97.90203448073282
 20
-128.8634521162217
 10
97.90203448073282
 20
-128.6095485789587
 10
98.08841414648485
 20
-128.3725260095735
 10
98.40157332609405
 20
-128.3725260095735
 10
98.71886662028557
 20
-128.3725260095735
 10
98.95347762283107
 20
-128.5968017256633
 10
98.95347762283107
 20
-128.8992811092682
 97
        0
 97
        0
 75
     2
 76
     1
 98
        0
  0
ENDBLK
  5
9B
330
98
100
AcDbEntity
  8
0
100
AcDbBlockEnd
  0
BLOCK
  5
AE
330
AC
100
AcDbEntity
  8
0
100
AcDbBlockBegin
  2
block 4
 70
     0
 10
0.0
 20
0.0
 30
0.0
  3
block 4
  1

  0
SPLINE
  5
B0
330
AC
100
AcDbEntity
  8
_U+30EC_U+30A4_U+30E4_U+30FC 1
370
     0
100
AcDbSpline
210
0.0
220
0.0
230
1.0
 70
    11
 71
     3
 72
    26
 73
    22
 74
     0
 42
0.0000000001
 43
0.0000000001
 12
1.0
 22
0.0
 32
0.0
 13
1.0
 23
0.0
 33
0.0
 40
0.0
 40
0.0
 40
0.0
 40
0.0
 40
1.0
 40
1.0
 40
1.0
 40
2.0
 40
2.0
 40
2.0
 40
3.0
 40
3.0
 40
3.0
 40
4.0
 40
4.0
 40
4.0
 40
5.0
 40
5.0
 40
5.0
 40
6.0
 40
6.0
 40
6.0
 40
7.0
 40
7.0
 40
7.0
 40
7.0
 10
87.20983613271143
 20
-116.617171194804
 30
0.0
 10
87.20983613271143
 20
-116.617171194804
 30
0.0
 10
87.20983613271143
 20
-115.5128458370072
 30
0.0
 10
87.20983613271143
 20
-115.5128458370072
 30
0.0
 10
87.20983613271143
 20
-115.5128458370072
 30
0.0
 10
86.8797959852245
 20
-115.5128458370072
 30
0.0
 10
86.8797959852245
 20
-115.5128458370072
 30
0.0
 10
86.8797959852245
 20
-115.5128458370072
 30
0.0
 10
86.8797959852245
 20
-115.3648789859157
 30
0.0
 10
86.8797959852245
 20
-115.3648789859157
 30
0.0
 10
87.21190319000259
 20
-115.3500650753292
 30
0.0
 10
87.25841197905346
 20
-115.1871120588768
 30
0.0
 10
87.2880398002266
 20
-115.0729071435408
 30
0.0
 10
87.2880398002266
 20
-115.0729071435408
 30
0.0
 10
87.4341118488012
 20
-115.0729071435408
 30
0.0
 10
87.4341118488012
 20
-115.0729071435408
 30
0.0
 10
87.4341118488012
 20
-115.0729071435408
 30
0.0
 10
87.4341118488012
 20
-116.617171194804
 30
0.0
 10
87.4341118488012
 20
-116.617171194804
 30
0.0
 10
87.4341118488012
 20
-116.617171194804
 30
0.0
 10
87.20983613271143
 20
-116.617171194804
 30
0.0
 10
87.20983613271143
 20
-116.617171194804
 30
0.0
  0
HATCH
  5
B1
330
AC
100
AcDbEntity
  8
_U+30EC_U+30A4_U+30E4_U+30FC 1
 62
   179
420
  2234388
100
AcDbHatch
 10
0.0
 20
0.0
 30
0.0
210
0.0
220
0.0
230
1.0
  2
SOLID
 70
     1
 71
     0
 91
        1
 92
        1
 93
        1
 72
     4
 94
        3
 73
     0
 74
     1
 95
       26
 96
       22
 40
0.0
 40
0.0
 40
0.0
 40
0.0
 40
1.0
 40
1.0
 40
1.0
 40
2.0
 40
2.0
 40
2.0
 40
3.0
 40
3.0
 40
3.0
 40
4.0
 40
4.0
 40
4.0
 40
5.0
 40
5.0
 40
5.0
 40
6.0
 40
6.0
 40
6.0
 40
7.0
 40
7.0
 40
7.0
 40
7.0
 10
87.20983613271143
 20
-116.617171194804
 10
87.20983613271143
 20
-116.617171194804
 10
87.20983613271143
 20
-115.5128458370072
 10
87.20983613271143
 20
-115.5128458370072
 10
87.20983613271143
 20
-115.5128458370072
 10
86.8797959852245
 20
-115.5128458370072
 10
86.8797959852245
 20
-115.5128458370072
 10
86.8797959852245
 20
-115.5128458370072
 10
86.8797959852245
 20
-115.3648789859157
 10
86.8797959852245
 20
-115.3648789859157
 10
87.21190319000259
 20
-115.3500650753292
 10
87.25841197905346
 20
-115.1871120588768
 10
87.2880398002266
 20
-115.0729071435408
 10
87.2880398002266
 20
-115.0729071435408
 10
87.4341118488012
 20
-115.0729071435408
 10
87.4341118488012
 20
-115.0729071435408
 10
87.4341118488012
 20
-115.0729071435408
 10
87.4341118488012
 20
-116.617171194804
 10
87.4341118488012
 20
-116.617171194804
 10
87.4341118488012
 20
-116.617171194804
 10
87.20983613271143
 20
-116.617171194804
 10
87.20983613271143
 20
-116.617171194804
 97
        0
 97
        0
 75
     2
 76
     1
 98
        0
  0
POLYLINE
  5
B2
330
AC
100
AcDbEntity
  8
_U+30EC_U+30A4_U+30E4_U+30FC 1
370
     0
100
AcDb2dPolyline
 66
     1
 10
0.0
 20
0.0
 30
0.0
  0
VERTEX
  5
B3
330
B2
100
AcDbEntity
  8
_U+30EC_U+30A4_U+30E4_U+30FC 1
370
     0
100
AcDbVertex
100
AcDb2dVertex
 10
87.9953179033484
 20
-116.617171194804
 30
0.0
  0
VERTEX
  5
B4
330
B2
100
AcDbEntity
  8
_U+30EC_U+30A4_U+30E4_U+30FC 1
370
     0
100
AcDbVertex
100
AcDb2dVertex
 10
87.9953179033484
 20
-116.3655069696065
 30
0.0
  0
VERTEX
  5
B5
330
B2
100
AcDbEntity
  8
_U+30EC_U+30A4_U+30E4_U+30FC 1
370
     0
100
AcDbVertex
100
AcDb2dVertex
 10
88.24715438332017
 20
-116.3655069696065
 30
0.0
  0
VERTEX
  5
B6
330
B2
100
AcDbEntity
  8
_U+30EC_U+30A4_U+30E4_U+30FC 1
370
     0
100
AcDbVertex
100
AcDb2dVertex
 10
88.24715438332017
 20
-116.617171194804
 30
0.0
  0
VERTEX
  5
B7
330
B2
100
AcDbEntity
  8
_U+30EC_U+30A4_U+30E4_U+30FC 1
370
     0
100
AcDbVertex
100
AcDb2dVertex
 10
87.9953179033484
 20
-116.617171194804
 30
0.0
  0
SEQEND
  5
B8
330
B2
100
AcDbEntity
  8
_U+30EC_U+30A4_U+30E4_U+30FC 1
370
     0
  0
HATCH
  5
B9
330
AC
100
AcDbEntity
  8
_U+30EC_U+30A4_U+30E4_U+30FC 1
 62
   179
420
  2234388
100
AcDbHatch
 10
0.0
 20
0.0
 30
0.0
210
0.0
220
0.0
230
1.0
  2
SOLID
 70
     1
 71
     0
 91
        1
 92
        1
 93
        4
 72
     1
 10
87.9953179033484
 20
-116.617171194804
 11
87.9953179033484
 21
-116.3655069696065
 72
     1
 10
87.9953179033484
 20
-116.3655069696065
 11
88.24715438332017
 21
-116.3655069696065
 72
     1
 10
88.24715438332017
 20
-116.3655069696065
 11
88.24715438332017
 21
-116.617171194804
 72
     1
 10
88.24715438332017
 20
-116.617171194804
 11
87.9953179033484
 21
-116.617171194804
 97
        0
 75
     2
 76
     1
 98
        0
  0
SPLINE
  5
BA
330
AC
100
AcDbEntity
  8
_U+30EC_U+30A4_U+30E4_U+30FC 1
370
     0
100
AcDbSpline
210
0.0
220
0.0
230
1.0
 70
    11
 71
     3
 72
    44
 73
    40
 74
     0
 42
0.0000000001
 43
0.0000000001
 12
1.0
 22
0.0
 32
0.0
 13
1.0
 23
0.0
 33
0.0
 40
0.0
 40
0.0
 40
0.0
 40
0.0
 40
1.0
 40
1.0
 40
1.0
 40
2.0
 40
2.0
 40
2.0
 40
3.0
 40
3.0
 40
3.0
 40
4.0
 40
4.0
 40
4.0
 40
5.0
 40
5.0
 40
5.0
 40
6.0
 40
6.0
 40
6.0
 40
7.0
 40
7.0
 40
7.0
 40
8.0
 40
8.0
 40
8.0
 40
9.0
 40
9.0
 40
9.0
 40
10.0
 40
10.0
 40
10.0
 40
11.0
 40
11.0
 40
11.0
 40
12.0
 40
12.0
 40
12.0
 40
13.0
 40
13.0
 40
13.0
 40
13.0
 10
89.0763888666198
 20
-116.0354668221196
 30
0.0
 10
88.858658831952
 20
-116.1941134692154
 30
0.0
 10
88.76564125385026
 20
-116.2681830221482
 30
0.0
 10
88.71672089795972
 20
-116.4120157586574
 30
0.0
 10
88.71672089795972
 20
-116.4120157586574
 30
0.0
 10
89.49531247762617
 20
-116.4120157586574
 30
0.0
 10
89.49531247762617
 20
-116.4120157586574
 30
0.0
 10
89.49531247762617
 20
-116.4120157586574
 30
0.0
 10
89.49531247762617
 20
-116.617171194804
 30
0.0
 10
89.49531247762617
 20
-116.617171194804
 30
0.0
 10
89.49531247762617
 20
-116.617171194804
 30
0.0
 10
88.46729598482763
 20
-116.617171194804
 30
0.0
 10
88.46729598482763
 20
-116.617171194804
 30
0.0
 10
88.49899086329192
 20
-116.2595702834351
 30
0.0
 10
88.56444767751167
 20
-116.1813666159199
 30
0.0
 10
88.94960935276261
 20
-115.8830213468973
 30
0.0
 10
89.20557994731666
 20
-115.6842393373984
 30
0.0
 10
89.27103676153641
 20
-115.6165432111132
 30
0.0
 10
89.27103676153641
 20
-115.4790839012518
 30
0.0
 10
89.27103676153641
 20
-115.3605726165592
 30
0.0
 10
89.1990342658947
 20
-115.2294867333454
 30
0.0
 10
89.00231931368693
 20
-115.2294867333454
 30
0.0
 10
88.74221460455057
 20
-115.2294867333454
 30
0.0
 10
88.73394637538597
 20
-115.4599636213086
 30
0.0
 10
88.72946775125514
 20
-115.5764078487101
 30
0.0
 10
88.72946775125514
 20
-115.5764078487101
 30
0.0
 10
88.50519203516538
 20
-115.5764078487101
 30
0.0
 10
88.50519203516538
 20
-115.5764078487101
 30
0.0
 10
88.51380477387849
 20
-115.4494560800786
 30
0.0
 10
88.52448456988277
 20
-115.3373182220337
 30
0.0
 10
88.6047552946891
 20
-115.2188069373411
 30
0.0
 10
88.71465384066856
 20
-115.0580932329542
 30
0.0
 10
88.90103350642057
 20
-115.0241590424245
 30
0.0
 10
89.0171332242735
 20
-115.0241590424245
 30
0.0
 10
89.29446341083612
 20
-115.0241590424245
 30
0.0
 10
89.50185815904815
 20
-115.2082993961111
 30
0.0
 10
89.50185815904815
 20
-115.4811509585429
 30
0.0
 10
89.50185815904815
 20
-115.709560789215
 30
0.0
 10
89.38541393164671
 20
-115.8091240487387
 30
0.0
 10
89.0763888666198
 20
-116.0354668221196
 30
0.0
  0
HATCH
  5
BB
330
AC
100
AcDbEntity
  8
_U+30EC_U+30A4_U+30E4_U+30FC 1
 62
   179
420
  2234388
100
AcDbHatch
 10
0.0
 20
0.0
 30
0.0
210
0.0
220
0.0
230
1.0
  2
SOLID
 70
     1
 71
     0
 91
        1
 92
        1
 93
        1
 72
     4
 94
        3
 73
     0
 74
     1
 95
       44
 96
       40
 40
0.0
 40
0.0
 40
0.0
 40
0.0
 40
1.0
 40
1.0
 40
1.0
 40
2.0
 40
2.0
 40
2.0
 40
3.0
 40
3.0
 40
3.0
 40
4.0
 40
4.0
 40
4.0
 40
5.0
 40
5.0
 40
5.0
 40
6.0
 40
6.0
 40
6.0
 40
7.0
 40
7.0
 40
7.0
 40
8.0
 40
8.0
 40
8.0
 40
9.0
 40
9.0
 40
9.0
 40
10.0
 40
10.0
 40
10.0
 40
11.0
 40
11.0
 40
11.0
 40
12.0
 40
12.0
 40
12.0
 40
13.0
 40
13.0
 40
13.0
 40
13.0
 10
89.0763888666198
 20
-116.0354668221196
 10
88.858658831952
 20
-116.1941134692154
 10
88.76564125385026
 20
-116.2681830221482
 10
88.71672089795972
 20
-116.4120157586574
 10
88.71672089795972
 20
-116.4120157586574
 10
89.49531247762617
 20
-116.4120157586574
 10
89.49531247762617
 20
-116.4120157586574
 10
89.49531247762617
 20
-116.4120157586574
 10
89.49531247762617
 20
-116.617171194804
 10
89.49531247762617
 20
-116.617171194804
 10
89.49531247762617
 20
-116.617171194804
 10
88.46729598482763
 20
-116.617171194804
 10
88.46729598482763
 20
-116.617171194804
 10
88.49899086329192
 20
-116.2595702834351
 10
88.56444767751167
 20
-116.1813666159199
 10
88.94960935276261
 20
-115.8830213468973
 10
89.20557994731666
 20
-115.6842393373984
 10
89.27103676153641
 20
-115.6165432111132
 10
89.27103676153641
 20
-115.4790839012518
 10
89.27103676153641
 20
-115.3605726165592
 10
89.1990342658947
 20
-115.2294867333454
 10
89.00231931368693
 20
-115.2294867333454
 10
88.74221460455057
 20
-115.2294867333454
 10
88.73394637538597
 20
-115.4599636213086
 10
88.72946775125514
 20
-115.5764078487101
 10
88.72946775125514
 20
-115.5764078487101
 10
88.50519203516538
 20
-115.5764078487101
 10
88.50519203516538
 20
-115.5764078487101
 10
88.51380477387849
 20
-115.4494560800786
 10
88.52448456988277
 20
-115.3373182220337
 10
88.6047552946891
 20
-115.2188069373411
 10
88.71465384066856
 20
-115.0580932329542
 10
88.90103350642057
 20
-115.0241590424245
 10
89.0171332242735
 20
-115.0241590424245
 10
89.29446341083612
 20
-115.0241590424245
 10
89.50185815904815
 20
-115.2082993961111
 10
89.50185815904815
 20
-115.4811509585429
 10
89.50185815904815
 20
-115.709560789215
 10
89.38541393164671
 20
-115.8091240487387
 10
89.0763888666198
 20
-116.0354668221196
 97
        0
 97
        0
 75
     2
 76
     1
 98
        0
  0
ENDBLK
  5
AF
330
AC
100
AcDbEntity
  8
0
100
AcDbBlockEnd
  0
BLOCK
  5
CA
330
C8
100
AcDbEntity
  8
0
100
AcDbBlockBegin
  2
block 5
 70
     0
 10
0.0
 20
0.0
 30
0.0
  3
block 5
  1

  0
SPLINE
  5
CC
330
C8
100
AcDbEntity
  8
_U+30EC_U+30A4_U+30E4_U+30FC 1
370
     0
100
AcDbSpline
210
0.0
220
0.0
230
1.0
 70
    11
 71
     3
 72
    26
 73
    22
 74
     0
 42
0.0000000001
 43
0.0000000001
 12
1.0
 22
0.0
 32
0.0
 13
1.0
 23
0.0
 33
0.0
 40
0.0
 40
0.0
 40
0.0
 40
0.0
 40
1.0
 40
1.0
 40
1.0
 40
2.0
 40
2.0
 40
2.0
 40
3.0
 40
3.0
 40
3.0
 40
4.0
 40
4.0
 40
4.0
 40
5.0
 40
5.0
 40
5.0
 40
6.0
 40
6.0
 40
6.0
 40
7.0
 40
7.0
 40
7.0
 40
7.0
 10
87.41171872814708
 20
-141.5227999863207
 30
0.0
 10
87.41171872814708
 20
-141.5227999863207
 30
0.0
 10
87.41171872814708
 20
-140.4186468832981
 30
0.0
 10
87.41171872814708
 20
-140.4186468832981
 30
0.0
 10
87.41171872814708
 20
-140.4186468832981
 30
0.0
 10
87.08167858066014
 20
-140.4186468832981
 30
0.0
 10
87.08167858066014
 20
-140.4186468832981
 30
0.0
 10
87.08167858066014
 20
-140.4186468832981
 30
0.0
 10
87.08167858066014
 20
-140.2705077774324
 30
0.0
 10
87.08167858066014
 20
-140.2705077774324
 30
0.0
 10
87.41378578543822
 20
-140.2556938668458
 30
0.0
 10
87.4602945744891
 20
-140.0927408503935
 30
0.0
 10
87.48992239566225
 20
-139.9783636802832
 30
0.0
 10
87.48992239566225
 20
-139.9783636802832
 30
0.0
 10
87.63599444423684
 20
-139.9783636802832
 30
0.0
 10
87.63599444423684
 20
-139.9783636802832
 30
0.0
 10
87.63599444423684
 20
-139.9783636802832
 30
0.0
 10
87.63599444423684
 20
-141.5227999863207
 30
0.0
 10
87.63599444423684
 20
-141.5227999863207
 30
0.0
 10
87.63599444423684
 20
-141.5227999863207
 30
0.0
 10
87.41171872814708
 20
-141.5227999863207
 30
0.0
 10
87.41171872814708
 20
-141.5227999863207
 30
0.0
  0
HATCH
  5
CD
330
C8
100
AcDbEntity
  8
_U+30EC_U+30A4_U+30E4_U+30FC 1
 62
   179
420
  2234388
100
AcDbHatch
 10
0.0
 20
0.0
 30
0.0
210
0.0
220
0.0
230
1.0
  2
SOLID
 70
     1
 71
     0
 91
        1
 92
        1
 93
        1
 72
     4
 94
        3
 73
     0
 74
     1
 95
       26
 96
       22
 40
0.0
 40
0.0
 40
0.0
 40
0.0
 40
1.0
 40
1.0
 40
1.0
 40
2.0
 40
2.0
 40
2.0
 40
3.0
 40
3.0
 40
3.0
 40
4.0
 40
4.0
 40
4.0
 40
5.0
 40
5.0
 40
5.0
 40
6.0
 40
6.0
 40
6.0
 40
7.0
 40
7.0
 40
7.0
 40
7.0
 10
87.41171872814708
 20
-141.5227999863207
 10
87.41171872814708
 20
-141.5227999863207
 10
87.41171872814708
 20
-140.4186468832981
 10
87.41171872814708
 20
-140.4186468832981
 10
87.41171872814708
 20
-140.4186468832981
 10
87.08167858066014
 20
-140.4186468832981
 10
87.08167858066014
 20
-140.4186468832981
 10
87.08167858066014
 20
-140.4186468832981
 10
87.08167858066014
 20
-140.2705077774324
 10
87.08167858066014
 20
-140.2705077774324
 10
87.41378578543822
 20
-140.2556938668458
 10
87.4602945744891
 20
-140.0927408503935
 10
87.48992239566225
 20
-139.9783636802832
 10
87.48992239566225
 20
-139.9783636802832
 10
87.63599444423684
 20
-139.9783636802832
 10
87.63599444423684
 20
-139.9783636802832
 10
87.63599444423684
 20
-139.9783636802832
 10
87.63599444423684
 20
-141.5227999863207
 10
87.63599444423684
 20
-141.5227999863207
 10
87.63599444423684
 20
-141.5227999863207
 10
87.41171872814708
 20
-141.5227999863207
 10
87.41171872814708
 20
-141.5227999863207
 97
        0
 97
        0
 75
     2
 76
     1
 98
        0
  0
SPLINE
  5
CE
330
C8
100
AcDbEntity
  8
_U+30EC_U+30A4_U+30E4_U+30FC 1
370
     0
100
AcDbSpline
210
0.0
220
0.0
230
1.0
 70
    11
 71
     3
 72
    53
 73
    49
 74
     0
 42
0.0000000001
 43
0.0000000001
 12
1.0
 22
0.0
 32
0.0
 13
1.0
 23
0.0
 33
0.0
 40
0.0
 40
0.0
 40
0.0
 40
0.0
 40
1.0
 40
1.0
 40
1.0
 40
2.0
 40
2.0
 40
2.0
 40
3.0
 40
3.0
 40
3.0
 40
4.0
 40
4.0
 40
4.0
 40
5.0
 40
5.0
 40
5.0
 40
6.0
 40
6.0
 40
6.0
 40
7.0
 40
7.0
 40
7.0
 40
8.0
 40
8.0
 40
8.0
 40
9.0
 40
9.0
 40
9.0
 40
10.0
 40
10.0
 40
10.0
 40
11.0
 40
11.0
 40
11.0
 40
12.0
 40
12.0
 40
12.0
 40
13.0
 40
13.0
 40
13.0
 40
14.0
 40
14.0
 40
14.0
 40
15.0
 40
15.0
 40
15.0
 40
16.0
 40
16.0
 40
16.0
 40
16.0
 10
88.61819116708156
 20
-141.5734428899539
 30
0.0
 10
88.5399874995664
 20
-141.5734428899539
 30
0.0
 10
88.43835718275153
 20
-141.5565619220762
 30
0.0
 10
88.33672686593665
 20
-141.4931721651475
 30
0.0
 10
88.16343856302859
 20
-141.3832736191681
 30
0.0
 10
88.14207897102004
 20
-141.2520154811801
 30
0.0
 10
88.12313094585116
 20
-141.1441839924917
 30
0.0
 10
88.12313094585116
 20
-141.1441839924917
 30
0.0
 10
88.34533960464978
 20
-141.1441839924917
 30
0.0
 10
88.34533960464978
 20
-141.1441839924917
 30
0.0
 10
88.40011662286526
 20
-141.3429660019906
 30
0.0
 10
88.52724064627097
 20
-141.3725938231638
 30
0.0
 10
88.62025822437272
 20
-141.3725938231638
 30
0.0
 10
88.75978459152533
 20
-141.3725938231638
 30
0.0
 10
88.91205781197338
 20
-141.2730305636401
 30
0.0
 10
88.91205781197338
 20
-141.0404866183857
 30
0.0
 10
88.91205781197338
 20
-140.7845160238317
 30
0.0
 10
88.73222382764334
 20
-140.7145805854811
 30
0.0
 10
88.6116454856596
 20
-140.7145805854811
 30
0.0
 10
88.5799506071953
 20
-140.7145805854811
 30
0.0
 10
88.43835718275153
 20
-140.7145805854811
 30
0.0
 10
88.34947371923208
 20
-140.843771666178
 30
0.0
 10
88.34947371923208
 20
-140.843771666178
 30
0.0
 10
88.17377384948433
 20
-140.8248236410091
 30
0.0
 10
88.17377384948433
 20
-140.8248236410091
 30
0.0
 10
88.17377384948433
 20
-140.8248236410091
 30
0.0
 10
88.29435219146808
 20
-139.9783636802832
 30
0.0
 10
88.29435219146808
 20
-139.9783636802832
 30
0.0
 10
88.29435219146808
 20
-139.9783636802832
 30
0.0
 10
89.07294377113455
 20
-139.9783636802832
 30
0.0
 10
89.07294377113455
 20
-139.9783636802832
 30
0.0
 10
89.07294377113455
 20
-139.9783636802832
 30
0.0
 10
89.07294377113455
 20
-140.1730115751998
 30
0.0
 10
89.07294377113455
 20
-140.1730115751998
 30
0.0
 10
89.07294377113455
 20
-140.1730115751998
 30
0.0
 10
88.4573052079204
 20
-140.1730115751998
 30
0.0
 10
88.4573052079204
 20
-140.1730115751998
 30
0.0
 10
88.4573052079204
 20
-140.1730115751998
 30
0.0
 10
88.39184839370066
 20
-140.5960693007885
 30
0.0
 10
88.39184839370066
 20
-140.5960693007885
 30
0.0
 10
88.4531710933381
 20
-140.562307365033
 30
0.0
 10
88.53550887543557
 20
-140.5219997478556
 30
0.0
 10
88.65402016012817
 20
-140.5219997478556
 30
0.0
 10
88.90792369739108
 20
-140.5219997478556
 30
0.0
 10
89.14494626677627
 20
-140.7083794136076
 30
0.0
 10
89.14494626677627
 20
-141.0215385932168
 30
0.0
 10
89.14494626677627
 20
-141.3388318874084
 30
0.0
 10
88.92067055068651
 20
-141.5734428899539
 30
0.0
 10
88.61819116708156
 20
-141.5734428899539
 30
0.0
  0
HATCH
  5
CF
330
C8
100
AcDbEntity
  8
_U+30EC_U+30A4_U+30E4_U+30FC 1
 62
   179
420
  2234388
100
AcDbHatch
 10
0.0
 20
0.0
 30
0.0
210
0.0
220
0.0
230
1.0
  2
SOLID
 70
     1
 71
     0
 91
        1
 92
        1
 93
        1
 72
     4
 94
        3
 73
     0
 74
     1
 95
       53
 96
       49
 40
0.0
 40
0.0
 40
0.0
 40
0.0
 40
1.0
 40
1.0
 40
1.0
 40
2.0
 40
2.0
 40
2.0
 40
3.0
 40
3.0
 40
3.0
 40
4.0
 40
4.0
 40
4.0
 40
5.0
 40
5.0
 40
5.0
 40
6.0
 40
6.0
 40
6.0
 40
7.0
 40
7.0
 40
7.0
 40
8.0
 40
8.0
 40
8.0
 40
9.0
 40
9.0
 40
9.0
 40
10.0
 40
10.0
 40
10.0
 40
11.0
 40
11.0
 40
11.0
 40
12.0
 40
12.0
 40
12.0
 40
13.0
 40
13.0
 40
13.0
 40
14.0
 40
14.0
 40
14.0
 40
15.0
 40
15.0
 40
15.0
 40
16.0
 40
16.0
 40
16.0
 40
16.0
 10
88.61819116708156
 20
-141.5734428899539
 10
88.5399874995664
 20
-141.5734428899539
 10
88.43835718275153
 20
-141.5565619220762
 10
88.33672686593665
 20
-141.4931721651475
 10
88.16343856302859
 20
-141.3832736191681
 10
88.14207897102004
 20
-141.2520154811801
 10
88.12313094585116
 20
-141.1441839924917
 10
88.12313094585116
 20
-141.1441839924917
 10
88.34533960464978
 20
-141.1441839924917
 10
88.34533960464978
 20
-141.1441839924917
 10
88.40011662286526
 20
-141.3429660019906
 10
88.52724064627097
 20
-141.3725938231638
 10
88.62025822437272
 20
-141.3725938231638
 10
88.75978459152533
 20
-141.3725938231638
 10
88.91205781197338
 20
-141.2730305636401
 10
88.91205781197338
 20
-141.0404866183857
 10
88.91205781197338
 20
-140.7845160238317
 10
88.73222382764334
 20
-140.7145805854811
 10
88.6116454856596
 20
-140.7145805854811
 10
88.5799506071953
 20
-140.7145805854811
 10
88.43835718275153
 20
-140.7145805854811
 10
88.34947371923208
 20
-140.843771666178
 10
88.34947371923208
 20
-140.843771666178
 10
88.17377384948433
 20
-140.8248236410091
 10
88.17377384948433
 20
-140.8248236410091
 10
88.17377384948433
 20
-140.8248236410091
 10
88.29435219146808
 20
-139.9783636802832
 10
88.29435219146808
 20
-139.9783636802832
 10
88.29435219146808
 20
-139.9783636802832
 10
89.07294377113455
 20
-139.9783636802832
 10
89.07294377113455
 20
-139.9783636802832
 10
89.07294377113455
 20
-139.9783636802832
 10
89.07294377113455
 20
-140.1730115751998
 10
89.07294377113455
 20
-140.1730115751998
 10
89.07294377113455
 20
-140.1730115751998
 10
88.4573052079204
 20
-140.1730115751998
 10
88.4573052079204
 20
-140.1730115751998
 10
88.4573052079204
 20
-140.1730115751998
 10
88.39184839370066
 20
-140.5960693007885
 10
88.39184839370066
 20
-140.5960693007885
 10
88.4531710933381
 20
-140.562307365033
 10
88.53550887543557
 20
-140.5219997478556
 10
88.65402016012817
 20
-140.5219997478556
 10
88.90792369739108
 20
-140.5219997478556
 10
89.14494626677627
 20
-140.7083794136076
 10
89.14494626677627
 20
-141.0215385932168
 10
89.14494626677627
 20
-141.3388318874084
 10
88.92067055068651
 20
-141.5734428899539
 10
88.61819116708156
 20
-141.5734428899539
 97
        0
 97
        0
 75
     2
 76
     1
 98
        0
  0
ENDBLK
  5
CB
330
C8
100
AcDbEntity
  8
0
100
AcDbBlockEnd
  0
ENDSEC
  0
SECTION
  2
ENTITIES
  0
POLYLINE
  5
41
330
1F
100
AcDbEntity
  8
_U+30EC_U+30A4_U+30E4_U+30FC 1
370
     0
100
AcDb2dPolyline
 66
     1
 10
0.0
 20
0.0
 30
0.0
  0
VERTEX
  5
42
330
41
100
AcDbEntity
  8
_U+30EC_U+30A4_U+30E4_U+30FC 1
370
     0
100
AcDbVertex
100
AcDb2dVertex
 10
88.64920801614807
 20
-121.9691419139522
 30
0.0
  0
VERTEX
  5
43
330
41
100
AcDbEntity
  8
_U+30EC_U+30A4_U+30E4_U+30FC 1
370
     0
100
AcDbVertex
100
AcDb2dVertex
 10
87.44926971342771
 20
-121.9691419139522
 30
0.0
  0
VERTEX
  5
44
330
41
100
AcDbEntity
  8
_U+30EC_U+30A4_U+30E4_U+30FC 1
370
     0
100
AcDbVertex
100
AcDb2dVertex
 10
87.44926971342771
 20
-136.9687238546465
 30
0.0
  0
VERTEX
  5
45
330
41
100
AcDbEntity
  8
_U+30EC_U+30A4_U+30E4_U+30FC 1
370
     0
100
AcDbVertex
100
AcDb2dVertex
 10
80.54907766724405
 20
-136.9687238546465
 30
0.0
  0
VERTEX
  5
46
330
41
100
AcDbEntity
  8
_U+30EC_U+30A4_U+30E4_U+30FC 1
370
     0
100
AcDbVertex
100
AcDb2dVertex
 10
80.54907766724405
 20
-138.1690149654578
 30
0.0
  0
VERTEX
  5
47
330
41
100
AcDbEntity
  8
_U+30EC_U+30A4_U+30E4_U+30FC 1
370
     0
100
AcDbVertex
100
AcDb2dVertex
 10
95.54904728456295
 20
-138.1690149654578
 30
0.0
  0
VERTEX
  5
48
330
41
100
AcDbEntity
  8
_U+30EC_U+30A4_U+30E4_U+30FC 1
370
     0
100
AcDbVertex
100
AcDb2dVertex
 10
95.54904728456295
 20
-136.9687238546465
 30
0.0
  0
VERTEX
  5
49
330
41
100
AcDbEntity
  8
_U+30EC_U+30A4_U+30E4_U+30FC 1
370
     0
100
AcDbVertex
100
AcDb2dVertex
 10
88.64920801614807
 20
-136.9687238546465
 30
0.0
  0
VERTEX
  5
4A
330
41
100
AcDbEntity
  8
_U+30EC_U+30A4_U+30E4_U+30FC 1
370
     0
100
AcDbVertex
100
AcDb2dVertex
 10
88.64920801614807
 20
-121.9691419139522
 30
0.0
  0
SEQEND
  5
4C
330
41
100
AcDbEntity
  8
_U+30EC_U+30A4_U+30E4_U+30FC 1
370
     0
  0
HATCH
  5
4B
330
1F
100
AcDbEntity
  8
_U+30EC_U+30A4_U+30E4_U+30FC 1
 62
   253
420
 11711154
100
AcDbHatch
 10
0.0
 20
0.0
 30
0.0
210
0.0
220
0.0
230
1.0
  2
SOLID
 70
     1
 71
     0
 91
        1
 92
        1
 93
        8
 72
     1
 10
88.64920801614807
 20
-121.9691419139522
 11
87.44926971342771
 21
-121.9691419139522
 72
     1
 10
87.44926971342771
 20
-121.9691419139522
 11
87.44926971342771
 21
-136.9687238546465
 72
     1
 10
87.44926971342771
 20
-136.9687238546465
 11
80.54907766724405
 21
-136.9687238546465
 72
     1
 10
80.54907766724405
 20
-136.9687238546465
 11
80.54907766724405
 21
-138.1690149654578
 72
     1
 10
80.54907766724405
 20
-138.1690149654578
 11
95.54904728456295
 21
-138.1690149654578
 72
     1
 10
95.54904728456295
 20
-138.1690149654578
 11
95.54904728456295
 21
-136.9687238546465
 72
     1
 10
95.54904728456295
 20
-136.9687238546465
 11
88.64920801614807
 21
-136.9687238546465
 72
     1
 10
88.64920801614807
 20
-136.9687238546465
 11
88.64920801614807
 21
-121.9691419139522
 97
        0
 75
     2
 76
     1
 98
        0
  0
POLYLINE
  5
4D
330
1F
100
AcDbEntity
  8
_U+30EC_U+30A4_U+30E4_U+30FC 1
 62
   179
420
  2234388
370
    25
100
AcDb2dPolyline
 66
     1
 10
0.0
 20
0.0
 30
0.0
  0
VERTEX
  5
4E
330
4D
100
AcDbEntity
  8
_U+30EC_U+30A4_U+30E4_U+30FC 1
 62
   179
420
  2234388
370
    25
100
AcDbVertex
100
AcDb2dVertex
 10
80.54907766724405
 20
-138.1690149654578
 30
0.0
  0
VERTEX
  5
4F
330
4D
100
AcDbEntity
  8
_U+30EC_U+30A4_U+30E4_U+30FC 1
 62
   179
420
  2234388
370
    25
100
AcDbVertex
100
AcDb2dVertex
 10
95.54904728456295
 20
-138.1690149654578
 30
0.0
  0
SEQEND
  5
50
330
4D
100
AcDbEntity
  8
_U+30EC_U+30A4_U+30E4_U+30FC 1
 62
   179
420
  2234388
370
    25
  0
POLYLINE
  5
51
330
1F
100
AcDbEntity
  8
_U+30EC_U+30A4_U+30E4_U+30FC 1
 62
   179
420
  2234388
370
    25
100
AcDb2dPolyline
 66
     1
 10
0.0
 20
0.0
 30
0.0
  0
VERTEX
  5
52
330
51
100
AcDbEntity
  8
_U+30EC_U+30A4_U+30E4_U+30FC 1
 62
   179
420
  2234388
370
    25
100
AcDbVertex
100
AcDb2dVertex
 10
88.64920801614807
 20
-121.9691419139522
 30
0.0
  0
VERTEX
  5
53
330
51
100
AcDbEntity
  8
_U+30EC_U+30A4_U+30E4_U+30FC 1
 62
   179
420
  2234388
370
    25
100
AcDbVertex
100
AcDb2dVertex
 10
88.64920801614807
 20
-136.9687238546465
 30
0.0
  0
SEQEND
  5
54
330
51
100
AcDbEntity
  8
_U+30EC_U+30A4_U+30E4_U+30FC 1
 62
   179
420
  2234388
370
    25
  0
POLYLINE
  5
55
330
1F
100
AcDbEntity
  8
_U+30EC_U+30A4_U+30E4_U+30FC 1
 62
   179
420
  2234388
370
    25
100
AcDb2dPolyline
 66
     1
 10
0.0
 20
0.0
 30
0.0
  0
VERTEX
  5
56
330
55
100
AcDbEntity
  8
_U+30EC_U+30A4_U+30E4_U+30FC 1
 62
   179
420
  2234388
370
    25
100
AcDbVertex
100
AcDb2dVertex
 10
87.44926971342771
 20
-121.9691419139522
 30
0.0
  0
VERTEX
  5
57
330
55
100
AcDbEntity
  8
_U+30EC_U+30A4_U+30E4_U+30FC 1
 62
   179
420
  2234388
370
    25
100
AcDbVertex
100
AcDb2dVertex
 10
87.44926971342771
 20
-136.9687238546465
 30
0.0
  0
SEQEND
  5
58
330
55
100
AcDbEntity
  8
_U+30EC_U+30A4_U+30E4_U+30FC 1
 62
   179
420
  2234388
370
    25
  0
POLYLINE
  5
59
330
1F
100
AcDbEntity
  8
_U+30EC_U+30A4_U+30E4_U+30FC 1
 62
   179
420
  2234388
370
    25
100
AcDb2dPolyline
 66
     1
 10
0.0
 20
0.0
 30
0.0
  0
VERTEX
  5
5A
330
59
100
AcDbEntity
  8
_U+30EC_U+30A4_U+30E4_U+30FC 1
 62
   179
420
  2234388
370
    25
100
AcDbVertex
100
AcDb2dVertex
 10
80.54907766724405
 20
-136.9687238546465
 30
0.0
  0
VERTEX
  5
5B
330
59
100
AcDbEntity
  8
_U+30EC_U+30A4_U+30E4_U+30FC 1
 62
   179
420
  2234388
370
    25
100
AcDbVertex
100
AcDb2dVertex
 10
87.44926971342771
 20
-136.9687238546465
 30
0.0
  0
SEQEND
  5
5C
330
59
100
AcDbEntity
  8
_U+30EC_U+30A4_U+30E4_U+30FC 1
 62
   179
420
  2234388
370
    25
  0
POLYLINE
  5
5D
330
1F
100
AcDbEntity
  8
_U+30EC_U+30A4_U+30E4_U+30FC 1
 62
   179
420
  2234388
370
    25
100
AcDb2dPolyline
 66
     1
 10
0.0
 20
0.0
 30
0.0
  0
VERTEX
  5
5E
330
5D
100
AcDbEntity
  8
_U+30EC_U+30A4_U+30E4_U+30FC 1
 62
   179
420
  2234388
370
    25
100
AcDbVertex
100
AcDb2dVertex
 10
80.54907766724405
 20
-136.9687238546465
 30
0.0
  0
VERTEX
  5
5F
330
5D
100
AcDbEntity
  8
_U+30EC_U+30A4_U+30E4_U+30FC 1
 62
   179
420
  2234388
370
    25
100
AcDbVertex
100
AcDb2dVertex
 10
80.54907766724405
 20
-138.1690149654578
 30
0.0
  0
SEQEND
  5
60
330
5D
100
AcDbEntity
  8
_U+30EC_U+30A4_U+30E4_U+30FC 1
 62
   179
420
  2234388
370
    25
  0
POLYLINE
  5
61
330
1F
100
AcDbEntity
  8
_U+30EC_U+30A4_U+30E4_U+30FC 1
 62
   179
420
  2234388
370
    25
100
AcDb2dPolyline
 66
     1
 10
0.0
 20
0.0
 30
0.0
  0
VERTEX
  5
62
330
61
100
AcDbEntity
  8
_U+30EC_U+30A4_U+30E4_U+30FC 1
 62
   179
420
  2234388
370
    25
100
AcDbVertex
100
AcDb2dVertex
 10
95.54904728456295
 20
-136.9687238546465
 30
0.0
  0
VERTEX
  5
63
330
61
100
AcDbEntity
  8
_U+30EC_U+30A4_U+30E4_U+30FC 1
 62
   179
420
  2234388
370
    25
100
AcDbVertex
100
AcDb2dVertex
 10
95.54904728456295
 20
-138.1690149654578
 30
0.0
  0
SEQEND
  5
64
330
61
100
AcDbEntity
  8
_U+30EC_U+30A4_U+30E4_U+30FC 1
 62
   179
420
  2234388
370
    25
  0
POLYLINE
  5
65
330
1F
100
AcDbEntity
  8
_U+30EC_U+30A4_U+30E4_U+30FC 1
 62
   179
420
  2234388
370
    25
100
AcDb2dPolyline
 66
     1
 10
0.0
 20
0.0
 30
0.0
  0
VERTEX
  5
66
330
65
100
AcDbEntity
  8
_U+30EC_U+30A4_U+30E4_U+30FC 1
 62
   179
420
  2234388
370
    25
100
AcDbVertex
100
AcDb2dVertex
 10
87.44926971342771
 20
-121.9691419139522
 30
0.0
  0
VERTEX
  5
67
330
65
100
AcDbEntity
  8
_U+30EC_U+30A4_U+30E4_U+30FC 1
 62
   179
420
  2234388
370
    25
100
AcDbVertex
100
AcDb2dVertex
 10
88.64920801614807
 20
-121.9691419139522
 30
0.0
  0
SEQEND
  5
68
330
65
100
AcDbEntity
  8
_U+30EC_U+30A4_U+30E4_U+30FC 1
 62
   179
420
  2234388
370
    25
  0
POLYLINE
  5
69
330
1F
100
AcDbEntity
  8
_U+30EC_U+30A4_U+30E4_U+30FC 1
 62
   179
420
  2234388
370
    25
100
AcDb2dPolyline
 66
     1
 10
0.0
 20
0.0
 30
0.0
  0
VERTEX
  5
6A
330
69
100
AcDbEntity
  8
_U+30EC_U+30A4_U+30E4_U+30FC 1
 62
   179
420
  2234388
370
    25
100
AcDbVertex
100
AcDb2dVertex
 10
88.64920801614807
 20
-136.9687238546465
 30
0.0
  0
VERTEX
  5
6B
330
69
100
AcDbEntity
  8
_U+30EC_U+30A4_U+30E4_U+30FC 1
 62
   179
420
  2234388
370
    25
100
AcDbVertex
100
AcDb2dVertex
 10
95.54904728456295
 20
-136.9687238546465
 30
0.0
  0
SEQEND
  5
6C
330
69
100
AcDbEntity
  8
_U+30EC_U+30A4_U+30E4_U+30FC 1
 62
   179
420
  2234388
370
    25
  0
SPLINE
  5
6D
330
1F
100
AcDbEntity
  8
_U+30EC_U+30A4_U+30E4_U+30FC 1
 62
   179
420
  2234388
370
     9
100
AcDbSpline
210
0.0
220
0.0
230
1.0
 70
    11
 71
     3
 72
    17
 73
    13
 74
     0
 42
0.0000000001
 43
0.0000000001
 12
1.0
 22
0.0
 32
0.0
 13
1.0
 23
0.0
 33
0.0
 40
0.0
 40
0.0
 40
0.0
 40
0.0
 40
1.0
 40
1.0
 40
1.0
 40
2.0
 40
2.0
 40
2.0
 40
3.0
 40
3.0
 40
3.0
 40
4.0
 40
4.0
 40
4.0
 40
4.0
 10
80.64898433136189
 20
-142.1687388533466
 30
0.0
 10
80.64898433136189
 20
-142.1136349644717
 30
0.0
 10
80.604216832504
 20
-142.0688321867049
 30
0.0
 10
80.54907766724405
 20
-142.0688321867049
 30
0.0
 10
80.49397377976098
 20
-142.0688321867049
 30
0.0
 10
80.44917100312621
 20
-142.1136349644717
 30
0.0
 10
80.44917100312621
 20
-142.1687388533466
 30
0.0
 10
80.44917100312621
 20
-142.2242307977774
 30
0.0
 10
80.49397377976098
 20
-142.268998297766
 30
0.0
 10
80.54907766724405
 20
-142.268998297766
 30
0.0
 10
80.604216832504
 20
-142.268998297766
 30
0.0
 10
80.64898433136189
 20
-142.2242307977774
 30
0.0
 10
80.64898433136189
 20
-142.1687388533466
 30
0.0
  0
SPLINE
  5
6E
330
1F
100
AcDbEntity
  8
_U+30EC_U+30A4_U+30E4_U+30FC 1
 62
   179
420
  2234388
370
     9
100
AcDbSpline
210
0.0
220
0.0
230
1.0
 70
    11
 71
     3
 72
    17
 73
    13
 74
     0
 42
0.0000000001
 43
0.0000000001
 12
1.0
 22
0.0
 32
0.0
 13
1.0
 23
0.0
 33
0.0
 40
0.0
 40
0.0
 40
0.0
 40
0.0
 40
1.0
 40
1.0
 40
1.0
 40
2.0
 40
2.0
 40
2.0
 40
3.0
 40
3.0
 40
3.0
 40
4.0
 40
4.0
 40
4.0
 40
4.0
 10
95.64927144867268
 20
-142.1687388533466
 30
0.0
 10
95.64927144867268
 20
-142.1136349644717
 30
0.0
 10
95.6045039498148
 20
-142.0688321867049
 30
0.0
 10
95.54904728456295
 20
-142.0688321867049
 30
0.0
 10
95.49390811930299
 20
-142.0688321867049
 30
0.0
 10
95.4491406204451
 20
-142.1136349644717
 30
0.0
 10
95.4491406204451
 20
-142.1687388533466
 30
0.0
 10
95.4491406204451
 20
-142.2242307977774
 30
0.0
 10
95.49390811930299
 20
-142.268998297766
 30
0.0
 10
95.54904728456295
 20
-142.268998297766
 30
0.0
 10
95.6045039498148
 20
-142.268998297766
 30
0.0
 10
95.64927144867268
 20
-142.2242307977774
 30
0.0
 10
95.64927144867268
 20
-142.1687388533466
 30
0.0
  0
SPLINE
  5
6F
330
1F
100
AcDbEntity
  8
_U+30EC_U+30A4_U+30E4_U+30FC 1
 62
   179
420
  2234388
370
     9
100
AcDbSpline
210
0.0
220
0.0
230
1.0
 70
    11
 71
     3
 72
    17
 73
    13
 74
     0
 42
0.0000000001
 43
0.0000000001
 12
1.0
 22
0.0
 32
0.0
 13
1.0
 23
0.0
 33
0.0
 40
0.0
 40
0.0
 40
0.0
 40
0.0
 40
1.0
 40
1.0
 40
1.0
 40
2.0
 40
2.0
 40
2.0
 40
3.0
 40
3.0
 40
3.0
 40
4.0
 40
4.0
 40
4.0
 40
4.0
 10
99.64903051329699
 20
-138.1690149654578
 30
0.0
 10
99.64903051329699
 20
-138.113523021027
 30
0.0
 10
99.6042630144391
 20
-138.0687555210384
 30
0.0
 10
99.54912384917915
 20
-138.0687555210384
 30
0.0
 10
99.49401996169608
 20
-138.0687555210384
 30
0.0
 10
99.44921718506131
 20
-138.113523021027
 30
0.0
 10
99.44921718506131
 20
-138.1690149654578
 30
0.0
 10
99.44921718506131
 20
-138.2241188543328
 30
0.0
 10
99.49401996169608
 20
-138.2689216320995
 30
0.0
 10
99.54912384917915
 20
-138.2689216320995
 30
0.0
 10
99.6042630144391
 20
-138.2689216320995
 30
0.0
 10
99.64903051329699
 20
-138.2241188543328
 30
0.0
 10
99.64903051329699
 20
-138.1690149654578
 30
0.0
  0
SPLINE
  5
70
330
1F
100
AcDbEntity
  8
_U+30EC_U+30A4_U+30E4_U+30FC 1
 62
   179
420
  2234388
370
     9
100
AcDbSpline
210
0.0
220
0.0
230
1.0
 70
    11
 71
     3
 72
    17
 73
    13
 74
     0
 42
0.0000000001
 43
0.0000000001
 12
1.0
 22
0.0
 32
0.0
 13
1.0
 23
0.0
 33
0.0
 40
0.0
 40
0.0
 40
0.0
 40
0.0
 40
1.0
 40
1.0
 40
1.0
 40
2.0
 40
2.0
 40
2.0
 40
3.0
 40
3.0
 40
3.0
 40
4.0
 40
4.0
 40
4.0
 40
4.0
 10
99.64903051329699
 20
-136.9687238546465
 30
0.0
 10
99.64903051329699
 20
-136.9136199657716
 30
0.0
 10
99.6042630144391
 20
-136.8688171880049
 30
0.0
 10
99.54912384917915
 20
-136.8688171880049
 30
0.0
 10
99.49401996169608
 20
-136.8688171880049
 30
0.0
 10
99.44921718506131
 20
-136.9136199657716
 30
0.0
 10
99.44921718506131
 20
-136.9687238546465
 30
0.0
 10
99.44921718506131
 20
-137.0241805212998
 30
0.0
 10
99.49401996169608
 20
-137.0689832990659
 30
0.0
 10
99.54912384917915
 20
-137.0689832990659
 30
0.0
 10
99.6042630144391
 20
-137.0689832990659
 30
0.0
 10
99.64903051329699
 20
-137.0241805212998
 30
0.0
 10
99.64903051329699
 20
-136.9687238546465
 30
0.0
  0
SPLINE
  5
71
330
1F
100
AcDbEntity
  8
_U+30EC_U+30A4_U+30E4_U+30FC 1
 62
   179
420
  2234388
370
     9
100
AcDbSpline
210
0.0
220
0.0
230
1.0
 70
    11
 71
     3
 72
    17
 73
    13
 74
     0
 42
0.0000000001
 43
0.0000000001
 12
1.0
 22
0.0
 32
0.0
 13
1.0
 23
0.0
 33
0.0
 40
0.0
 40
0.0
 40
0.0
 40
0.0
 40
1.0
 40
1.0
 40
1.0
 40
2.0
 40
2.0
 40
2.0
 40
3.0
 40
3.0
 40
3.0
 40
4.0
 40
4.0
 40
4.0
 40
4.0
 10
99.64903051329699
 20
-121.9691419139522
 30
0.0
 10
99.64903051329699
 20
-121.9136499695217
 30
0.0
 10
99.6042630144391
 20
-121.8688824695328
 30
0.0
 10
99.54912384917915
 20
-121.8688824695328
 30
0.0
 10
99.49401996169608
 20
-121.8688824695328
 30
0.0
 10
99.44921718506131
 20
-121.9136499695217
 30
0.0
 10
99.44921718506131
 20
-121.9691419139522
 30
0.0
 10
99.44921718506131
 20
-122.0242458028272
 30
0.0
 10
99.49401996169608
 20
-122.0690485805939
 30
0.0
 10
99.54912384917915
 20
-122.0690485805939
 30
0.0
 10
99.6042630144391
 20
-122.0690485805939
 30
0.0
 10
99.64903051329699
 20
-122.0242458028272
 30
0.0
 10
99.64903051329699
 20
-121.9691419139522
 30
0.0
  0
SPLINE
  5
72
330
1F
100
AcDbEntity
  8
_U+30EC_U+30A4_U+30E4_U+30FC 1
 62
   179
420
  2234388
370
     9
100
AcDbSpline
210
0.0
220
0.0
230
1.0
 70
    11
 71
     3
 72
    17
 73
    13
 74
     0
 42
0.0000000001
 43
0.0000000001
 12
1.0
 22
0.0
 32
0.0
 13
1.0
 23
0.0
 33
0.0
 40
0.0
 40
0.0
 40
0.0
 40
0.0
 40
1.0
 40
1.0
 40
1.0
 40
2.0
 40
2.0
 40
2.0
 40
3.0
 40
3.0
 40
3.0
 40
4.0
 40
4.0
 40
4.0
 40
4.0
 10
87.54917637754554
 20
-117.968853581619
 30
0.0
 10
87.54917637754554
 20
-117.9137496927438
 30
0.0
 10
87.50437360091078
 20
-117.8689469149774
 30
0.0
 10
87.44926971342771
 20
-117.8689469149774
 30
0.0
 10
87.39381304817586
 20
-117.8689469149774
 30
0.0
 10
87.34901027154109
 20
-117.9137496927438
 30
0.0
 10
87.34901027154109
 20
-117.968853581619
 30
0.0
 10
87.34901027154109
 20
-118.0241338593828
 30
0.0
 10
87.39381304817586
 20
-118.0689366371495
 30
0.0
 10
87.44926971342771
 20
-118.0689366371495
 30
0.0
 10
87.50437360091078
 20
-118.0689366371495
 30
0.0
 10
87.54917637754554
 20
-118.0241338593828
 30
0.0
 10
87.54917637754554
 20
-117.968853581619
 30
0.0
  0
SPLINE
  5
73
330
1F
100
AcDbEntity
  8
_U+30EC_U+30A4_U+30E4_U+30FC 1
 62
   179
420
  2234388
370
     9
100
AcDbSpline
210
0.0
220
0.0
230
1.0
 70
    11
 71
     3
 72
    17
 73
    13
 74
     0
 42
0.0000000001
 43
0.0000000001
 12
1.0
 22
0.0
 32
0.0
 13
1.0
 23
0.0
 33
0.0
 40
0.0
 40
0.0
 40
0.0
 40
0.0
 40
1.0
 40
1.0
 40
1.0
 40
2.0
 40
2.0
 40
2.0
 40
3.0
 40
3.0
 40
3.0
 40
4.0
 40
4.0
 40
4.0
 40
4.0
 10
88.7491146802659
 20
-117.968853581619
 30
0.0
 10
88.7491146802659
 20
-117.9137496927438
 30
0.0
 10
88.70431190363114
 20
-117.8689469149774
 30
0.0
 10
88.64920801614807
 20
-117.8689469149774
 30
0.0
 10
88.5940688508881
 20
-117.8689469149774
 30
0.0
 10
88.54930135203023
 20
-117.9137496927438
 30
0.0
 10
88.54930135203023
 20
-117.968853581619
 30
0.0
 10
88.54930135203023
 20
-118.0241338593828
 30
0.0
 10
88.5940688508881
 20
-118.0689366371495
 30
0.0
 10
88.64920801614807
 20
-118.0689366371495
 30
0.0
 10
88.70431190363114
 20
-118.0689366371495
 30
0.0
 10
88.7491146802659
 20
-118.0241338593828
 30
0.0
 10
88.7491146802659
 20
-117.968853581619
 30
0.0
  0
POLYLINE
  5
74
330
1F
100
AcDbEntity
  8
_U+30EC_U+30A4_U+30E4_U+30FC 1
 62
   179
420
  2234388
370
     9
100
AcDb2dPolyline
 66
     1
 10
0.0
 20
0.0
 30
0.0
  0
VERTEX
  5
75
330
74
100
AcDbEntity
  8
_U+30EC_U+30A4_U+30E4_U+30FC 1
 62
   179
420
  2234388
370
     9
100
AcDbVertex
100
AcDb2dVertex
 10
99.54912384917915
 20
-136.9687238546465
 30
0.0
  0
VERTEX
  5
76
330
74
100
AcDbEntity
  8
_U+30EC_U+30A4_U+30E4_U+30FC 1
 62
   179
420
  2234388
370
     9
100
AcDbVertex
100
AcDb2dVertex
 10
99.54912384917915
 20
-138.1690149654578
 30
0.0
  0
SEQEND
  5
77
330
74
100
AcDbEntity
  8
_U+30EC_U+30A4_U+30E4_U+30FC 1
 62
   179
420
  2234388
370
     9
  0
POLYLINE
  5
78
330
1F
100
AcDbEntity
  8
_U+30EC_U+30A4_U+30E4_U+30FC 1
 62
   179
420
  2234388
370
     9
100
AcDb2dPolyline
 66
     1
 10
0.0
 20
0.0
 30
0.0
  0
VERTEX
  5
79
330
78
100
AcDbEntity
  8
_U+30EC_U+30A4_U+30E4_U+30FC 1
 62
   179
420
  2234388
370
     9
100
AcDbVertex
100
AcDb2dVertex
 10
98.0891177753159
 20
-136.9687238546465
 30
0.0
  0
VERTEX
  5
7A
330
78
100
AcDbEntity
  8
_U+30EC_U+30A4_U+30E4_U+30FC 1
 62
   179
420
  2234388
370
     9
100
AcDbVertex
100
AcDb2dVertex
 10
100.5492488236638
 20
-136.9687238546465
 30
0.0
  0
SEQEND
  5
7B
330
78
100
AcDbEntity
  8
_U+30EC_U+30A4_U+30E4_U+30FC 1
 62
   179
420
  2234388
370
     9
  0
POLYLINE
  5
7C
330
1F
100
AcDbEntity
  8
_U+30EC_U+30A4_U+30E4_U+30FC 1
 62
   179
420
  2234388
370
     9
100
AcDb2dPolyline
 66
     1
 10
0.0
 20
0.0
 30
0.0
  0
VERTEX
  5
7D
330
7C
100
AcDbEntity
  8
_U+30EC_U+30A4_U+30E4_U+30FC 1
 62
   179
420
  2234388
370
     9
100
AcDbVertex
100
AcDb2dVertex
 10
98.0891177753159
 20
-138.1690149654578
 30
0.0
  0
VERTEX
  5
7E
330
7C
100
AcDbEntity
  8
_U+30EC_U+30A4_U+30E4_U+30FC 1
 62
   179
420
  2234388
370
     9
100
AcDbVertex
100
AcDb2dVertex
 10
100.5492488236638
 20
-138.1690149654578
 30
0.0
  0
SEQEND
  5
7F
330
7C
100
AcDbEntity
  8
_U+30EC_U+30A4_U+30E4_U+30FC 1
 62
   179
420
  2234388
370
     9
  0
INSERT
  5
81
330
1F
100
AcDbEntity
  8
_U+30EC_U+30A4_U+30E4_U+30FC 1
100
AcDbBlockReference
  2
block 2
 10
0.0
 20
0.0
 30
0.0
  0
POLYLINE
  5
90
330
1F
100
AcDbEntity
  8
_U+30EC_U+30A4_U+30E4_U+30FC 1
 62
   179
420
  2234388
370
     9
100
AcDb2dPolyline
 66
     1
 10
0.0
 20
0.0
 30
0.0
  0
VERTEX
  5
91
330
90
100
AcDbEntity
  8
_U+30EC_U+30A4_U+30E4_U+30FC 1
 62
   179
420
  2234388
370
     9
100
AcDbVertex
100
AcDb2dVertex
 10
99.54912384917915
 20
-136.9687238546465
 30
0.0
  0
VERTEX
  5
92
330
90
100
AcDbEntity
  8
_U+30EC_U+30A4_U+30E4_U+30FC 1
 62
   179
420
  2234388
370
     9
100
AcDbVertex
100
AcDb2dVertex
 10
99.54912384917915
 20
-121.9691419139522
 30
0.0
  0
SEQEND
  5
93
330
90
100
AcDbEntity
  8
_U+30EC_U+30A4_U+30E4_U+30FC 1
 62
   179
420
  2234388
370
     9
  0
POLYLINE
  5
94
330
1F
100
AcDbEntity
  8
_U+30EC_U+30A4_U+30E4_U+30FC 1
 62
   179
420
  2234388
370
     9
100
AcDb2dPolyline
 66
     1
 10
0.0
 20
0.0
 30
0.0
  0
VERTEX
  5
95
330
94
100
AcDbEntity
  8
_U+30EC_U+30A4_U+30E4_U+30FC 1
 62
   179
420
  2234388
370
     9
100
AcDbVertex
100
AcDb2dVertex
 10
91.18927850690102
 20
-121.9691419139522
 30
0.0
  0
VERTEX
  5
96
330
94
100
AcDbEntity
  8
_U+30EC_U+30A4_U+30E4_U+30FC 1
 62
   179
420
  2234388
370
     9
100
AcDbVertex
100
AcDb2dVertex
 10
100.5492488236638
 20
-121.9691419139522
 30
0.0
  0
SEQEND
  5
97
330
94
100
AcDbEntity
  8
_U+30EC_U+30A4_U+30E4_U+30FC 1
 62
   179
420
  2234388
370
     9
  0
INSERT
  5
99
330
1F
100
AcDbEntity
  8
_U+30EC_U+30A4_U+30E4_U+30FC 1
100
AcDbBlockReference
  2
block 3
 10
0.0
 20
0.0
 30
0.0
  0
POLYLINE
  5
A0
330
1F
100
AcDbEntity
  8
_U+30EC_U+30A4_U+30E4_U+30FC 1
 62
   179
420
  2234388
370
     9
100
AcDb2dPolyline
 66
     1
 10
0.0
 20
0.0
 30
0.0
  0
VERTEX
  5
A1
330
A0
100
AcDbEntity
  8
_U+30EC_U+30A4_U+30E4_U+30FC 1
 62
   179
420
  2234388
370
     9
100
AcDbVertex
100
AcDb2dVertex
 10
88.64920801614807
 20
-117.968853581619
 30
0.0
  0
VERTEX
  5
A2
330
A0
100
AcDbEntity
  8
_U+30EC_U+30A4_U+30E4_U+30FC 1
 62
   179
420
  2234388
370
     9
100
AcDbVertex
100
AcDb2dVertex
 10
86.44914473894302
 20
-117.968853581619
 30
0.0
  0
SEQEND
  5
A3
330
A0
100
AcDbEntity
  8
_U+30EC_U+30A4_U+30E4_U+30FC 1
 62
   179
420
  2234388
370
     9
  0
POLYLINE
  5
A4
330
1F
100
AcDbEntity
  8
_U+30EC_U+30A4_U+30E4_U+30FC 1
 62
   179
420
  2234388
370
     9
100
AcDb2dPolyline
 66
     1
 10
0.0
 20
0.0
 30
0.0
  0
VERTEX
  5
A5
330
A4
100
AcDbEntity
  8
_U+30EC_U+30A4_U+30E4_U+30FC 1
 62
   179
420
  2234388
370
     9
100
AcDbVertex
100
AcDb2dVertex
 10
88.64920801614807
 20
-119.4287185812538
 30
0.0
  0
VERTEX
  5
A6
330
A4
100
AcDbEntity
  8
_U+30EC_U+30A4_U+30E4_U+30FC 1
 62
   179
420
  2234388
370
     9
100
AcDbVertex
100
AcDb2dVertex
 10
88.64920801614807
 20
-116.9689049707579
 30
0.0
  0
SEQEND
  5
A7
330
A4
100
AcDbEntity
  8
_U+30EC_U+30A4_U+30E4_U+30FC 1
 62
   179
420
  2234388
370
     9
  0
POLYLINE
  5
A8
330
1F
100
AcDbEntity
  8
_U+30EC_U+30A4_U+30E4_U+30FC 1
 62
   179
420
  2234388
370
     9
100
AcDb2dPolyline
 66
     1
 10
0.0
 20
0.0
 30
0.0
  0
VERTEX
  5
A9
330
A8
100
AcDbEntity
  8
_U+30EC_U+30A4_U+30E4_U+30FC 1
 62
   179
420
  2234388
370
     9
100
AcDbVertex
100
AcDb2dVertex
 10
87.44926971342771
 20
-119.4287185812538
 30
0.0
  0
VERTEX
  5
AA
330
A8
100
AcDbEntity
  8
_U+30EC_U+30A4_U+30E4_U+30FC 1
 62
   179
420
  2234388
370
     9
100
AcDbVertex
100
AcDb2dVertex
 10
87.44926971342771
 20
-116.9689049707579
 30
0.0
  0
SEQEND
  5
AB
330
A8
100
AcDbEntity
  8
_U+30EC_U+30A4_U+30E4_U+30FC 1
 62
   179
420
  2234388
370
     9
  0
INSERT
  5
AD
330
1F
100
AcDbEntity
  8
_U+30EC_U+30A4_U+30E4_U+30FC 1
100
AcDbBlockReference
  2
block 4
 10
0.0
 20
0.0
 30
0.0
  0
POLYLINE
  5
BC
330
1F
100
AcDbEntity
  8
_U+30EC_U+30A4_U+30E4_U+30FC 1
 62
   179
420
  2234388
370
     9
100
AcDb2dPolyline
 66
     1
 10
0.0
 20
0.0
 30
0.0
  0
VERTEX
  5
BD
330
BC
100
AcDbEntity
  8
_U+30EC_U+30A4_U+30E4_U+30FC 1
 62
   179
420
  2234388
370
     9
100
AcDbVertex
100
AcDb2dVertex
 10
80.54907766724405
 20
-142.1687388533466
 30
0.0
  0
VERTEX
  5
BE
330
BC
100
AcDbEntity
  8
_U+30EC_U+30A4_U+30E4_U+30FC 1
 62
   179
420
  2234388
370
     9
100
AcDbVertex
100
AcDb2dVertex
 10
95.54904728456295
 20
-142.1687388533466
 30
0.0
  0
SEQEND
  5
BF
330
BC
100
AcDbEntity
  8
_U+30EC_U+30A4_U+30E4_U+30FC 1
 62
   179
420
  2234388
370
     9
  0
POLYLINE
  5
C0
330
1F
100
AcDbEntity
  8
_U+30EC_U+30A4_U+30E4_U+30FC 1
 62
   179
420
  2234388
370
     9
100
AcDb2dPolyline
 66
     1
 10
0.0
 20
0.0
 30
0.0
  0
VERTEX
  5
C1
330
C0
100
AcDbEntity
  8
_U+30EC_U+30A4_U+30E4_U+30FC 1
 62
   179
420
  2234388
370
     9
100
AcDbVertex
100
AcDb2dVertex
 10
80.54907766724405
 20
-140.7087327426004
 30
0.0
  0
VERTEX
  5
C2
330
C0
100
AcDbEntity
  8
_U+30EC_U+30A4_U+30E4_U+30FC 1
 62
   179
420
  2234388
370
     9
100
AcDbVertex
100
AcDb2dVertex
 10
80.54907766724405
 20
-143.1688638530969
 30
0.0
  0
SEQEND
  5
C3
330
C0
100
AcDbEntity
  8
_U+30EC_U+30A4_U+30E4_U+30FC 1
 62
   179
420
  2234388
370
     9
  0
POLYLINE
  5
C4
330
1F
100
AcDbEntity
  8
_U+30EC_U+30A4_U+30E4_U+30FC 1
 62
   179
420
  2234388
370
     9
100
AcDb2dPolyline
 66
     1
 10
0.0
 20
0.0
 30
0.0
  0
VERTEX
  5
C5
330
C4
100
AcDbEntity
  8
_U+30EC_U+30A4_U+30E4_U+30FC 1
 62
   179
420
  2234388
370
     9
100
AcDbVertex
100
AcDb2dVertex
 10
95.54904728456295
 20
-140.7087327426004
 30
0.0
  0
VERTEX
  5
C6
330
C4
100
AcDbEntity
  8
_U+30EC_U+30A4_U+30E4_U+30FC 1
 62
   179
420
  2234388
370
     9
100
AcDbVertex
100
AcDb2dVertex
 10
95.54904728456295
 20
-143.1688638530969
 30
0.0
  0
SEQEND
  5
C7
330
C4
100
AcDbEntity
  8
_U+30EC_U+30A4_U+30E4_U+30FC 1
 62
   179
420
  2234388
370
     9
  0
INSERT
  5
C9
330
1F
100
AcDbEntity
  8
_U+30EC_U+30A4_U+30E4_U+30FC 1
100
AcDbBlockReference
  2
block 5
 10
0.0
 20
0.0
 30
0.0
  0
ENDSEC
  0
SECTION
  2
OBJECTS
  0
DICTIONARY
  5
C
330
0
100
AcDbDictionary
281
     1
  3
ACAD_GROUP
350
D
  3
ACAD_LAYOUT
350
1A
  3
ACAD_MATERIAL
350
3B
  3
ACAD_MLEADERSTYLE
350
D1
  3
ACAD_MLINESTYLE
350
17
  3
ACAD_PLOTSETTINGS
350
19
  3
ACAD_PLOTSTYLENAME
350
E
  3
ACAD_TABLESTYLE
350
D0
  3
ACAD_VISUALSTYLE
350
2A
  0
SUN
  5
3F
330
29
100
AcDbSun
 90
        1
290
     0
 63
     7
421
 16777215
 40
1.0
291
     1
 91
  2455826
 92
 54000000
292
     0
 70
     2
 71
   256
280
     1
  0
DICTIONARY
  5
D
102
{ACAD_REACTORS
330
C
102
}
330
C
100
AcDbDictionary
281
     1
  0
DICTIONARY
  5
1A
102
{ACAD_REACTORS
330
C
102
}
330
C
100
AcDbDictionary
281
     1
  3
Layout1
350
1E
  3
Layout2
350
26
  3
Model
350
22
  0
DICTIONARY
  5
3B
102
{ACAD_REACTORS
330
C
102
}
330
C
100
AcDbDictionary
281
     1
  3
ByBlock
350
3D
  3
ByLayer
350
3C
  3
Global
350
3E
  0
DICTIONARY
  5
D1
102
{ACAD_REACTORS
330
C
102
}
330
C
100
AcDbDictionary
281
     1
  0
DICTIONARY
  5
17
102
{ACAD_REACTORS
330
C
102
}
330
C
100
AcDbDictionary
281
     1
  3
Standard
350
18
  0
DICTIONARY
  5
19
102
{ACAD_REACTORS
330
C
102
}
330
C
100
AcDbDictionary
281
     1
  0
ACDBDICTIONARYWDFLT
  5
E
102
{ACAD_REACTORS
330
C
102
}
330
C
100
AcDbDictionary
281
     1
  3
Normal
350
F
100
AcDbDictionaryWithDefault
340
F
  0
DICTIONARY
  5
D0
102
{ACAD_REACTORS
330
C
102
}
330
C
100
AcDbDictionary
281
     1
  0
DICTIONARY
  5
2A
102
{ACAD_REACTORS
330
C
102
}
330
C
100
AcDbDictionary
281
     1
  3
2dWireframe
350
2F
  3
3D Hidden
350
31
  3
3dWireframe
350
30
  3
Basic
350
32
  3
Brighten
350
36
  3
ColorChange
350
3A
  3
Conceptual
350
34
  3
Dim
350
35
  3
Facepattern
350
39
  3
Flat
350
2B
  3
FlatWithEdges
350
2C
  3
Gouraud
350
2D
  3
GouraudWithEdges
350
2E
  3
Linepattern
350
38
  3
Realistic
350
33
  3
Thicken
350
37
  0
LAYOUT
  5
1E
102
{ACAD_REACTORS
330
1A
102
}
330
1A
100
AcDbPlotSettings
  1

  2
none_device
  4

  6

 40
0.0
 41
0.0
 42
0.0
 43
0.0
 44
0.0
 45
0.0
 46
0.0
 47
0.0
 48
0.0
 49
0.0
140
0.0
141
0.0
142
1.0
143
1.0
 70
   688
 72
     0
 73
     0
 74
     5
  7

 75
    16
 76
     0
 77
     2
 78
   300
147
1.0
148
0.0
149
0.0
100
AcDbLayout
  1
Layout1
 70
     1
 71
     1
 10
0.0
 20
0.0
 11
12.0
 21
9.0
 12
0.0
 22
0.0
 32
0.0
 14
1.000000000000000E+20
 24
1.000000000000000E+20
 34
1.000000000000000E+20
 15
-1.000000000000000E+20
 25
-1.000000000000000E+20
 35
-1.000000000000000E+20
146
0.0
 13
0.0
 23
0.0
 33
0.0
 16
1.0
 26
0.0
 36
0.0
 17
0.0
 27
1.0
 37
0.0
 76
     0
330
1B
  0
LAYOUT
  5
26
102
{ACAD_REACTORS
330
1A
102
}
330
1A
100
AcDbPlotSettings
  1

  2
none_device
  4

  6

 40
0.0
 41
0.0
 42
0.0
 43
0.0
 44
0.0
 45
0.0
 46
0.0
 47
0.0
 48
0.0
 49
0.0
140
0.0
141
0.0
142
1.0
143
1.0
 70
   688
 72
     0
 73
     0
 74
     5
  7

 75
    16
 76
     0
 77
     2
 78
   300
147
1.0
148
0.0
149
0.0
100
AcDbLayout
  1
Layout2
 70
     1
 71
     2
 10
0.0
 20
0.0
 11
0.0
 21
0.0
 12
0.0
 22
0.0
 32
0.0
 14
0.0
 24
0.0
 34
0.0
 15
0.0
 25
0.0
 35
0.0
146
0.0
 13
0.0
 23
0.0
 33
0.0
 16
1.0
 26
0.0
 36
0.0
 17
0.0
 27
1.0
 37
0.0
 76
     0
330
23
  0
LAYOUT
  5
22
102
{ACAD_REACTORS
330
1A
102
}
330
1A
100
AcDbPlotSettings
  1

  2
none_device
  4

  6

 40
0.0
 41
0.0
 42
0.0
 43
0.0
 44
0.0
 45
0.0
 46
0.0
 47
0.0
 48
0.0
 49
0.0
140
0.0
141
0.0
142
1.0
143
1.0
 70
  1712
 72
     0
 73
     0
 74
     0
  7

 75
     0
 76
     0
 77
     2
 78
   300
147
1.0
148
0.0
149
0.0
100
AcDbLayout
  1
Model
 70
     1
 71
     0
 10
0.0
 20
0.0
 11
12.0
 21
9.0
 12
0.0
 22
0.0
 32
0.0
 14
1.000000000000000E+20
 24
1.000000000000000E+20
 34
1.000000000000000E+20
 15
-1.000000000000000E+20
 25
-1.000000000000000E+20
 35
-1.000000000000000E+20
146
0.0
 13
0.0
 23
0.0
 33
0.0
 16
1.0
 26
0.0
 36
0.0
 17
0.0
 27
1.0
 37
0.0
 76
     0
330
1F
331
29
  0
MATERIAL
  5
3D
102
{ACAD_REACTORS
330
3B
102
}
330
3B
100
AcDbMaterial
  1
ByBlock
 72
     1
 94
      127
  0
MATERIAL
  5
3C
102
{ACAD_REACTORS
330
3B
102
}
330
3B
100
AcDbMaterial
  1
ByLayer
 72
     1
 94
      127
  0
MATERIAL
  5
3E
102
{ACAD_REACTORS
330
3B
102
}
330
3B
100
AcDbMaterial
  1
Global
 72
     1
 94
      127
  0
MLINESTYLE
  5
18
102
{ACAD_REACTORS
330
17
102
}
330
17
100
AcDbMlineStyle
  2
Standard
 70
     0
  3

 62
   256
 51
90.0
 52
90.0
 71
     2
 49
0.5
 62
   256
  6
BYLAYER
 49
-0.5
 62
   256
  6
BYLAYER
  0
ACDBPLACEHOLDER
  5
F
102
{ACAD_REACTORS
330
E
102
}
330
E
  0
VISUALSTYLE
  5
2F
102
{ACAD_REACTORS
330
2A
102
}
330
2A
100
AcDbVisualStyle
  2
2dWireframe
 70
     4
177
     2
291
     0
 71
     0
176
     1
 72
     2
176
     1
 73
     0
176
     1
 90
        0
176
     1
 40
-0.6
176
     1
 41
-30.0
176
     1
 62
     5
 63
     7
421
 16777215
176
     1
 74
     1
176
     1
 91
        4
176
     1
 64
     7
176
     1
 65
   257
176
     1
 75
     1
176
     1
175
     1
176
     1
 42
1.0
176
     1
 92
        0
176
     1
 66
   257
176
     1
 43
1.0
176
     1
 76
     1
176
     1
 77
     6
176
     1
 78
     2
176
     1
 67
     7
176
     1
 79
     5
176
     1
170
     0
176
     1
171
     0
176
     1
290
     0
176
     1
 93
        1
176
     1
 44
0.0
176
     1
173
     0
176
     1
  0
VISUALSTYLE
  5
31
102
{ACAD_REACTORS
330
2A
102
}
330
2A
100
AcDbVisualStyle
  2
3D Hidden
 70
     6
177
     2
291
     0
 71
     1
176
     1
 72
     2
176
     1
 73
     2
176
     1
 90
        0
176
     1
 40
-0.6
176
     1
 41
-30.0
176
     1
 62
     5
 63
     7
421
 16777215
176
     1
 74
     2
176
     1
 91
        2
176
     1
 64
     7
176
     1
 65
   257
176
     1
 75
     2
176
     1
175
     1
176
     1
 42
40.0
176
     1
 92
        0
176
     1
 66
   257
176
     1
 43
1.0
176
     1
 76
     1
176
     1
 77
     6
176
     1
 78
     2
176
     1
 67
     7
176
     1
 79
     3
176
     1
170
     0
176
     1
171
     0
176
     1
290
     0
176
     1
 93
        1
176
     1
 44
0.0
176
     1
173
     0
176
     1
  0
VISUALSTYLE
  5
30
102
{ACAD_REACTORS
330
2A
102
}
330
2A
100
AcDbVisualStyle
  2
3dWireframe
 70
     5
177
     2
291
     0
 71
     0
176
     1
 72
     2
176
     1
 73
     0
176
     1
 90
        0
176
     1
 40
-0.6
176
     1
 41
-30.0
176
     1
 62
     5
 63
     7
421
 16777215
176
     1
 74
     1
176
     1
 91
        4
176
     1
 64
     7
176
     1
 65
   257
176
     1
 75
     1
176
     1
175
     1
176
     1
 42
1.0
176
     1
 92
        0
176
     1
 66
   257
176
     1
 43
1.0
176
     1
 76
     1
176
     1
 77
     6
176
     1
 78
     2
176
     1
 67
     7
176
     1
 79
     5
176
     1
170
     0
176
     1
171
     0
176
     1
290
     0
176
     1
 93
        1
176
     1
 44
0.0
176
     1
173
     0
176
     1
  0
VISUALSTYLE
  5
32
102
{ACAD_REACTORS
330
2A
102
}
330
2A
100
AcDbVisualStyle
  2
Basic
 70
     7
177
     2
291
     1
 71
     1
176
     1
 72
     0
176
     1
 73
     1
176
     1
 90
        0
176
     1
 40
-0.6
176
     1
 41
-30.0
176
     1
 62
     5
 63
     7
421
 16777215
176
     1
 74
     0
176
     1
 91
        4
176
     1
 64
     7
176
     1
 65
   257
176
     1
 75
     1
176
     1
175
     1
176
     1
 42
1.0
176
     1
 92
        8
176
     1
 66
     7
176
     1
 43
1.0
176
     1
 76
     1
176
     1
 77
     6
176
     1
 78
     2
176
     1
 67
     7
176
     1
 79
     5
176
     1
170
     0
176
     1
171
     0
176
     1
290
     0
176
     1
 93
        1
176
     1
 44
0.0
176
     1
173
     0
176
     1
  0
VISUALSTYLE
  5
36
102
{ACAD_REACTORS
330
2A
102
}
330
2A
100
AcDbVisualStyle
  2
Brighten
 70
    12
177
     2
291
     1
 71
     2
176
     1
 72
     2
176
     1
 73
     0
176
     1
 90
        0
176
     1
 40
-0.6
176
     1
 41
-30.0
176
     1
 62
     5
 63
     7
421
 16777215
176
     1
 74
     1
176
     1
 91
        4
176
     1
 64
     7
176
     1
 65
   257
176
     1
 75
     1
176
     1
175
     1
176
     1
 42
1.0
176
     1
 92
        8
176
     1
 66
     7
176
     1
 43
1.0
176
     1
 76
     1
176
     1
 77
     6
176
     1
 78
     2
176
     1
 67
     7
176
     1
 79
     5
176
     1
170
     0
176
     1
171
     0
176
     1
290
     0
176
     1
 93
        1
176
     1
 44
50.0
176
     1
173
     0
176
     1
  0
VISUALSTYLE
  5
3A
102
{ACAD_REACTORS
330
2A
102
}
330
2A
100
AcDbVisualStyle
  2
ColorChange
 70
    16
177
     2
291
     1
 71
     2
176
     1
 72
     2
176
     1
 73
     3
176
     1
 90
        0
176
     1
 40
-0.6
176
     1
 41
-30.0
176
     1
 62
     5
 63
     8
421
  8421504
176
     1
 74
     1
176
     1
 91
        4
176
     1
 64
     7
176
     1
 65
   257
176
     1
 75
     1
176
     1
175
     1
176
     1
 42
1.0
176
     1
 92
        8
176
     1
 66
     8
424
  8421504
176
     1
 43
1.0
176
     1
 76
     1
176
     1
 77
     6
176
     1
 78
     2
176
     1
 67
     7
176
     1
 79
     5
176
     1
170
     0
176
     1
171
     0
176
     1
290
     0
176
     1
 93
        1
176
     1
 44
0.0
176
     1
173
     0
176
     1
  0
VISUALSTYLE
  5
34
102
{ACAD_REACTORS
330
2A
102
}
330
2A
100
AcDbVisualStyle
  2
Conceptual
 70
     9
177
     2
291
     0
 71
     3
176
     1
 72
     2
176
     1
 73
     0
176
     1
 90
        0
176
     1
 40
-0.6
176
     1
 41
-30.0
176
     1
 62
     5
 63
     7
421
 16777215
176
     1
 74
     2
176
     1
 91
        2
176
     1
 64
     7
176
     1
 65
   257
176
     1
 75
     1
176
     1
175
     1
176
     1
 42
40.0
176
     1
 92
        8
176
     1
 66
     7
176
     1
 43
1.0
176
     1
 76
     1
176
     1
 77
     6
176
     1
 78
     2
176
     1
 67
     7
176
     1
 79
     3
176
     1
170
     0
176
     1
171
     0
176
     1
290
     0
176
     1
 93
        1
176
     1
 44
0.0
176
     1
173
     0
176
     1
  0
VISUALSTYLE
  5
35
102
{ACAD_REACTORS
330
2A
102
}
330
2A
100
AcDbVisualStyle
  2
Dim
 70
    11
177
     2
291
     1
 71
     2
176
     1
 72
     2
176
     1
 73
     0
176
     1
 90
        0
176
     1
 40
-0.6
176
     1
 41
-30.0
176
     1
 62
     5
 63
     7
421
 16777215
176
     1
 74
     1
176
     1
 91
        4
176
     1
 64
     7
176
     1
 65
   257
176
     1
 75
     1
176
     1
175
     1
176
     1
 42
1.0
176
     1
 92
        8
176
     1
 66
     7
176
     1
 43
1.0
176
     1
 76
     1
176
     1
 77
     6
176
     1
 78
     2
176
     1
 67
     7
176
     1
 79
     5
176
     1
170
     0
176
     1
171
     0
176
     1
290
     0
176
     1
 93
        1
176
     1
 44
-50.0
176
     1
173
     0
176
     1
  0
VISUALSTYLE
  5
39
102
{ACAD_REACTORS
330
2A
102
}
330
2A
100
AcDbVisualStyle
  2
Facepattern
 70
    15
177
     2
291
     1
 71
     2
176
     1
 72
     2
176
     1
 73
     0
176
     1
 90
        0
176
     1
 40
-0.6
176
     1
 41
-30.0
176
     1
 62
     5
 63
     7
421
 16777215
176
     1
 74
     1
176
     1
 91
        4
176
     1
 64
     7
176
     1
 65
   257
176
     1
 75
     1
176
     1
175
     1
176
     1
 42
1.0
176
     1
 92
        8
176
     1
 66
     7
176
     1
 43
1.0
176
     1
 76
     1
176
     1
 77
     6
176
     1
 78
     2
176
     1
 67
     7
176
     1
 79
     5
176
     1
170
     0
176
     1
171
     0
176
     1
290
     0
176
     1
 93
        1
176
     1
 44
0.0
176
     1
173
     0
176
     1
  0
VISUALSTYLE
  5
2B
102
{ACAD_REACTORS
330
2A
102
}
330
2A
100
AcDbVisualStyle
  2
Flat
 70
     0
177
     2
291
     1
 71
     2
176
     1
 72
     1
176
     1
 73
     1
176
     1
 90
        2
176
     1
 40
-0.6
176
     1
 41
30.0
176
     1
 62
     5
 63
     7
421
 16777215
176
     1
 74
     0
176
     1
 91
        4
176
     1
 64
     7
176
     1
 65
   257
176
     1
 75
     1
176
     1
175
     1
176
     1
 42
1.0
176
     1
 92
        8
176
     1
 66
     7
176
     1
 43
1.0
176
     1
 76
     1
176
     1
 77
     6
176
     1
 78
     2
176
     1
 67
     7
176
     1
 79
     5
176
     1
170
     0
176
     1
171
     0
176
     1
290
     0
176
     1
 93
       13
176
     1
 44
0.0
176
     1
173
     0
176
     1
  0
VISUALSTYLE
  5
2C
102
{ACAD_REACTORS
330
2A
102
}
330
2A
100
AcDbVisualStyle
  2
FlatWithEdges
 70
     1
177
     2
291
     1
 71
     2
176
     1
 72
     1
176
     1
 73
     1
176
     1
 90
        2
176
     1
 40
-0.6
176
     1
 41
30.0
176
     1
 62
     5
 63
     7
421
 16777215
176
     1
 74
     1
176
     1
 91
        4
176
     1
 64
     7
176
     1
 65
   257
176
     1
 75
     1
176
     1
175
     1
176
     1
 42
1.0
176
     1
 92
        0
176
     1
 66
   257
176
     1
 43
1.0
176
     1
 76
     1
176
     1
 77
     6
176
     1
 78
     2
176
     1
 67
     7
176
     1
 79
     5
176
     1
170
     0
176
     1
171
     0
176
     1
290
     0
176
     1
 93
       13
176
     1
 44
0.0
176
     1
173
     0
176
     1
  0
VISUALSTYLE
  5
2D
102
{ACAD_REACTORS
330
2A
102
}
330
2A
100
AcDbVisualStyle
  2
Gouraud
 70
     2
177
     2
291
     1
 71
     2
176
     1
 72
     2
176
     1
 73
     1
176
     1
 90
        2
176
     1
 40
-0.6
176
     1
 41
30.0
176
     1
 62
     5
 63
     7
421
 16777215
176
     1
 74
     0
176
     1
 91
        4
176
     1
 64
     7
176
     1
 65
   257
176
     1
 75
     1
176
     1
175
     1
176
     1
 42
1.0
176
     1
 92
        0
176
     1
 66
     7
176
     1
 43
1.0
176
     1
 76
     1
176
     1
 77
     6
176
     1
 78
     2
176
     1
 67
     7
176
     1
 79
     5
176
     1
170
     0
176
     1
171
     0
176
     1
290
     0
176
     1
 93
       13
176
     1
 44
0.0
176
     1
173
     0
176
     1
  0
VISUALSTYLE
  5
2E
102
{ACAD_REACTORS
330
2A
102
}
330
2A
100
AcDbVisualStyle
  2
GouraudWithEdges
 70
     3
177
     2
291
     1
 71
     2
176
     1
 72
     2
176
     1
 73
     1
176
     1
 90
        2
176
     1
 40
-0.6
176
     1
 41
30.0
176
     1
 62
     5
 63
     7
421
 16777215
176
     1
 74
     1
176
     1
 91
        4
176
     1
 64
     7
176
     1
 65
   257
176
     1
 75
     1
176
     1
175
     1
176
     1
 42
1.0
176
     1
 92
        0
176
     1
 66
   257
176
     1
 43
1.0
176
     1
 76
     1
176
     1
 77
     6
176
     1
 78
     2
176
     1
 67
     7
176
     1
 79
     5
176
     1
170
     0
176
     1
171
     0
176
     1
290
     0
176
     1
 93
       13
176
     1
 44
0.0
176
     1
173
     0
176
     1
  0
VISUALSTYLE
  5
38
102
{ACAD_REACTORS
330
2A
102
}
330
2A
100
AcDbVisualStyle
  2
Linepattern
 70
    14
177
     2
291
     1
 71
     2
176
     1
 72
     2
176
     1
 73
     0
176
     1
 90
        0
176
     1
 40
-0.6
176
     1
 41
-30.0
176
     1
 62
     5
 63
     7
421
 16777215
176
     1
 74
     1
176
     1
 91
        4
176
     1
 64
     7
176
     1
 65
   257
176
     1
 75
     7
176
     1
175
     7
176
     1
 42
1.0
176
     1
 92
        8
176
     1
 66
     7
176
     1
 43
1.0
176
     1
 76
     1
176
     1
 77
     6
176
     1
 78
     2
176
     1
 67
     7
176
     1
 79
     5
176
     1
170
     0
176
     1
171
     0
176
     1
290
     0
176
     1
 93
        1
176
     1
 44
0.0
176
     1
173
     0
176
     1
  0
VISUALSTYLE
  5
33
102
{ACAD_REACTORS
330
2A
102
}
330
2A
100
AcDbVisualStyle
  2
Realistic
 70
     8
177
     2
291
     0
 71
     2
176
     1
 72
     2
176
     1
 73
     0
176
     1
 90
        0
176
     1
 40
-0.6
176
     1
 41
-30.0
176
     1
 62
     5
 63
     7
421
 16777215
176
     1
 74
     1
176
     1
 91
        0
176
     1
 64
     7
176
     1
 65
   257
176
     1
 75
     1
176
     1
175
     1
176
     1
 42
1.0
176
     1
 92
        8
176
     1
 66
     8
424
  7895160
176
     1
 43
1.0
176
     1
 76
     1
176
     1
 77
     6
176
     1
 78
     2
176
     1
 67
     7
176
     1
 79
     5
176
     1
170
     0
176
     1
171
     0
176
     1
290
     0
176
     1
 93
       13
176
     1
 44
0.0
176
     1
173
     0
176
     1
  0
VISUALSTYLE
  5
37
102
{ACAD_REACTORS
330
2A
102
}
330
2A
100
AcDbVisualStyle
  2
Thicken
 70
    13
177
     2
291
     1
 71
     2
176
     1
 72
     2
176
     1
 73
     0
176
     1
 90
        0
176
     1
 40
-0.6
176
     1
 41
-30.0
176
     1
 62
     5
 63
     7
421
 16777215
176
     1
 74
     1
176
     1
 91
        4
176
     1
 64
     7
176
     1
 65
   257
176
     1
 75
     1
176
     1
175
     1
176
     1
 42
1.0
176
     1
 92
       12
176
     1
 66
     7
176
     1
 43
1.0
176
     1
 76
     1
176
     1
 77
     6
176
     1
 78
     2
176
     1
 67
     7
176
     1
 79
     5
176
     1
170
     0
176
     1
171
     0
176
     1
290
     0
176
     1
 93
        1
176
     1
 44
0.0
176
     1
173
     0
176
     1
  0
ENDSEC
  0
EOF
