  0
SECTION
  2
HEADER
  9
$ACADVER
  1
AC1024
  9
$ACADMAINTVER
 70
     6
  9
$DWGCODEPAGE
  3
UNDEFINED
  9
$INSBASE
 10
0.0
 20
0.0
 30
0.0
  9
$EXTMIN
 10
1.000000000000000E+20
 20
1.000000000000000E+20
 30
1.000000000000000E+20
  9
$EXTMAX
 10
-1.000000000000000E+20
 20
-1.000000000000000E+20
 30
-1.000000000000000E+20
  9
$LIMMIN
 10
0.0
 20
0.0
  9
$LIMMAX
 10
12.0
 20
9.0
  9
$ORTHOMODE
 70
     0
  9
$REGENMODE
 70
     1
  9
$FILLMODE
 70
     1
  9
$QTEXTMODE
 70
     0
  9
$MIRRTEXT
 70
     1
  9
$LTSCALE
 40
1.0
  9
$ATTMODE
 70
     1
  9
$TEXTSIZE
 40
0.2
  9
$TRACEWID
 40
0.05
  9
$TEXTSTYLE
  7
Standard
  9
$CLAYER
  8
0
  9
$CELTYPE
  6
ByLayer
  9
$CECOLOR
 62
   256
  9
$CELTSCALE
 40
1.0
  9
$DISPSILH
 70
     0
  9
$DIMSCALE
 40
1.0
  9
$DIMASZ
 40
0.18
  9
$DIMEXO
 40
0.0625
  9
$DIMDLI
 40
0.38
  9
$DIMRND
 40
0.0
  9
$DIMDLE
 40
0.0
  9
$DIMEXE
 40
0.18
  9
$DIMTP
 40
0.0
  9
$DIMTM
 40
0.0
  9
$DIMTXT
 40
0.18
  9
$DIMCEN
 40
0.09
  9
$DIMTSZ
 40
0.0
  9
$DIMTOL
 70
     0
  9
$DIMLIM
 70
     0
  9
$DIMTIH
 70
     1
  9
$DIMTOH
 70
     1
  9
$DIMSE1
 70
     0
  9
$DIMSE2
 70
     0
  9
$DIMTAD
 70
     0
  9
$DIMZIN
 70
     0
  9
$DIMBLK
  1

  9
$DIMASO
 70
     1
  9
$DIMSHO
 70
     1
  9
$DIMPOST
  1

  9
$DIMAPOST
  1

  9
$DIMALT
 70
     0
  9
$DIMALTD
 70
     2
  9
$DIMALTF
 40
25.4
  9
$DIMLFAC
 40
1.0
  9
$DIMTOFL
 70
     0
  9
$DIMTVP
 40
0.0
  9
$DIMTIX
 70
     0
  9
$DIMSOXD
 70
     0
  9
$DIMSAH
 70
     0
  9
$DIMBLK1
  1

  9
$DIMBLK2
  1

  9
$DIMSTYLE
  2
Standard
  9
$DIMCLRD
 70
     0
  9
$DIMCLRE
 70
     0
  9
$DIMCLRT
 70
     0
  9
$DIMTFAC
 40
1.0
  9
$DIMGAP
 40
0.09
  9
$DIMJUST
 70
     0
  9
$DIMSD1
 70
     0
  9
$DIMSD2
 70
     0
  9
$DIMTOLJ
 70
     1
  9
$DIMTZIN
 70
     0
  9
$DIMALTZ
 70
     0
  9
$DIMALTTZ
 70
     0
  9
$DIMUPT
 70
     0
  9
$DIMDEC
 70
     4
  9
$DIMTDEC
 70
     4
  9
$DIMALTU
 70
     2
  9
$DIMALTTD
 70
     2
  9
$DIMTXSTY
  7
Standard
  9
$DIMAUNIT
 70
     0
  9
$DIMADEC
 70
     0
  9
$DIMALTRND
 40
0.0
  9
$DIMAZIN
 70
     0
  9
$DIMDSEP
 70
    46
  9
$DIMATFIT
 70
     3
  9
$DIMFRAC
 70
     0
  9
$DIMLDRBLK
  1

  9
$DIMLUNIT
 70
     2
  9
$DIMLWD
 70
    -2
  9
$DIMLWE
 70
    -2
  9
$DIMTMOVE
 70
     0
  9
$DIMFXL
 40
1.0
  9
$DIMFXLON
 70
     0
  9
$DIMJOGANG
 40
0.7853981633974483
  9
$DIMTFILL
 70
     0
  9
$DIMTFILLCLR
 70
     0
  9
$DIMARCSYM
 70
     0
  9
$DIMLTYPE
  6

  9
$DIMLTEX1
  6

  9
$DIMLTEX2
  6

  9
$DIMTXTDIRECTION
 70
     0
  9
$LUNITS
 70
     2
  9
$LUPREC
 70
     4
  9
$SKETCHINC
 40
0.1
  9
$FILLETRAD
 40
0.5
  9
$AUNITS
 70
     0
  9
$AUPREC
 70
     0
  9
$MENU
  1
.
  9
$ELEVATION
 40
0.0
  9
$PELEVATION
 40
0.0
  9
$THICKNESS
 40
0.0
  9
$LIMCHECK
 70
     0
  9
$CHAMFERA
 40
0.5
  9
$CHAMFERB
 40
0.5
  9
$CHAMFERC
 40
1.0
  9
$CHAMFERD
 40
0.0
  9
$SKPOLY
 70
     0
  9
$TDCREATE
 40
2458263.583391192
  9
$TDUCREATE
 40
2458263.208391204
  9
$TDUPDATE
 40
2458263.583402766
  9
$TDUUPDATE
 40
2458263.208402778
  9
$TDINDWG
 40
0.0000000116
  9
$TDUSRTIMER
 40
0.0000000116
  9
$USRTIMER
 70
     1
  9
$ANGBASE
 50
0.0
  9
$ANGDIR
 70
     0
  9
$PDMODE
 70
     0
  9
$PDSIZE
 40
0.0
  9
$PLINEWID
 40
0.0
  9
$SPLFRAME
 70
     0
  9
$SPLINETYPE
 70
     6
  9
$SPLINESEGS
 70
     8
  9
$HANDSEED
  5
C8
  9
$SURFTAB1
 70
     6
  9
$SURFTAB2
 70
     6
  9
$SURFTYPE
 70
     6
  9
$SURFU
 70
     6
  9
$SURFV
 70
     6
  9
$UCSBASE
  2

  9
$UCSNAME
  2

  9
$UCSORG
 10
0.0
 20
0.0
 30
0.0
  9
$UCSXDIR
 10
1.0
 20
0.0
 30
0.0
  9
$UCSYDIR
 10
0.0
 20
1.0
 30
0.0
  9
$UCSORTHOREF
  2

  9
$UCSORTHOVIEW
 70
     0
  9
$UCSORGTOP
 10
0.0
 20
0.0
 30
0.0
  9
$UCSORGBOTTOM
 10
0.0
 20
0.0
 30
0.0
  9
$UCSORGLEFT
 10
0.0
 20
0.0
 30
0.0
  9
$UCSORGRIGHT
 10
0.0
 20
0.0
 30
0.0
  9
$UCSORGFRONT
 10
0.0
 20
0.0
 30
0.0
  9
$UCSORGBACK
 10
0.0
 20
0.0
 30
0.0
  9
$PUCSBASE
  2

  9
$PUCSNAME
  2

  9
$PUCSORG
 10
0.0
 20
0.0
 30
0.0
  9
$PUCSXDIR
 10
1.0
 20
0.0
 30
0.0
  9
$PUCSYDIR
 10
0.0
 20
1.0
 30
0.0
  9
$PUCSORTHOREF
  2

  9
$PUCSORTHOVIEW
 70
     0
  9
$PUCSORGTOP
 10
0.0
 20
0.0
 30
0.0
  9
$PUCSORGBOTTOM
 10
0.0
 20
0.0
 30
0.0
  9
$PUCSORGLEFT
 10
0.0
 20
0.0
 30
0.0
  9
$PUCSORGRIGHT
 10
0.0
 20
0.0
 30
0.0
  9
$PUCSORGFRONT
 10
0.0
 20
0.0
 30
0.0
  9
$PUCSORGBACK
 10
0.0
 20
0.0
 30
0.0
  9
$USERI1
 70
     0
  9
$USERI2
 70
     0
  9
$USERI3
 70
     0
  9
$USERI4
 70
     0
  9
$USERI5
 70
     0
  9
$USERR1
 40
0.0
  9
$USERR2
 40
0.0
  9
$USERR3
 40
0.0
  9
$USERR4
 40
0.0
  9
$USERR5
 40
0.0
  9
$WORLDVIEW
 70
     1
  9
$SHADEDGE
 70
     3
  9
$SHADEDIF
 70
    70
  9
$TILEMODE
 70
     1
  9
$MAXACTVP
 70
    64
  9
$PINSBASE
 10
0.0
 20
0.0
 30
0.0
  9
$PLIMCHECK
 70
     0
  9
$PEXTMIN
 10
1.000000000000000E+20
 20
1.000000000000000E+20
 30
1.000000000000000E+20
  9
$PEXTMAX
 10
-1.000000000000000E+20
 20
-1.000000000000000E+20
 30
-1.000000000000000E+20
  9
$PLIMMIN
 10
0.0
 20
0.0
  9
$PLIMMAX
 10
12.0
 20
9.0
  9
$UNITMODE
 70
     0
  9
$VISRETAIN
 70
     1
  9
$PLINEGEN
 70
     0
  9
$PSLTSCALE
 70
     1
  9
$TREEDEPTH
 70
  3020
  9
$CMLSTYLE
  2
Standard
  9
$CMLJUST
 70
     0
  9
$CMLSCALE
 40
1.0
  9
$PROXYGRAPHICS
 70
     1
  9
$MEASUREMENT
 70
     0
  9
$CELWEIGHT
370
    -1
  9
$ENDCAPS
280
     0
  9
$JOINSTYLE
280
     0
  9
$LWDISPLAY
290
     1
  9
$INSUNITS
 70
     1
  9
$HYPERLINKBASE
  1

  9
$STYLESHEET
  1

  9
$XEDIT
290
     1
  9
$CEPSNTYPE
380
     0
  9
$PSTYLEMODE
290
     1
  9
$FINGERPRINTGUID
  2
{0237D3DA-C9CC-B494-3AAA-5267F082D042}
  9
$VERSIONGUID
  2
{FAEB1C32-E019-11D5-929B-00C0DF256EC4}
  9
$EXTNAMES
290
     1
  9
$PSVPSCALE
 40
0.0
  9
$OLESTARTUP
290
     0
  9
$SORTENTS
280
   127
  9
$INDEXCTL
280
     0
  9
$HIDETEXT
280
     1
  9
$XCLIPFRAME
280
     2
  9
$HALOGAP
280
     0
  9
$OBSCOLOR
 70
   257
  9
$OBSLTYPE
280
     0
  9
$INTERSECTIONDISPLAY
280
     0
  9
$INTERSECTIONCOLOR
 70
   257
  9
$DIMASSOC
280
     2
  9
$PROJECTNAME
  1

  9
$CAMERADISPLAY
290
     0
  9
$LENSLENGTH
 40
50.0
  9
$CAMERAHEIGHT
 40
0.0
  9
$STEPSPERSEC
 40
2.0
  9
$STEPSIZE
 40
6.0
  9
$3DDWFPREC
 40
2.0
  9
$PSOLWIDTH
 40
0.25
  9
$PSOLHEIGHT
 40
4.0
  9
$LOFTANG1
 40
1.570796326794897
  9
$LOFTANG2
 40
1.570796326794897
  9
$LOFTMAG1
 40
0.0
  9
$LOFTMAG2
 40
0.0
  9
$LOFTPARAM
 70
     7
  9
$LOFTNORMALS
280
     1
  9
$LATITUDE
 40
37.795
  9
$LONGITUDE
 40
-122.394
  9
$NORTHDIRECTION
 40
0.0
  9
$TIMEZONE
 70
 -8000
  9
$LIGHTGLYPHDISPLAY
280
     1
  9
$TILEMODELIGHTSYNCH
280
     1
  9
$CMATERIAL
347
3C
  9
$SOLIDHIST
280
     1
  9
$SHOWHIST
280
     1
  9
$DWFFRAME
280
     2
  9
$DGNFRAME
280
     2
  9
$REALWORLDSCALE
290
     1
  9
$INTERFERECOLOR
 62
   256
  9
$CSHADOW
280
     0
  9
$SHADOWPLANELOCATION
 40
0.0
  0
ENDSEC
  0
SECTION
  2
CLASSES
  0
CLASS
  1
ACDBDICTIONARYWDFLT
  2
AcDbDictionaryWithDefault
  3
ObjectDBX Classes
 90
        0
 91
        4
280
     0
281
     0
  0
CLASS
  1
VISUALSTYLE
  2
AcDbVisualStyle
  3
ObjectDBX Classes
 90
     4095
 91
        4
280
     0
281
     0
  0
CLASS
  1
MATERIAL
  2
AcDbMaterial
  3
ObjectDBX Classes
 90
     1153
 91
        4
280
     0
281
     0
  0
CLASS
  1
SUN
  2
AcDbSun
  3
SCENEOE
 90
     1024
 91
        4
280
     0
281
     0
  0
ENDSEC
  0
SECTION
  2
TABLES
  0
TABLE
  2
VPORT
  5
8
330
0
100
AcDbSymbolTable
 70
     1
  0
VPORT
  5
29
330
8
100
AcDbSymbolTableRecord
100
AcDbViewportTableRecord
  2
*Active
 70
     0
 10
0.0
 20
0.0
 11
1.0
 21
1.0
 12
0.0
 22
0.0
 13
0.0
 23
0.0
 14
0.5
 24
0.5
 15
0.5
 25
0.5
 16
0.0
 26
0.0
 36
1.0
 17
105.0007777515277
 27
-148.5000416295416
 37
0.0
 40
297.0000832590831
 41
0.7070757462376333
 42
50.0
 43
0.0
 44
0.0
 50
0.0
 51
0.0
 71
     0
 72
   100
 73
     1
 74
     3
 75
     0
 76
     0
 77
     0
 78
     0
281
     0
 65
     1
110
0.0
120
0.0
130
0.0
111
1.0
121
0.0
131
0.0
112
0.0
122
1.0
132
0.0
 79
     0
146
0.0
 60
     3
 61
     5
292
     1
282
     1
141
0.0
142
0.0
 63
   250
361
3F
  0
ENDTAB
  0
TABLE
  2
LTYPE
  5
5
330
0
100
AcDbSymbolTable
 70
     1
  0
LTYPE
  5
14
330
5
100
AcDbSymbolTableRecord
100
AcDbLinetypeTableRecord
  2
ByBlock
 70
     0
  3

 72
    65
 73
     0
 40
0.0
  0
LTYPE
  5
15
330
5
100
AcDbSymbolTableRecord
100
AcDbLinetypeTableRecord
  2
ByLayer
 70
     0
  3

 72
    65
 73
     0
 40
0.0
  0
LTYPE
  5
16
330
5
100
AcDbSymbolTableRecord
100
AcDbLinetypeTableRecord
  2
Continuous
 70
     0
  3
Solid line
 72
    65
 73
     0
 40
0.0
  0
ENDTAB
  0
TABLE
  2
LAYER
  5
2
330
0
100
AcDbSymbolTable
 70
     2
  0
LAYER
  5
10
330
2
100
AcDbSymbolTableRecord
100
AcDbLayerTableRecord
  2
0
 70
     0
 62
     7
  6
Continuous
370
    -3
390
F
347
3E
  0
LAYER
  5
40
330
2
100
AcDbSymbolTableRecord
100
AcDbLayerTableRecord
  2
_U+30EC_U+30A4_U+30E4_U+30FC 1
 70
     0
 62
     7
  6
Continuous
370
    -3
390
F
347
3E
  0
ENDTAB
  0
TABLE
  2
STYLE
  5
3
330
0
100
AcDbSymbolTable
 70
     1
  0
STYLE
  5
11
330
3
100
AcDbSymbolTableRecord
100
AcDbTextStyleTableRecord
  2
Standard
 70
     0
 40
0.0
 41
1.0
 50
0.0
 71
     0
 42
0.2
  3
txt
  4

  0
ENDTAB
  0
TABLE
  2
VIEW
  5
6
330
0
100
AcDbSymbolTable
 70
     0
  0
ENDTAB
  0
TABLE
  2
UCS
  5
7
330
0
100
AcDbSymbolTable
 70
     0
  0
ENDTAB
  0
TABLE
  2
APPID
  5
9
330
0
100
AcDbSymbolTable
 70
     1
  0
APPID
  5
12
330
9
100
AcDbSymbolTableRecord
100
AcDbRegAppTableRecord
  2
ACAD
 70
     0
  0
ENDTAB
  0
TABLE
  2
DIMSTYLE
  5
A
330
0
100
AcDbSymbolTable
 70
     1
100
AcDbDimStyleTable
  0
DIMSTYLE
105
27
330
A
100
AcDbSymbolTableRecord
100
AcDbDimStyleTableRecord
  2
Standard
 70
     0
178
     0
340
11
  0
ENDTAB
  0
TABLE
  2
BLOCK_RECORD
  5
1
330
0
100
AcDbSymbolTable
 70
     6
  0
BLOCK_RECORD
  5
1F
330
1
100
AcDbSymbolTableRecord
100
AcDbBlockTableRecord
  2
*Model_Space
340
22
 70
     0
280
     1
281
     0
  0
BLOCK_RECORD
  5
1B
330
1
100
AcDbSymbolTableRecord
100
AcDbBlockTableRecord
  2
*Paper_Space
340
1E
 70
     0
280
     1
281
     0
  0
BLOCK_RECORD
  5
23
330
1
100
AcDbSymbolTableRecord
100
AcDbBlockTableRecord
  2
*Paper_Space0
340
26
 70
     0
280
     1
281
     0
  0
BLOCK_RECORD
  5
60
330
1
100
AcDbSymbolTableRecord
100
AcDbBlockTableRecord
  2
block 2
340
0
102
{BLKREFS
331
61
102
}
 70
     0
280
     1
281
     0
  0
BLOCK_RECORD
  5
7A
330
1
100
AcDbSymbolTableRecord
100
AcDbBlockTableRecord
  2
block 3
340
0
102
{BLKREFS
331
7B
102
}
 70
     0
280
     1
281
     0
  0
BLOCK_RECORD
  5
8E
330
1
100
AcDbSymbolTableRecord
100
AcDbBlockTableRecord
  2
block 4
340
0
102
{BLKREFS
331
8F
102
}
 70
     0
280
     1
281
     0
  0
BLOCK_RECORD
  5
A2
330
1
100
AcDbSymbolTableRecord
100
AcDbBlockTableRecord
  2
block 5
340
0
102
{BLKREFS
331
A3
102
}
 70
     0
280
     1
281
     0
  0
BLOCK_RECORD
  5
B6
330
1
100
AcDbSymbolTableRecord
100
AcDbBlockTableRecord
  2
block 6
340
0
102
{BLKREFS
331
B7
102
}
 70
     0
280
     1
281
     0
  0
ENDTAB
  0
ENDSEC
  0
SECTION
  2
BLOCKS
  0
BLOCK
  5
20
330
1F
100
AcDbEntity
  8
0
100
AcDbBlockBegin
  2
*Model_Space
 70
     0
 10
0.0
 20
0.0
 30
0.0
  3
*Model_Space
  1

  0
ENDBLK
  5
21
330
1F
100
AcDbEntity
  8
0
100
AcDbBlockEnd
  0
BLOCK
  5
1C
330
1B
100
AcDbEntity
 67
     1
  8
0
100
AcDbBlockBegin
  2
*Paper_Space
 70
     0
 10
0.0
 20
0.0
 30
0.0
  3
*Paper_Space
  1

  0
ENDBLK
  5
1D
330
1B
100
AcDbEntity
 67
     1
  8
0
100
AcDbBlockEnd
  0
BLOCK
  5
24
330
23
100
AcDbEntity
  8
0
100
AcDbBlockBegin
  2
*Paper_Space0
 70
     0
 10
0.0
 20
0.0
 30
0.0
  3
*Paper_Space0
  1

  0
ENDBLK
  5
25
330
23
100
AcDbEntity
  8
0
100
AcDbBlockEnd
  0
BLOCK
  5
62
330
60
100
AcDbEntity
  8
0
100
AcDbBlockBegin
  2
block 2
 70
     0
 10
0.0
 20
0.0
 30
0.0
  3
block 2
  1

  0
SPLINE
  5
64
330
60
100
AcDbEntity
  8
_U+30EC_U+30A4_U+30E4_U+30FC 1
370
     0
100
AcDbSpline
210
0.0
220
0.0
230
1.0
 70
    11
 71
     3
 72
    44
 73
    40
 74
     0
 42
0.0000000001
 43
0.0000000001
 12
1.0
 22
0.0
 32
0.0
 13
1.0
 23
0.0
 33
0.0
 40
0.0
 40
0.0
 40
0.0
 40
0.0
 40
1.0
 40
1.0
 40
1.0
 40
2.0
 40
2.0
 40
2.0
 40
3.0
 40
3.0
 40
3.0
 40
4.0
 40
4.0
 40
4.0
 40
5.0
 40
5.0
 40
5.0
 40
6.0
 40
6.0
 40
6.0
 40
7.0
 40
7.0
 40
7.0
 40
8.0
 40
8.0
 40
8.0
 40
9.0
 40
9.0
 40
9.0
 40
10.0
 40
10.0
 40
10.0
 40
11.0
 40
11.0
 40
11.0
 40
12.0
 40
12.0
 40
12.0
 40
13.0
 40
13.0
 40
13.0
 40
13.0
 10
115.5760633391615
 20
-144.2552774704466
 30
0.0
 10
115.734537731483
 20
-144.4881659252495
 30
0.0
 10
115.8089517939644
 20
-144.587556929999
 30
0.0
 10
115.9526122756994
 20
-144.6395778718262
 30
0.0
 10
115.9526122756994
 20
-144.6395778718262
 30
0.0
 10
115.9526122756994
 20
-143.8075873121384
 30
0.0
 10
115.9526122756994
 20
-143.8075873121384
 30
0.0
 10
115.9526122756994
 20
-143.8075873121384
 30
0.0
 10
116.1575954570717
 20
-143.8075873121384
 30
0.0
 10
116.1575954570717
 20
-143.8075873121384
 30
0.0
 10
116.1575954570717
 20
-143.8075873121384
 30
0.0
 10
116.1575954570717
 20
-144.9064005171588
 30
0.0
 10
116.1575954570717
 20
-144.9064005171588
 30
0.0
 10
115.7999945457028
 20
-144.8724663266291
 30
0.0
 10
115.7221353877361
 20
-144.8023586335043
 30
0.0
 10
115.4237901187135
 20
-144.3908419777912
 30
0.0
 10
115.2246635996661
 20
-144.1173013962623
 30
0.0
 10
115.1571397281552
 20
-144.0471937031375
 30
0.0
 10
115.0196804182937
 20
-144.0471937031375
 30
0.0
 10
114.9011691336011
 20
-144.0471937031375
 30
0.0
 10
114.7699109956131
 20
-144.1241915872328
 30
0.0
 10
114.7699109956131
 20
-144.3343424118331
 30
0.0
 10
114.7699109956131
 20
-144.6123616174928
 30
0.0
 10
115.0007323931248
 20
-144.6214911205287
 30
0.0
 10
115.1171766205263
 20
-144.6259697446595
 30
0.0
 10
115.1171766205263
 20
-144.6259697446595
 30
0.0
 10
115.1171766205263
 20
-144.8655761356586
 30
0.0
 10
115.1171766205263
 20
-144.8655761356586
 30
0.0
 10
114.9900525971206
 20
-144.856618887397
 30
0.0
 10
114.8780869938499
 20
-144.8452500722956
 30
0.0
 10
114.7595757091573
 20
-144.7594671947129
 30
0.0
 10
114.5986897499962
 20
-144.6418171838916
 30
0.0
 10
114.5645833046922
 20
-144.4428629196184
 30
0.0
 10
114.5645833046922
 20
-144.3184949726009
 30
0.0
 10
114.5645833046922
 20
-144.0223890156437
 30
0.0
 10
114.7488959131531
 20
-143.8008693759421
 30
0.0
 10
115.0217474755848
 20
-143.8008693759421
 30
0.0
 10
115.2501573062569
 20
-143.8008693759421
 30
0.0
 10
115.3497205657806
 20
-143.9250650681854
 30
0.0
 10
115.5760633391615
 20
-144.2552774704466
 30
0.0
  0
HATCH
  5
65
330
60
100
AcDbEntity
  8
_U+30EC_U+30A4_U+30E4_U+30FC 1
 62
   179
420
  2234388
100
AcDbHatch
 10
0.0
 20
0.0
 30
0.0
210
0.0
220
0.0
230
1.0
  2
SOLID
 70
     1
 71
     0
 91
        1
 92
        1
 93
        1
 72
     4
 94
        3
 73
     0
 74
     1
 95
       44
 96
       40
 40
0.0
 40
0.0
 40
0.0
 40
0.0
 40
1.0
 40
1.0
 40
1.0
 40
2.0
 40
2.0
 40
2.0
 40
3.0
 40
3.0
 40
3.0
 40
4.0
 40
4.0
 40
4.0
 40
5.0
 40
5.0
 40
5.0
 40
6.0
 40
6.0
 40
6.0
 40
7.0
 40
7.0
 40
7.0
 40
8.0
 40
8.0
 40
8.0
 40
9.0
 40
9.0
 40
9.0
 40
10.0
 40
10.0
 40
10.0
 40
11.0
 40
11.0
 40
11.0
 40
12.0
 40
12.0
 40
12.0
 40
13.0
 40
13.0
 40
13.0
 40
13.0
 10
115.5760633391615
 20
-144.2552774704466
 10
115.734537731483
 20
-144.4881659252495
 10
115.8089517939644
 20
-144.587556929999
 10
115.9526122756994
 20
-144.6395778718262
 10
115.9526122756994
 20
-144.6395778718262
 10
115.9526122756994
 20
-143.8075873121384
 10
115.9526122756994
 20
-143.8075873121384
 10
115.9526122756994
 20
-143.8075873121384
 10
116.1575954570717
 20
-143.8075873121384
 10
116.1575954570717
 20
-143.8075873121384
 10
116.1575954570717
 20
-143.8075873121384
 10
116.1575954570717
 20
-144.9064005171588
 10
116.1575954570717
 20
-144.9064005171588
 10
115.7999945457028
 20
-144.8724663266291
 10
115.7221353877361
 20
-144.8023586335043
 10
115.4237901187135
 20
-144.3908419777912
 10
115.2246635996661
 20
-144.1173013962623
 10
115.1571397281552
 20
-144.0471937031375
 10
115.0196804182937
 20
-144.0471937031375
 10
114.9011691336011
 20
-144.0471937031375
 10
114.7699109956131
 20
-144.1241915872328
 10
114.7699109956131
 20
-144.3343424118331
 10
114.7699109956131
 20
-144.6123616174928
 10
115.0007323931248
 20
-144.6214911205287
 10
115.1171766205263
 20
-144.6259697446595
 10
115.1171766205263
 20
-144.6259697446595
 10
115.1171766205263
 20
-144.8655761356586
 10
115.1171766205263
 20
-144.8655761356586
 10
114.9900525971206
 20
-144.856618887397
 10
114.8780869938499
 20
-144.8452500722956
 10
114.7595757091573
 20
-144.7594671947129
 10
114.5986897499962
 20
-144.6418171838916
 10
114.5645833046922
 20
-144.4428629196184
 10
114.5645833046922
 20
-144.3184949726009
 10
114.5645833046922
 20
-144.0223890156437
 10
114.7488959131531
 20
-143.8008693759421
 10
115.0217474755848
 20
-143.8008693759421
 10
115.2501573062569
 20
-143.8008693759421
 10
115.3497205657806
 20
-143.9250650681854
 10
115.5760633391615
 20
-144.2552774704466
 97
        0
 97
        0
 75
     2
 76
     1
 98
        0
  0
POLYLINE
  5
66
330
60
100
AcDbEntity
  8
_U+30EC_U+30A4_U+30E4_U+30FC 1
370
     0
100
AcDb2dPolyline
 66
     1
 10
0.0
 20
0.0
 30
0.0
  0
VERTEX
  5
67
330
66
100
AcDbEntity
  8
_U+30EC_U+30A4_U+30E4_U+30FC 1
370
     0
100
AcDbVertex
100
AcDb2dVertex
 10
116.1575954570717
 20
-143.567119647268
 30
0.0
  0
VERTEX
  5
68
330
66
100
AcDbEntity
  8
_U+30EC_U+30A4_U+30E4_U+30FC 1
370
     0
100
AcDbVertex
100
AcDb2dVertex
 10
115.9061034866485
 20
-143.567119647268
 30
0.0
  0
VERTEX
  5
69
330
66
100
AcDbEntity
  8
_U+30EC_U+30A4_U+30E4_U+30FC 1
370
     0
100
AcDbVertex
100
AcDb2dVertex
 10
115.9061034866485
 20
-143.2980576898699
 30
0.0
  0
VERTEX
  5
6A
330
66
100
AcDbEntity
  8
_U+30EC_U+30A4_U+30E4_U+30FC 1
370
     0
100
AcDbVertex
100
AcDb2dVertex
 10
116.1575954570717
 20
-143.2980576898699
 30
0.0
  0
VERTEX
  5
6B
330
66
100
AcDbEntity
  8
_U+30EC_U+30A4_U+30E4_U+30FC 1
370
     0
100
AcDbVertex
100
AcDb2dVertex
 10
116.1575954570717
 20
-143.567119647268
 30
0.0
  0
SEQEND
  5
6C
330
66
100
AcDbEntity
  8
_U+30EC_U+30A4_U+30E4_U+30FC 1
370
     0
  0
HATCH
  5
6D
330
60
100
AcDbEntity
  8
_U+30EC_U+30A4_U+30E4_U+30FC 1
 62
   179
420
  2234388
100
AcDbHatch
 10
0.0
 20
0.0
 30
0.0
210
0.0
220
0.0
230
1.0
  2
SOLID
 70
     1
 71
     0
 91
        1
 92
        1
 93
        4
 72
     1
 10
116.1575954570717
 20
-143.567119647268
 11
115.9061034866485
 21
-143.567119647268
 72
     1
 10
115.9061034866485
 20
-143.567119647268
 11
115.9061034866485
 21
-143.2980576898699
 72
     1
 10
115.9061034866485
 20
-143.2980576898699
 11
116.1575954570717
 21
-143.2980576898699
 72
     1
 10
116.1575954570717
 20
-143.2980576898699
 11
116.1575954570717
 21
-143.567119647268
 97
        0
 75
     2
 76
     1
 98
        0
  0
SPLINE
  5
6E
330
60
100
AcDbEntity
  8
_U+30EC_U+30A4_U+30E4_U+30FC 1
370
     0
100
AcDbSpline
210
0.0
220
0.0
230
1.0
 70
    11
 71
     3
 72
    53
 73
    49
 74
     0
 42
0.0000000001
 43
0.0000000001
 12
1.0
 22
0.0
 32
0.0
 13
1.0
 23
0.0
 33
0.0
 40
0.0
 40
0.0
 40
0.0
 40
0.0
 40
1.0
 40
1.0
 40
1.0
 40
2.0
 40
2.0
 40
2.0
 40
3.0
 40
3.0
 40
3.0
 40
4.0
 40
4.0
 40
4.0
 40
5.0
 40
5.0
 40
5.0
 40
6.0
 40
6.0
 40
6.0
 40
7.0
 40
7.0
 40
7.0
 40
8.0
 40
8.0
 40
8.0
 40
9.0
 40
9.0
 40
9.0
 40
10.0
 40
10.0
 40
10.0
 40
11.0
 40
11.0
 40
11.0
 40
12.0
 40
12.0
 40
12.0
 40
13.0
 40
13.0
 40
13.0
 40
14.0
 40
14.0
 40
14.0
 40
15.0
 40
15.0
 40
15.0
 40
16.0
 40
16.0
 40
16.0
 40
16.0
 10
116.2085828702534
 20
-142.5311794348533
 30
0.0
 10
116.2085828702534
 20
-142.6148952551449
 30
0.0
 10
116.1913573928272
 20
-142.7234157629303
 30
0.0
 10
116.1279676358986
 20
-142.8319362707156
 30
0.0
 10
116.0180690899191
 20
-143.0172824078221
 30
0.0
 10
115.8868109519311
 20
-143.0400200380247
 30
0.0
 10
115.7793239727913
 20
-143.0603461013877
 30
0.0
 10
115.7793239727913
 20
-143.0603461013877
 30
0.0
 10
115.7793239727913
 20
-142.822979022454
 30
0.0
 10
115.7793239727913
 20
-142.822979022454
 30
0.0
 10
115.9777614727417
 20
-142.7640678896562
 30
0.0
 10
116.0073892939148
 20
-142.6285033823116
 30
0.0
 10
116.0073892939148
 20
-142.5289401227879
 30
0.0
 10
116.0073892939148
 20
-142.3797674882766
 30
0.0
 10
115.9081705439396
 20
-142.2169867265985
 30
0.0
 10
115.6752820891367
 20
-142.2169867265985
 30
0.0
 10
115.4196560041312
 20
-142.2169867265985
 30
0.0
 10
115.3497205657806
 20
-142.4092230546755
 30
0.0
 10
115.3497205657806
 20
-142.5380696258238
 30
0.0
 10
115.3497205657806
 20
-142.5720038163535
 30
0.0
 10
115.3497205657806
 20
-142.7234157629303
 30
0.0
 10
115.4789116464775
 20
-142.8183281435489
 30
0.0
 10
115.4789116464775
 20
-142.8183281435489
 30
0.0
 10
115.4596191117601
 20
-143.006085847495
 30
0.0
 10
115.4596191117601
 20
-143.006085847495
 30
0.0
 10
115.4596191117601
 20
-143.006085847495
 30
0.0
 10
114.6135036605827
 20
-142.8770670215724
 30
0.0
 10
114.6135036605827
 20
-142.8770670215724
 30
0.0
 10
114.6135036605827
 20
-142.8770670215724
 30
0.0
 10
114.6135036605827
 20
-142.0450764618846
 30
0.0
 10
114.6135036605827
 20
-142.0450764618846
 30
0.0
 10
114.6135036605827
 20
-142.0450764618846
 30
0.0
 10
114.8081515554994
 20
-142.0450764618846
 30
0.0
 10
114.8081515554994
 20
-142.0450764618846
 30
0.0
 10
114.8081515554994
 20
-142.0450764618846
 30
0.0
 10
114.8081515554994
 20
-142.7030896995673
 30
0.0
 10
114.8081515554994
 20
-142.7030896995673
 30
0.0
 10
114.8081515554994
 20
-142.7030896995673
 30
0.0
 10
115.231209281088
 20
-142.7731973926921
 30
0.0
 10
115.231209281088
 20
-142.7731973926921
 30
0.0
 10
115.1971028357841
 20
-142.7075683236981
 30
0.0
 10
115.1571397281552
 20
-142.6193738792757
 30
0.0
 10
115.1571397281552
 20
-142.4927666201928
 30
0.0
 10
115.1571397281552
 20
-142.2214653507294
 30
0.0
 10
115.3431748843587
 20
-141.9682508325635
 30
0.0
 10
115.6563340639679
 20
-141.9682508325635
 30
0.0
 10
115.9736273581594
 20
-141.9682508325635
 30
0.0
 10
116.2085828702534
 20
-142.2080294783369
 30
0.0
 10
116.2085828702534
 20
-142.5311794348533
 30
0.0
  0
HATCH
  5
6F
330
60
100
AcDbEntity
  8
_U+30EC_U+30A4_U+30E4_U+30FC 1
 62
   179
420
  2234388
100
AcDbHatch
 10
0.0
 20
0.0
 30
0.0
210
0.0
220
0.0
230
1.0
  2
SOLID
 70
     1
 71
     0
 91
        1
 92
        1
 93
        1
 72
     4
 94
        3
 73
     0
 74
     1
 95
       53
 96
       49
 40
0.0
 40
0.0
 40
0.0
 40
0.0
 40
1.0
 40
1.0
 40
1.0
 40
2.0
 40
2.0
 40
2.0
 40
3.0
 40
3.0
 40
3.0
 40
4.0
 40
4.0
 40
4.0
 40
5.0
 40
5.0
 40
5.0
 40
6.0
 40
6.0
 40
6.0
 40
7.0
 40
7.0
 40
7.0
 40
8.0
 40
8.0
 40
8.0
 40
9.0
 40
9.0
 40
9.0
 40
10.0
 40
10.0
 40
10.0
 40
11.0
 40
11.0
 40
11.0
 40
12.0
 40
12.0
 40
12.0
 40
13.0
 40
13.0
 40
13.0
 40
14.0
 40
14.0
 40
14.0
 40
15.0
 40
15.0
 40
15.0
 40
16.0
 40
16.0
 40
16.0
 40
16.0
 10
116.2085828702534
 20
-142.5311794348533
 10
116.2085828702534
 20
-142.6148952551449
 10
116.1913573928272
 20
-142.7234157629303
 10
116.1279676358986
 20
-142.8319362707156
 10
116.0180690899191
 20
-143.0172824078221
 10
115.8868109519311
 20
-143.0400200380247
 10
115.7793239727913
 20
-143.0603461013877
 10
115.7793239727913
 20
-143.0603461013877
 10
115.7793239727913
 20
-142.822979022454
 10
115.7793239727913
 20
-142.822979022454
 10
115.9777614727417
 20
-142.7640678896562
 10
116.0073892939148
 20
-142.6285033823116
 10
116.0073892939148
 20
-142.5289401227879
 10
116.0073892939148
 20
-142.3797674882766
 10
115.9081705439396
 20
-142.2169867265985
 10
115.6752820891367
 20
-142.2169867265985
 10
115.4196560041312
 20
-142.2169867265985
 10
115.3497205657806
 20
-142.4092230546755
 10
115.3497205657806
 20
-142.5380696258238
 10
115.3497205657806
 20
-142.5720038163535
 10
115.3497205657806
 20
-142.7234157629303
 10
115.4789116464775
 20
-142.8183281435489
 10
115.4789116464775
 20
-142.8183281435489
 10
115.4596191117601
 20
-143.006085847495
 10
115.4596191117601
 20
-143.006085847495
 10
115.4596191117601
 20
-143.006085847495
 10
114.6135036605827
 20
-142.8770670215724
 10
114.6135036605827
 20
-142.8770670215724
 10
114.6135036605827
 20
-142.8770670215724
 10
114.6135036605827
 20
-142.0450764618846
 10
114.6135036605827
 20
-142.0450764618846
 10
114.6135036605827
 20
-142.0450764618846
 10
114.8081515554994
 20
-142.0450764618846
 10
114.8081515554994
 20
-142.0450764618846
 10
114.8081515554994
 20
-142.0450764618846
 10
114.8081515554994
 20
-142.7030896995673
 10
114.8081515554994
 20
-142.7030896995673
 10
114.8081515554994
 20
-142.7030896995673
 10
115.231209281088
 20
-142.7731973926921
 10
115.231209281088
 20
-142.7731973926921
 10
115.1971028357841
 20
-142.7075683236981
 10
115.1571397281552
 20
-142.6193738792757
 10
115.1571397281552
 20
-142.4927666201928
 10
115.1571397281552
 20
-142.2214653507294
 10
115.3431748843587
 20
-141.9682508325635
 10
115.6563340639679
 20
-141.9682508325635
 10
115.9736273581594
 20
-141.9682508325635
 10
116.2085828702534
 20
-142.2080294783369
 10
116.2085828702534
 20
-142.5311794348533
 97
        0
 97
        0
 75
     2
 76
     1
 98
        0
  0
ENDBLK
  5
63
330
60
100
AcDbEntity
  8
0
100
AcDbBlockEnd
  0
BLOCK
  5
7C
330
7A
100
AcDbEntity
  8
0
100
AcDbBlockBegin
  2
block 3
 70
     0
 10
0.0
 20
0.0
 30
0.0
  3
block 3
  1

  0
SPLINE
  5
7E
330
7A
100
AcDbEntity
  8
_U+30EC_U+30A4_U+30E4_U+30FC 1
370
     0
100
AcDbSpline
210
0.0
220
0.0
230
1.0
 70
    11
 71
     3
 72
    26
 73
    22
 74
     0
 42
0.0000000001
 43
0.0000000001
 12
1.0
 22
0.0
 32
0.0
 13
1.0
 23
0.0
 33
0.0
 40
0.0
 40
0.0
 40
0.0
 40
0.0
 40
1.0
 40
1.0
 40
1.0
 40
2.0
 40
2.0
 40
2.0
 40
3.0
 40
3.0
 40
3.0
 40
4.0
 40
4.0
 40
4.0
 40
5.0
 40
5.0
 40
5.0
 40
6.0
 40
6.0
 40
6.0
 40
7.0
 40
7.0
 40
7.0
 40
7.0
 10
116.1579399666202
 20
-148.6513915643997
 30
0.0
 10
116.1579399666202
 20
-148.6513915643997
 30
0.0
 10
115.0534423540491
 20
-148.6513915643997
 30
0.0
 10
115.0534423540491
 20
-148.6513915643997
 30
0.0
 10
115.0534423540491
 20
-148.6513915643997
 30
0.0
 10
115.0534423540491
 20
-149.0041693420893
 30
0.0
 10
115.0534423540491
 20
-149.0041693420893
 30
0.0
 10
115.0534423540491
 20
-149.0041693420893
 30
0.0
 10
114.9056477577319
 20
-149.0041693420893
 30
0.0
 10
114.9056477577319
 20
-149.0041693420893
 30
0.0
 10
114.8908338471454
 20
-148.6491522523342
 30
0.0
 10
114.727880830693
 20
-148.5993706225724
 30
0.0
 10
114.6135036605827
 20
-148.5676757441081
 30
0.0
 10
114.6135036605827
 20
-148.5676757441081
 30
0.0
 10
114.6135036605827
 20
-148.4117851734005
 30
0.0
 10
114.6135036605827
 20
-148.4117851734005
 30
0.0
 10
114.6135036605827
 20
-148.4117851734005
 30
0.0
 10
116.1579399666202
 20
-148.4117851734005
 30
0.0
 10
116.1579399666202
 20
-148.4117851734005
 30
0.0
 10
116.1579399666202
 20
-148.4117851734005
 30
0.0
 10
116.1579399666202
 20
-148.6513915643997
 30
0.0
 10
116.1579399666202
 20
-148.6513915643997
 30
0.0
  0
HATCH
  5
7F
330
7A
100
AcDbEntity
  8
_U+30EC_U+30A4_U+30E4_U+30FC 1
 62
   179
420
  2234388
100
AcDbHatch
 10
0.0
 20
0.0
 30
0.0
210
0.0
220
0.0
230
1.0
  2
SOLID
 70
     1
 71
     0
 91
        1
 92
        1
 93
        1
 72
     4
 94
        3
 73
     0
 74
     1
 95
       26
 96
       22
 40
0.0
 40
0.0
 40
0.0
 40
0.0
 40
1.0
 40
1.0
 40
1.0
 40
2.0
 40
2.0
 40
2.0
 40
3.0
 40
3.0
 40
3.0
 40
4.0
 40
4.0
 40
4.0
 40
5.0
 40
5.0
 40
5.0
 40
6.0
 40
6.0
 40
6.0
 40
7.0
 40
7.0
 40
7.0
 40
7.0
 10
116.1579399666202
 20
-148.6513915643997
 10
116.1579399666202
 20
-148.6513915643997
 10
115.0534423540491
 20
-148.6513915643997
 10
115.0534423540491
 20
-148.6513915643997
 10
115.0534423540491
 20
-148.6513915643997
 10
115.0534423540491
 20
-149.0041693420893
 10
115.0534423540491
 20
-149.0041693420893
 10
115.0534423540491
 20
-149.0041693420893
 10
114.9056477577319
 20
-149.0041693420893
 10
114.9056477577319
 20
-149.0041693420893
 10
114.8908338471454
 20
-148.6491522523342
 10
114.727880830693
 20
-148.5993706225724
 10
114.6135036605827
 20
-148.5676757441081
 10
114.6135036605827
 20
-148.5676757441081
 10
114.6135036605827
 20
-148.4117851734005
 10
114.6135036605827
 20
-148.4117851734005
 10
114.6135036605827
 20
-148.4117851734005
 10
116.1579399666202
 20
-148.4117851734005
 10
116.1579399666202
 20
-148.4117851734005
 10
116.1579399666202
 20
-148.4117851734005
 10
116.1579399666202
 20
-148.6513915643997
 10
116.1579399666202
 20
-148.6513915643997
 97
        0
 97
        0
 75
     2
 76
     1
 98
        0
  0
ENDBLK
  5
7D
330
7A
100
AcDbEntity
  8
0
100
AcDbBlockEnd
  0
BLOCK
  5
90
330
8E
100
AcDbEntity
  8
0
100
AcDbBlockBegin
  2
block 4
 70
     0
 10
0.0
 20
0.0
 30
0.0
  3
block 4
  1

  0
SPLINE
  5
92
330
8E
100
AcDbEntity
  8
_U+30EC_U+30A4_U+30E4_U+30FC 1
370
     0
100
AcDbSpline
210
0.0
220
0.0
230
1.0
 70
    11
 71
     3
 72
    62
 73
    58
 74
     0
 42
0.0000000001
 43
0.0000000001
 12
1.0
 22
0.0
 32
0.0
 13
1.0
 23
0.0
 33
0.0
 40
0.0
 40
0.0
 40
0.0
 40
0.0
 40
1.0
 40
1.0
 40
1.0
 40
2.0
 40
2.0
 40
2.0
 40
3.0
 40
3.0
 40
3.0
 40
4.0
 40
4.0
 40
4.0
 40
5.0
 40
5.0
 40
5.0
 40
6.0
 40
6.0
 40
6.0
 40
7.0
 40
7.0
 40
7.0
 40
8.0
 40
8.0
 40
8.0
 40
9.0
 40
9.0
 40
9.0
 40
10.0
 40
10.0
 40
10.0
 40
11.0
 40
11.0
 40
11.0
 40
12.0
 40
12.0
 40
12.0
 40
13.0
 40
13.0
 40
13.0
 40
14.0
 40
14.0
 40
14.0
 40
15.0
 40
15.0
 40
15.0
 40
16.0
 40
16.0
 40
16.0
 40
17.0
 40
17.0
 40
17.0
 40
18.0
 40
18.0
 40
18.0
 40
19.0
 40
19.0
 40
19.0
 40
19.0
 10
102.6188869643626
 20
-142.0674695825387
 30
0.0
 10
102.5172566475478
 20
-142.0674695825387
 30
0.0
 10
102.2843681927449
 20
-142.0462822453044
 30
0.0
 10
102.1508707426915
 20
-141.8600748343267
 30
0.0
 10
102.071805801305
 20
-141.7479369762818
 30
0.0
 10
102.0673271771741
 20
-141.6485459715323
 30
0.0
 10
102.0626762982691
 20
-141.5639688773694
 30
0.0
 10
102.0626762982691
 20
-141.5639688773694
 30
0.0
 10
102.2979763199116
 20
-141.5639688773694
 30
0.0
 10
102.2979763199116
 20
-141.5639688773694
 30
0.0
 10
102.300215631977
 20
-141.6380384303023
 30
0.0
 10
102.3114121923041
 20
-141.8728216876221
 30
0.0
 10
102.6144083402318
 20
-141.8728216876221
 30
0.0
 10
102.7613416626777
 20
-141.8728216876221
 30
0.0
 10
102.9241224243558
 20
-141.8030585040458
 30
0.0
 10
102.9241224243558
 20
-141.5744764185994
 30
0.0
 10
102.9241224243558
 20
-141.4582044459723
 30
0.0
 10
102.8834702976298
 20
-141.409456344856
 30
0.0
 10
102.8495361071001
 20
-141.3777614663917
 30
0.0
 10
102.7704711657136
 20
-141.3036919134588
 30
0.0
 10
102.6461032186961
 20
-141.2911173149377
 30
0.0
 10
102.5873643406726
 20
-141.2911173149377
 30
0.0
 10
102.5668660225354
 20
-141.2911173149377
 30
0.0
 10
102.5284532078748
 20
-141.2931843722288
 30
0.0
 10
102.4991698962502
 20
-141.2973184868111
 30
0.0
 10
102.4991698962502
 20
-141.2973184868111
 30
0.0
 10
102.4991698962502
 20
-141.1026705918945
 30
0.0
 10
102.4991698962502
 20
-141.1026705918945
 30
0.0
 10
102.5398220229762
 20
-141.1090440185422
 30
0.0
 10
102.5849527738329
 20
-141.1112833306076
 30
0.0
 10
102.5918429648034
 20
-141.1112833306076
 30
0.0
 10
102.6619506579283
 20
-141.1112833306076
 30
0.0
 10
102.8743407945939
 20
-141.0900959933733
 30
0.0
 10
102.8743407945939
 20
-140.8530734239881
 30
0.0
 10
102.8743407945939
 20
-140.6754787517235
 30
0.0
 10
102.7342976631185
 20
-140.6203572239595
 30
0.0
 10
102.6166476522972
 20
-140.6203572239595
 30
0.0
 10
102.3341498225067
 20
-140.6203572239595
 30
0.0
 10
102.3250203194708
 20
-140.8530734239881
 30
0.0
 10
102.32054169534
 20
-140.9250759196298
 30
0.0
 10
102.32054169534
 20
-140.9250759196298
 30
0.0
 10
102.1035006797693
 20
-140.9250759196298
 30
0.0
 10
102.1035006797693
 20
-140.9250759196298
 30
0.0
 10
102.1124579280309
 20
-140.8001912082895
 30
0.0
 10
102.1419134944298
 20
-140.4236422717517
 30
0.0
 10
102.630255779464
 20
-140.4236422717517
 30
0.0
 10
102.8698621704631
 20
-140.4236422717517
 30
0.0
 10
103.1275553127598
 20
-140.5505940403832
 30
0.0
 10
103.1275553127598
 20
-140.8466999973404
 30
0.0
 10
103.1275553127598
 20
-141.0329074083182
 30
0.0
 10
103.0259249959449
 20
-141.1154174451899
 30
0.0
 10
102.919643800225
 20
-141.1767401448274
 30
0.0
 10
102.985272869219
 20
-141.2043009087093
 30
0.0
 10
103.1795762545871
 20
-141.2847438882899
 30
0.0
 10
103.1795762545871
 20
-141.5619018200783
 30
0.0
 10
103.1795762545871
 20
-141.9003824515041
 30
0.0
 10
102.9151651760941
 20
-142.0674695825387
 30
0.0
 10
102.6188869643626
 20
-142.0674695825387
 30
0.0
  0
HATCH
  5
93
330
8E
100
AcDbEntity
  8
_U+30EC_U+30A4_U+30E4_U+30FC 1
 62
   179
420
  2234388
100
AcDbHatch
 10
0.0
 20
0.0
 30
0.0
210
0.0
220
0.0
230
1.0
  2
SOLID
 70
     1
 71
     0
 91
        1
 92
        1
 93
        1
 72
     4
 94
        3
 73
     0
 74
     1
 95
       62
 96
       58
 40
0.0
 40
0.0
 40
0.0
 40
0.0
 40
1.0
 40
1.0
 40
1.0
 40
2.0
 40
2.0
 40
2.0
 40
3.0
 40
3.0
 40
3.0
 40
4.0
 40
4.0
 40
4.0
 40
5.0
 40
5.0
 40
5.0
 40
6.0
 40
6.0
 40
6.0
 40
7.0
 40
7.0
 40
7.0
 40
8.0
 40
8.0
 40
8.0
 40
9.0
 40
9.0
 40
9.0
 40
10.0
 40
10.0
 40
10.0
 40
11.0
 40
11.0
 40
11.0
 40
12.0
 40
12.0
 40
12.0
 40
13.0
 40
13.0
 40
13.0
 40
14.0
 40
14.0
 40
14.0
 40
15.0
 40
15.0
 40
15.0
 40
16.0
 40
16.0
 40
16.0
 40
17.0
 40
17.0
 40
17.0
 40
18.0
 40
18.0
 40
18.0
 40
19.0
 40
19.0
 40
19.0
 40
19.0
 10
102.6188869643626
 20
-142.0674695825387
 10
102.5172566475478
 20
-142.0674695825387
 10
102.2843681927449
 20
-142.0462822453044
 10
102.1508707426915
 20
-141.8600748343267
 10
102.071805801305
 20
-141.7479369762818
 10
102.0673271771741
 20
-141.6485459715323
 10
102.0626762982691
 20
-141.5639688773694
 10
102.0626762982691
 20
-141.5639688773694
 10
102.2979763199116
 20
-141.5639688773694
 10
102.2979763199116
 20
-141.5639688773694
 10
102.300215631977
 20
-141.6380384303023
 10
102.3114121923041
 20
-141.8728216876221
 10
102.6144083402318
 20
-141.8728216876221
 10
102.7613416626777
 20
-141.8728216876221
 10
102.9241224243558
 20
-141.8030585040458
 10
102.9241224243558
 20
-141.5744764185994
 10
102.9241224243558
 20
-141.4582044459723
 10
102.8834702976298
 20
-141.409456344856
 10
102.8495361071001
 20
-141.3777614663917
 10
102.7704711657136
 20
-141.3036919134588
 10
102.6461032186961
 20
-141.2911173149377
 10
102.5873643406726
 20
-141.2911173149377
 10
102.5668660225354
 20
-141.2911173149377
 10
102.5284532078748
 20
-141.2931843722288
 10
102.4991698962502
 20
-141.2973184868111
 10
102.4991698962502
 20
-141.2973184868111
 10
102.4991698962502
 20
-141.1026705918945
 10
102.4991698962502
 20
-141.1026705918945
 10
102.5398220229762
 20
-141.1090440185422
 10
102.5849527738329
 20
-141.1112833306076
 10
102.5918429648034
 20
-141.1112833306076
 10
102.6619506579283
 20
-141.1112833306076
 10
102.8743407945939
 20
-141.0900959933733
 10
102.8743407945939
 20
-140.8530734239881
 10
102.8743407945939
 20
-140.6754787517235
 10
102.7342976631185
 20
-140.6203572239595
 10
102.6166476522972
 20
-140.6203572239595
 10
102.3341498225067
 20
-140.6203572239595
 10
102.3250203194708
 20
-140.8530734239881
 10
102.32054169534
 20
-140.9250759196298
 10
102.32054169534
 20
-140.9250759196298
 10
102.1035006797693
 20
-140.9250759196298
 10
102.1035006797693
 20
-140.9250759196298
 10
102.1124579280309
 20
-140.8001912082895
 10
102.1419134944298
 20
-140.4236422717517
 10
102.630255779464
 20
-140.4236422717517
 10
102.8698621704631
 20
-140.4236422717517
 10
103.1275553127598
 20
-140.5505940403832
 10
103.1275553127598
 20
-140.8466999973404
 10
103.1275553127598
 20
-141.0329074083182
 10
103.0259249959449
 20
-141.1154174451899
 10
102.919643800225
 20
-141.1767401448274
 10
102.985272869219
 20
-141.2043009087093
 10
103.1795762545871
 20
-141.2847438882899
 10
103.1795762545871
 20
-141.5619018200783
 10
103.1795762545871
 20
-141.9003824515041
 10
102.9151651760941
 20
-142.0674695825387
 10
102.6188869643626
 20
-142.0674695825387
 97
        0
 97
        0
 75
     2
 76
     1
 98
        0
  0
ENDBLK
  5
91
330
8E
100
AcDbEntity
  8
0
100
AcDbBlockEnd
  0
BLOCK
  5
A4
330
A2
100
AcDbEntity
  8
0
100
AcDbBlockBegin
  2
block 5
 70
     0
 10
0.0
 20
0.0
 30
0.0
  3
block 5
  1

  0
SPLINE
  5
A6
330
A2
100
AcDbEntity
  8
_U+30EC_U+30A4_U+30E4_U+30FC 1
370
     0
100
AcDbSpline
210
0.0
220
0.0
230
1.0
 70
    11
 71
     3
 72
    44
 73
    40
 74
     0
 42
0.0000000001
 43
0.0000000001
 12
1.0
 22
0.0
 32
0.0
 13
1.0
 23
0.0
 33
0.0
 40
0.0
 40
0.0
 40
0.0
 40
0.0
 40
1.0
 40
1.0
 40
1.0
 40
2.0
 40
2.0
 40
2.0
 40
3.0
 40
3.0
 40
3.0
 40
4.0
 40
4.0
 40
4.0
 40
5.0
 40
5.0
 40
5.0
 40
6.0
 40
6.0
 40
6.0
 40
7.0
 40
7.0
 40
7.0
 40
8.0
 40
8.0
 40
8.0
 40
9.0
 40
9.0
 40
9.0
 40
10.0
 40
10.0
 40
10.0
 40
11.0
 40
11.0
 40
11.0
 40
12.0
 40
12.0
 40
12.0
 40
13.0
 40
13.0
 40
13.0
 40
13.0
 10
104.8447631573826
 20
-151.1101562122225
 30
0.0
 10
104.6118747025797
 20
-151.268630604544
 30
0.0
 10
104.5124836978302
 20
-151.3427001574768
 30
0.0
 10
104.4604627560029
 20
-151.4867051487603
 30
0.0
 10
104.4604627560029
 20
-151.4867051487603
 30
0.0
 10
105.2924533156908
 20
-151.4867051487603
 30
0.0
 10
105.2924533156908
 20
-151.4867051487603
 30
0.0
 10
105.2924533156908
 20
-151.4867051487603
 30
0.0
 10
105.2924533156908
 20
-151.6916883301326
 30
0.0
 10
105.2924533156908
 20
-151.6916883301326
 30
0.0
 10
105.2924533156908
 20
-151.6916883301326
 30
0.0
 10
104.1936401106703
 20
-151.6916883301326
 30
0.0
 10
104.1936401106703
 20
-151.6916883301326
 30
0.0
 10
104.2275743012001
 20
-151.3340874187637
 30
0.0
 10
104.2976819943249
 20
-151.2558837512485
 30
0.0
 10
104.709198650038
 20
-150.9575384822259
 30
0.0
 10
104.9827392315668
 20
-150.758756472727
 30
0.0
 10
105.0528469246917
 20
-150.6912326012161
 30
0.0
 10
105.0528469246917
 20
-150.5537732913546
 30
0.0
 10
105.0528469246917
 20
-150.435262006662
 30
0.0
 10
104.9758490405963
 20
-150.304003868674
 30
0.0
 10
104.7656982159961
 20
-150.304003868674
 30
0.0
 10
104.4876790103364
 20
-150.304003868674
 30
0.0
 10
104.4785495073005
 20
-150.5344807566372
 30
0.0
 10
104.4740708831697
 20
-150.6509249840387
 30
0.0
 10
104.4740708831697
 20
-150.6509249840387
 30
0.0
 10
104.2344644921706
 20
-150.6509249840387
 30
0.0
 10
104.2344644921706
 20
-150.6509249840387
 30
0.0
 10
104.2434217404322
 20
-150.5241454701815
 30
0.0
 10
104.2547905555335
 20
-150.4118353573623
 30
0.0
 10
104.3405734331162
 20
-150.2933240726697
 30
0.0
 10
104.4582234439375
 20
-150.1327826230571
 30
0.0
 10
104.6571777082107
 20
-150.0986761777531
 30
0.0
 10
104.7815456552282
 20
-150.0986761777531
 30
0.0
 10
105.0776516121854
 20
-150.0986761777531
 30
0.0
 10
105.299171251887
 20
-150.282988786214
 30
0.0
 10
105.299171251887
 20
-150.5558403486458
 30
0.0
 10
105.299171251887
 20
-150.7842501793178
 30
0.0
 10
105.1749755596438
 20
-150.8838134388415
 30
0.0
 10
104.8447631573826
 20
-151.1101562122225
 30
0.0
  0
HATCH
  5
A7
330
A2
100
AcDbEntity
  8
_U+30EC_U+30A4_U+30E4_U+30FC 1
 62
   179
420
  2234388
100
AcDbHatch
 10
0.0
 20
0.0
 30
0.0
210
0.0
220
0.0
230
1.0
  2
SOLID
 70
     1
 71
     0
 91
        1
 92
        1
 93
        1
 72
     4
 94
        3
 73
     0
 74
     1
 95
       44
 96
       40
 40
0.0
 40
0.0
 40
0.0
 40
0.0
 40
1.0
 40
1.0
 40
1.0
 40
2.0
 40
2.0
 40
2.0
 40
3.0
 40
3.0
 40
3.0
 40
4.0
 40
4.0
 40
4.0
 40
5.0
 40
5.0
 40
5.0
 40
6.0
 40
6.0
 40
6.0
 40
7.0
 40
7.0
 40
7.0
 40
8.0
 40
8.0
 40
8.0
 40
9.0
 40
9.0
 40
9.0
 40
10.0
 40
10.0
 40
10.0
 40
11.0
 40
11.0
 40
11.0
 40
12.0
 40
12.0
 40
12.0
 40
13.0
 40
13.0
 40
13.0
 40
13.0
 10
104.8447631573826
 20
-151.1101562122225
 10
104.6118747025797
 20
-151.268630604544
 10
104.5124836978302
 20
-151.3427001574768
 10
104.4604627560029
 20
-151.4867051487603
 10
104.4604627560029
 20
-151.4867051487603
 10
105.2924533156908
 20
-151.4867051487603
 10
105.2924533156908
 20
-151.4867051487603
 10
105.2924533156908
 20
-151.4867051487603
 10
105.2924533156908
 20
-151.6916883301326
 10
105.2924533156908
 20
-151.6916883301326
 10
105.2924533156908
 20
-151.6916883301326
 10
104.1936401106703
 20
-151.6916883301326
 10
104.1936401106703
 20
-151.6916883301326
 10
104.2275743012001
 20
-151.3340874187637
 10
104.2976819943249
 20
-151.2558837512485
 10
104.709198650038
 20
-150.9575384822259
 10
104.9827392315668
 20
-150.758756472727
 10
105.0528469246917
 20
-150.6912326012161
 10
105.0528469246917
 20
-150.5537732913546
 10
105.0528469246917
 20
-150.435262006662
 10
104.9758490405963
 20
-150.304003868674
 10
104.7656982159961
 20
-150.304003868674
 10
104.4876790103364
 20
-150.304003868674
 10
104.4785495073005
 20
-150.5344807566372
 10
104.4740708831697
 20
-150.6509249840387
 10
104.4740708831697
 20
-150.6509249840387
 10
104.2344644921706
 20
-150.6509249840387
 10
104.2344644921706
 20
-150.6509249840387
 10
104.2434217404322
 20
-150.5241454701815
 10
104.2547905555335
 20
-150.4118353573623
 10
104.3405734331162
 20
-150.2933240726697
 10
104.4582234439375
 20
-150.1327826230571
 10
104.6571777082107
 20
-150.0986761777531
 10
104.7815456552282
 20
-150.0986761777531
 10
105.0776516121854
 20
-150.0986761777531
 10
105.299171251887
 20
-150.282988786214
 10
105.299171251887
 20
-150.5558403486458
 10
105.299171251887
 20
-150.7842501793178
 10
105.1749755596438
 20
-150.8838134388415
 10
104.8447631573826
 20
-151.1101562122225
 97
        0
 97
        0
 75
     2
 76
     1
 98
        0
  0
ENDBLK
  5
A5
330
A2
100
AcDbEntity
  8
0
100
AcDbBlockEnd
  0
BLOCK
  5
B8
330
B6
100
AcDbEntity
  8
0
100
AcDbBlockBegin
  2
block 6
 70
     0
 10
0.0
 20
0.0
 30
0.0
  3
block 6
  1

  0
SPLINE
  5
BA
330
B6
100
AcDbEntity
  8
_U+30EC_U+30A4_U+30E4_U+30FC 1
370
     0
100
AcDbSpline
210
0.0
220
0.0
230
1.0
 70
    11
 71
     3
 72
    44
 73
    40
 74
     0
 42
0.0000000001
 43
0.0000000001
 12
1.0
 22
0.0
 32
0.0
 13
1.0
 23
0.0
 33
0.0
 40
0.0
 40
0.0
 40
0.0
 40
0.0
 40
1.0
 40
1.0
 40
1.0
 40
2.0
 40
2.0
 40
2.0
 40
3.0
 40
3.0
 40
3.0
 40
4.0
 40
4.0
 40
4.0
 40
5.0
 40
5.0
 40
5.0
 40
6.0
 40
6.0
 40
6.0
 40
7.0
 40
7.0
 40
7.0
 40
8.0
 40
8.0
 40
8.0
 40
9.0
 40
9.0
 40
9.0
 40
10.0
 40
10.0
 40
10.0
 40
11.0
 40
11.0
 40
11.0
 40
12.0
 40
12.0
 40
12.0
 40
13.0
 40
13.0
 40
13.0
 40
13.0
 10
102.1372626155247
 20
-155.3386664108181
 30
0.0
 10
101.9043741607218
 20
-155.4971408031396
 30
0.0
 10
101.8049831559724
 20
-155.5712103560725
 30
0.0
 10
101.7529622141451
 20
-155.7152153473559
 30
0.0
 10
101.7529622141451
 20
-155.7152153473559
 30
0.0
 10
102.5849527738329
 20
-155.7152153473559
 30
0.0
 10
102.5849527738329
 20
-155.7152153473559
 30
0.0
 10
102.5849527738329
 20
-155.7152153473559
 30
0.0
 10
102.5849527738329
 20
-155.9201985287283
 30
0.0
 10
102.5849527738329
 20
-155.9201985287283
 30
0.0
 10
102.5849527738329
 20
-155.9201985287283
 30
0.0
 10
101.4861395688125
 20
-155.9201985287283
 30
0.0
 10
101.4861395688125
 20
-155.9201985287283
 30
0.0
 10
101.5200737593422
 20
-155.5625976173594
 30
0.0
 10
101.590181452467
 20
-155.4843939498442
 30
0.0
 10
102.0016981081801
 20
-155.1860486808216
 30
0.0
 10
102.275238689709
 20
-154.9872666713226
 30
0.0
 10
102.3453463828338
 20
-154.9197427998117
 30
0.0
 10
102.3453463828338
 20
-154.7822834899503
 30
0.0
 10
102.3453463828338
 20
-154.6637722052577
 30
0.0
 10
102.2683484987385
 20
-154.5325140672697
 30
0.0
 10
102.0581976741382
 20
-154.5325140672697
 30
0.0
 10
101.7801784684786
 20
-154.5325140672697
 30
0.0
 10
101.7710489654427
 20
-154.7629909552329
 30
0.0
 10
101.7665703413118
 20
-154.8794351826343
 30
0.0
 10
101.7665703413118
 20
-154.8794351826343
 30
0.0
 10
101.5269639503127
 20
-154.8794351826343
 30
0.0
 10
101.5269639503127
 20
-154.8794351826343
 30
0.0
 10
101.5359211985744
 20
-154.7526556687771
 30
0.0
 10
101.5472900136757
 20
-154.640345555958
 30
0.0
 10
101.6330728912584
 20
-154.5218342712654
 30
0.0
 10
101.7507229020797
 20
-154.3612928216527
 30
0.0
 10
101.9496771663529
 20
-154.3271863763488
 30
0.0
 10
102.0740451133704
 20
-154.3271863763488
 30
0.0
 10
102.3701510703276
 20
-154.3271863763488
 30
0.0
 10
102.5916707100292
 20
-154.5114989848096
 30
0.0
 10
102.5916707100292
 20
-154.7843505472414
 30
0.0
 10
102.5916707100292
 20
-155.0127603779135
 30
0.0
 10
102.4674750177859
 20
-155.1123236374372
 30
0.0
 10
102.1372626155247
 20
-155.3386664108181
 30
0.0
  0
HATCH
  5
BB
330
B6
100
AcDbEntity
  8
_U+30EC_U+30A4_U+30E4_U+30FC 1
 62
   179
420
  2234388
100
AcDbHatch
 10
0.0
 20
0.0
 30
0.0
210
0.0
220
0.0
230
1.0
  2
SOLID
 70
     1
 71
     0
 91
        1
 92
        1
 93
        1
 72
     4
 94
        3
 73
     0
 74
     1
 95
       44
 96
       40
 40
0.0
 40
0.0
 40
0.0
 40
0.0
 40
1.0
 40
1.0
 40
1.0
 40
2.0
 40
2.0
 40
2.0
 40
3.0
 40
3.0
 40
3.0
 40
4.0
 40
4.0
 40
4.0
 40
5.0
 40
5.0
 40
5.0
 40
6.0
 40
6.0
 40
6.0
 40
7.0
 40
7.0
 40
7.0
 40
8.0
 40
8.0
 40
8.0
 40
9.0
 40
9.0
 40
9.0
 40
10.0
 40
10.0
 40
10.0
 40
11.0
 40
11.0
 40
11.0
 40
12.0
 40
12.0
 40
12.0
 40
13.0
 40
13.0
 40
13.0
 40
13.0
 10
102.1372626155247
 20
-155.3386664108181
 10
101.9043741607218
 20
-155.4971408031396
 10
101.8049831559724
 20
-155.5712103560725
 10
101.7529622141451
 20
-155.7152153473559
 10
101.7529622141451
 20
-155.7152153473559
 10
102.5849527738329
 20
-155.7152153473559
 10
102.5849527738329
 20
-155.7152153473559
 10
102.5849527738329
 20
-155.7152153473559
 10
102.5849527738329
 20
-155.9201985287283
 10
102.5849527738329
 20
-155.9201985287283
 10
102.5849527738329
 20
-155.9201985287283
 10
101.4861395688125
 20
-155.9201985287283
 10
101.4861395688125
 20
-155.9201985287283
 10
101.5200737593422
 20
-155.5625976173594
 10
101.590181452467
 20
-155.4843939498442
 10
102.0016981081801
 20
-155.1860486808216
 10
102.275238689709
 20
-154.9872666713226
 10
102.3453463828338
 20
-154.9197427998117
 10
102.3453463828338
 20
-154.7822834899503
 10
102.3453463828338
 20
-154.6637722052577
 10
102.2683484987385
 20
-154.5325140672697
 10
102.0581976741382
 20
-154.5325140672697
 10
101.7801784684786
 20
-154.5325140672697
 10
101.7710489654427
 20
-154.7629909552329
 10
101.7665703413118
 20
-154.8794351826343
 10
101.7665703413118
 20
-154.8794351826343
 10
101.5269639503127
 20
-154.8794351826343
 10
101.5269639503127
 20
-154.8794351826343
 10
101.5359211985744
 20
-154.7526556687771
 10
101.5472900136757
 20
-154.640345555958
 10
101.6330728912584
 20
-154.5218342712654
 10
101.7507229020797
 20
-154.3612928216527
 10
101.9496771663529
 20
-154.3271863763488
 10
102.0740451133704
 20
-154.3271863763488
 10
102.3701510703276
 20
-154.3271863763488
 10
102.5916707100292
 20
-154.5114989848096
 10
102.5916707100292
 20
-154.7843505472414
 10
102.5916707100292
 20
-155.0127603779135
 10
102.4674750177859
 20
-155.1123236374372
 10
102.1372626155247
 20
-155.3386664108181
 97
        0
 97
        0
 75
     2
 76
     1
 98
        0
  0
SPLINE
  5
BC
330
B6
100
AcDbEntity
  8
_U+30EC_U+30A4_U+30E4_U+30FC 1
370
     0
100
AcDbSpline
210
0.0
220
0.0
230
1.0
 70
    11
 71
     3
 72
    44
 73
    40
 74
     0
 42
0.0000000001
 43
0.0000000001
 12
1.0
 22
0.0
 32
0.0
 13
1.0
 23
0.0
 33
0.0
 40
0.0
 40
0.0
 40
0.0
 40
0.0
 40
1.0
 40
1.0
 40
1.0
 40
2.0
 40
2.0
 40
2.0
 40
3.0
 40
3.0
 40
3.0
 40
4.0
 40
4.0
 40
4.0
 40
5.0
 40
5.0
 40
5.0
 40
6.0
 40
6.0
 40
6.0
 40
7.0
 40
7.0
 40
7.0
 40
8.0
 40
8.0
 40
8.0
 40
9.0
 40
9.0
 40
9.0
 40
10.0
 40
10.0
 40
10.0
 40
11.0
 40
11.0
 40
11.0
 40
12.0
 40
12.0
 40
12.0
 40
13.0
 40
13.0
 40
13.0
 40
13.0
 10
103.3950669771894
 20
-155.3386664108181
 30
0.0
 10
103.1621785223865
 20
-155.4971408031396
 30
0.0
 10
103.0627875176371
 20
-155.5712103560725
 30
0.0
 10
103.0107665758098
 20
-155.7152153473559
 30
0.0
 10
103.0107665758098
 20
-155.7152153473559
 30
0.0
 10
103.8427571354976
 20
-155.7152153473559
 30
0.0
 10
103.8427571354976
 20
-155.7152153473559
 30
0.0
 10
103.8427571354976
 20
-155.7152153473559
 30
0.0
 10
103.8427571354976
 20
-155.9201985287283
 30
0.0
 10
103.8427571354976
 20
-155.9201985287283
 30
0.0
 10
103.8427571354976
 20
-155.9201985287283
 30
0.0
 10
102.7439439304772
 20
-155.9201985287283
 30
0.0
 10
102.7439439304772
 20
-155.9201985287283
 30
0.0
 10
102.7778781210069
 20
-155.5625976173594
 30
0.0
 10
102.8479858141318
 20
-155.4843939498442
 30
0.0
 10
103.2595024698448
 20
-155.1860486808216
 30
0.0
 10
103.5330430513737
 20
-154.9872666713226
 30
0.0
 10
103.6031507444985
 20
-154.9197427998117
 30
0.0
 10
103.6031507444985
 20
-154.7822834899503
 30
0.0
 10
103.6031507444985
 20
-154.6637722052577
 30
0.0
 10
103.5261528604032
 20
-154.5325140672697
 30
0.0
 10
103.316002035803
 20
-154.5325140672697
 30
0.0
 10
103.0379828301433
 20
-154.5325140672697
 30
0.0
 10
103.0288533271074
 20
-154.7629909552329
 30
0.0
 10
103.0243747029765
 20
-154.8794351826343
 30
0.0
 10
103.0243747029765
 20
-154.8794351826343
 30
0.0
 10
102.7847683119774
 20
-154.8794351826343
 30
0.0
 10
102.7847683119774
 20
-154.8794351826343
 30
0.0
 10
102.7937255602391
 20
-154.7526556687771
 30
0.0
 10
102.8050943753404
 20
-154.640345555958
 30
0.0
 10
102.8908772529231
 20
-154.5218342712654
 30
0.0
 10
103.0085272637444
 20
-154.3612928216527
 30
0.0
 10
103.2074815280176
 20
-154.3271863763488
 30
0.0
 10
103.3318494750351
 20
-154.3271863763488
 30
0.0
 10
103.6279554319923
 20
-154.3271863763488
 30
0.0
 10
103.8494750716939
 20
-154.5114989848096
 30
0.0
 10
103.8494750716939
 20
-154.7843505472414
 30
0.0
 10
103.8494750716939
 20
-155.0127603779135
 30
0.0
 10
103.7252793794506
 20
-155.1123236374372
 30
0.0
 10
103.3950669771894
 20
-155.3386664108181
 30
0.0
  0
HATCH
  5
BD
330
B6
100
AcDbEntity
  8
_U+30EC_U+30A4_U+30E4_U+30FC 1
 62
   179
420
  2234388
100
AcDbHatch
 10
0.0
 20
0.0
 30
0.0
210
0.0
220
0.0
230
1.0
  2
SOLID
 70
     1
 71
     0
 91
        1
 92
        1
 93
        1
 72
     4
 94
        3
 73
     0
 74
     1
 95
       44
 96
       40
 40
0.0
 40
0.0
 40
0.0
 40
0.0
 40
1.0
 40
1.0
 40
1.0
 40
2.0
 40
2.0
 40
2.0
 40
3.0
 40
3.0
 40
3.0
 40
4.0
 40
4.0
 40
4.0
 40
5.0
 40
5.0
 40
5.0
 40
6.0
 40
6.0
 40
6.0
 40
7.0
 40
7.0
 40
7.0
 40
8.0
 40
8.0
 40
8.0
 40
9.0
 40
9.0
 40
9.0
 40
10.0
 40
10.0
 40
10.0
 40
11.0
 40
11.0
 40
11.0
 40
12.0
 40
12.0
 40
12.0
 40
13.0
 40
13.0
 40
13.0
 40
13.0
 10
103.3950669771894
 20
-155.3386664108181
 10
103.1621785223865
 20
-155.4971408031396
 10
103.0627875176371
 20
-155.5712103560725
 10
103.0107665758098
 20
-155.7152153473559
 10
103.0107665758098
 20
-155.7152153473559
 10
103.8427571354976
 20
-155.7152153473559
 10
103.8427571354976
 20
-155.7152153473559
 10
103.8427571354976
 20
-155.7152153473559
 10
103.8427571354976
 20
-155.9201985287283
 10
103.8427571354976
 20
-155.9201985287283
 10
103.8427571354976
 20
-155.9201985287283
 10
102.7439439304772
 20
-155.9201985287283
 10
102.7439439304772
 20
-155.9201985287283
 10
102.7778781210069
 20
-155.5625976173594
 10
102.8479858141318
 20
-155.4843939498442
 10
103.2595024698448
 20
-155.1860486808216
 10
103.5330430513737
 20
-154.9872666713226
 10
103.6031507444985
 20
-154.9197427998117
 10
103.6031507444985
 20
-154.7822834899503
 10
103.6031507444985
 20
-154.6637722052577
 10
103.5261528604032
 20
-154.5325140672697
 10
103.316002035803
 20
-154.5325140672697
 10
103.0379828301433
 20
-154.5325140672697
 10
103.0288533271074
 20
-154.7629909552329
 10
103.0243747029765
 20
-154.8794351826343
 10
103.0243747029765
 20
-154.8794351826343
 10
102.7847683119774
 20
-154.8794351826343
 10
102.7847683119774
 20
-154.8794351826343
 10
102.7937255602391
 20
-154.7526556687771
 10
102.8050943753404
 20
-154.640345555958
 10
102.8908772529231
 20
-154.5218342712654
 10
103.0085272637444
 20
-154.3612928216527
 10
103.2074815280176
 20
-154.3271863763488
 10
103.3318494750351
 20
-154.3271863763488
 10
103.6279554319923
 20
-154.3271863763488
 10
103.8494750716939
 20
-154.5114989848096
 10
103.8494750716939
 20
-154.7843505472414
 10
103.8494750716939
 20
-155.0127603779135
 10
103.7252793794506
 20
-155.1123236374372
 10
103.3950669771894
 20
-155.3386664108181
 97
        0
 97
        0
 75
     2
 76
     1
 98
        0
  0
ENDBLK
  5
B9
330
B6
100
AcDbEntity
  8
0
100
AcDbBlockEnd
  0
ENDSEC
  0
SECTION
  2
ENTITIES
  0
SPLINE
  5
41
330
1F
100
AcDbEntity
  8
_U+30EC_U+30A4_U+30E4_U+30FC 1
370
     0
100
AcDbSpline
210
0.0
220
0.0
230
1.0
 70
    11
 71
     3
 72
    20
 73
    16
 74
     0
 42
0.0000000001
 43
0.0000000001
 12
1.0
 22
0.0
 32
0.0
 13
1.0
 23
0.0
 33
0.0
 40
0.0
 40
0.0
 40
0.0
 40
0.0
 40
1.0
 40
1.0
 40
1.0
 40
2.0
 40
2.0
 40
2.0
 40
3.0
 40
3.0
 40
3.0
 40
4.0
 40
4.0
 40
4.0
 40
5.0
 40
5.0
 40
5.0
 40
5.0
 10
103.6177466451364
 20
-147.9891150210543
 30
0.0
 10
103.6177466451364
 20
-147.9891150210543
 30
0.0
 10
101.617494600111
 20
-147.9891150210543
 30
0.0
 10
101.617494600111
 20
-147.9891150210543
 30
0.0
 10
101.617494600111
 20
-147.9891150210543
 30
0.0
 10
101.1179611377115
 20
-145.4893322051099
 30
0.0
 10
101.1179611377115
 20
-145.4893322051099
 30
0.0
 10
101.1179611377115
 20
-145.4893322051099
 30
0.0
 10
101.8898401641434
 20
-145.7472191340279
 30
0.0
 10
102.5664676833699
 20
-145.7472191340279
 30
0.0
 10
103.2430952025967
 20
-145.7472191340279
 30
0.0
 10
104.1176326915273
 20
-145.4893322051099
 30
0.0
 10
104.1176326915273
 20
-145.4893322051099
 30
0.0
 10
104.1176326915273
 20
-145.4893322051099
 30
0.0
 10
103.6177466451364
 20
-147.9891150210543
 30
0.0
 10
103.6177466451364
 20
-147.9891150210543
 30
0.0
  0
HATCH
  5
42
330
1F
100
AcDbEntity
  8
_U+30EC_U+30A4_U+30E4_U+30FC 1
 62
     9
420
 13224394
100
AcDbHatch
 10
0.0
 20
0.0
 30
0.0
210
0.0
220
0.0
230
1.0
  2
SOLID
 70
     1
 71
     0
 91
        1
 92
        1
 93
        1
 72
     4
 94
        3
 73
     0
 74
     1
 95
       20
 96
       16
 40
0.0
 40
0.0
 40
0.0
 40
0.0
 40
1.0
 40
1.0
 40
1.0
 40
2.0
 40
2.0
 40
2.0
 40
3.0
 40
3.0
 40
3.0
 40
4.0
 40
4.0
 40
4.0
 40
5.0
 40
5.0
 40
5.0
 40
5.0
 10
103.6177466451364
 20
-147.9891150210543
 10
103.6177466451364
 20
-147.9891150210543
 10
101.617494600111
 20
-147.9891150210543
 10
101.617494600111
 20
-147.9891150210543
 10
101.617494600111
 20
-147.9891150210543
 10
101.1179611377115
 20
-145.4893322051099
 10
101.1179611377115
 20
-145.4893322051099
 10
101.1179611377115
 20
-145.4893322051099
 10
101.8898401641434
 20
-145.7472191340279
 10
102.5664676833699
 20
-145.7472191340279
 10
103.2430952025967
 20
-145.7472191340279
 10
104.1176326915273
 20
-145.4893322051099
 10
104.1176326915273
 20
-145.4893322051099
 10
104.1176326915273
 20
-145.4893322051099
 10
103.6177466451364
 20
-147.9891150210543
 10
103.6177466451364
 20
-147.9891150210543
 97
        0
 97
        0
 75
     2
 76
     1
 98
        0
  0
SPLINE
  5
43
330
1F
100
AcDbEntity
  8
_U+30EC_U+30A4_U+30E4_U+30FC 1
 62
   179
420
  2234388
370
    25
100
AcDbSpline
210
0.0
220
0.0
230
1.0
 70
     8
 71
     3
 72
    17
 73
    13
 74
     0
 42
0.0000000001
 43
0.0000000001
 12
1.0
 22
0.0
 32
0.0
 13
1.0
 23
0.0
 33
0.0
 40
0.0
 40
0.0
 40
0.0
 40
0.0
 40
1.0
 40
1.0
 40
1.0
 40
2.0
 40
2.0
 40
2.0
 40
3.0
 40
3.0
 40
3.0
 40
4.0
 40
4.0
 40
4.0
 40
4.0
 10
101.6175322808429
 20
-147.9891150210543
 30
0.0
 10
101.6175322808429
 20
-147.9891150210543
 30
0.0
 10
101.1176435429718
 20
-145.4893322051099
 30
0.0
 10
101.1176435429718
 20
-145.4893322051099
 30
0.0
 10
101.1176435429718
 20
-145.4893322051099
 30
0.0
 10
101.8895225694034
 20
-145.7472191340279
 30
0.0
 10
102.5661500886298
 20
-145.7472191340279
 30
0.0
 10
103.2431301918474
 20
-145.7472191340279
 30
0.0
 10
104.117667680778
 20
-145.4893322051099
 30
0.0
 10
104.117315096787
 20
-145.4893322051099
 30
0.0
 10
104.117315096787
 20
-145.4893322051099
 30
0.0
 10
103.6177816343874
 20
-147.9891150210543
 30
0.0
 10
103.6177816343874
 20
-147.9891150210543
 30
0.0
  0
POLYLINE
  5
44
330
1F
100
AcDbEntity
  8
_U+30EC_U+30A4_U+30E4_U+30FC 1
370
     0
100
AcDb2dPolyline
 66
     1
 10
0.0
 20
0.0
 30
0.0
  0
VERTEX
  5
45
330
44
100
AcDbEntity
  8
_U+30EC_U+30A4_U+30E4_U+30FC 1
370
     0
100
AcDbVertex
100
AcDb2dVertex
 10
113.6247827881628
 20
-148.9702997470999
 30
0.0
  0
VERTEX
  5
46
330
44
100
AcDbEntity
  8
_U+30EC_U+30A4_U+30E4_U+30FC 1
370
     0
100
AcDbVertex
100
AcDb2dVertex
 10
91.61039117006344
 20
-148.9702997470999
 30
0.0
  0
VERTEX
  5
47
330
44
100
AcDbEntity
  8
_U+30EC_U+30A4_U+30E4_U+30FC 1
370
     0
100
AcDbVertex
100
AcDb2dVertex
 10
91.61039117006344
 20
-147.9892226802879
 30
0.0
  0
VERTEX
  5
48
330
44
100
AcDbEntity
  8
_U+30EC_U+30A4_U+30E4_U+30FC 1
370
     0
100
AcDbVertex
100
AcDb2dVertex
 10
113.6247827881628
 20
-147.9892226802879
 30
0.0
  0
VERTEX
  5
49
330
44
100
AcDbEntity
  8
_U+30EC_U+30A4_U+30E4_U+30FC 1
370
     0
100
AcDbVertex
100
AcDb2dVertex
 10
113.6247827881628
 20
-148.9702997470999
 30
0.0
  0
SEQEND
  5
4B
330
44
100
AcDbEntity
  8
_U+30EC_U+30A4_U+30E4_U+30FC 1
370
     0
  0
HATCH
  5
4A
330
1F
100
AcDbEntity
  8
_U+30EC_U+30A4_U+30E4_U+30FC 1
 62
     9
420
 13224394
100
AcDbHatch
 10
0.0
 20
0.0
 30
0.0
210
0.0
220
0.0
230
1.0
  2
SOLID
 70
     1
 71
     0
 91
        1
 92
        1
 93
        4
 72
     1
 10
113.6247827881628
 20
-148.9702997470999
 11
91.61039117006344
 21
-148.9702997470999
 72
     1
 10
91.61039117006344
 20
-148.9702997470999
 11
91.61039117006344
 21
-147.9892226802879
 72
     1
 10
91.61039117006344
 20
-147.9892226802879
 11
113.6247827881628
 21
-147.9892226802879
 72
     1
 10
113.6247827881628
 20
-147.9892226802879
 11
113.6247827881628
 21
-148.9702997470999
 97
        0
 75
     2
 76
     1
 98
        0
  0
POLYLINE
  5
4C
330
1F
100
AcDbEntity
  8
_U+30EC_U+30A4_U+30E4_U+30FC 1
 62
     9
420
 13224394
370
     9
100
AcDb2dPolyline
 66
     1
 10
0.0
 20
0.0
 30
0.0
  0
VERTEX
  5
4D
330
4C
100
AcDbEntity
  8
_U+30EC_U+30A4_U+30E4_U+30FC 1
 62
     9
420
 13224394
370
     9
100
AcDbVertex
100
AcDb2dVertex
 10
113.6247504903926
 20
-148.9704504700274
 30
0.0
  0
VERTEX
  5
4E
330
4C
100
AcDbEntity
  8
_U+30EC_U+30A4_U+30E4_U+30FC 1
 62
     9
420
 13224394
370
     9
100
AcDbVertex
100
AcDb2dVertex
 10
91.61035887229328
 20
-148.9704504700274
 30
0.0
  0
VERTEX
  5
4F
330
4C
100
AcDbEntity
  8
_U+30EC_U+30A4_U+30E4_U+30FC 1
 62
     9
420
 13224394
370
     9
100
AcDbVertex
100
AcDb2dVertex
 10
91.61035887229328
 20
-147.9893949350621
 30
0.0
  0
VERTEX
  5
50
330
4C
100
AcDbEntity
  8
_U+30EC_U+30A4_U+30E4_U+30FC 1
 62
     9
420
 13224394
370
     9
100
AcDbVertex
100
AcDb2dVertex
 10
113.6247504903926
 20
-147.9893949350621
 30
0.0
  0
VERTEX
  5
51
330
4C
100
AcDbEntity
  8
_U+30EC_U+30A4_U+30E4_U+30FC 1
 62
     9
420
 13224394
370
     9
100
AcDbVertex
100
AcDb2dVertex
 10
113.6247504903926
 20
-148.9704504700274
 30
0.0
  0
SEQEND
  5
52
330
4C
100
AcDbEntity
  8
_U+30EC_U+30A4_U+30E4_U+30FC 1
 62
     9
420
 13224394
370
     9
  0
SPLINE
  5
53
330
1F
100
AcDbEntity
  8
_U+30EC_U+30A4_U+30E4_U+30FC 1
 62
   179
420
  2234388
370
     9
100
AcDbSpline
210
0.0
220
0.0
230
1.0
 70
    11
 71
     3
 72
    17
 73
    13
 74
     0
 42
0.0000000001
 43
0.0000000001
 12
1.0
 22
0.0
 32
0.0
 13
1.0
 23
0.0
 33
0.0
 40
0.0
 40
0.0
 40
0.0
 40
0.0
 40
1.0
 40
1.0
 40
1.0
 40
2.0
 40
2.0
 40
2.0
 40
3.0
 40
3.0
 40
3.0
 40
4.0
 40
4.0
 40
4.0
 40
4.0
 10
117.9276478366612
 20
-145.4750781225397
 30
0.0
 10
117.9276478366612
 20
-145.4200642540096
 30
0.0
 10
117.8828400635062
 20
-145.3752564808545
 30
0.0
 10
117.827810046091
 20
-145.3752564808545
 30
0.0
 10
117.7727746457142
 20
-145.3752564808545
 30
0.0
 10
117.7279722555208
 20
-145.4200642540096
 30
0.0
 10
117.7279722555208
 20
-145.4750781225397
 30
0.0
 10
117.7279722555208
 20
-145.5308240738603
 30
0.0
 10
117.7727746457142
 20
-145.5756318470154
 30
0.0
 10
117.827810046091
 20
-145.5756318470154
 30
0.0
 10
117.8828400635062
 20
-145.5756318470154
 30
0.0
 10
117.9276478366612
 20
-145.5308240738603
 30
0.0
 10
117.9276478366612
 20
-145.4750781225397
 30
0.0
  0
POLYLINE
  5
54
330
1F
100
AcDbEntity
  8
_U+30EC_U+30A4_U+30E4_U+30FC 1
 62
   179
420
  2234388
370
     9
100
AcDb2dPolyline
 66
     1
 10
0.0
 20
0.0
 30
0.0
  0
VERTEX
  5
55
330
54
100
AcDbEntity
  8
_U+30EC_U+30A4_U+30E4_U+30FC 1
 62
   179
420
  2234388
370
     9
100
AcDbVertex
100
AcDb2dVertex
 10
105.5874826803089
 20
-145.5000550648077
 30
0.0
  0
VERTEX
  5
56
330
54
100
AcDbEntity
  8
_U+30EC_U+30A4_U+30E4_U+30FC 1
 62
   179
420
  2234388
370
     9
100
AcDbVertex
100
AcDb2dVertex
 10
118.5411278322354
 20
-145.5000550648077
 30
0.0
  0
SEQEND
  5
57
330
54
100
AcDbEntity
  8
_U+30EC_U+30A4_U+30E4_U+30FC 1
 62
   179
420
  2234388
370
     9
  0
POLYLINE
  5
58
330
1F
100
AcDbEntity
  8
_U+30EC_U+30A4_U+30E4_U+30FC 1
 62
   179
420
  2234388
370
     9
100
AcDb2dPolyline
 66
     1
 10
0.0
 20
0.0
 30
0.0
  0
VERTEX
  5
59
330
58
100
AcDbEntity
  8
_U+30EC_U+30A4_U+30E4_U+30FC 1
 62
   179
420
  2234388
370
     9
100
AcDbVertex
100
AcDb2dVertex
 10
117.827740067589
 20
-147.7393455983737
 30
0.0
  0
VERTEX
  5
5A
330
58
100
AcDbEntity
  8
_U+30EC_U+30A4_U+30E4_U+30FC 1
 62
   179
420
  2234388
370
     9
100
AcDbVertex
100
AcDb2dVertex
 10
117.827740067589
 20
-141.8814774900291
 30
0.0
  0
SEQEND
  5
5B
330
58
100
AcDbEntity
  8
_U+30EC_U+30A4_U+30E4_U+30FC 1
 62
   179
420
  2234388
370
     9
  0
POLYLINE
  5
5C
330
1F
100
AcDbEntity
  8
_U+30EC_U+30A4_U+30E4_U+30FC 1
 62
   179
420
  2234388
370
     9
100
AcDb2dPolyline
 66
     1
 10
0.0
 20
0.0
 30
0.0
  0
VERTEX
  5
5D
330
5C
100
AcDbEntity
  8
_U+30EC_U+30A4_U+30E4_U+30FC 1
 62
   179
420
  2234388
370
     9
100
AcDbVertex
100
AcDb2dVertex
 10
116.3677032179784
 20
-147.9891150210543
 30
0.0
  0
VERTEX
  5
5E
330
5C
100
AcDbEntity
  8
_U+30EC_U+30A4_U+30E4_U+30FC 1
 62
   179
420
  2234388
370
     9
100
AcDbVertex
100
AcDb2dVertex
 10
118.9087572012434
 20
-147.9891150210543
 30
0.0
  0
SEQEND
  5
5F
330
5C
100
AcDbEntity
  8
_U+30EC_U+30A4_U+30E4_U+30FC 1
 62
   179
420
  2234388
370
     9
  0
INSERT
  5
61
330
1F
100
AcDbEntity
  8
_U+30EC_U+30A4_U+30E4_U+30FC 1
100
AcDbBlockReference
  2
block 2
 10
0.0
 20
0.0
 30
0.0
  0
SPLINE
  5
70
330
1F
100
AcDbEntity
  8
_U+30EC_U+30A4_U+30E4_U+30FC 1
 62
   179
420
  2234388
370
     9
100
AcDbSpline
210
0.0
220
0.0
230
1.0
 70
    11
 71
     3
 72
    17
 73
    13
 74
     0
 42
0.0000000001
 43
0.0000000001
 12
1.0
 22
0.0
 32
0.0
 13
1.0
 23
0.0
 33
0.0
 40
0.0
 40
0.0
 40
0.0
 40
0.0
 40
1.0
 40
1.0
 40
1.0
 40
2.0
 40
2.0
 40
2.0
 40
3.0
 40
3.0
 40
3.0
 40
4.0
 40
4.0
 40
4.0
 40
4.0
 10
117.9276478366612
 20
-147.9595517954211
 30
0.0
 10
117.9276478366612
 20
-147.9045379268914
 30
0.0
 10
117.8828400635062
 20
-147.859730153736
 30
0.0
 10
117.827810046091
 20
-147.859730153736
 30
0.0
 10
117.7727746457142
 20
-147.859730153736
 30
0.0
 10
117.7279722555208
 20
-147.9045379268914
 30
0.0
 10
117.7279722555208
 20
-147.9595517954211
 30
0.0
 10
117.7279722555208
 20
-148.0152977467422
 30
0.0
 10
117.7727746457142
 20
-148.0601055198969
 30
0.0
 10
117.827810046091
 20
-148.0601055198969
 30
0.0
 10
117.8828400635062
 20
-148.0601055198969
 30
0.0
 10
117.9276478366612
 20
-148.0152977467422
 30
0.0
 10
117.9276478366612
 20
-147.9595517954211
 30
0.0
  0
SPLINE
  5
71
330
1F
100
AcDbEntity
  8
_U+30EC_U+30A4_U+30E4_U+30FC 1
 62
   179
420
  2234388
370
     9
100
AcDbSpline
210
0.0
220
0.0
230
1.0
 70
    11
 71
     3
 72
    17
 73
    13
 74
     0
 42
0.0000000001
 43
0.0000000001
 12
1.0
 22
0.0
 32
0.0
 13
1.0
 23
0.0
 33
0.0
 40
0.0
 40
0.0
 40
0.0
 40
0.0
 40
1.0
 40
1.0
 40
1.0
 40
2.0
 40
2.0
 40
2.0
 40
3.0
 40
3.0
 40
3.0
 40
4.0
 40
4.0
 40
4.0
 40
4.0
 10
117.9276478366612
 20
-149.0733081021089
 30
0.0
 10
117.9276478366612
 20
-149.0182942335788
 30
0.0
 10
117.8828400635062
 20
-148.9734864604237
 30
0.0
 10
117.827810046091
 20
-148.9734864604237
 30
0.0
 10
117.7727746457142
 20
-148.9734864604237
 30
0.0
 10
117.7279722555208
 20
-149.0182942335788
 30
0.0
 10
117.7279722555208
 20
-149.0733081021089
 30
0.0
 10
117.7279722555208
 20
-149.1290540534295
 30
0.0
 10
117.7727746457142
 20
-149.1738618265846
 30
0.0
 10
117.827810046091
 20
-149.1738618265846
 30
0.0
 10
117.8828400635062
 20
-149.1738618265846
 30
0.0
 10
117.9276478366612
 20
-149.1290540534295
 30
0.0
 10
117.9276478366612
 20
-149.0733081021089
 30
0.0
  0
POLYLINE
  5
72
330
1F
100
AcDbEntity
  8
_U+30EC_U+30A4_U+30E4_U+30FC 1
 62
   179
420
  2234388
370
     9
100
AcDb2dPolyline
 66
     1
 10
0.0
 20
0.0
 30
0.0
  0
VERTEX
  5
73
330
72
100
AcDbEntity
  8
_U+30EC_U+30A4_U+30E4_U+30FC 1
 62
   179
420
  2234388
370
     9
100
AcDbVertex
100
AcDb2dVertex
 10
117.827740067589
 20
-148.9734003330366
 30
0.0
  0
VERTEX
  5
74
330
72
100
AcDbEntity
  8
_U+30EC_U+30A4_U+30E4_U+30FC 1
 62
   179
420
  2234388
370
     9
100
AcDbVertex
100
AcDb2dVertex
 10
117.827740067589
 20
-148.1232153628176
 30
0.0
  0
SEQEND
  5
75
330
72
100
AcDbEntity
  8
_U+30EC_U+30A4_U+30E4_U+30FC 1
 62
   179
420
  2234388
370
     9
  0
POLYLINE
  5
76
330
1F
100
AcDbEntity
  8
_U+30EC_U+30A4_U+30E4_U+30FC 1
 62
   179
420
  2234388
370
     9
100
AcDb2dPolyline
 66
     1
 10
0.0
 20
0.0
 30
0.0
  0
VERTEX
  5
77
330
76
100
AcDbEntity
  8
_U+30EC_U+30A4_U+30E4_U+30FC 1
 62
   179
420
  2234388
370
     9
100
AcDbVertex
100
AcDb2dVertex
 10
116.3677032179784
 20
-149.0733081021089
 30
0.0
  0
VERTEX
  5
78
330
76
100
AcDbEntity
  8
_U+30EC_U+30A4_U+30E4_U+30FC 1
 62
   179
420
  2234388
370
     9
100
AcDbVertex
100
AcDb2dVertex
 10
118.8276198196041
 20
-149.0733081021089
 30
0.0
  0
SEQEND
  5
79
330
76
100
AcDbEntity
  8
_U+30EC_U+30A4_U+30E4_U+30FC 1
 62
   179
420
  2234388
370
     9
  0
INSERT
  5
7B
330
1F
100
AcDbEntity
  8
_U+30EC_U+30A4_U+30E4_U+30FC 1
100
AcDbBlockReference
  2
block 3
 10
0.0
 20
0.0
 30
0.0
  0
SPLINE
  5
80
330
1F
100
AcDbEntity
  8
_U+30EC_U+30A4_U+30E4_U+30FC 1
 62
   179
420
  2234388
370
     9
100
AcDbSpline
210
0.0
220
0.0
230
1.0
 70
     8
 71
     3
 72
    17
 73
    13
 74
     0
 42
0.0000000001
 43
0.0000000001
 12
1.0
 22
0.0
 32
0.0
 13
1.0
 23
0.0
 33
0.0
 40
0.0
 40
0.0
 40
0.0
 40
0.0
 40
1.0
 40
1.0
 40
1.0
 40
2.0
 40
2.0
 40
2.0
 40
3.0
 40
3.0
 40
3.0
 40
4.0
 40
4.0
 40
4.0
 40
4.0
 10
104.1493491018381
 20
-142.5431080779713
 30
0.0
 10
104.1101907469827
 20
-142.5039631805199
 30
0.0
 10
104.0473931788632
 20
-142.5039631805199
 30
0.0
 10
104.0082374524661
 20
-142.5431080779713
 30
0.0
 10
103.9687265136196
 20
-142.5822745072689
 30
0.0
 10
103.9687265136196
 20
-142.6450613724876
 30
0.0
 10
104.0082374524661
 20
-142.6842278017855
 30
0.0
 10
104.0473931788632
 20
-142.723738740632
 30
0.0
 10
104.1101907469827
 20
-142.723738740632
 30
0.0
 10
104.1493491018381
 20
-142.6842278017855
 30
0.0
 10
104.1680441278073
 20
-142.6658826683266
 30
0.0
 10
104.178982305973
 20
-142.6401305795744
 30
0.0
 10
104.178982305973
 20
-142.6133234303298
 30
0.0
  0
SPLINE
  5
81
330
1F
100
AcDbEntity
  8
_U+30EC_U+30A4_U+30E4_U+30FC 1
 62
   179
420
  2234388
370
     9
100
AcDbSpline
210
0.0
220
0.0
230
1.0
 70
    11
 71
     3
 72
    17
 73
    13
 74
     0
 42
0.0000000001
 43
0.0000000001
 12
1.0
 22
0.0
 32
0.0
 13
1.0
 23
0.0
 33
0.0
 40
0.0
 40
0.0
 40
0.0
 40
0.0
 40
1.0
 40
1.0
 40
1.0
 40
2.0
 40
2.0
 40
2.0
 40
3.0
 40
3.0
 40
3.0
 40
4.0
 40
4.0
 40
4.0
 40
4.0
 10
101.2289120527025
 20
-142.6134526214105
 30
0.0
 10
101.2289120527025
 20
-142.5584387528807
 30
0.0
 10
101.1841069710283
 20
-142.5136309797253
 30
0.0
 10
101.1290742621323
 20
-142.5136309797253
 30
0.0
 10
101.0740415532363
 20
-142.5136309797253
 30
0.0
 10
101.0292391630429
 20
-142.5584387528807
 30
0.0
 10
101.0292391630429
 20
-142.6134526214105
 30
0.0
 10
101.0292391630429
 20
-142.6691985727315
 30
0.0
 10
101.0740415532363
 20
-142.7140063458862
 30
0.0
 10
101.1290742621323
 20
-142.7140063458862
 30
0.0
 10
101.1841069710283
 20
-142.7140063458862
 30
0.0
 10
101.2289120527025
 20
-142.6691985727315
 30
0.0
 10
101.2289120527025
 20
-142.6134526214105
 30
0.0
  0
POLYLINE
  5
82
330
1F
100
AcDbEntity
  8
_U+30EC_U+30A4_U+30E4_U+30FC 1
 62
   179
420
  2234388
370
     9
100
AcDb2dPolyline
 66
     1
 10
0.0
 20
0.0
 30
0.0
  0
VERTEX
  5
83
330
82
100
AcDbEntity
  8
_U+30EC_U+30A4_U+30E4_U+30FC 1
 62
   179
420
  2234388
370
     9
100
AcDbVertex
100
AcDb2dVertex
 10
101.1290069751111
 20
-142.6134526214105
 30
0.0
  0
VERTEX
  5
84
330
82
100
AcDbEntity
  8
_U+30EC_U+30A4_U+30E4_U+30FC 1
 62
   179
420
  2234388
370
     9
100
AcDbVertex
100
AcDb2dVertex
 10
104.1290284214368
 20
-142.6134526214105
 30
0.0
  0
SEQEND
  5
85
330
82
100
AcDbEntity
  8
_U+30EC_U+30A4_U+30E4_U+30FC 1
 62
   179
420
  2234388
370
     9
  0
POLYLINE
  5
86
330
1F
100
AcDbEntity
  8
_U+30EC_U+30A4_U+30E4_U+30FC 1
 62
   179
420
  2234388
370
     9
100
AcDb2dPolyline
 66
     1
 10
0.0
 20
0.0
 30
0.0
  0
VERTEX
  5
87
330
86
100
AcDbEntity
  8
_U+30EC_U+30A4_U+30E4_U+30FC 1
 62
   179
420
  2234388
370
     9
100
AcDbVertex
100
AcDb2dVertex
 10
101.1290069751111
 20
-141.1534211547616
 30
0.0
  0
VERTEX
  5
88
330
86
100
AcDbEntity
  8
_U+30EC_U+30A4_U+30E4_U+30FC 1
 62
   179
420
  2234388
370
     9
100
AcDbVertex
100
AcDb2dVertex
 10
101.1290069751111
 20
-143.6140590732545
 30
0.0
  0
SEQEND
  5
89
330
86
100
AcDbEntity
  8
_U+30EC_U+30A4_U+30E4_U+30FC 1
 62
   179
420
  2234388
370
     9
  0
POLYLINE
  5
8A
330
1F
100
AcDbEntity
  8
_U+30EC_U+30A4_U+30E4_U+30FC 1
 62
   179
420
  2234388
370
     9
100
AcDb2dPolyline
 66
     1
 10
0.0
 20
0.0
 30
0.0
  0
VERTEX
  5
8B
330
8A
100
AcDbEntity
  8
_U+30EC_U+30A4_U+30E4_U+30FC 1
 62
   179
420
  2234388
370
     9
100
AcDbVertex
100
AcDb2dVertex
 10
104.0783693689186
 20
-141.1534211547616
 30
0.0
  0
VERTEX
  5
8C
330
8A
100
AcDbEntity
  8
_U+30EC_U+30A4_U+30E4_U+30FC 1
 62
   179
420
  2234388
370
     9
100
AcDbVertex
100
AcDb2dVertex
 10
104.0783693689186
 20
-143.6140590732545
 30
0.0
  0
SEQEND
  5
8D
330
8A
100
AcDbEntity
  8
_U+30EC_U+30A4_U+30E4_U+30FC 1
 62
   179
420
  2234388
370
     9
  0
INSERT
  5
8F
330
1F
100
AcDbEntity
  8
_U+30EC_U+30A4_U+30E4_U+30FC 1
100
AcDbBlockReference
  2
block 4
 10
0.0
 20
0.0
 30
0.0
  0
SPLINE
  5
94
330
1F
100
AcDbEntity
  8
_U+30EC_U+30A4_U+30E4_U+30FC 1
 62
   179
420
  2234388
370
     9
100
AcDbSpline
210
0.0
220
0.0
230
1.0
 70
     8
 71
     3
 72
    17
 73
    13
 74
     0
 42
0.0000000001
 43
0.0000000001
 12
1.0
 22
0.0
 32
0.0
 13
1.0
 23
0.0
 33
0.0
 40
0.0
 40
0.0
 40
0.0
 40
0.0
 40
1.0
 40
1.0
 40
1.0
 40
2.0
 40
2.0
 40
2.0
 40
3.0
 40
3.0
 40
3.0
 40
4.0
 40
4.0
 40
4.0
 40
4.0
 10
103.6492854177115
 20
-151.7682125135987
 30
0.0
 10
103.6101270628562
 20
-151.7290676161476
 30
0.0
 10
103.5473321231949
 20
-151.7290676161476
 30
0.0
 10
103.5081737683395
 20
-151.7682125135987
 30
0.0
 10
103.4686628294934
 20
-151.8073789428967
 30
0.0
 10
103.4686628294934
 20
-151.8701658081154
 30
0.0
 10
103.5081737683395
 20
-151.9093322374133
 30
0.0
 10
103.5473321231949
 20
-151.9488431762598
 30
0.0
 10
103.6101270628562
 20
-151.9488431762598
 30
0.0
 10
103.6492854177115
 20
-151.9093322374133
 30
0.0
 10
103.6679804436807
 20
-151.8909871039543
 30
0.0
 10
103.6789186218464
 20
-151.8652350152021
 30
0.0
 10
103.6789186218464
 20
-151.8384278659575
 30
0.0
  0
SPLINE
  5
95
330
1F
100
AcDbEntity
  8
_U+30EC_U+30A4_U+30E4_U+30FC 1
 62
   179
420
  2234388
370
     9
100
AcDbSpline
210
0.0
220
0.0
230
1.0
 70
    11
 71
     3
 72
    17
 73
    13
 74
     0
 42
0.0000000001
 43
0.0000000001
 12
1.0
 22
0.0
 32
0.0
 13
1.0
 23
0.0
 33
0.0
 40
0.0
 40
0.0
 40
0.0
 40
0.0
 40
1.0
 40
1.0
 40
1.0
 40
2.0
 40
2.0
 40
2.0
 40
3.0
 40
3.0
 40
3.0
 40
4.0
 40
4.0
 40
4.0
 40
4.0
 10
101.7289757368294
 20
-151.8385570570382
 30
0.0
 10
101.7289757368294
 20
-151.7835431885081
 30
0.0
 10
101.6841706551549
 20
-151.7387354153531
 30
0.0
 10
101.6291379462589
 20
-151.7387354153531
 30
0.0
 10
101.5741052373628
 20
-151.7387354153531
 30
0.0
 10
101.5293028471695
 20
-151.7835431885081
 30
0.0
 10
101.5293028471695
 20
-151.8385570570382
 30
0.0
 10
101.5293028471695
 20
-151.8943030083589
 30
0.0
 10
101.5741052373628
 20
-151.9391107815139
 30
0.0
 10
101.6291379462589
 20
-151.9391107815139
 30
0.0
 10
101.6841706551549
 20
-151.9391107815139
 30
0.0
 10
101.7289757368294
 20
-151.8943030083589
 30
0.0
 10
101.7289757368294
 20
-151.8385570570382
 30
0.0
  0
POLYLINE
  5
96
330
1F
100
AcDbEntity
  8
_U+30EC_U+30A4_U+30E4_U+30FC 1
 62
   179
420
  2234388
370
     9
100
AcDb2dPolyline
 66
     1
 10
0.0
 20
0.0
 30
0.0
  0
VERTEX
  5
97
330
96
100
AcDbEntity
  8
_U+30EC_U+30A4_U+30E4_U+30FC 1
 62
   179
420
  2234388
370
     9
100
AcDbVertex
100
AcDb2dVertex
 10
101.6290679677571
 20
-151.8385570570382
 30
0.0
  0
VERTEX
  5
98
330
96
100
AcDbEntity
  8
_U+30EC_U+30A4_U+30E4_U+30FC 1
 62
   179
420
  2234388
370
     9
100
AcDbVertex
100
AcDb2dVertex
 10
103.6289647373103
 20
-151.8385570570382
 30
0.0
  0
SEQEND
  5
99
330
96
100
AcDbEntity
  8
_U+30EC_U+30A4_U+30E4_U+30FC 1
 62
   179
420
  2234388
370
     9
  0
POLYLINE
  5
9A
330
1F
100
AcDbEntity
  8
_U+30EC_U+30A4_U+30E4_U+30FC 1
 62
   179
420
  2234388
370
     9
100
AcDb2dPolyline
 66
     1
 10
0.0
 20
0.0
 30
0.0
  0
VERTEX
  5
9B
330
9A
100
AcDbEntity
  8
_U+30EC_U+30A4_U+30E4_U+30FC 1
 62
   179
420
  2234388
370
     9
100
AcDbVertex
100
AcDb2dVertex
 10
101.6290679677571
 20
-150.3785255903893
 30
0.0
  0
VERTEX
  5
9C
330
9A
100
AcDbEntity
  8
_U+30EC_U+30A4_U+30E4_U+30FC 1
 62
   179
420
  2234388
370
     9
100
AcDbVertex
100
AcDb2dVertex
 10
101.6290679677571
 20
-152.8391635088822
 30
0.0
  0
SEQEND
  5
9D
330
9A
100
AcDbEntity
  8
_U+30EC_U+30A4_U+30E4_U+30FC 1
 62
   179
420
  2234388
370
     9
  0
POLYLINE
  5
9E
330
1F
100
AcDbEntity
  8
_U+30EC_U+30A4_U+30E4_U+30FC 1
 62
   179
420
  2234388
370
     9
100
AcDb2dPolyline
 66
     1
 10
0.0
 20
0.0
 30
0.0
  0
VERTEX
  5
9F
330
9E
100
AcDbEntity
  8
_U+30EC_U+30A4_U+30E4_U+30FC 1
 62
   179
420
  2234388
370
     9
100
AcDbVertex
100
AcDb2dVertex
 10
103.5783083762729
 20
-150.3785255903893
 30
0.0
  0
VERTEX
  5
A0
330
9E
100
AcDbEntity
  8
_U+30EC_U+30A4_U+30E4_U+30FC 1
 62
   179
420
  2234388
370
     9
100
AcDbVertex
100
AcDb2dVertex
 10
103.5783083762729
 20
-152.8391635088822
 30
0.0
  0
SEQEND
  5
A1
330
9E
100
AcDbEntity
  8
_U+30EC_U+30A4_U+30E4_U+30FC 1
 62
   179
420
  2234388
370
     9
  0
INSERT
  5
A3
330
1F
100
AcDbEntity
  8
_U+30EC_U+30A4_U+30E4_U+30FC 1
100
AcDbBlockReference
  2
block 5
 10
0.0
 20
0.0
 30
0.0
  0
SPLINE
  5
A8
330
1F
100
AcDbEntity
  8
_U+30EC_U+30A4_U+30E4_U+30FC 1
 62
   179
420
  2234388
370
     9
100
AcDbSpline
210
0.0
220
0.0
230
1.0
 70
     8
 71
     3
 72
    17
 73
    13
 74
     0
 42
0.0000000001
 43
0.0000000001
 12
1.0
 22
0.0
 32
0.0
 13
1.0
 23
0.0
 33
0.0
 40
0.0
 40
0.0
 40
0.0
 40
0.0
 40
1.0
 40
1.0
 40
1.0
 40
2.0
 40
2.0
 40
2.0
 40
3.0
 40
3.0
 40
3.0
 40
4.0
 40
4.0
 40
4.0
 40
4.0
 10
113.6383317027509
 20
-156.4456186539225
 30
0.0
 10
113.5991706564147
 20
-156.4064737564713
 30
0.0
 10
113.5363784082343
 20
-156.4064737564713
 30
0.0
 10
113.4972173618981
 20
-156.4456186539225
 30
0.0
 10
113.4577064230516
 20
-156.4847850832204
 30
0.0
 10
113.4577064230516
 20
-156.5475719484391
 30
0.0
 10
113.4972173618981
 20
-156.586738377737
 30
0.0
 10
113.5363784082343
 20
-156.6262493165835
 30
0.0
 10
113.5991706564147
 20
-156.6262493165835
 30
0.0
 10
113.6383317027509
 20
-156.586738377737
 30
0.0
 10
113.6570267287201
 20
-156.568393244278
 30
0.0
 10
113.6679649068857
 20
-156.5426411555258
 30
0.0
 10
113.6679649068857
 20
-156.5158340062812
 30
0.0
  0
SPLINE
  5
A9
330
1F
100
AcDbEntity
  8
_U+30EC_U+30A4_U+30E4_U+30FC 1
 62
   179
420
  2234388
370
     9
100
AcDbSpline
210
0.0
220
0.0
230
1.0
 70
    11
 71
     3
 72
    17
 73
    13
 74
     0
 42
0.0000000001
 43
0.0000000001
 12
1.0
 22
0.0
 32
0.0
 13
1.0
 23
0.0
 33
0.0
 40
0.0
 40
0.0
 40
0.0
 40
0.0
 40
1.0
 40
1.0
 40
1.0
 40
2.0
 40
2.0
 40
2.0
 40
3.0
 40
3.0
 40
3.0
 40
4.0
 40
4.0
 40
4.0
 40
4.0
 10
91.76801236295617
 20
-156.5159631973619
 30
0.0
 10
91.76801236295617
 20
-156.4609493288318
 30
0.0
 10
91.72320728128199
 20
-156.4161415556768
 30
0.0
 10
91.66817457238596
 20
-156.4161415556768
 30
0.0
 10
91.61314186349027
 20
-156.4161415556768
 30
0.0
 10
91.56833947329662
 20
-156.4609493288318
 30
0.0
 10
91.56833947329662
 20
-156.5159631973619
 30
0.0
 10
91.56833947329662
 20
-156.5717091486826
 30
0.0
 10
91.61314186349027
 20
-156.6165169218376
 30
0.0
 10
91.66817457238596
 20
-156.6165169218376
 30
0.0
 10
91.72320728128199
 20
-156.6165169218376
 30
0.0
 10
91.76801236295617
 20
-156.5717091486826
 30
0.0
 10
91.76801236295617
 20
-156.5159631973619
 30
0.0
  0
POLYLINE
  5
AA
330
1F
100
AcDbEntity
  8
_U+30EC_U+30A4_U+30E4_U+30FC 1
 62
   179
420
  2234388
370
     9
100
AcDb2dPolyline
 66
     1
 10
0.0
 20
0.0
 30
0.0
  0
VERTEX
  5
AB
330
AA
100
AcDbEntity
  8
_U+30EC_U+30A4_U+30E4_U+30FC 1
 62
   179
420
  2234388
370
     9
100
AcDbVertex
100
AcDb2dVertex
 10
91.66810728536477
 20
-156.5159631973619
 30
0.0
  0
VERTEX
  5
AC
330
AA
100
AcDbEntity
  8
_U+30EC_U+30A4_U+30E4_U+30FC 1
 62
   179
420
  2234388
370
     9
100
AcDbVertex
100
AcDb2dVertex
 10
113.6680348853878
 20
-156.5159631973619
 30
0.0
  0
SEQEND
  5
AD
330
AA
100
AcDbEntity
  8
_U+30EC_U+30A4_U+30E4_U+30FC 1
 62
   179
420
  2234388
370
     9
  0
POLYLINE
  5
AE
330
1F
100
AcDbEntity
  8
_U+30EC_U+30A4_U+30E4_U+30FC 1
 62
   179
420
  2234388
370
     9
100
AcDb2dPolyline
 66
     1
 10
0.0
 20
0.0
 30
0.0
  0
VERTEX
  5
AF
330
AE
100
AcDbEntity
  8
_U+30EC_U+30A4_U+30E4_U+30FC 1
 62
   179
420
  2234388
370
     9
100
AcDbVertex
100
AcDb2dVertex
 10
91.66810728536477
 20
-149.9737053390257
 30
0.0
  0
VERTEX
  5
B0
330
AE
100
AcDbEntity
  8
_U+30EC_U+30A4_U+30E4_U+30FC 1
 62
   179
420
  2234388
370
     9
100
AcDbVertex
100
AcDb2dVertex
 10
91.66810728536477
 20
-157.516461989972
 30
0.0
  0
SEQEND
  5
B1
330
AE
100
AcDbEntity
  8
_U+30EC_U+30A4_U+30E4_U+30FC 1
 62
   179
420
  2234388
370
     9
  0
POLYLINE
  5
B2
330
1F
100
AcDbEntity
  8
_U+30EC_U+30A4_U+30E4_U+30FC 1
 62
   179
420
  2234388
370
     9
100
AcDb2dPolyline
 66
     1
 10
0.0
 20
0.0
 30
0.0
  0
VERTEX
  5
B3
330
B2
100
AcDbEntity
  8
_U+30EC_U+30A4_U+30E4_U+30FC 1
 62
   179
420
  2234388
370
     9
100
AcDbVertex
100
AcDb2dVertex
 10
113.5673519698314
 20
-149.9737053390257
 30
0.0
  0
VERTEX
  5
B4
330
B2
100
AcDbEntity
  8
_U+30EC_U+30A4_U+30E4_U+30FC 1
 62
   179
420
  2234388
370
     9
100
AcDbVertex
100
AcDb2dVertex
 10
113.5673519698314
 20
-157.516461989972
 30
0.0
  0
SEQEND
  5
B5
330
B2
100
AcDbEntity
  8
_U+30EC_U+30A4_U+30E4_U+30FC 1
 62
   179
420
  2234388
370
     9
  0
INSERT
  5
B7
330
1F
100
AcDbEntity
  8
_U+30EC_U+30A4_U+30E4_U+30FC 1
100
AcDbBlockReference
  2
block 6
 10
0.0
 20
0.0
 30
0.0
  0
POLYLINE
  5
BE
330
1F
100
AcDbEntity
  8
_U+30EC_U+30A4_U+30E4_U+30FC 1
 62
   179
420
  2234388
370
    25
100
AcDb2dPolyline
 66
     1
 10
0.0
 20
0.0
 30
0.0
  0
VERTEX
  5
BF
330
BE
100
AcDbEntity
  8
_U+30EC_U+30A4_U+30E4_U+30FC 1
 62
   179
420
  2234388
370
    25
100
AcDbVertex
100
AcDb2dVertex
 10
103.6186294508545
 20
-148.0301762528688
 30
0.0
  0
VERTEX
  5
C0
330
BE
100
AcDbEntity
  8
_U+30EC_U+30A4_U+30E4_U+30FC 1
 62
   179
420
  2234388
370
    25
100
AcDbVertex
100
AcDb2dVertex
 10
113.6040045560174
 20
-148.0301762528688
 30
0.0
  0
VERTEX
  5
C1
330
BE
100
AcDbEntity
  8
_U+30EC_U+30A4_U+30E4_U+30FC 1
 62
   179
420
  2234388
370
    25
100
AcDbVertex
100
AcDb2dVertex
 10
113.6040045560174
 20
-149.0303090040836
 30
0.0
  0
VERTEX
  5
C2
330
BE
100
AcDbEntity
  8
_U+30EC_U+30A4_U+30E4_U+30FC 1
 62
   179
420
  2234388
370
    25
100
AcDbVertex
100
AcDb2dVertex
 10
91.60407695599439
 20
-149.0303090040836
 30
0.0
  0
VERTEX
  5
C3
330
BE
100
AcDbEntity
  8
_U+30EC_U+30A4_U+30E4_U+30FC 1
 62
   179
420
  2234388
370
    25
100
AcDbVertex
100
AcDb2dVertex
 10
91.60407695599439
 20
-148.0301762528688
 30
0.0
  0
VERTEX
  5
C4
330
BE
100
AcDbEntity
  8
_U+30EC_U+30A4_U+30E4_U+30FC 1
 62
   179
420
  2234388
370
    25
100
AcDbVertex
100
AcDb2dVertex
 10
101.6099126985626
 20
-148.0301762528688
 30
0.0
  0
SEQEND
  5
C5
330
BE
100
AcDbEntity
  8
_U+30EC_U+30A4_U+30E4_U+30FC 1
 62
   179
420
  2234388
370
    25
  0
ENDSEC
  0
SECTION
  2
OBJECTS
  0
DICTIONARY
  5
C
330
0
100
AcDbDictionary
281
     1
  3
ACAD_GROUP
350
D
  3
ACAD_LAYOUT
350
1A
  3
ACAD_MATERIAL
350
3B
  3
ACAD_MLEADERSTYLE
350
C7
  3
ACAD_MLINESTYLE
350
17
  3
ACAD_PLOTSETTINGS
350
19
  3
ACAD_PLOTSTYLENAME
350
E
  3
ACAD_TABLESTYLE
350
C6
  3
ACAD_VISUALSTYLE
350
2A
  0
SUN
  5
3F
330
29
100
AcDbSun
 90
        1
290
     0
 63
     7
421
 16777215
 40
1.0
291
     1
 91
  2455826
 92
 54000000
292
     0
 70
     2
 71
   256
280
     1
  0
DICTIONARY
  5
D
102
{ACAD_REACTORS
330
C
102
}
330
C
100
AcDbDictionary
281
     1
  0
DICTIONARY
  5
1A
102
{ACAD_REACTORS
330
C
102
}
330
C
100
AcDbDictionary
281
     1
  3
Layout1
350
1E
  3
Layout2
350
26
  3
Model
350
22
  0
DICTIONARY
  5
3B
102
{ACAD_REACTORS
330
C
102
}
330
C
100
AcDbDictionary
281
     1
  3
ByBlock
350
3D
  3
ByLayer
350
3C
  3
Global
350
3E
  0
DICTIONARY
  5
C7
102
{ACAD_REACTORS
330
C
102
}
330
C
100
AcDbDictionary
281
     1
  0
DICTIONARY
  5
17
102
{ACAD_REACTORS
330
C
102
}
330
C
100
AcDbDictionary
281
     1
  3
Standard
350
18
  0
DICTIONARY
  5
19
102
{ACAD_REACTORS
330
C
102
}
330
C
100
AcDbDictionary
281
     1
  0
ACDBDICTIONARYWDFLT
  5
E
102
{ACAD_REACTORS
330
C
102
}
330
C
100
AcDbDictionary
281
     1
  3
Normal
350
F
100
AcDbDictionaryWithDefault
340
F
  0
DICTIONARY
  5
C6
102
{ACAD_REACTORS
330
C
102
}
330
C
100
AcDbDictionary
281
     1
  0
DICTIONARY
  5
2A
102
{ACAD_REACTORS
330
C
102
}
330
C
100
AcDbDictionary
281
     1
  3
2dWireframe
350
2F
  3
3D Hidden
350
31
  3
3dWireframe
350
30
  3
Basic
350
32
  3
Brighten
350
36
  3
ColorChange
350
3A
  3
Conceptual
350
34
  3
Dim
350
35
  3
Facepattern
350
39
  3
Flat
350
2B
  3
FlatWithEdges
350
2C
  3
Gouraud
350
2D
  3
GouraudWithEdges
350
2E
  3
Linepattern
350
38
  3
Realistic
350
33
  3
Thicken
350
37
  0
LAYOUT
  5
1E
102
{ACAD_REACTORS
330
1A
102
}
330
1A
100
AcDbPlotSettings
  1

  2
none_device
  4

  6

 40
0.0
 41
0.0
 42
0.0
 43
0.0
 44
0.0
 45
0.0
 46
0.0
 47
0.0
 48
0.0
 49
0.0
140
0.0
141
0.0
142
1.0
143
1.0
 70
   688
 72
     0
 73
     0
 74
     5
  7

 75
    16
 76
     0
 77
     2
 78
   300
147
1.0
148
0.0
149
0.0
100
AcDbLayout
  1
Layout1
 70
     1
 71
     1
 10
0.0
 20
0.0
 11
12.0
 21
9.0
 12
0.0
 22
0.0
 32
0.0
 14
1.000000000000000E+20
 24
1.000000000000000E+20
 34
1.000000000000000E+20
 15
-1.000000000000000E+20
 25
-1.000000000000000E+20
 35
-1.000000000000000E+20
146
0.0
 13
0.0
 23
0.0
 33
0.0
 16
1.0
 26
0.0
 36
0.0
 17
0.0
 27
1.0
 37
0.0
 76
     0
330
1B
  0
LAYOUT
  5
26
102
{ACAD_REACTORS
330
1A
102
}
330
1A
100
AcDbPlotSettings
  1

  2
none_device
  4

  6

 40
0.0
 41
0.0
 42
0.0
 43
0.0
 44
0.0
 45
0.0
 46
0.0
 47
0.0
 48
0.0
 49
0.0
140
0.0
141
0.0
142
1.0
143
1.0
 70
   688
 72
     0
 73
     0
 74
     5
  7

 75
    16
 76
     0
 77
     2
 78
   300
147
1.0
148
0.0
149
0.0
100
AcDbLayout
  1
Layout2
 70
     1
 71
     2
 10
0.0
 20
0.0
 11
0.0
 21
0.0
 12
0.0
 22
0.0
 32
0.0
 14
0.0
 24
0.0
 34
0.0
 15
0.0
 25
0.0
 35
0.0
146
0.0
 13
0.0
 23
0.0
 33
0.0
 16
1.0
 26
0.0
 36
0.0
 17
0.0
 27
1.0
 37
0.0
 76
     0
330
23
  0
LAYOUT
  5
22
102
{ACAD_REACTORS
330
1A
102
}
330
1A
100
AcDbPlotSettings
  1

  2
none_device
  4

  6

 40
0.0
 41
0.0
 42
0.0
 43
0.0
 44
0.0
 45
0.0
 46
0.0
 47
0.0
 48
0.0
 49
0.0
140
0.0
141
0.0
142
1.0
143
1.0
 70
  1712
 72
     0
 73
     0
 74
     0
  7

 75
     0
 76
     0
 77
     2
 78
   300
147
1.0
148
0.0
149
0.0
100
AcDbLayout
  1
Model
 70
     1
 71
     0
 10
0.0
 20
0.0
 11
12.0
 21
9.0
 12
0.0
 22
0.0
 32
0.0
 14
1.000000000000000E+20
 24
1.000000000000000E+20
 34
1.000000000000000E+20
 15
-1.000000000000000E+20
 25
-1.000000000000000E+20
 35
-1.000000000000000E+20
146
0.0
 13
0.0
 23
0.0
 33
0.0
 16
1.0
 26
0.0
 36
0.0
 17
0.0
 27
1.0
 37
0.0
 76
     0
330
1F
331
29
  0
MATERIAL
  5
3D
102
{ACAD_REACTORS
330
3B
102
}
330
3B
100
AcDbMaterial
  1
ByBlock
 72
     1
 94
      127
  0
MATERIAL
  5
3C
102
{ACAD_REACTORS
330
3B
102
}
330
3B
100
AcDbMaterial
  1
ByLayer
 72
     1
 94
      127
  0
MATERIAL
  5
3E
102
{ACAD_REACTORS
330
3B
102
}
330
3B
100
AcDbMaterial
  1
Global
 72
     1
 94
      127
  0
MLINESTYLE
  5
18
102
{ACAD_REACTORS
330
17
102
}
330
17
100
AcDbMlineStyle
  2
Standard
 70
     0
  3

 62
   256
 51
90.0
 52
90.0
 71
     2
 49
0.5
 62
   256
  6
BYLAYER
 49
-0.5
 62
   256
  6
BYLAYER
  0
ACDBPLACEHOLDER
  5
F
102
{ACAD_REACTORS
330
E
102
}
330
E
  0
VISUALSTYLE
  5
2F
102
{ACAD_REACTORS
330
2A
102
}
330
2A
100
AcDbVisualStyle
  2
2dWireframe
 70
     4
177
     2
291
     0
 71
     0
176
     1
 72
     2
176
     1
 73
     0
176
     1
 90
        0
176
     1
 40
-0.6
176
     1
 41
-30.0
176
     1
 62
     5
 63
     7
421
 16777215
176
     1
 74
     1
176
     1
 91
        4
176
     1
 64
     7
176
     1
 65
   257
176
     1
 75
     1
176
     1
175
     1
176
     1
 42
1.0
176
     1
 92
        0
176
     1
 66
   257
176
     1
 43
1.0
176
     1
 76
     1
176
     1
 77
     6
176
     1
 78
     2
176
     1
 67
     7
176
     1
 79
     5
176
     1
170
     0
176
     1
171
     0
176
     1
290
     0
176
     1
 93
        1
176
     1
 44
0.0
176
     1
173
     0
176
     1
  0
VISUALSTYLE
  5
31
102
{ACAD_REACTORS
330
2A
102
}
330
2A
100
AcDbVisualStyle
  2
3D Hidden
 70
     6
177
     2
291
     0
 71
     1
176
     1
 72
     2
176
     1
 73
     2
176
     1
 90
        0
176
     1
 40
-0.6
176
     1
 41
-30.0
176
     1
 62
     5
 63
     7
421
 16777215
176
     1
 74
     2
176
     1
 91
        2
176
     1
 64
     7
176
     1
 65
   257
176
     1
 75
     2
176
     1
175
     1
176
     1
 42
40.0
176
     1
 92
        0
176
     1
 66
   257
176
     1
 43
1.0
176
     1
 76
     1
176
     1
 77
     6
176
     1
 78
     2
176
     1
 67
     7
176
     1
 79
     3
176
     1
170
     0
176
     1
171
     0
176
     1
290
     0
176
     1
 93
        1
176
     1
 44
0.0
176
     1
173
     0
176
     1
  0
VISUALSTYLE
  5
30
102
{ACAD_REACTORS
330
2A
102
}
330
2A
100
AcDbVisualStyle
  2
3dWireframe
 70
     5
177
     2
291
     0
 71
     0
176
     1
 72
     2
176
     1
 73
     0
176
     1
 90
        0
176
     1
 40
-0.6
176
     1
 41
-30.0
176
     1
 62
     5
 63
     7
421
 16777215
176
     1
 74
     1
176
     1
 91
        4
176
     1
 64
     7
176
     1
 65
   257
176
     1
 75
     1
176
     1
175
     1
176
     1
 42
1.0
176
     1
 92
        0
176
     1
 66
   257
176
     1
 43
1.0
176
     1
 76
     1
176
     1
 77
     6
176
     1
 78
     2
176
     1
 67
     7
176
     1
 79
     5
176
     1
170
     0
176
     1
171
     0
176
     1
290
     0
176
     1
 93
        1
176
     1
 44
0.0
176
     1
173
     0
176
     1
  0
VISUALSTYLE
  5
32
102
{ACAD_REACTORS
330
2A
102
}
330
2A
100
AcDbVisualStyle
  2
Basic
 70
     7
177
     2
291
     1
 71
     1
176
     1
 72
     0
176
     1
 73
     1
176
     1
 90
        0
176
     1
 40
-0.6
176
     1
 41
-30.0
176
     1
 62
     5
 63
     7
421
 16777215
176
     1
 74
     0
176
     1
 91
        4
176
     1
 64
     7
176
     1
 65
   257
176
     1
 75
     1
176
     1
175
     1
176
     1
 42
1.0
176
     1
 92
        8
176
     1
 66
     7
176
     1
 43
1.0
176
     1
 76
     1
176
     1
 77
     6
176
     1
 78
     2
176
     1
 67
     7
176
     1
 79
     5
176
     1
170
     0
176
     1
171
     0
176
     1
290
     0
176
     1
 93
        1
176
     1
 44
0.0
176
     1
173
     0
176
     1
  0
VISUALSTYLE
  5
36
102
{ACAD_REACTORS
330
2A
102
}
330
2A
100
AcDbVisualStyle
  2
Brighten
 70
    12
177
     2
291
     1
 71
     2
176
     1
 72
     2
176
     1
 73
     0
176
     1
 90
        0
176
     1
 40
-0.6
176
     1
 41
-30.0
176
     1
 62
     5
 63
     7
421
 16777215
176
     1
 74
     1
176
     1
 91
        4
176
     1
 64
     7
176
     1
 65
   257
176
     1
 75
     1
176
     1
175
     1
176
     1
 42
1.0
176
     1
 92
        8
176
     1
 66
     7
176
     1
 43
1.0
176
     1
 76
     1
176
     1
 77
     6
176
     1
 78
     2
176
     1
 67
     7
176
     1
 79
     5
176
     1
170
     0
176
     1
171
     0
176
     1
290
     0
176
     1
 93
        1
176
     1
 44
50.0
176
     1
173
     0
176
     1
  0
VISUALSTYLE
  5
3A
102
{ACAD_REACTORS
330
2A
102
}
330
2A
100
AcDbVisualStyle
  2
ColorChange
 70
    16
177
     2
291
     1
 71
     2
176
     1
 72
     2
176
     1
 73
     3
176
     1
 90
        0
176
     1
 40
-0.6
176
     1
 41
-30.0
176
     1
 62
     5
 63
     8
421
  8421504
176
     1
 74
     1
176
     1
 91
        4
176
     1
 64
     7
176
     1
 65
   257
176
     1
 75
     1
176
     1
175
     1
176
     1
 42
1.0
176
     1
 92
        8
176
     1
 66
     8
424
  8421504
176
     1
 43
1.0
176
     1
 76
     1
176
     1
 77
     6
176
     1
 78
     2
176
     1
 67
     7
176
     1
 79
     5
176
     1
170
     0
176
     1
171
     0
176
     1
290
     0
176
     1
 93
        1
176
     1
 44
0.0
176
     1
173
     0
176
     1
  0
VISUALSTYLE
  5
34
102
{ACAD_REACTORS
330
2A
102
}
330
2A
100
AcDbVisualStyle
  2
Conceptual
 70
     9
177
     2
291
     0
 71
     3
176
     1
 72
     2
176
     1
 73
     0
176
     1
 90
        0
176
     1
 40
-0.6
176
     1
 41
-30.0
176
     1
 62
     5
 63
     7
421
 16777215
176
     1
 74
     2
176
     1
 91
        2
176
     1
 64
     7
176
     1
 65
   257
176
     1
 75
     1
176
     1
175
     1
176
     1
 42
40.0
176
     1
 92
        8
176
     1
 66
     7
176
     1
 43
1.0
176
     1
 76
     1
176
     1
 77
     6
176
     1
 78
     2
176
     1
 67
     7
176
     1
 79
     3
176
     1
170
     0
176
     1
171
     0
176
     1
290
     0
176
     1
 93
        1
176
     1
 44
0.0
176
     1
173
     0
176
     1
  0
VISUALSTYLE
  5
35
102
{ACAD_REACTORS
330
2A
102
}
330
2A
100
AcDbVisualStyle
  2
Dim
 70
    11
177
     2
291
     1
 71
     2
176
     1
 72
     2
176
     1
 73
     0
176
     1
 90
        0
176
     1
 40
-0.6
176
     1
 41
-30.0
176
     1
 62
     5
 63
     7
421
 16777215
176
     1
 74
     1
176
     1
 91
        4
176
     1
 64
     7
176
     1
 65
   257
176
     1
 75
     1
176
     1
175
     1
176
     1
 42
1.0
176
     1
 92
        8
176
     1
 66
     7
176
     1
 43
1.0
176
     1
 76
     1
176
     1
 77
     6
176
     1
 78
     2
176
     1
 67
     7
176
     1
 79
     5
176
     1
170
     0
176
     1
171
     0
176
     1
290
     0
176
     1
 93
        1
176
     1
 44
-50.0
176
     1
173
     0
176
     1
  0
VISUALSTYLE
  5
39
102
{ACAD_REACTORS
330
2A
102
}
330
2A
100
AcDbVisualStyle
  2
Facepattern
 70
    15
177
     2
291
     1
 71
     2
176
     1
 72
     2
176
     1
 73
     0
176
     1
 90
        0
176
     1
 40
-0.6
176
     1
 41
-30.0
176
     1
 62
     5
 63
     7
421
 16777215
176
     1
 74
     1
176
     1
 91
        4
176
     1
 64
     7
176
     1
 65
   257
176
     1
 75
     1
176
     1
175
     1
176
     1
 42
1.0
176
     1
 92
        8
176
     1
 66
     7
176
     1
 43
1.0
176
     1
 76
     1
176
     1
 77
     6
176
     1
 78
     2
176
     1
 67
     7
176
     1
 79
     5
176
     1
170
     0
176
     1
171
     0
176
     1
290
     0
176
     1
 93
        1
176
     1
 44
0.0
176
     1
173
     0
176
     1
  0
VISUALSTYLE
  5
2B
102
{ACAD_REACTORS
330
2A
102
}
330
2A
100
AcDbVisualStyle
  2
Flat
 70
     0
177
     2
291
     1
 71
     2
176
     1
 72
     1
176
     1
 73
     1
176
     1
 90
        2
176
     1
 40
-0.6
176
     1
 41
30.0
176
     1
 62
     5
 63
     7
421
 16777215
176
     1
 74
     0
176
     1
 91
        4
176
     1
 64
     7
176
     1
 65
   257
176
     1
 75
     1
176
     1
175
     1
176
     1
 42
1.0
176
     1
 92
        8
176
     1
 66
     7
176
     1
 43
1.0
176
     1
 76
     1
176
     1
 77
     6
176
     1
 78
     2
176
     1
 67
     7
176
     1
 79
     5
176
     1
170
     0
176
     1
171
     0
176
     1
290
     0
176
     1
 93
       13
176
     1
 44
0.0
176
     1
173
     0
176
     1
  0
VISUALSTYLE
  5
2C
102
{ACAD_REACTORS
330
2A
102
}
330
2A
100
AcDbVisualStyle
  2
FlatWithEdges
 70
     1
177
     2
291
     1
 71
     2
176
     1
 72
     1
176
     1
 73
     1
176
     1
 90
        2
176
     1
 40
-0.6
176
     1
 41
30.0
176
     1
 62
     5
 63
     7
421
 16777215
176
     1
 74
     1
176
     1
 91
        4
176
     1
 64
     7
176
     1
 65
   257
176
     1
 75
     1
176
     1
175
     1
176
     1
 42
1.0
176
     1
 92
        0
176
     1
 66
   257
176
     1
 43
1.0
176
     1
 76
     1
176
     1
 77
     6
176
     1
 78
     2
176
     1
 67
     7
176
     1
 79
     5
176
     1
170
     0
176
     1
171
     0
176
     1
290
     0
176
     1
 93
       13
176
     1
 44
0.0
176
     1
173
     0
176
     1
  0
VISUALSTYLE
  5
2D
102
{ACAD_REACTORS
330
2A
102
}
330
2A
100
AcDbVisualStyle
  2
Gouraud
 70
     2
177
     2
291
     1
 71
     2
176
     1
 72
     2
176
     1
 73
     1
176
     1
 90
        2
176
     1
 40
-0.6
176
     1
 41
30.0
176
     1
 62
     5
 63
     7
421
 16777215
176
     1
 74
     0
176
     1
 91
        4
176
     1
 64
     7
176
     1
 65
   257
176
     1
 75
     1
176
     1
175
     1
176
     1
 42
1.0
176
     1
 92
        0
176
     1
 66
     7
176
     1
 43
1.0
176
     1
 76
     1
176
     1
 77
     6
176
     1
 78
     2
176
     1
 67
     7
176
     1
 79
     5
176
     1
170
     0
176
     1
171
     0
176
     1
290
     0
176
     1
 93
       13
176
     1
 44
0.0
176
     1
173
     0
176
     1
  0
VISUALSTYLE
  5
2E
102
{ACAD_REACTORS
330
2A
102
}
330
2A
100
AcDbVisualStyle
  2
GouraudWithEdges
 70
     3
177
     2
291
     1
 71
     2
176
     1
 72
     2
176
     1
 73
     1
176
     1
 90
        2
176
     1
 40
-0.6
176
     1
 41
30.0
176
     1
 62
     5
 63
     7
421
 16777215
176
     1
 74
     1
176
     1
 91
        4
176
     1
 64
     7
176
     1
 65
   257
176
     1
 75
     1
176
     1
175
     1
176
     1
 42
1.0
176
     1
 92
        0
176
     1
 66
   257
176
     1
 43
1.0
176
     1
 76
     1
176
     1
 77
     6
176
     1
 78
     2
176
     1
 67
     7
176
     1
 79
     5
176
     1
170
     0
176
     1
171
     0
176
     1
290
     0
176
     1
 93
       13
176
     1
 44
0.0
176
     1
173
     0
176
     1
  0
VISUALSTYLE
  5
38
102
{ACAD_REACTORS
330
2A
102
}
330
2A
100
AcDbVisualStyle
  2
Linepattern
 70
    14
177
     2
291
     1
 71
     2
176
     1
 72
     2
176
     1
 73
     0
176
     1
 90
        0
176
     1
 40
-0.6
176
     1
 41
-30.0
176
     1
 62
     5
 63
     7
421
 16777215
176
     1
 74
     1
176
     1
 91
        4
176
     1
 64
     7
176
     1
 65
   257
176
     1
 75
     7
176
     1
175
     7
176
     1
 42
1.0
176
     1
 92
        8
176
     1
 66
     7
176
     1
 43
1.0
176
     1
 76
     1
176
     1
 77
     6
176
     1
 78
     2
176
     1
 67
     7
176
     1
 79
     5
176
     1
170
     0
176
     1
171
     0
176
     1
290
     0
176
     1
 93
        1
176
     1
 44
0.0
176
     1
173
     0
176
     1
  0
VISUALSTYLE
  5
33
102
{ACAD_REACTORS
330
2A
102
}
330
2A
100
AcDbVisualStyle
  2
Realistic
 70
     8
177
     2
291
     0
 71
     2
176
     1
 72
     2
176
     1
 73
     0
176
     1
 90
        0
176
     1
 40
-0.6
176
     1
 41
-30.0
176
     1
 62
     5
 63
     7
421
 16777215
176
     1
 74
     1
176
     1
 91
        0
176
     1
 64
     7
176
     1
 65
   257
176
     1
 75
     1
176
     1
175
     1
176
     1
 42
1.0
176
     1
 92
        8
176
     1
 66
     8
424
  7895160
176
     1
 43
1.0
176
     1
 76
     1
176
     1
 77
     6
176
     1
 78
     2
176
     1
 67
     7
176
     1
 79
     5
176
     1
170
     0
176
     1
171
     0
176
     1
290
     0
176
     1
 93
       13
176
     1
 44
0.0
176
     1
173
     0
176
     1
  0
VISUALSTYLE
  5
37
102
{ACAD_REACTORS
330
2A
102
}
330
2A
100
AcDbVisualStyle
  2
Thicken
 70
    13
177
     2
291
     1
 71
     2
176
     1
 72
     2
176
     1
 73
     0
176
     1
 90
        0
176
     1
 40
-0.6
176
     1
 41
-30.0
176
     1
 62
     5
 63
     7
421
 16777215
176
     1
 74
     1
176
     1
 91
        4
176
     1
 64
     7
176
     1
 65
   257
176
     1
 75
     1
176
     1
175
     1
176
     1
 42
1.0
176
     1
 92
       12
176
     1
 66
     7
176
     1
 43
1.0
176
     1
 76
     1
176
     1
 77
     6
176
     1
 78
     2
176
     1
 67
     7
176
     1
 79
     5
176
     1
170
     0
176
     1
171
     0
176
     1
290
     0
176
     1
 93
        1
176
     1
 44
0.0
176
     1
173
     0
176
     1
  0
ENDSEC
  0
EOF
