  0
SECTION
  2
HEADER
  9
$ACADVER
  1
AC1024
  9
$ACADMAINTVER
 70
     6
  9
$DWGCODEPAGE
  3
UNDEFINED
  9
$INSBASE
 10
0.0
 20
0.0
 30
0.0
  9
$EXTMIN
 10
1.000000000000000E+20
 20
1.000000000000000E+20
 30
1.000000000000000E+20
  9
$EXTMAX
 10
-1.000000000000000E+20
 20
-1.000000000000000E+20
 30
-1.000000000000000E+20
  9
$LIMMIN
 10
0.0
 20
0.0
  9
$LIMMAX
 10
12.0
 20
9.0
  9
$ORTHOMODE
 70
     0
  9
$REGENMODE
 70
     1
  9
$FILLMODE
 70
     1
  9
$QTEXTMODE
 70
     0
  9
$MIRRTEXT
 70
     1
  9
$LTSCALE
 40
1.0
  9
$ATTMODE
 70
     1
  9
$TEXTSIZE
 40
0.2
  9
$TRACEWID
 40
0.05
  9
$TEXTSTYLE
  7
Standard
  9
$CLAYER
  8
0
  9
$CELTYPE
  6
ByLayer
  9
$CECOLOR
 62
   256
  9
$CELTSCALE
 40
1.0
  9
$DISPSILH
 70
     0
  9
$DIMSCALE
 40
1.0
  9
$DIMASZ
 40
0.18
  9
$DIMEXO
 40
0.0625
  9
$DIMDLI
 40
0.38
  9
$DIMRND
 40
0.0
  9
$DIMDLE
 40
0.0
  9
$DIMEXE
 40
0.18
  9
$DIMTP
 40
0.0
  9
$DIMTM
 40
0.0
  9
$DIMTXT
 40
0.18
  9
$DIMCEN
 40
0.09
  9
$DIMTSZ
 40
0.0
  9
$DIMTOL
 70
     0
  9
$DIMLIM
 70
     0
  9
$DIMTIH
 70
     1
  9
$DIMTOH
 70
     1
  9
$DIMSE1
 70
     0
  9
$DIMSE2
 70
     0
  9
$DIMTAD
 70
     0
  9
$DIMZIN
 70
     0
  9
$DIMBLK
  1

  9
$DIMASO
 70
     1
  9
$DIMSHO
 70
     1
  9
$DIMPOST
  1

  9
$DIMAPOST
  1

  9
$DIMALT
 70
     0
  9
$DIMALTD
 70
     2
  9
$DIMALTF
 40
25.4
  9
$DIMLFAC
 40
1.0
  9
$DIMTOFL
 70
     0
  9
$DIMTVP
 40
0.0
  9
$DIMTIX
 70
     0
  9
$DIMSOXD
 70
     0
  9
$DIMSAH
 70
     0
  9
$DIMBLK1
  1

  9
$DIMBLK2
  1

  9
$DIMSTYLE
  2
Standard
  9
$DIMCLRD
 70
     0
  9
$DIMCLRE
 70
     0
  9
$DIMCLRT
 70
     0
  9
$DIMTFAC
 40
1.0
  9
$DIMGAP
 40
0.09
  9
$DIMJUST
 70
     0
  9
$DIMSD1
 70
     0
  9
$DIMSD2
 70
     0
  9
$DIMTOLJ
 70
     1
  9
$DIMTZIN
 70
     0
  9
$DIMALTZ
 70
     0
  9
$DIMALTTZ
 70
     0
  9
$DIMUPT
 70
     0
  9
$DIMDEC
 70
     4
  9
$DIMTDEC
 70
     4
  9
$DIMALTU
 70
     2
  9
$DIMALTTD
 70
     2
  9
$DIMTXSTY
  7
Standard
  9
$DIMAUNIT
 70
     0
  9
$DIMADEC
 70
     0
  9
$DIMALTRND
 40
0.0
  9
$DIMAZIN
 70
     0
  9
$DIMDSEP
 70
    46
  9
$DIMATFIT
 70
     3
  9
$DIMFRAC
 70
     0
  9
$DIMLDRBLK
  1

  9
$DIMLUNIT
 70
     2
  9
$DIMLWD
 70
    -2
  9
$DIMLWE
 70
    -2
  9
$DIMTMOVE
 70
     0
  9
$DIMFXL
 40
1.0
  9
$DIMFXLON
 70
     0
  9
$DIMJOGANG
 40
0.7853981633974483
  9
$DIMTFILL
 70
     0
  9
$DIMTFILLCLR
 70
     0
  9
$DIMARCSYM
 70
     0
  9
$DIMLTYPE
  6

  9
$DIMLTEX1
  6

  9
$DIMLTEX2
  6

  9
$DIMTXTDIRECTION
 70
     0
  9
$LUNITS
 70
     2
  9
$LUPREC
 70
     4
  9
$SKETCHINC
 40
0.1
  9
$FILLETRAD
 40
0.5
  9
$AUNITS
 70
     0
  9
$AUPREC
 70
     0
  9
$MENU
  1
.
  9
$ELEVATION
 40
0.0
  9
$PELEVATION
 40
0.0
  9
$THICKNESS
 40
0.0
  9
$LIMCHECK
 70
     0
  9
$CHAMFERA
 40
0.5
  9
$CHAMFERB
 40
0.5
  9
$CHAMFERC
 40
1.0
  9
$CHAMFERD
 40
0.0
  9
$SKPOLY
 70
     0
  9
$TDCREATE
 40
2458263.583344907
  9
$TDUCREATE
 40
2458263.208344907
  9
$TDUPDATE
 40
2458263.583344907
  9
$TDUUPDATE
 40
2458263.208344907
  9
$TDINDWG
 40
0.0000000116
  9
$TDUSRTIMER
 40
0.0000000116
  9
$USRTIMER
 70
     1
  9
$ANGBASE
 50
0.0
  9
$ANGDIR
 70
     0
  9
$PDMODE
 70
     0
  9
$PDSIZE
 40
0.0
  9
$PLINEWID
 40
0.0
  9
$SPLFRAME
 70
     0
  9
$SPLINETYPE
 70
     6
  9
$SPLINESEGS
 70
     8
  9
$HANDSEED
  5
12A
  9
$SURFTAB1
 70
     6
  9
$SURFTAB2
 70
     6
  9
$SURFTYPE
 70
     6
  9
$SURFU
 70
     6
  9
$SURFV
 70
     6
  9
$UCSBASE
  2

  9
$UCSNAME
  2

  9
$UCSORG
 10
0.0
 20
0.0
 30
0.0
  9
$UCSXDIR
 10
1.0
 20
0.0
 30
0.0
  9
$UCSYDIR
 10
0.0
 20
1.0
 30
0.0
  9
$UCSORTHOREF
  2

  9
$UCSORTHOVIEW
 70
     0
  9
$UCSORGTOP
 10
0.0
 20
0.0
 30
0.0
  9
$UCSORGBOTTOM
 10
0.0
 20
0.0
 30
0.0
  9
$UCSORGLEFT
 10
0.0
 20
0.0
 30
0.0
  9
$UCSORGRIGHT
 10
0.0
 20
0.0
 30
0.0
  9
$UCSORGFRONT
 10
0.0
 20
0.0
 30
0.0
  9
$UCSORGBACK
 10
0.0
 20
0.0
 30
0.0
  9
$PUCSBASE
  2

  9
$PUCSNAME
  2

  9
$PUCSORG
 10
0.0
 20
0.0
 30
0.0
  9
$PUCSXDIR
 10
1.0
 20
0.0
 30
0.0
  9
$PUCSYDIR
 10
0.0
 20
1.0
 30
0.0
  9
$PUCSORTHOREF
  2

  9
$PUCSORTHOVIEW
 70
     0
  9
$PUCSORGTOP
 10
0.0
 20
0.0
 30
0.0
  9
$PUCSORGBOTTOM
 10
0.0
 20
0.0
 30
0.0
  9
$PUCSORGLEFT
 10
0.0
 20
0.0
 30
0.0
  9
$PUCSORGRIGHT
 10
0.0
 20
0.0
 30
0.0
  9
$PUCSORGFRONT
 10
0.0
 20
0.0
 30
0.0
  9
$PUCSORGBACK
 10
0.0
 20
0.0
 30
0.0
  9
$USERI1
 70
     0
  9
$USERI2
 70
     0
  9
$USERI3
 70
     0
  9
$USERI4
 70
     0
  9
$USERI5
 70
     0
  9
$USERR1
 40
0.0
  9
$USERR2
 40
0.0
  9
$USERR3
 40
0.0
  9
$USERR4
 40
0.0
  9
$USERR5
 40
0.0
  9
$WORLDVIEW
 70
     1
  9
$SHADEDGE
 70
     3
  9
$SHADEDIF
 70
    70
  9
$TILEMODE
 70
     1
  9
$MAXACTVP
 70
    64
  9
$PINSBASE
 10
0.0
 20
0.0
 30
0.0
  9
$PLIMCHECK
 70
     0
  9
$PEXTMIN
 10
1.000000000000000E+20
 20
1.000000000000000E+20
 30
1.000000000000000E+20
  9
$PEXTMAX
 10
-1.000000000000000E+20
 20
-1.000000000000000E+20
 30
-1.000000000000000E+20
  9
$PLIMMIN
 10
0.0
 20
0.0
  9
$PLIMMAX
 10
12.0
 20
9.0
  9
$UNITMODE
 70
     0
  9
$VISRETAIN
 70
     1
  9
$PLINEGEN
 70
     0
  9
$PSLTSCALE
 70
     1
  9
$TREEDEPTH
 70
  3020
  9
$CMLSTYLE
  2
Standard
  9
$CMLJUST
 70
     0
  9
$CMLSCALE
 40
1.0
  9
$PROXYGRAPHICS
 70
     1
  9
$MEASUREMENT
 70
     0
  9
$CELWEIGHT
370
    -1
  9
$ENDCAPS
280
     0
  9
$JOINSTYLE
280
     0
  9
$LWDISPLAY
290
     1
  9
$INSUNITS
 70
     1
  9
$HYPERLINKBASE
  1

  9
$STYLESHEET
  1

  9
$XEDIT
290
     1
  9
$CEPSNTYPE
380
     0
  9
$PSTYLEMODE
290
     1
  9
$FINGERPRINTGUID
  2
{FC6A09EE-C2EB-F1D7-BC10-55EE1A376B37}
  9
$VERSIONGUID
  2
{FAEB1C32-E019-11D5-929B-00C0DF256EC4}
  9
$EXTNAMES
290
     1
  9
$PSVPSCALE
 40
0.0
  9
$OLESTARTUP
290
     0
  9
$SORTENTS
280
   127
  9
$INDEXCTL
280
     0
  9
$HIDETEXT
280
     1
  9
$XCLIPFRAME
280
     2
  9
$HALOGAP
280
     0
  9
$OBSCOLOR
 70
   257
  9
$OBSLTYPE
280
     0
  9
$INTERSECTIONDISPLAY
280
     0
  9
$INTERSECTIONCOLOR
 70
   257
  9
$DIMASSOC
280
     2
  9
$PROJECTNAME
  1

  9
$CAMERADISPLAY
290
     0
  9
$LENSLENGTH
 40
50.0
  9
$CAMERAHEIGHT
 40
0.0
  9
$STEPSPERSEC
 40
2.0
  9
$STEPSIZE
 40
6.0
  9
$3DDWFPREC
 40
2.0
  9
$PSOLWIDTH
 40
0.25
  9
$PSOLHEIGHT
 40
4.0
  9
$LOFTANG1
 40
1.570796326794897
  9
$LOFTANG2
 40
1.570796326794897
  9
$LOFTMAG1
 40
0.0
  9
$LOFTMAG2
 40
0.0
  9
$LOFTPARAM
 70
     7
  9
$LOFTNORMALS
280
     1
  9
$LATITUDE
 40
37.795
  9
$LONGITUDE
 40
-122.394
  9
$NORTHDIRECTION
 40
0.0
  9
$TIMEZONE
 70
 -8000
  9
$LIGHTGLYPHDISPLAY
280
     1
  9
$TILEMODELIGHTSYNCH
280
     1
  9
$CMATERIAL
347
3C
  9
$SOLIDHIST
280
     1
  9
$SHOWHIST
280
     1
  9
$DWFFRAME
280
     2
  9
$DGNFRAME
280
     2
  9
$REALWORLDSCALE
290
     1
  9
$INTERFERECOLOR
 62
   256
  9
$CSHADOW
280
     0
  9
$SHADOWPLANELOCATION
 40
0.0
  0
ENDSEC
  0
SECTION
  2
CLASSES
  0
CLASS
  1
ACDBDICTIONARYWDFLT
  2
AcDbDictionaryWithDefault
  3
ObjectDBX Classes
 90
        0
 91
        4
280
     0
281
     0
  0
CLASS
  1
VISUALSTYLE
  2
AcDbVisualStyle
  3
ObjectDBX Classes
 90
     4095
 91
        4
280
     0
281
     0
  0
CLASS
  1
MATERIAL
  2
AcDbMaterial
  3
ObjectDBX Classes
 90
     1153
 91
        4
280
     0
281
     0
  0
CLASS
  1
SUN
  2
AcDbSun
  3
SCENEOE
 90
     1024
 91
        4
280
     0
281
     0
  0
ENDSEC
  0
SECTION
  2
TABLES
  0
TABLE
  2
VPORT
  5
8
330
0
100
AcDbSymbolTable
 70
     1
  0
VPORT
  5
29
330
8
100
AcDbSymbolTableRecord
100
AcDbViewportTableRecord
  2
*Active
 70
     0
 10
0.0
 20
0.0
 11
1.0
 21
1.0
 12
0.0
 22
0.0
 13
0.0
 23
0.0
 14
0.5
 24
0.5
 15
0.5
 25
0.5
 16
0.0
 26
0.0
 36
1.0
 17
105.0007777515277
 27
-148.5000416295416
 37
0.0
 40
297.0000832590831
 41
0.7070757462376333
 42
50.0
 43
0.0
 44
0.0
 50
0.0
 51
0.0
 71
     0
 72
   100
 73
     1
 74
     3
 75
     0
 76
     0
 77
     0
 78
     0
281
     0
 65
     1
110
0.0
120
0.0
130
0.0
111
1.0
121
0.0
131
0.0
112
0.0
122
1.0
132
0.0
 79
     0
146
0.0
 60
     3
 61
     5
292
     1
282
     1
141
0.0
142
0.0
 63
   250
361
3F
  0
ENDTAB
  0
TABLE
  2
LTYPE
  5
5
330
0
100
AcDbSymbolTable
 70
     1
  0
LTYPE
  5
14
330
5
100
AcDbSymbolTableRecord
100
AcDbLinetypeTableRecord
  2
ByBlock
 70
     0
  3

 72
    65
 73
     0
 40
0.0
  0
LTYPE
  5
15
330
5
100
AcDbSymbolTableRecord
100
AcDbLinetypeTableRecord
  2
ByLayer
 70
     0
  3

 72
    65
 73
     0
 40
0.0
  0
LTYPE
  5
16
330
5
100
AcDbSymbolTableRecord
100
AcDbLinetypeTableRecord
  2
Continuous
 70
     0
  3
Solid line
 72
    65
 73
     0
 40
0.0
  0
ENDTAB
  0
TABLE
  2
LAYER
  5
2
330
0
100
AcDbSymbolTable
 70
     2
  0
LAYER
  5
10
330
2
100
AcDbSymbolTableRecord
100
AcDbLayerTableRecord
  2
0
 70
     0
 62
     7
  6
Continuous
370
    -3
390
F
347
3E
  0
LAYER
  5
40
330
2
100
AcDbSymbolTableRecord
100
AcDbLayerTableRecord
  2
_U+30EC_U+30A4_U+30E4_U+30FC 1
 70
     0
 62
     7
  6
Continuous
370
    -3
390
F
347
3E
  0
ENDTAB
  0
TABLE
  2
STYLE
  5
3
330
0
100
AcDbSymbolTable
 70
     1
  0
STYLE
  5
11
330
3
100
AcDbSymbolTableRecord
100
AcDbTextStyleTableRecord
  2
Standard
 70
     0
 40
0.0
 41
1.0
 50
0.0
 71
     0
 42
0.2
  3
txt
  4

  0
ENDTAB
  0
TABLE
  2
VIEW
  5
6
330
0
100
AcDbSymbolTable
 70
     0
  0
ENDTAB
  0
TABLE
  2
UCS
  5
7
330
0
100
AcDbSymbolTable
 70
     0
  0
ENDTAB
  0
TABLE
  2
APPID
  5
9
330
0
100
AcDbSymbolTable
 70
     1
  0
APPID
  5
12
330
9
100
AcDbSymbolTableRecord
100
AcDbRegAppTableRecord
  2
ACAD
 70
     0
  0
ENDTAB
  0
TABLE
  2
DIMSTYLE
  5
A
330
0
100
AcDbSymbolTable
 70
     1
100
AcDbDimStyleTable
  0
DIMSTYLE
105
27
330
A
100
AcDbSymbolTableRecord
100
AcDbDimStyleTableRecord
  2
Standard
 70
     0
178
     0
340
11
  0
ENDTAB
  0
TABLE
  2
BLOCK_RECORD
  5
1
330
0
100
AcDbSymbolTable
 70
     7
  0
BLOCK_RECORD
  5
1F
330
1
100
AcDbSymbolTableRecord
100
AcDbBlockTableRecord
  2
*Model_Space
340
22
 70
     0
280
     1
281
     0
  0
BLOCK_RECORD
  5
1B
330
1
100
AcDbSymbolTableRecord
100
AcDbBlockTableRecord
  2
*Paper_Space
340
1E
 70
     0
280
     1
281
     0
  0
BLOCK_RECORD
  5
23
330
1
100
AcDbSymbolTableRecord
100
AcDbBlockTableRecord
  2
*Paper_Space0
340
26
 70
     0
280
     1
281
     0
  0
BLOCK_RECORD
  5
D3
330
1
100
AcDbSymbolTableRecord
100
AcDbBlockTableRecord
  2
block 2
340
0
102
{BLKREFS
331
D4
102
}
 70
     0
280
     1
281
     0
  0
BLOCK_RECORD
  5
E1
330
1
100
AcDbSymbolTableRecord
100
AcDbBlockTableRecord
  2
block 3
340
0
102
{BLKREFS
331
E2
102
}
 70
     0
280
     1
281
     0
  0
BLOCK_RECORD
  5
F5
330
1
100
AcDbSymbolTableRecord
100
AcDbBlockTableRecord
  2
block 4
340
0
102
{BLKREFS
331
F6
102
}
 70
     0
280
     1
281
     0
  0
BLOCK_RECORD
  5
FB
330
1
100
AcDbSymbolTableRecord
100
AcDbBlockTableRecord
  2
block 5
340
0
102
{BLKREFS
331
FC
102
}
 70
     0
280
     1
281
     0
  0
BLOCK_RECORD
  5
110
330
1
100
AcDbSymbolTableRecord
100
AcDbBlockTableRecord
  2
block 6
340
0
102
{BLKREFS
331
111
102
}
 70
     0
280
     1
281
     0
  0
BLOCK_RECORD
  5
122
330
1
100
AcDbSymbolTableRecord
100
AcDbBlockTableRecord
  2
block 7
340
0
102
{BLKREFS
331
123
102
}
 70
     0
280
     1
281
     0
  0
ENDTAB
  0
ENDSEC
  0
SECTION
  2
BLOCKS
  0
BLOCK
  5
20
330
1F
100
AcDbEntity
  8
0
100
AcDbBlockBegin
  2
*Model_Space
 70
     0
 10
0.0
 20
0.0
 30
0.0
  3
*Model_Space
  1

  0
ENDBLK
  5
21
330
1F
100
AcDbEntity
  8
0
100
AcDbBlockEnd
  0
BLOCK
  5
1C
330
1B
100
AcDbEntity
 67
     1
  8
0
100
AcDbBlockBegin
  2
*Paper_Space
 70
     0
 10
0.0
 20
0.0
 30
0.0
  3
*Paper_Space
  1

  0
ENDBLK
  5
1D
330
1B
100
AcDbEntity
 67
     1
  8
0
100
AcDbBlockEnd
  0
BLOCK
  5
24
330
23
100
AcDbEntity
  8
0
100
AcDbBlockBegin
  2
*Paper_Space0
 70
     0
 10
0.0
 20
0.0
 30
0.0
  3
*Paper_Space0
  1

  0
ENDBLK
  5
25
330
23
100
AcDbEntity
  8
0
100
AcDbBlockEnd
  0
BLOCK
  5
D5
330
D3
100
AcDbEntity
  8
0
100
AcDbBlockBegin
  2
block 2
 70
     0
 10
0.0
 20
0.0
 30
0.0
  3
block 2
  1

  0
SPLINE
  5
D7
330
D3
100
AcDbEntity
  8
_U+30EC_U+30A4_U+30E4_U+30FC 1
370
     0
100
AcDbSpline
210
0.0
220
0.0
230
1.0
 70
    11
 71
     3
 72
    26
 73
    22
 74
     0
 42
0.0000000001
 43
0.0000000001
 12
1.0
 22
0.0
 32
0.0
 13
1.0
 23
0.0
 33
0.0
 40
0.0
 40
0.0
 40
0.0
 40
0.0
 40
1.0
 40
1.0
 40
1.0
 40
2.0
 40
2.0
 40
2.0
 40
3.0
 40
3.0
 40
3.0
 40
4.0
 40
4.0
 40
4.0
 40
5.0
 40
5.0
 40
5.0
 40
6.0
 40
6.0
 40
6.0
 40
7.0
 40
7.0
 40
7.0
 40
7.0
 10
95.47393118272875
 20
-137.5369967646609
 30
0.0
 10
95.47393118272875
 20
-137.5369967646609
 30
0.0
 10
95.22071666456289
 20
-137.5369967646609
 30
0.0
 10
95.22071666456289
 20
-137.5369967646609
 30
0.0
 10
95.24793291889635
 20
-137.227971699634
 30
0.0
 10
95.45360511936578
 20
-136.7098293386524
 30
0.0
 10
95.88768715050725
 20
-136.2040893214177
 30
0.0
 10
95.88768715050725
 20
-136.2040893214177
 30
0.0
 10
94.99247908866508
 20
-136.2040893214177
 30
0.0
 10
94.99247908866508
 20
-136.2040893214177
 30
0.0
 10
94.99247908866508
 20
-136.2040893214177
 30
0.0
 10
94.99247908866508
 20
-135.9925604586234
 30
0.0
 10
94.99247908866508
 20
-135.9925604586234
 30
0.0
 10
94.99247908866508
 20
-135.9925604586234
 30
0.0
 10
96.14090166867311
 20
-135.9925604586234
 30
0.0
 10
96.14090166867311
 20
-135.9925604586234
 30
0.0
 10
96.14090166867311
 20
-135.9925604586234
 30
0.0
 10
96.14090166867311
 20
-136.2040893214177
 30
0.0
 10
96.14090166867311
 20
-136.2040893214177
 30
0.0
 10
95.79501408195402
 20
-136.4941663612758
 30
0.0
 10
95.51010468532387
 20
-137.0863782751902
 30
0.0
 10
95.47393118272875
 20
-137.5369967646609
 30
0.0
  0
HATCH
  5
D8
330
D3
100
AcDbEntity
  8
_U+30EC_U+30A4_U+30E4_U+30FC 1
 62
   179
420
  2234388
100
AcDbHatch
 10
0.0
 20
0.0
 30
0.0
210
0.0
220
0.0
230
1.0
  2
SOLID
 70
     1
 71
     0
 91
        1
 92
        1
 93
        1
 72
     4
 94
        3
 73
     0
 74
     1
 95
       26
 96
       22
 40
0.0
 40
0.0
 40
0.0
 40
0.0
 40
1.0
 40
1.0
 40
1.0
 40
2.0
 40
2.0
 40
2.0
 40
3.0
 40
3.0
 40
3.0
 40
4.0
 40
4.0
 40
4.0
 40
5.0
 40
5.0
 40
5.0
 40
6.0
 40
6.0
 40
6.0
 40
7.0
 40
7.0
 40
7.0
 40
7.0
 10
95.47393118272875
 20
-137.5369967646609
 10
95.47393118272875
 20
-137.5369967646609
 10
95.22071666456289
 20
-137.5369967646609
 10
95.22071666456289
 20
-137.5369967646609
 10
95.24793291889635
 20
-137.227971699634
 10
95.45360511936578
 20
-136.7098293386524
 10
95.88768715050725
 20
-136.2040893214177
 10
95.88768715050725
 20
-136.2040893214177
 10
94.99247908866508
 20
-136.2040893214177
 10
94.99247908866508
 20
-136.2040893214177
 10
94.99247908866508
 20
-136.2040893214177
 10
94.99247908866508
 20
-135.9925604586234
 10
94.99247908866508
 20
-135.9925604586234
 10
94.99247908866508
 20
-135.9925604586234
 10
96.14090166867311
 20
-135.9925604586234
 10
96.14090166867311
 20
-135.9925604586234
 10
96.14090166867311
 20
-135.9925604586234
 10
96.14090166867311
 20
-136.2040893214177
 10
96.14090166867311
 20
-136.2040893214177
 10
95.79501408195402
 20
-136.4941663612758
 10
95.51010468532387
 20
-137.0863782751902
 10
95.47393118272875
 20
-137.5369967646609
 97
        0
 97
        0
 75
     2
 76
     1
 98
        0
  0
ENDBLK
  5
D6
330
D3
100
AcDbEntity
  8
0
100
AcDbBlockEnd
  0
BLOCK
  5
E3
330
E1
100
AcDbEntity
  8
0
100
AcDbBlockBegin
  2
block 3
 70
     0
 10
0.0
 20
0.0
 30
0.0
  3
block 3
  1

  0
SPLINE
  5
E5
330
E1
100
AcDbEntity
  8
_U+30EC_U+30A4_U+30E4_U+30FC 1
370
     0
100
AcDbSpline
210
0.0
220
0.0
230
1.0
 70
    11
 71
     3
 72
    29
 73
    25
 74
     0
 42
0.0000000001
 43
0.0000000001
 12
1.0
 22
0.0
 32
0.0
 13
1.0
 23
0.0
 33
0.0
 40
0.0
 40
0.0
 40
0.0
 40
0.0
 40
1.0
 40
1.0
 40
1.0
 40
2.0
 40
2.0
 40
2.0
 40
3.0
 40
3.0
 40
3.0
 40
4.0
 40
4.0
 40
4.0
 40
5.0
 40
5.0
 40
5.0
 40
6.0
 40
6.0
 40
6.0
 40
7.0
 40
7.0
 40
7.0
 40
8.0
 40
8.0
 40
8.0
 40
8.0
 10
103.0689886895105
 20
-137.5876396682941
 30
0.0
 10
102.7840792928804
 20
-137.5876396682941
 30
0.0
 10
102.5127780234169
 20
-137.4501803584326
 30
0.0
 10
102.5127780234169
 20
-137.1011921857768
 30
0.0
 10
102.5127780234169
 20
-136.8452215912227
 30
0.0
 10
102.6641899699937
 20
-136.7501369558298
 30
0.0
 10
102.7773613566841
 20
-136.6888142561924
 30
0.0
 10
102.6438639066307
 20
-136.6295586138461
 30
0.0
 10
102.5625596531788
 20
-136.5151814437358
 30
0.0
 10
102.5625596531788
 20
-136.3542954845746
 30
0.0
 10
102.5625596531788
 20
-136.0793768648517
 30
0.0
 10
102.7751220446187
 20
-135.9439846122814
 30
0.0
 10
103.0689886895105
 20
-135.9439846122814
 30
0.0
 10
103.371812582664
 20
-135.9439846122814
 30
0.0
 10
103.5754177258423
 20
-136.0879896035648
 30
0.0
 10
103.5754177258423
 20
-136.3542954845746
 30
0.0
 10
103.5754177258423
 20
-136.5151814437358
 30
0.0
 10
103.4917019055507
 20
-136.6295586138461
 30
0.0
 10
103.3583767102715
 20
-136.6888142561924
 30
0.0
 10
103.4532890908902
 20
-136.7394571598255
 30
0.0
 10
103.6227877887644
 20
-136.8345417952185
 30
0.0
 10
103.6227877887644
 20
-137.0970580711945
 30
0.0
 10
103.6227877887644
 20
-137.4715399504412
 30
0.0
 10
103.3244425197418
 20
-137.5876396682941
 30
0.0
 10
103.0689886895105
 20
-137.5876396682941
 30
0.0
  0
SPLINE
  5
E6
330
E1
100
AcDbEntity
  8
_U+30EC_U+30A4_U+30E4_U+30FC 1
370
     0
100
AcDbSpline
210
0.0
220
0.0
230
1.0
 70
    11
 71
     3
 72
    17
 73
    13
 74
     0
 42
0.0000000001
 43
0.0000000001
 12
1.0
 22
0.0
 32
0.0
 13
1.0
 23
0.0
 33
0.0
 40
0.0
 40
0.0
 40
0.0
 40
0.0
 40
1.0
 40
1.0
 40
1.0
 40
2.0
 40
2.0
 40
2.0
 40
3.0
 40
3.0
 40
3.0
 40
4.0
 40
4.0
 40
4.0
 40
4.0
 10
103.0689886895105
 20
-136.7966457448807
 30
0.0
 10
102.9151651760941
 20
-136.7966457448807
 30
0.0
 10
102.7523844144161
 20
-136.883462151109
 30
0.0
 10
102.7523844144161
 20
-137.0863782751902
 30
0.0
 10
102.7523844144161
 20
-137.2917059661111
 30
0.0
 10
102.8881211765349
 20
-137.3929917733774
 30
0.0
 10
103.0689886895105
 20
-137.3929917733774
 30
0.0
 10
103.2679429537837
 20
-137.3929917733774
 30
0.0
 10
103.3854207098307
 20
-137.2703463741026
 30
0.0
 10
103.3854207098307
 20
-137.0925794470637
 30
0.0
 10
103.3854207098307
 20
-136.8707152978136
 30
0.0
 10
103.2114433878256
 20
-136.7966457448807
 30
0.0
 10
103.0689886895105
 20
-136.7966457448807
 30
0.0
  0
SPLINE
  5
E7
330
E1
100
AcDbEntity
  8
_U+30EC_U+30A4_U+30E4_U+30FC 1
370
     0
100
AcDbSpline
210
0.0
220
0.0
230
1.0
 70
    11
 71
     3
 72
    17
 73
    13
 74
     0
 42
0.0000000001
 43
0.0000000001
 12
1.0
 22
0.0
 32
0.0
 13
1.0
 23
0.0
 33
0.0
 40
0.0
 40
0.0
 40
0.0
 40
0.0
 40
1.0
 40
1.0
 40
1.0
 40
2.0
 40
2.0
 40
2.0
 40
3.0
 40
3.0
 40
3.0
 40
4.0
 40
4.0
 40
4.0
 40
4.0
 10
103.0689886895105
 20
-136.1365654499068
 30
0.0
 10
102.8925998006657
 20
-136.1365654499068
 30
0.0
 10
102.8021660441779
 20
-136.2316500852997
 30
0.0
 10
102.8021660441779
 20
-136.3670423378701
 30
0.0
 10
102.8021660441779
 20
-136.4896877371449
 30
0.0
 10
102.878991673499
 20
-136.6081990218375
 30
0.0
 10
103.0689886895105
 20
-136.6081990218375
 30
0.0
 10
103.2588134507478
 20
-136.6081990218375
 30
0.0
 10
103.3356390800689
 20
-136.4896877371449
 30
0.0
 10
103.3356390800689
 20
-136.3670423378701
 30
0.0
 10
103.3356390800689
 20
-136.2316500852997
 30
0.0
 10
103.2429660115156
 20
-136.1365654499068
 30
0.0
 10
103.0689886895105
 20
-136.1365654499068
 30
0.0
  0
HATCH
  5
E8
330
E1
100
AcDbEntity
  8
_U+30EC_U+30A4_U+30E4_U+30FC 1
 62
   179
420
  2234388
100
AcDbHatch
 10
0.0
 20
0.0
 30
0.0
210
0.0
220
0.0
230
1.0
  2
SOLID
 70
     1
 71
     0
 91
        3
 92
        1
 93
        1
 72
     4
 94
        3
 73
     0
 74
     1
 95
       29
 96
       25
 40
0.0
 40
0.0
 40
0.0
 40
0.0
 40
1.0
 40
1.0
 40
1.0
 40
2.0
 40
2.0
 40
2.0
 40
3.0
 40
3.0
 40
3.0
 40
4.0
 40
4.0
 40
4.0
 40
5.0
 40
5.0
 40
5.0
 40
6.0
 40
6.0
 40
6.0
 40
7.0
 40
7.0
 40
7.0
 40
8.0
 40
8.0
 40
8.0
 40
8.0
 10
103.0689886895105
 20
-137.5876396682941
 10
102.7840792928804
 20
-137.5876396682941
 10
102.5127780234169
 20
-137.4501803584326
 10
102.5127780234169
 20
-137.1011921857768
 10
102.5127780234169
 20
-136.8452215912227
 10
102.6641899699937
 20
-136.7501369558298
 10
102.7773613566841
 20
-136.6888142561924
 10
102.6438639066307
 20
-136.6295586138461
 10
102.5625596531788
 20
-136.5151814437358
 10
102.5625596531788
 20
-136.3542954845746
 10
102.5625596531788
 20
-136.0793768648517
 10
102.7751220446187
 20
-135.9439846122814
 10
103.0689886895105
 20
-135.9439846122814
 10
103.371812582664
 20
-135.9439846122814
 10
103.5754177258423
 20
-136.0879896035648
 10
103.5754177258423
 20
-136.3542954845746
 10
103.5754177258423
 20
-136.5151814437358
 10
103.4917019055507
 20
-136.6295586138461
 10
103.3583767102715
 20
-136.6888142561924
 10
103.4532890908902
 20
-136.7394571598255
 10
103.6227877887644
 20
-136.8345417952185
 10
103.6227877887644
 20
-137.0970580711945
 10
103.6227877887644
 20
-137.4715399504412
 10
103.3244425197418
 20
-137.5876396682941
 10
103.0689886895105
 20
-137.5876396682941
 97
        0
 97
        0
 92
        1
 93
        1
 72
     4
 94
        3
 73
     0
 74
     1
 95
       17
 96
       13
 40
0.0
 40
0.0
 40
0.0
 40
0.0
 40
1.0
 40
1.0
 40
1.0
 40
2.0
 40
2.0
 40
2.0
 40
3.0
 40
3.0
 40
3.0
 40
4.0
 40
4.0
 40
4.0
 40
4.0
 10
103.0689886895105
 20
-136.7966457448807
 10
102.9151651760941
 20
-136.7966457448807
 10
102.7523844144161
 20
-136.883462151109
 10
102.7523844144161
 20
-137.0863782751902
 10
102.7523844144161
 20
-137.2917059661111
 10
102.8881211765349
 20
-137.3929917733774
 10
103.0689886895105
 20
-137.3929917733774
 10
103.2679429537837
 20
-137.3929917733774
 10
103.3854207098307
 20
-137.2703463741026
 10
103.3854207098307
 20
-137.0925794470637
 10
103.3854207098307
 20
-136.8707152978136
 10
103.2114433878256
 20
-136.7966457448807
 10
103.0689886895105
 20
-136.7966457448807
 97
        0
 97
        0
 92
        1
 93
        1
 72
     4
 94
        3
 73
     0
 74
     1
 95
       17
 96
       13
 40
0.0
 40
0.0
 40
0.0
 40
0.0
 40
1.0
 40
1.0
 40
1.0
 40
2.0
 40
2.0
 40
2.0
 40
3.0
 40
3.0
 40
3.0
 40
4.0
 40
4.0
 40
4.0
 40
4.0
 10
103.0689886895105
 20
-136.1365654499068
 10
102.8925998006657
 20
-136.1365654499068
 10
102.8021660441779
 20
-136.2316500852997
 10
102.8021660441779
 20
-136.3670423378701
 10
102.8021660441779
 20
-136.4896877371449
 10
102.878991673499
 20
-136.6081990218375
 10
103.0689886895105
 20
-136.6081990218375
 10
103.2588134507478
 20
-136.6081990218375
 10
103.3356390800689
 20
-136.4896877371449
 10
103.3356390800689
 20
-136.3670423378701
 10
103.3356390800689
 20
-136.2316500852997
 10
103.2429660115156
 20
-136.1365654499068
 10
103.0689886895105
 20
-136.1365654499068
 97
        0
 97
        0
 75
     2
 76
     1
 98
        0
  0
ENDBLK
  5
E4
330
E1
100
AcDbEntity
  8
0
100
AcDbBlockEnd
  0
BLOCK
  5
F7
330
F5
100
AcDbEntity
  8
0
100
AcDbBlockBegin
  2
block 4
 70
     0
 10
0.0
 20
0.0
 30
0.0
  3
block 4
  1

  0
SPLINE
  5
F9
330
F5
100
AcDbEntity
  8
_U+30EC_U+30A4_U+30E4_U+30FC 1
370
     0
100
AcDbSpline
210
0.0
220
0.0
230
1.0
 70
    11
 71
     3
 72
    26
 73
    22
 74
     0
 42
0.0000000001
 43
0.0000000001
 12
1.0
 22
0.0
 32
0.0
 13
1.0
 23
0.0
 33
0.0
 40
0.0
 40
0.0
 40
0.0
 40
0.0
 40
1.0
 40
1.0
 40
1.0
 40
2.0
 40
2.0
 40
2.0
 40
3.0
 40
3.0
 40
3.0
 40
4.0
 40
4.0
 40
4.0
 40
5.0
 40
5.0
 40
5.0
 40
6.0
 40
6.0
 40
6.0
 40
7.0
 40
7.0
 40
7.0
 40
7.0
 10
110.4738769255065
 20
-137.5369967646609
 30
0.0
 10
110.4738769255065
 20
-137.5369967646609
 30
0.0
 10
110.2206624073407
 20
-137.5369967646609
 30
0.0
 10
110.2206624073407
 20
-137.5369967646609
 30
0.0
 10
110.2478786616742
 20
-137.227971699634
 30
0.0
 10
110.4535508621436
 20
-136.7098293386524
 30
0.0
 10
110.887632893285
 20
-136.2040893214177
 30
0.0
 10
110.887632893285
 20
-136.2040893214177
 30
0.0
 10
109.9922525766686
 20
-136.2040893214177
 30
0.0
 10
109.9922525766686
 20
-136.2040893214177
 30
0.0
 10
109.9922525766686
 20
-136.2040893214177
 30
0.0
 10
109.9922525766686
 20
-135.9925604586234
 30
0.0
 10
109.9922525766686
 20
-135.9925604586234
 30
0.0
 10
109.9922525766686
 20
-135.9925604586234
 30
0.0
 10
111.1408474114509
 20
-135.9925604586234
 30
0.0
 10
111.1408474114509
 20
-135.9925604586234
 30
0.0
 10
111.1408474114509
 20
-135.9925604586234
 30
0.0
 10
111.1408474114509
 20
-136.2040893214177
 30
0.0
 10
111.1408474114509
 20
-136.2040893214177
 30
0.0
 10
110.7949598247318
 20
-136.4941663612758
 30
0.0
 10
110.5100504281017
 20
-137.0863782751902
 30
0.0
 10
110.4738769255065
 20
-137.5369967646609
 30
0.0
  0
HATCH
  5
FA
330
F5
100
AcDbEntity
  8
_U+30EC_U+30A4_U+30E4_U+30FC 1
 62
   179
420
  2234388
100
AcDbHatch
 10
0.0
 20
0.0
 30
0.0
210
0.0
220
0.0
230
1.0
  2
SOLID
 70
     1
 71
     0
 91
        1
 92
        1
 93
        1
 72
     4
 94
        3
 73
     0
 74
     1
 95
       26
 96
       22
 40
0.0
 40
0.0
 40
0.0
 40
0.0
 40
1.0
 40
1.0
 40
1.0
 40
2.0
 40
2.0
 40
2.0
 40
3.0
 40
3.0
 40
3.0
 40
4.0
 40
4.0
 40
4.0
 40
5.0
 40
5.0
 40
5.0
 40
6.0
 40
6.0
 40
6.0
 40
7.0
 40
7.0
 40
7.0
 40
7.0
 10
110.4738769255065
 20
-137.5369967646609
 10
110.4738769255065
 20
-137.5369967646609
 10
110.2206624073407
 20
-137.5369967646609
 10
110.2206624073407
 20
-137.5369967646609
 10
110.2478786616742
 20
-137.227971699634
 10
110.4535508621436
 20
-136.7098293386524
 10
110.887632893285
 20
-136.2040893214177
 10
110.887632893285
 20
-136.2040893214177
 10
109.9922525766686
 20
-136.2040893214177
 10
109.9922525766686
 20
-136.2040893214177
 10
109.9922525766686
 20
-136.2040893214177
 10
109.9922525766686
 20
-135.9925604586234
 10
109.9922525766686
 20
-135.9925604586234
 10
109.9922525766686
 20
-135.9925604586234
 10
111.1408474114509
 20
-135.9925604586234
 10
111.1408474114509
 20
-135.9925604586234
 10
111.1408474114509
 20
-135.9925604586234
 10
111.1408474114509
 20
-136.2040893214177
 10
111.1408474114509
 20
-136.2040893214177
 10
110.7949598247318
 20
-136.4941663612758
 10
110.5100504281017
 20
-137.0863782751902
 10
110.4738769255065
 20
-137.5369967646609
 97
        0
 97
        0
 75
     2
 76
     1
 98
        0
  0
ENDBLK
  5
F8
330
F5
100
AcDbEntity
  8
0
100
AcDbBlockEnd
  0
BLOCK
  5
FD
330
FB
100
AcDbEntity
  8
0
100
AcDbBlockBegin
  2
block 5
 70
     0
 10
0.0
 20
0.0
 30
0.0
  3
block 5
  1

  0
SPLINE
  5
FF
330
FB
100
AcDbEntity
  8
_U+30EC_U+30A4_U+30E4_U+30FC 1
370
     0
100
AcDbSpline
210
0.0
220
0.0
230
1.0
 70
    11
 71
     3
 72
    62
 73
    58
 74
     0
 42
0.0000000001
 43
0.0000000001
 12
1.0
 22
0.0
 32
0.0
 13
1.0
 23
0.0
 33
0.0
 40
0.0
 40
0.0
 40
0.0
 40
0.0
 40
1.0
 40
1.0
 40
1.0
 40
2.0
 40
2.0
 40
2.0
 40
3.0
 40
3.0
 40
3.0
 40
4.0
 40
4.0
 40
4.0
 40
5.0
 40
5.0
 40
5.0
 40
6.0
 40
6.0
 40
6.0
 40
7.0
 40
7.0
 40
7.0
 40
8.0
 40
8.0
 40
8.0
 40
9.0
 40
9.0
 40
9.0
 40
10.0
 40
10.0
 40
10.0
 40
11.0
 40
11.0
 40
11.0
 40
12.0
 40
12.0
 40
12.0
 40
13.0
 40
13.0
 40
13.0
 40
14.0
 40
14.0
 40
14.0
 40
15.0
 40
15.0
 40
15.0
 40
16.0
 40
16.0
 40
16.0
 40
17.0
 40
17.0
 40
17.0
 40
18.0
 40
18.0
 40
18.0
 40
19.0
 40
19.0
 40
19.0
 40
19.0
 10
104.4315239539268
 20
-160.5955376117608
 30
0.0
 10
104.329893637112
 20
-160.5955376117608
 30
0.0
 10
104.0970051823091
 20
-160.5745225293008
 30
0.0
 10
103.9635077322556
 20
-160.3884873730973
 30
0.0
 10
103.8844427908692
 20
-160.2761772602782
 30
0.0
 10
103.8799641667383
 20
-160.176958510303
 30
0.0
 10
103.8754855426075
 20
-160.0922091613658
 30
0.0
 10
103.8754855426075
 20
-160.0922091613658
 30
0.0
 10
104.1104410547016
 20
-160.0922091613658
 30
0.0
 10
104.1104410547016
 20
-160.0922091613658
 30
0.0
 10
104.1128526215412
 20
-160.1662787142987
 30
0.0
 10
104.1240491818683
 20
-160.4008897168442
 30
0.0
 10
104.427045329796
 20
-160.4008897168442
 30
0.0
 10
104.5739786522419
 20
-160.4008897168442
 30
0.0
 10
104.73675941392
 20
-160.3312987880422
 30
0.0
 10
104.73675941392
 20
-160.1028889573701
 30
0.0
 10
104.73675941392
 20
-159.9864447299687
 30
0.0
 10
104.696107287194
 20
-159.9378688836267
 30
0.0
 10
104.6621730966643
 20
-159.9061740051623
 30
0.0
 10
104.5831081552778
 20
-159.8321044522295
 30
0.0
 10
104.4587402082603
 20
-159.8193575989341
 30
0.0
 10
104.3998290754625
 20
-159.8193575989341
 30
0.0
 10
104.3795030120996
 20
-159.8193575989341
 30
0.0
 10
104.341090197439
 20
-159.8214246562252
 30
0.0
 10
104.3118068858144
 20
-159.8255587708075
 30
0.0
 10
104.3118068858144
 20
-159.8255587708075
 30
0.0
 10
104.3118068858144
 20
-159.6309108758909
 30
0.0
 10
104.3118068858144
 20
-159.6309108758909
 30
0.0
 10
104.3524590125404
 20
-159.6374565573129
 30
0.0
 10
104.3975897633971
 20
-159.639523614604
 30
0.0
 10
104.4044799543676
 20
-159.639523614604
 30
0.0
 10
104.4745876474925
 20
-159.639523614604
 30
0.0
 10
104.6869777841581
 20
-159.6181640225955
 30
0.0
 10
104.6869777841581
 20
-159.3814859627588
 30
0.0
 10
104.6869777841581
 20
-159.2037190357199
 30
0.0
 10
104.5469346526827
 20
-159.1485975079559
 30
0.0
 10
104.4292846418614
 20
-159.1485975079559
 30
0.0
 10
104.1466145572967
 20
-159.1485975079559
 30
0.0
 10
104.137657309035
 20
-159.3814859627588
 30
0.0
 10
104.1331786849042
 20
-159.453143948852
 30
0.0
 10
104.1331786849042
 20
-159.453143948852
 30
0.0
 10
103.9161376693335
 20
-159.453143948852
 30
0.0
 10
103.9161376693335
 20
-159.453143948852
 30
0.0
 10
103.9250949175951
 20
-159.3284314922859
 30
0.0
 10
103.954550483994
 20
-158.9518825557481
 30
0.0
 10
104.4428927690282
 20
-158.9518825557481
 30
0.0
 10
104.6824991600273
 20
-158.9518825557481
 30
0.0
 10
104.940192302324
 20
-159.0790065791539
 30
0.0
 10
104.940192302324
 20
-159.3749402813368
 30
0.0
 10
104.940192302324
 20
-159.5613199470888
 30
0.0
 10
104.8385619855091
 20
-159.6436577291863
 30
0.0
 10
104.7322807897892
 20
-159.7049804288238
 30
0.0
 10
104.7977376040089
 20
-159.7325411927058
 30
0.0
 10
104.9922132441513
 20
-159.8128119175121
 30
0.0
 10
104.9922132441513
 20
-160.0901421040747
 30
0.0
 10
104.9922132441513
 20
-160.4284504807262
 30
0.0
 10
104.7278021656583
 20
-160.5955376117608
 30
0.0
 10
104.4315239539268
 20
-160.5955376117608
 30
0.0
  0
HATCH
  5
100
330
FB
100
AcDbEntity
  8
_U+30EC_U+30A4_U+30E4_U+30FC 1
 62
   179
420
  2234388
100
AcDbHatch
 10
0.0
 20
0.0
 30
0.0
210
0.0
220
0.0
230
1.0
  2
SOLID
 70
     1
 71
     0
 91
        1
 92
        1
 93
        1
 72
     4
 94
        3
 73
     0
 74
     1
 95
       62
 96
       58
 40
0.0
 40
0.0
 40
0.0
 40
0.0
 40
1.0
 40
1.0
 40
1.0
 40
2.0
 40
2.0
 40
2.0
 40
3.0
 40
3.0
 40
3.0
 40
4.0
 40
4.0
 40
4.0
 40
5.0
 40
5.0
 40
5.0
 40
6.0
 40
6.0
 40
6.0
 40
7.0
 40
7.0
 40
7.0
 40
8.0
 40
8.0
 40
8.0
 40
9.0
 40
9.0
 40
9.0
 40
10.0
 40
10.0
 40
10.0
 40
11.0
 40
11.0
 40
11.0
 40
12.0
 40
12.0
 40
12.0
 40
13.0
 40
13.0
 40
13.0
 40
14.0
 40
14.0
 40
14.0
 40
15.0
 40
15.0
 40
15.0
 40
16.0
 40
16.0
 40
16.0
 40
17.0
 40
17.0
 40
17.0
 40
18.0
 40
18.0
 40
18.0
 40
19.0
 40
19.0
 40
19.0
 40
19.0
 10
104.4315239539268
 20
-160.5955376117608
 10
104.329893637112
 20
-160.5955376117608
 10
104.0970051823091
 20
-160.5745225293008
 10
103.9635077322556
 20
-160.3884873730973
 10
103.8844427908692
 20
-160.2761772602782
 10
103.8799641667383
 20
-160.176958510303
 10
103.8754855426075
 20
-160.0922091613658
 10
103.8754855426075
 20
-160.0922091613658
 10
104.1104410547016
 20
-160.0922091613658
 10
104.1104410547016
 20
-160.0922091613658
 10
104.1128526215412
 20
-160.1662787142987
 10
104.1240491818683
 20
-160.4008897168442
 10
104.427045329796
 20
-160.4008897168442
 10
104.5739786522419
 20
-160.4008897168442
 10
104.73675941392
 20
-160.3312987880422
 10
104.73675941392
 20
-160.1028889573701
 10
104.73675941392
 20
-159.9864447299687
 10
104.696107287194
 20
-159.9378688836267
 10
104.6621730966643
 20
-159.9061740051623
 10
104.5831081552778
 20
-159.8321044522295
 10
104.4587402082603
 20
-159.8193575989341
 10
104.3998290754625
 20
-159.8193575989341
 10
104.3795030120996
 20
-159.8193575989341
 10
104.341090197439
 20
-159.8214246562252
 10
104.3118068858144
 20
-159.8255587708075
 10
104.3118068858144
 20
-159.8255587708075
 10
104.3118068858144
 20
-159.6309108758909
 10
104.3118068858144
 20
-159.6309108758909
 10
104.3524590125404
 20
-159.6374565573129
 10
104.3975897633971
 20
-159.639523614604
 10
104.4044799543676
 20
-159.639523614604
 10
104.4745876474925
 20
-159.639523614604
 10
104.6869777841581
 20
-159.6181640225955
 10
104.6869777841581
 20
-159.3814859627588
 10
104.6869777841581
 20
-159.2037190357199
 10
104.5469346526827
 20
-159.1485975079559
 10
104.4292846418614
 20
-159.1485975079559
 10
104.1466145572967
 20
-159.1485975079559
 10
104.137657309035
 20
-159.3814859627588
 10
104.1331786849042
 20
-159.453143948852
 10
104.1331786849042
 20
-159.453143948852
 10
103.9161376693335
 20
-159.453143948852
 10
103.9161376693335
 20
-159.453143948852
 10
103.9250949175951
 20
-159.3284314922859
 10
103.954550483994
 20
-158.9518825557481
 10
104.4428927690282
 20
-158.9518825557481
 10
104.6824991600273
 20
-158.9518825557481
 10
104.940192302324
 20
-159.0790065791539
 10
104.940192302324
 20
-159.3749402813368
 10
104.940192302324
 20
-159.5613199470888
 10
104.8385619855091
 20
-159.6436577291863
 10
104.7322807897892
 20
-159.7049804288238
 10
104.7977376040089
 20
-159.7325411927058
 10
104.9922132441513
 20
-159.8128119175121
 10
104.9922132441513
 20
-160.0901421040747
 10
104.9922132441513
 20
-160.4284504807262
 10
104.7278021656583
 20
-160.5955376117608
 10
104.4315239539268
 20
-160.5955376117608
 97
        0
 97
        0
 75
     2
 76
     1
 98
        0
  0
SPLINE
  5
101
330
FB
100
AcDbEntity
  8
_U+30EC_U+30A4_U+30E4_U+30FC 1
370
     0
100
AcDbSpline
210
0.0
220
0.0
230
1.0
 70
    11
 71
     3
 72
    29
 73
    25
 74
     0
 42
0.0000000001
 43
0.0000000001
 12
1.0
 22
0.0
 32
0.0
 13
1.0
 23
0.0
 33
0.0
 40
0.0
 40
0.0
 40
0.0
 40
0.0
 40
1.0
 40
1.0
 40
1.0
 40
2.0
 40
2.0
 40
2.0
 40
3.0
 40
3.0
 40
3.0
 40
4.0
 40
4.0
 40
4.0
 40
5.0
 40
5.0
 40
5.0
 40
6.0
 40
6.0
 40
6.0
 40
7.0
 40
7.0
 40
7.0
 40
8.0
 40
8.0
 40
8.0
 40
8.0
 10
106.123410346733
 20
-160.3671277810888
 30
0.0
 10
106.0083441575257
 20
-160.576589586592
 30
0.0
 10
105.8229980204192
 20
-160.5955376117608
 30
0.0
 10
105.6982855638532
 20
-160.5955376117608
 30
0.0
 10
105.5267198086878
 20
-160.5955376117608
 30
0.0
 10
105.3751356073368
 20
-160.54902882271
 30
0.0
 10
105.2733330357476
 20
-160.3671277810888
 30
0.0
 10
105.1625732158969
 20
-160.1724798861722
 30
0.0
 10
105.1422471525339
 20
-159.9358018263355
 30
0.0
 10
105.1422471525339
 20
-159.7728488098832
 30
0.0
 10
105.1422471525339
 20
-159.6288438185997
 30
0.0
 10
105.1603339038314
 20
-159.377007338628
 30
0.0
 10
105.2733330357476
 20
-159.178225329129
 30
0.0
 10
105.3887437345035
 20
-158.9753092050478
 30
0.0
 10
105.5604817444432
 20
-158.9518825557481
 30
0.0
 10
105.6982855638532
 20
-158.9518825557481
 30
0.0
 10
105.8677842617275
 20
-158.9518825557481
 30
0.0
 10
106.0217800299182
 20
-158.9963242875079
 30
0.0
 10
106.123410346733
 20
-159.178225329129
 30
0.0
 10
106.2295192876787
 20
-159.3708061667545
 30
0.0
 10
106.2546684847211
 20
-159.5992159974266
 30
0.0
 10
106.2546684847211
 20
-159.7728488098832
 30
0.0
 10
106.2546684847211
 20
-159.9440700555001
 30
0.0
 10
106.2319308545184
 20
-160.1745469434633
 30
0.0
 10
106.123410346733
 20
-160.3671277810888
 30
0.0
  0
SPLINE
  5
102
330
FB
100
AcDbEntity
  8
_U+30EC_U+30A4_U+30E4_U+30FC 1
370
     0
100
AcDbSpline
210
0.0
220
0.0
230
1.0
 70
    11
 71
     3
 72
    17
 73
    13
 74
     0
 42
0.0000000001
 43
0.0000000001
 12
1.0
 22
0.0
 32
0.0
 13
1.0
 23
0.0
 33
0.0
 40
0.0
 40
0.0
 40
0.0
 40
0.0
 40
1.0
 40
1.0
 40
1.0
 40
2.0
 40
2.0
 40
2.0
 40
3.0
 40
3.0
 40
3.0
 40
4.0
 40
4.0
 40
4.0
 40
4.0
 10
105.6982855638532
 20
-159.1444633933736
 30
0.0
 10
105.4316351732949
 20
-159.1444633933736
 30
0.0
 10
105.381853543533
 20
-159.4279947518097
 30
0.0
 10
105.381853543533
 20
-159.7728488098832
 30
0.0
 10
105.381853543533
 20
-160.0922091613658
 30
0.0
 10
105.4202663581935
 20
-160.4008897168442
 30
0.0
 10
105.6982855638532
 20
-160.4008897168442
 30
0.0
 10
105.9628688971204
 20
-160.4008897168442
 30
0.0
 10
106.0148898389477
 20
-160.1197699252479
 30
0.0
 10
106.0148898389477
 20
-159.7728488098832
 30
0.0
 10
106.0148898389477
 20
-159.453143948852
 30
0.0
 10
105.9742377122217
 20
-159.1444633933736
 30
0.0
 10
105.6982855638532
 20
-159.1444633933736
 30
0.0
  0
HATCH
  5
103
330
FB
100
AcDbEntity
  8
_U+30EC_U+30A4_U+30E4_U+30FC 1
 62
   179
420
  2234388
100
AcDbHatch
 10
0.0
 20
0.0
 30
0.0
210
0.0
220
0.0
230
1.0
  2
SOLID
 70
     1
 71
     0
 91
        2
 92
        1
 93
        1
 72
     4
 94
        3
 73
     0
 74
     1
 95
       29
 96
       25
 40
0.0
 40
0.0
 40
0.0
 40
0.0
 40
1.0
 40
1.0
 40
1.0
 40
2.0
 40
2.0
 40
2.0
 40
3.0
 40
3.0
 40
3.0
 40
4.0
 40
4.0
 40
4.0
 40
5.0
 40
5.0
 40
5.0
 40
6.0
 40
6.0
 40
6.0
 40
7.0
 40
7.0
 40
7.0
 40
8.0
 40
8.0
 40
8.0
 40
8.0
 10
106.123410346733
 20
-160.3671277810888
 10
106.0083441575257
 20
-160.576589586592
 10
105.8229980204192
 20
-160.5955376117608
 10
105.6982855638532
 20
-160.5955376117608
 10
105.5267198086878
 20
-160.5955376117608
 10
105.3751356073368
 20
-160.54902882271
 10
105.2733330357476
 20
-160.3671277810888
 10
105.1625732158969
 20
-160.1724798861722
 10
105.1422471525339
 20
-159.9358018263355
 10
105.1422471525339
 20
-159.7728488098832
 10
105.1422471525339
 20
-159.6288438185997
 10
105.1603339038314
 20
-159.377007338628
 10
105.2733330357476
 20
-159.178225329129
 10
105.3887437345035
 20
-158.9753092050478
 10
105.5604817444432
 20
-158.9518825557481
 10
105.6982855638532
 20
-158.9518825557481
 10
105.8677842617275
 20
-158.9518825557481
 10
106.0217800299182
 20
-158.9963242875079
 10
106.123410346733
 20
-159.178225329129
 10
106.2295192876787
 20
-159.3708061667545
 10
106.2546684847211
 20
-159.5992159974266
 10
106.2546684847211
 20
-159.7728488098832
 10
106.2546684847211
 20
-159.9440700555001
 10
106.2319308545184
 20
-160.1745469434633
 10
106.123410346733
 20
-160.3671277810888
 97
        0
 97
        0
 92
        1
 93
        1
 72
     4
 94
        3
 73
     0
 74
     1
 95
       17
 96
       13
 40
0.0
 40
0.0
 40
0.0
 40
0.0
 40
1.0
 40
1.0
 40
1.0
 40
2.0
 40
2.0
 40
2.0
 40
3.0
 40
3.0
 40
3.0
 40
4.0
 40
4.0
 40
4.0
 40
4.0
 10
105.6982855638532
 20
-159.1444633933736
 10
105.4316351732949
 20
-159.1444633933736
 10
105.381853543533
 20
-159.4279947518097
 10
105.381853543533
 20
-159.7728488098832
 10
105.381853543533
 20
-160.0922091613658
 10
105.4202663581935
 20
-160.4008897168442
 10
105.6982855638532
 20
-160.4008897168442
 10
105.9628688971204
 20
-160.4008897168442
 10
106.0148898389477
 20
-160.1197699252479
 10
106.0148898389477
 20
-159.7728488098832
 10
106.0148898389477
 20
-159.453143948852
 10
105.9742377122217
 20
-159.1444633933736
 10
105.6982855638532
 20
-159.1444633933736
 97
        0
 97
        0
 75
     2
 76
     1
 98
        0
  0
ENDBLK
  5
FE
330
FB
100
AcDbEntity
  8
0
100
AcDbBlockEnd
  0
BLOCK
  5
112
330
110
100
AcDbEntity
  8
0
100
AcDbBlockBegin
  2
block 6
 70
     0
 10
0.0
 20
0.0
 30
0.0
  3
block 6
  1

  0
SPLINE
  5
114
330
110
100
AcDbEntity
  8
_U+30EC_U+30A4_U+30E4_U+30FC 1
370
     0
100
AcDbSpline
210
0.0
220
0.0
230
1.0
 70
    11
 71
     3
 72
    26
 73
    22
 74
     0
 42
0.0000000001
 43
0.0000000001
 12
1.0
 22
0.0
 32
0.0
 13
1.0
 23
0.0
 33
0.0
 40
0.0
 40
0.0
 40
0.0
 40
0.0
 40
1.0
 40
1.0
 40
1.0
 40
2.0
 40
2.0
 40
2.0
 40
3.0
 40
3.0
 40
3.0
 40
4.0
 40
4.0
 40
4.0
 40
5.0
 40
5.0
 40
5.0
 40
6.0
 40
6.0
 40
6.0
 40
7.0
 40
7.0
 40
7.0
 40
7.0
 10
117.4233235383525
 20
-150.3632595110203
 30
0.0
 10
117.4233235383525
 20
-150.3632595110203
 30
0.0
 10
116.3195149448785
 20
-150.3632595110203
 30
0.0
 10
116.3195149448785
 20
-150.3632595110203
 30
0.0
 10
116.3195149448785
 20
-150.3632595110203
 30
0.0
 10
116.3195149448785
 20
-150.7160372887099
 30
0.0
 10
116.3195149448785
 20
-150.7160372887099
 30
0.0
 10
116.3195149448785
 20
-150.7160372887099
 30
0.0
 10
116.1713758390127
 20
-150.7160372887099
 30
0.0
 10
116.1713758390127
 20
-150.7160372887099
 30
0.0
 10
116.1562174188776
 20
-150.3611924537292
 30
0.0
 10
115.9936089119738
 20
-150.311238569193
 30
0.0
 10
115.8792317418635
 20
-150.2795436907287
 30
0.0
 10
115.8792317418635
 20
-150.2795436907287
 30
0.0
 10
115.8792317418635
 20
-150.1234808652469
 30
0.0
 10
115.8792317418635
 20
-150.1234808652469
 30
0.0
 10
115.8792317418635
 20
-150.1234808652469
 30
0.0
 10
117.4233235383525
 20
-150.1234808652469
 30
0.0
 10
117.4233235383525
 20
-150.1234808652469
 30
0.0
 10
117.4233235383525
 20
-150.1234808652469
 30
0.0
 10
117.4233235383525
 20
-150.3632595110203
 30
0.0
 10
117.4233235383525
 20
-150.3632595110203
 30
0.0
  0
HATCH
  5
115
330
110
100
AcDbEntity
  8
_U+30EC_U+30A4_U+30E4_U+30FC 1
 62
   179
420
  2234388
100
AcDbHatch
 10
0.0
 20
0.0
 30
0.0
210
0.0
220
0.0
230
1.0
  2
SOLID
 70
     1
 71
     0
 91
        1
 92
        1
 93
        1
 72
     4
 94
        3
 73
     0
 74
     1
 95
       26
 96
       22
 40
0.0
 40
0.0
 40
0.0
 40
0.0
 40
1.0
 40
1.0
 40
1.0
 40
2.0
 40
2.0
 40
2.0
 40
3.0
 40
3.0
 40
3.0
 40
4.0
 40
4.0
 40
4.0
 40
5.0
 40
5.0
 40
5.0
 40
6.0
 40
6.0
 40
6.0
 40
7.0
 40
7.0
 40
7.0
 40
7.0
 10
117.4233235383525
 20
-150.3632595110203
 10
117.4233235383525
 20
-150.3632595110203
 10
116.3195149448785
 20
-150.3632595110203
 10
116.3195149448785
 20
-150.3632595110203
 10
116.3195149448785
 20
-150.3632595110203
 10
116.3195149448785
 20
-150.7160372887099
 10
116.3195149448785
 20
-150.7160372887099
 10
116.3195149448785
 20
-150.7160372887099
 10
116.1713758390127
 20
-150.7160372887099
 10
116.1713758390127
 20
-150.7160372887099
 10
116.1562174188776
 20
-150.3611924537292
 10
115.9936089119738
 20
-150.311238569193
 10
115.8792317418635
 20
-150.2795436907287
 10
115.8792317418635
 20
-150.2795436907287
 10
115.8792317418635
 20
-150.1234808652469
 10
115.8792317418635
 20
-150.1234808652469
 10
115.8792317418635
 20
-150.1234808652469
 10
117.4233235383525
 20
-150.1234808652469
 10
117.4233235383525
 20
-150.1234808652469
 10
117.4233235383525
 20
-150.1234808652469
 10
117.4233235383525
 20
-150.3632595110203
 10
117.4233235383525
 20
-150.3632595110203
 97
        0
 97
        0
 75
     2
 76
     1
 98
        0
  0
SPLINE
  5
116
330
110
100
AcDbEntity
  8
_U+30EC_U+30A4_U+30E4_U+30FC 1
370
     0
100
AcDbSpline
210
0.0
220
0.0
230
1.0
 70
    11
 71
     3
 72
    62
 73
    58
 74
     0
 42
0.0000000001
 43
0.0000000001
 12
1.0
 22
0.0
 32
0.0
 13
1.0
 23
0.0
 33
0.0
 40
0.0
 40
0.0
 40
0.0
 40
0.0
 40
1.0
 40
1.0
 40
1.0
 40
2.0
 40
2.0
 40
2.0
 40
3.0
 40
3.0
 40
3.0
 40
4.0
 40
4.0
 40
4.0
 40
5.0
 40
5.0
 40
5.0
 40
6.0
 40
6.0
 40
6.0
 40
7.0
 40
7.0
 40
7.0
 40
8.0
 40
8.0
 40
8.0
 40
9.0
 40
9.0
 40
9.0
 40
10.0
 40
10.0
 40
10.0
 40
11.0
 40
11.0
 40
11.0
 40
12.0
 40
12.0
 40
12.0
 40
13.0
 40
13.0
 40
13.0
 40
14.0
 40
14.0
 40
14.0
 40
15.0
 40
15.0
 40
15.0
 40
16.0
 40
16.0
 40
16.0
 40
17.0
 40
17.0
 40
17.0
 40
18.0
 40
18.0
 40
18.0
 40
19.0
 40
19.0
 40
19.0
 40
19.0
 10
117.4743109515342
 20
-149.06239145579
 30
0.0
 10
117.4743109515342
 20
-149.1643662821534
 30
0.0
 10
117.4529513595257
 20
-149.3972547369563
 30
0.0
 10
117.2669162033222
 20
-149.5305799322354
 30
0.0
 10
117.154606090503
 20
-149.6094726188476
 30
0.0
 10
117.0553873405278
 20
-149.614295752527
 30
0.0
 10
116.9706379915907
 20
-149.6187743766578
 30
0.0
 10
116.9706379915907
 20
-149.6187743766578
 30
0.0
 10
116.9706379915907
 20
-149.3834743550152
 30
0.0
 10
116.9706379915907
 20
-149.3834743550152
 30
0.0
 10
117.0450520540721
 20
-149.3814072977241
 30
0.0
 10
117.2793185470691
 20
-149.3700384826228
 30
0.0
 10
117.2793185470691
 20
-149.0672145894693
 30
0.0
 10
117.2793185470691
 20
-148.9201090122492
 30
0.0
 10
117.209727618267
 20
-148.7573282505711
 30
0.0
 10
116.9816622971435
 20
-148.7573282505711
 30
0.0
 10
116.865218069742
 20
-148.7573282505711
 30
0.0
 10
116.8162977138515
 20
-148.7979803772971
 30
0.0
 10
116.7846028353872
 20
-148.8319145678267
 30
0.0
 10
116.7108777920028
 20
-148.910807254439
 30
0.0
 10
116.6977864291589
 20
-149.035519711005
 30
0.0
 10
116.6977864291589
 20
-149.0940863342543
 30
0.0
 10
116.6977864291589
 20
-149.1147569071658
 30
0.0
 10
116.69985348645
 20
-149.152997467052
 30
0.0
 10
116.7039876010323
 20
-149.1822807786767
 30
0.0
 10
116.7039876010323
 20
-149.1822807786767
 30
0.0
 10
116.5096842156643
 20
-149.1822807786767
 30
0.0
 10
116.5096842156643
 20
-149.1822807786767
 30
0.0
 10
116.5158853875377
 20
-149.1416286519507
 30
0.0
 10
116.5179524448289
 20
-149.0964979010939
 30
0.0
 10
116.5179524448289
 20
-149.0896077101234
 30
0.0
 10
116.5179524448289
 20
-149.0196722717729
 30
0.0
 10
116.4965928528203
 20
-148.8071098803329
 30
0.0
 10
116.2602593025322
 20
-148.8071098803329
 30
0.0
 10
116.0824923754933
 20
-148.8071098803329
 30
0.0
 10
116.0273708477293
 20
-148.9473252665826
 30
0.0
 10
116.0273708477293
 20
-149.0648030226296
 30
0.0
 10
116.0273708477293
 20
-149.3473008524201
 30
0.0
 10
116.2602593025322
 20
-149.3566026102303
 30
0.0
 10
116.3319172886254
 20
-149.3607367248126
 30
0.0
 10
116.3319172886254
 20
-149.3607367248126
 30
0.0
 10
116.3319172886254
 20
-149.5777777403833
 30
0.0
 10
116.3319172886254
 20
-149.5777777403833
 30
0.0
 10
116.2072048320593
 20
-149.5688204921217
 30
0.0
 10
115.830311385973
 20
-149.5395371804971
 30
0.0
 10
115.830311385973
 20
-149.0513671502372
 30
0.0
 10
115.830311385973
 20
-148.8115885044638
 30
0.0
 10
115.9577799189272
 20
-148.5538953621671
 30
0.0
 10
116.2533691115617
 20
-148.5538953621671
 30
0.0
 10
116.4400932868622
 20
-148.5538953621671
 30
0.0
 10
116.5220865594112
 20
-148.6555256789819
 30
0.0
 10
116.5834092590486
 20
-148.7618068747019
 30
0.0
 10
116.6109700229306
 20
-148.6961778057079
 30
0.0
 10
116.6915852572854
 20
-148.5018744203398
 30
0.0
 10
116.9685709342995
 20
-148.5018744203398
 30
0.0
 10
117.3068793109511
 20
-148.5018744203398
 30
0.0
 10
117.4743109515342
 20
-148.7662854988327
 30
0.0
 10
117.4743109515342
 20
-149.06239145579
 30
0.0
  0
HATCH
  5
117
330
110
100
AcDbEntity
  8
_U+30EC_U+30A4_U+30E4_U+30FC 1
 62
   179
420
  2234388
100
AcDbHatch
 10
0.0
 20
0.0
 30
0.0
210
0.0
220
0.0
230
1.0
  2
SOLID
 70
     1
 71
     0
 91
        1
 92
        1
 93
        1
 72
     4
 94
        3
 73
     0
 74
     1
 95
       62
 96
       58
 40
0.0
 40
0.0
 40
0.0
 40
0.0
 40
1.0
 40
1.0
 40
1.0
 40
2.0
 40
2.0
 40
2.0
 40
3.0
 40
3.0
 40
3.0
 40
4.0
 40
4.0
 40
4.0
 40
5.0
 40
5.0
 40
5.0
 40
6.0
 40
6.0
 40
6.0
 40
7.0
 40
7.0
 40
7.0
 40
8.0
 40
8.0
 40
8.0
 40
9.0
 40
9.0
 40
9.0
 40
10.0
 40
10.0
 40
10.0
 40
11.0
 40
11.0
 40
11.0
 40
12.0
 40
12.0
 40
12.0
 40
13.0
 40
13.0
 40
13.0
 40
14.0
 40
14.0
 40
14.0
 40
15.0
 40
15.0
 40
15.0
 40
16.0
 40
16.0
 40
16.0
 40
17.0
 40
17.0
 40
17.0
 40
18.0
 40
18.0
 40
18.0
 40
19.0
 40
19.0
 40
19.0
 40
19.0
 10
117.4743109515342
 20
-149.06239145579
 10
117.4743109515342
 20
-149.1643662821534
 10
117.4529513595257
 20
-149.3972547369563
 10
117.2669162033222
 20
-149.5305799322354
 10
117.154606090503
 20
-149.6094726188476
 10
117.0553873405278
 20
-149.614295752527
 10
116.9706379915907
 20
-149.6187743766578
 10
116.9706379915907
 20
-149.6187743766578
 10
116.9706379915907
 20
-149.3834743550152
 10
116.9706379915907
 20
-149.3834743550152
 10
117.0450520540721
 20
-149.3814072977241
 10
117.2793185470691
 20
-149.3700384826228
 10
117.2793185470691
 20
-149.0672145894693
 10
117.2793185470691
 20
-148.9201090122492
 10
117.209727618267
 20
-148.7573282505711
 10
116.9816622971435
 20
-148.7573282505711
 10
116.865218069742
 20
-148.7573282505711
 10
116.8162977138515
 20
-148.7979803772971
 10
116.7846028353872
 20
-148.8319145678267
 10
116.7108777920028
 20
-148.910807254439
 10
116.6977864291589
 20
-149.035519711005
 10
116.6977864291589
 20
-149.0940863342543
 10
116.6977864291589
 20
-149.1147569071658
 10
116.69985348645
 20
-149.152997467052
 10
116.7039876010323
 20
-149.1822807786767
 10
116.7039876010323
 20
-149.1822807786767
 10
116.5096842156643
 20
-149.1822807786767
 10
116.5096842156643
 20
-149.1822807786767
 10
116.5158853875377
 20
-149.1416286519507
 10
116.5179524448289
 20
-149.0964979010939
 10
116.5179524448289
 20
-149.0896077101234
 10
116.5179524448289
 20
-149.0196722717729
 10
116.4965928528203
 20
-148.8071098803329
 10
116.2602593025322
 20
-148.8071098803329
 10
116.0824923754933
 20
-148.8071098803329
 10
116.0273708477293
 20
-148.9473252665826
 10
116.0273708477293
 20
-149.0648030226296
 10
116.0273708477293
 20
-149.3473008524201
 10
116.2602593025322
 20
-149.3566026102303
 10
116.3319172886254
 20
-149.3607367248126
 10
116.3319172886254
 20
-149.3607367248126
 10
116.3319172886254
 20
-149.5777777403833
 10
116.3319172886254
 20
-149.5777777403833
 10
116.2072048320593
 20
-149.5688204921217
 10
115.830311385973
 20
-149.5395371804971
 10
115.830311385973
 20
-149.0513671502372
 10
115.830311385973
 20
-148.8115885044638
 10
115.9577799189272
 20
-148.5538953621671
 10
116.2533691115617
 20
-148.5538953621671
 10
116.4400932868622
 20
-148.5538953621671
 10
116.5220865594112
 20
-148.6555256789819
 10
116.5834092590486
 20
-148.7618068747019
 10
116.6109700229306
 20
-148.6961778057079
 10
116.6915852572854
 20
-148.5018744203398
 10
116.9685709342995
 20
-148.5018744203398
 10
117.3068793109511
 20
-148.5018744203398
 10
117.4743109515342
 20
-148.7662854988327
 10
117.4743109515342
 20
-149.06239145579
 97
        0
 97
        0
 75
     2
 76
     1
 98
        0
  0
ENDBLK
  5
113
330
110
100
AcDbEntity
  8
0
100
AcDbBlockEnd
  0
BLOCK
  5
124
330
122
100
AcDbEntity
  8
0
100
AcDbBlockBegin
  2
block 7
 70
     0
 10
0.0
 20
0.0
 30
0.0
  3
block 7
  1

  0
SPLINE
  5
126
330
122
100
AcDbEntity
  8
_U+30EC_U+30A4_U+30E4_U+30FC 1
370
     0
100
AcDbSpline
210
0.0
220
0.0
230
1.0
 70
    11
 71
     3
 72
    26
 73
    22
 74
     0
 42
0.0000000001
 43
0.0000000001
 12
1.0
 22
0.0
 32
0.0
 13
1.0
 23
0.0
 33
0.0
 40
0.0
 40
0.0
 40
0.0
 40
0.0
 40
1.0
 40
1.0
 40
1.0
 40
2.0
 40
2.0
 40
2.0
 40
3.0
 40
3.0
 40
3.0
 40
4.0
 40
4.0
 40
4.0
 40
5.0
 40
5.0
 40
5.0
 40
6.0
 40
6.0
 40
6.0
 40
7.0
 40
7.0
 40
7.0
 40
7.0
 10
102.0290866172879
 20
-152.2663302570723
 30
0.0
 10
102.0290866172879
 20
-152.2663302570723
 30
0.0
 10
102.0290866172879
 20
-151.1621771540497
 30
0.0
 10
102.0290866172879
 20
-151.1621771540497
 30
0.0
 10
102.0290866172879
 20
-151.1621771540497
 30
0.0
 10
101.6763088395983
 20
-151.1621771540497
 30
0.0
 10
101.6763088395983
 20
-151.1621771540497
 30
0.0
 10
101.6763088395983
 20
-151.1621771540497
 30
0.0
 10
101.6763088395983
 20
-151.014038048184
 30
0.0
 10
101.6763088395983
 20
-151.014038048184
 30
0.0
 10
102.0313259293533
 20
-150.9992241375974
 30
0.0
 10
102.0811075591151
 20
-150.8362711211451
 30
0.0
 10
102.1126301828052
 20
-150.7218939510348
 30
0.0
 10
102.1126301828052
 20
-150.7218939510348
 30
0.0
 10
102.268693008287
 20
-150.7218939510348
 30
0.0
 10
102.268693008287
 20
-150.7218939510348
 30
0.0
 10
102.268693008287
 20
-150.7218939510348
 30
0.0
 10
102.268693008287
 20
-152.2663302570723
 30
0.0
 10
102.268693008287
 20
-152.2663302570723
 30
0.0
 10
102.268693008287
 20
-152.2663302570723
 30
0.0
 10
102.0290866172879
 20
-152.2663302570723
 30
0.0
 10
102.0290866172879
 20
-152.2663302570723
 30
0.0
  0
HATCH
  5
127
330
122
100
AcDbEntity
  8
_U+30EC_U+30A4_U+30E4_U+30FC 1
 62
   179
420
  2234388
100
AcDbHatch
 10
0.0
 20
0.0
 30
0.0
210
0.0
220
0.0
230
1.0
  2
SOLID
 70
     1
 71
     0
 91
        1
 92
        1
 93
        1
 72
     4
 94
        3
 73
     0
 74
     1
 95
       26
 96
       22
 40
0.0
 40
0.0
 40
0.0
 40
0.0
 40
1.0
 40
1.0
 40
1.0
 40
2.0
 40
2.0
 40
2.0
 40
3.0
 40
3.0
 40
3.0
 40
4.0
 40
4.0
 40
4.0
 40
5.0
 40
5.0
 40
5.0
 40
6.0
 40
6.0
 40
6.0
 40
7.0
 40
7.0
 40
7.0
 40
7.0
 10
102.0290866172879
 20
-152.2663302570723
 10
102.0290866172879
 20
-152.2663302570723
 10
102.0290866172879
 20
-151.1621771540497
 10
102.0290866172879
 20
-151.1621771540497
 10
102.0290866172879
 20
-151.1621771540497
 10
101.6763088395983
 20
-151.1621771540497
 10
101.6763088395983
 20
-151.1621771540497
 10
101.6763088395983
 20
-151.1621771540497
 10
101.6763088395983
 20
-151.014038048184
 10
101.6763088395983
 20
-151.014038048184
 10
102.0313259293533
 20
-150.9992241375974
 10
102.0811075591151
 20
-150.8362711211451
 10
102.1126301828052
 20
-150.7218939510348
 10
102.1126301828052
 20
-150.7218939510348
 10
102.268693008287
 20
-150.7218939510348
 10
102.268693008287
 20
-150.7218939510348
 10
102.268693008287
 20
-150.7218939510348
 10
102.268693008287
 20
-152.2663302570723
 10
102.268693008287
 20
-152.2663302570723
 10
102.268693008287
 20
-152.2663302570723
 10
102.0290866172879
 20
-152.2663302570723
 10
102.0290866172879
 20
-152.2663302570723
 97
        0
 97
        0
 75
     2
 76
     1
 98
        0
  0
ENDBLK
  5
125
330
122
100
AcDbEntity
  8
0
100
AcDbBlockEnd
  0
ENDSEC
  0
SECTION
  2
ENTITIES
  0
POLYLINE
  5
41
330
1F
100
AcDbEntity
  8
_U+30EC_U+30A4_U+30E4_U+30FC 1
 62
   179
420
  2234388
370
     9
100
AcDb2dPolyline
 66
     1
 10
0.0
 20
0.0
 30
0.0
  0
VERTEX
  5
42
330
41
100
AcDbEntity
  8
_U+30EC_U+30A4_U+30E4_U+30FC 1
 62
   179
420
  2234388
370
     9
100
AcDbVertex
100
AcDb2dVertex
 10
90.07062189181612
 20
-161.1830125193831
 30
0.0
  0
VERTEX
  5
43
330
41
100
AcDbEntity
  8
_U+30EC_U+30A4_U+30E4_U+30FC 1
 62
   179
420
  2234388
370
     9
100
AcDbVertex
100
AcDb2dVertex
 10
120.0704918455249
 20
-161.1830125193831
 30
0.0
  0
SEQEND
  5
44
330
41
100
AcDbEntity
  8
_U+30EC_U+30A4_U+30E4_U+30FC 1
 62
   179
420
  2234388
370
     9
  0
POLYLINE
  5
45
330
1F
100
AcDbEntity
  8
_U+30EC_U+30A4_U+30E4_U+30FC 1
 62
   179
420
  2234388
370
     9
100
AcDb2dPolyline
 66
     1
 10
0.0
 20
0.0
 30
0.0
  0
VERTEX
  5
46
330
45
100
AcDbEntity
  8
_U+30EC_U+30A4_U+30E4_U+30FC 1
 62
   179
420
  2234388
370
     9
100
AcDbVertex
100
AcDb2dVertex
 10
90.07062189181612
 20
-159.723002584581
 30
0.0
  0
VERTEX
  5
47
330
45
100
AcDbEntity
  8
_U+30EC_U+30A4_U+30E4_U+30FC 1
 62
   179
420
  2234388
370
     9
100
AcDbVertex
100
AcDb2dVertex
 10
90.07062189181612
 20
-162.183285227602
 30
0.0
  0
SEQEND
  5
48
330
45
100
AcDbEntity
  8
_U+30EC_U+30A4_U+30E4_U+30FC 1
 62
   179
420
  2234388
370
     9
  0
POLYLINE
  5
49
330
1F
100
AcDbEntity
  8
_U+30EC_U+30A4_U+30E4_U+30FC 1
 62
   179
420
  2234388
370
     9
100
AcDb2dPolyline
 66
     1
 10
0.0
 20
0.0
 30
0.0
  0
VERTEX
  5
4A
330
49
100
AcDbEntity
  8
_U+30EC_U+30A4_U+30E4_U+30FC 1
 62
   179
420
  2234388
370
     9
100
AcDbVertex
100
AcDb2dVertex
 10
120.0704918455249
 20
-159.723002584581
 30
0.0
  0
VERTEX
  5
4B
330
49
100
AcDbEntity
  8
_U+30EC_U+30A4_U+30E4_U+30FC 1
 62
   179
420
  2234388
370
     9
100
AcDbVertex
100
AcDb2dVertex
 10
120.0704918455249
 20
-162.183285227602
 30
0.0
  0
SEQEND
  5
4C
330
49
100
AcDbEntity
  8
_U+30EC_U+30A4_U+30E4_U+30FC 1
 62
   179
420
  2234388
370
     9
  0
POLYLINE
  5
4D
330
1F
100
AcDbEntity
  8
_U+30EC_U+30A4_U+30E4_U+30FC 1
370
     0
100
AcDb2dPolyline
 66
     1
 10
0.0
 20
0.0
 30
0.0
  0
VERTEX
  5
4E
330
4D
100
AcDbEntity
  8
_U+30EC_U+30A4_U+30E4_U+30FC 1
370
     0
100
AcDbVertex
100
AcDb2dVertex
 10
114.0691462761431
 20
-156.2827194670871
 30
0.0
  0
VERTEX
  5
4F
330
4D
100
AcDbEntity
  8
_U+30EC_U+30A4_U+30E4_U+30FC 1
370
     0
100
AcDbVertex
100
AcDb2dVertex
 10
113.8962778442473
 20
-156.1828870594786
 30
0.0
  0
VERTEX
  5
50
330
4D
100
AcDbEntity
  8
_U+30EC_U+30A4_U+30E4_U+30FC 1
370
     0
100
AcDbVertex
100
AcDb2dVertex
 10
108.0690926175682
 20
-156.1828870594786
 30
0.0
  0
VERTEX
  5
51
330
4D
100
AcDbEntity
  8
_U+30EC_U+30A4_U+30E4_U+30FC 1
370
     0
100
AcDbVertex
100
AcDb2dVertex
 10
108.0690926175682
 20
-143.1830237984328
 30
0.0
  0
VERTEX
  5
52
330
4D
100
AcDbEntity
  8
_U+30EC_U+30A4_U+30E4_U+30FC 1
370
     0
100
AcDbVertex
100
AcDb2dVertex
 10
114.0691462761431
 20
-143.1830237984328
 30
0.0
  0
VERTEX
  5
53
330
4D
100
AcDbEntity
  8
_U+30EC_U+30A4_U+30E4_U+30FC 1
370
     0
100
AcDbVertex
100
AcDb2dVertex
 10
114.0691462761431
 20
-142.6827851680511
 30
0.0
  0
VERTEX
  5
54
330
4D
100
AcDbEntity
  8
_U+30EC_U+30A4_U+30E4_U+30FC 1
370
     0
100
AcDbVertex
100
AcDb2dVertex
 10
113.2030708029981
 20
-142.1825465376694
 30
0.0
  0
VERTEX
  5
55
330
4D
100
AcDbEntity
  8
_U+30EC_U+30A4_U+30E4_U+30FC 1
370
     0
100
AcDbVertex
100
AcDb2dVertex
 10
107.0693259077487
 20
-142.1825465376694
 30
0.0
  0
VERTEX
  5
56
330
4D
100
AcDbEntity
  8
_U+30EC_U+30A4_U+30E4_U+30FC 1
370
     0
100
AcDbVertex
100
AcDb2dVertex
 10
107.0693259077487
 20
-156.1828870594786
 30
0.0
  0
VERTEX
  5
57
330
4D
100
AcDbEntity
  8
_U+30EC_U+30A4_U+30E4_U+30FC 1
370
     0
100
AcDbVertex
100
AcDb2dVertex
 10
99.06902827859103
 20
-156.1828870594786
 30
0.0
  0
VERTEX
  5
58
330
4D
100
AcDbEntity
  8
_U+30EC_U+30A4_U+30E4_U+30FC 1
370
     0
100
AcDbVertex
100
AcDb2dVertex
 10
99.06902827859103
 20
-142.1825465376694
 30
0.0
  0
VERTEX
  5
59
330
4D
100
AcDbEntity
  8
_U+30EC_U+30A4_U+30E4_U+30FC 1
370
     0
100
AcDbVertex
100
AcDb2dVertex
 10
92.93563865881362
 20
-142.1825465376694
 30
0.0
  0
VERTEX
  5
5A
330
4D
100
AcDbEntity
  8
_U+30EC_U+30A4_U+30E4_U+30FC 1
370
     0
100
AcDbVertex
100
AcDb2dVertex
 10
92.06956856863029
 20
-142.6827851680511
 30
0.0
  0
VERTEX
  5
5B
330
4D
100
AcDbEntity
  8
_U+30EC_U+30A4_U+30E4_U+30FC 1
370
     0
100
AcDbVertex
100
AcDb2dVertex
 10
92.06956856863029
 20
-143.1830237984328
 30
0.0
  0
VERTEX
  5
5C
330
4D
100
AcDbEntity
  8
_U+30EC_U+30A4_U+30E4_U+30FC 1
370
     0
100
AcDbVertex
100
AcDb2dVertex
 10
98.06926156877154
 20
-143.1830237984328
 30
0.0
  0
VERTEX
  5
5D
330
4D
100
AcDbEntity
  8
_U+30EC_U+30A4_U+30E4_U+30FC 1
370
     0
100
AcDbVertex
100
AcDb2dVertex
 10
98.06926156877154
 20
-156.1828870594786
 30
0.0
  0
VERTEX
  5
5E
330
4D
100
AcDbEntity
  8
_U+30EC_U+30A4_U+30E4_U+30FC 1
370
     0
100
AcDbVertex
100
AcDb2dVertex
 10
90.93538930526908
 20
-156.1828870594786
 30
0.0
  0
VERTEX
  5
5F
330
4D
100
AcDbEntity
  8
_U+30EC_U+30A4_U+30E4_U+30FC 1
370
     0
100
AcDbVertex
100
AcDb2dVertex
 10
90.06931921508576
 20
-156.6827704143883
 30
0.0
  0
VERTEX
  5
60
330
4D
100
AcDbEntity
  8
_U+30EC_U+30A4_U+30E4_U+30FC 1
370
     0
100
AcDbVertex
100
AcDb2dVertex
 10
90.06931921508576
 20
-157.18300904477
 30
0.0
  0
VERTEX
  5
61
330
4D
100
AcDbEntity
  8
_U+30EC_U+30A4_U+30E4_U+30FC 1
370
     0
100
AcDbVertex
100
AcDb2dVertex
 10
120.0691891687946
 20
-157.18300904477
 30
0.0
  0
VERTEX
  5
62
330
4D
100
AcDbEntity
  8
_U+30EC_U+30A4_U+30E4_U+30FC 1
370
     0
100
AcDbVertex
100
AcDb2dVertex
 10
120.0691891687946
 20
-156.6827704143883
 30
0.0
  0
VERTEX
  5
63
330
4D
100
AcDbEntity
  8
_U+30EC_U+30A4_U+30E4_U+30FC 1
370
     0
100
AcDbVertex
100
AcDb2dVertex
 10
119.3766819125658
 20
-156.2827194670871
 30
0.0
  0
VERTEX
  5
64
330
4D
100
AcDbEntity
  8
_U+30EC_U+30A4_U+30E4_U+30FC 1
370
     0
100
AcDbVertex
100
AcDb2dVertex
 10
114.0691462761431
 20
-156.2827194670871
 30
0.0
  0
SEQEND
  5
66
330
4D
100
AcDbEntity
  8
_U+30EC_U+30A4_U+30E4_U+30FC 1
370
     0
  0
HATCH
  5
65
330
1F
100
AcDbEntity
  8
_U+30EC_U+30A4_U+30E4_U+30FC 1
 62
     9
420
 13224394
100
AcDbHatch
 10
0.0
 20
0.0
 30
0.0
210
0.0
220
0.0
230
1.0
  2
SOLID
 70
     1
 71
     0
 91
        1
 92
        1
 93
       22
 72
     1
 10
114.0691462761431
 20
-156.2827194670871
 11
113.8962778442473
 21
-156.1828870594786
 72
     1
 10
113.8962778442473
 20
-156.1828870594786
 11
108.0690926175682
 21
-156.1828870594786
 72
     1
 10
108.0690926175682
 20
-156.1828870594786
 11
108.0690926175682
 21
-143.1830237984328
 72
     1
 10
108.0690926175682
 20
-143.1830237984328
 11
114.0691462761431
 21
-143.1830237984328
 72
     1
 10
114.0691462761431
 20
-143.1830237984328
 11
114.0691462761431
 21
-142.6827851680511
 72
     1
 10
114.0691462761431
 20
-142.6827851680511
 11
113.2030708029981
 21
-142.1825465376694
 72
     1
 10
113.2030708029981
 20
-142.1825465376694
 11
107.0693259077487
 21
-142.1825465376694
 72
     1
 10
107.0693259077487
 20
-142.1825465376694
 11
107.0693259077487
 21
-156.1828870594786
 72
     1
 10
107.0693259077487
 20
-156.1828870594786
 11
99.06902827859103
 21
-156.1828870594786
 72
     1
 10
99.06902827859103
 20
-156.1828870594786
 11
99.06902827859103
 21
-142.1825465376694
 72
     1
 10
99.06902827859103
 20
-142.1825465376694
 11
92.93563865881362
 21
-142.1825465376694
 72
     1
 10
92.93563865881362
 20
-142.1825465376694
 11
92.06956856863029
 21
-142.6827851680511
 72
     1
 10
92.06956856863029
 20
-142.6827851680511
 11
92.06956856863029
 21
-143.1830237984328
 72
     1
 10
92.06956856863029
 20
-143.1830237984328
 11
98.06926156877154
 21
-143.1830237984328
 72
     1
 10
98.06926156877154
 20
-143.1830237984328
 11
98.06926156877154
 21
-156.1828870594786
 72
     1
 10
98.06926156877154
 20
-156.1828870594786
 11
90.93538930526908
 21
-156.1828870594786
 72
     1
 10
90.93538930526908
 20
-156.1828870594786
 11
90.06931921508576
 21
-156.6827704143883
 72
     1
 10
90.06931921508576
 20
-156.6827704143883
 11
90.06931921508576
 21
-157.18300904477
 72
     1
 10
90.06931921508576
 20
-157.18300904477
 11
120.0691891687946
 21
-157.18300904477
 72
     1
 10
120.0691891687946
 20
-157.18300904477
 11
120.0691891687946
 21
-156.6827704143883
 72
     1
 10
120.0691891687946
 20
-156.6827704143883
 11
119.3766819125658
 21
-156.2827194670871
 72
     1
 10
119.3766819125658
 20
-156.2827194670871
 11
114.0691462761431
 21
-156.2827194670871
 97
        0
 75
     2
 76
     1
 98
        0
  0
POLYLINE
  5
67
330
1F
100
AcDbEntity
  8
_U+30EC_U+30A4_U+30E4_U+30FC 1
 62
   179
420
  2234388
370
    25
100
AcDb2dPolyline
 66
     1
 10
0.0
 20
0.0
 30
0.0
  0
VERTEX
  5
68
330
67
100
AcDbEntity
  8
_U+30EC_U+30A4_U+30E4_U+30FC 1
 62
   179
420
  2234388
370
    25
100
AcDbVertex
100
AcDb2dVertex
 10
90.06921155585184
 20
-157.1829336833063
 30
0.0
  0
VERTEX
  5
69
330
67
100
AcDbEntity
  8
_U+30EC_U+30A4_U+30E4_U+30FC 1
 62
   179
420
  2234388
370
    25
100
AcDbVertex
100
AcDb2dVertex
 10
120.0690815095606
 20
-157.1829336833063
 30
0.0
  0
SEQEND
  5
6A
330
67
100
AcDbEntity
  8
_U+30EC_U+30A4_U+30E4_U+30FC 1
 62
   179
420
  2234388
370
    25
  0
POLYLINE
  5
6B
330
1F
100
AcDbEntity
  8
_U+30EC_U+30A4_U+30E4_U+30FC 1
 62
   179
420
  2234388
370
    25
100
AcDb2dPolyline
 66
     1
 10
0.0
 20
0.0
 30
0.0
  0
VERTEX
  5
6C
330
6B
100
AcDbEntity
  8
_U+30EC_U+30A4_U+30E4_U+30FC 1
 62
   179
420
  2234388
370
    25
100
AcDbVertex
100
AcDb2dVertex
 10
107.0694012692125
 20
-142.18264343098
 30
0.0
  0
VERTEX
  5
6D
330
6B
100
AcDbEntity
  8
_U+30EC_U+30A4_U+30E4_U+30FC 1
 62
   179
420
  2234388
370
    25
100
AcDbVertex
100
AcDb2dVertex
 10
107.0694012692125
 20
-156.1829839527891
 30
0.0
  0
SEQEND
  5
6E
330
6B
100
AcDbEntity
  8
_U+30EC_U+30A4_U+30E4_U+30FC 1
 62
   179
420
  2234388
370
    25
  0
POLYLINE
  5
6F
330
1F
100
AcDbEntity
  8
_U+30EC_U+30A4_U+30E4_U+30FC 1
 62
   179
420
  2234388
370
    25
100
AcDb2dPolyline
 66
     1
 10
0.0
 20
0.0
 30
0.0
  0
VERTEX
  5
70
330
6F
100
AcDbEntity
  8
_U+30EC_U+30A4_U+30E4_U+30FC 1
 62
   179
420
  2234388
370
    25
100
AcDbVertex
100
AcDb2dVertex
 10
108.069167979032
 20
-143.1830883939731
 30
0.0
  0
VERTEX
  5
71
330
6F
100
AcDbEntity
  8
_U+30EC_U+30A4_U+30E4_U+30FC 1
 62
   179
420
  2234388
370
    25
100
AcDbVertex
100
AcDb2dVertex
 10
108.069167979032
 20
-156.1829516550189
 30
0.0
  0
SEQEND
  5
72
330
6F
100
AcDbEntity
  8
_U+30EC_U+30A4_U+30E4_U+30FC 1
 62
   179
420
  2234388
370
    25
  0
POLYLINE
  5
73
330
1F
100
AcDbEntity
  8
_U+30EC_U+30A4_U+30E4_U+30FC 1
 62
   179
420
  2234388
370
    25
100
AcDb2dPolyline
 66
     1
 10
0.0
 20
0.0
 30
0.0
  0
VERTEX
  5
74
330
73
100
AcDbEntity
  8
_U+30EC_U+30A4_U+30E4_U+30FC 1
 62
   179
420
  2234388
370
    25
100
AcDbVertex
100
AcDb2dVertex
 10
90.93531394380534
 20
-156.1827686343213
 30
0.0
  0
VERTEX
  5
75
330
73
100
AcDbEntity
  8
_U+30EC_U+30A4_U+30E4_U+30FC 1
 62
   179
420
  2234388
370
    25
100
AcDbVertex
100
AcDb2dVertex
 10
98.06953609981801
 20
-156.1827686343213
 30
0.0
  0
SEQEND
  5
76
330
73
100
AcDbEntity
  8
_U+30EC_U+30A4_U+30E4_U+30FC 1
 62
   179
420
  2234388
370
    25
  0
POLYLINE
  5
77
330
1F
100
AcDbEntity
  8
_U+30EC_U+30A4_U+30E4_U+30FC 1
 62
   179
420
  2234388
370
    25
100
AcDb2dPolyline
 66
     1
 10
0.0
 20
0.0
 30
0.0
  0
VERTEX
  5
78
330
77
100
AcDbEntity
  8
_U+30EC_U+30A4_U+30E4_U+30FC 1
 62
   179
420
  2234388
370
    25
100
AcDbVertex
100
AcDb2dVertex
 10
108.069167979032
 20
-156.1827686343213
 30
0.0
  0
VERTEX
  5
79
330
77
100
AcDbEntity
  8
_U+30EC_U+30A4_U+30E4_U+30FC 1
 62
   179
420
  2234388
370
    25
100
AcDbVertex
100
AcDb2dVertex
 10
113.8963424397876
 20
-156.1827686343213
 30
0.0
  0
SEQEND
  5
7A
330
77
100
AcDbEntity
  8
_U+30EC_U+30A4_U+30E4_U+30FC 1
 62
   179
420
  2234388
370
    25
  0
POLYLINE
  5
7B
330
1F
100
AcDbEntity
  8
_U+30EC_U+30A4_U+30E4_U+30FC 1
 62
   179
420
  2234388
370
    25
100
AcDb2dPolyline
 66
     1
 10
0.0
 20
0.0
 30
0.0
  0
VERTEX
  5
7C
330
7B
100
AcDbEntity
  8
_U+30EC_U+30A4_U+30E4_U+30FC 1
 62
   179
420
  2234388
370
    25
100
AcDbVertex
100
AcDb2dVertex
 10
108.069167979032
 20
-143.1830883939731
 30
0.0
  0
VERTEX
  5
7D
330
7B
100
AcDbEntity
  8
_U+30EC_U+30A4_U+30E4_U+30FC 1
 62
   179
420
  2234388
370
    25
100
AcDbVertex
100
AcDb2dVertex
 10
114.0692108716834
 20
-143.1830883939731
 30
0.0
  0
SEQEND
  5
7E
330
7B
100
AcDbEntity
  8
_U+30EC_U+30A4_U+30E4_U+30FC 1
 62
   179
420
  2234388
370
    25
  0
POLYLINE
  5
7F
330
1F
100
AcDbEntity
  8
_U+30EC_U+30A4_U+30E4_U+30FC 1
 62
   179
420
  2234388
370
    25
100
AcDb2dPolyline
 66
     1
 10
0.0
 20
0.0
 30
0.0
  0
VERTEX
  5
80
330
7F
100
AcDbEntity
  8
_U+30EC_U+30A4_U+30E4_U+30FC 1
 62
   179
420
  2234388
370
    25
100
AcDbVertex
100
AcDb2dVertex
 10
107.0694012692125
 20
-142.18264343098
 30
0.0
  0
VERTEX
  5
81
330
7F
100
AcDbEntity
  8
_U+30EC_U+30A4_U+30E4_U+30FC 1
 62
   179
420
  2234388
370
    25
100
AcDbVertex
100
AcDb2dVertex
 10
113.2031461644618
 20
-142.18264343098
 30
0.0
  0
SEQEND
  5
82
330
7F
100
AcDbEntity
  8
_U+30EC_U+30A4_U+30E4_U+30FC 1
 62
   179
420
  2234388
370
    25
  0
POLYLINE
  5
83
330
1F
100
AcDbEntity
  8
_U+30EC_U+30A4_U+30E4_U+30FC 1
 62
   179
420
  2234388
370
    25
100
AcDb2dPolyline
 66
     1
 10
0.0
 20
0.0
 30
0.0
  0
VERTEX
  5
84
330
83
100
AcDbEntity
  8
_U+30EC_U+30A4_U+30E4_U+30FC 1
 62
   179
420
  2234388
370
    25
100
AcDbVertex
100
AcDb2dVertex
 10
98.0694338235458
 20
-143.1830883939731
 30
0.0
  0
VERTEX
  5
85
330
83
100
AcDbEntity
  8
_U+30EC_U+30A4_U+30E4_U+30FC 1
 62
   179
420
  2234388
370
    25
100
AcDbVertex
100
AcDb2dVertex
 10
92.06938554793264
 20
-143.1830883939731
 30
0.0
  0
SEQEND
  5
86
330
83
100
AcDbEntity
  8
_U+30EC_U+30A4_U+30E4_U+30FC 1
 62
   179
420
  2234388
370
    25
  0
POLYLINE
  5
87
330
1F
100
AcDbEntity
  8
_U+30EC_U+30A4_U+30E4_U+30FC 1
 62
   179
420
  2234388
370
    25
100
AcDb2dPolyline
 66
     1
 10
0.0
 20
0.0
 30
0.0
  0
VERTEX
  5
88
330
87
100
AcDbEntity
  8
_U+30EC_U+30A4_U+30E4_U+30FC 1
 62
   179
420
  2234388
370
    25
100
AcDbVertex
100
AcDb2dVertex
 10
98.0694338235458
 20
-143.1830883939731
 30
0.0
  0
VERTEX
  5
89
330
87
100
AcDbEntity
  8
_U+30EC_U+30A4_U+30E4_U+30FC 1
 62
   179
420
  2234388
370
    25
100
AcDbVertex
100
AcDb2dVertex
 10
98.0694338235458
 20
-156.1829516550189
 30
0.0
  0
SEQEND
  5
8A
330
87
100
AcDbEntity
  8
_U+30EC_U+30A4_U+30E4_U+30FC 1
 62
   179
420
  2234388
370
    25
  0
POLYLINE
  5
8B
330
1F
100
AcDbEntity
  8
_U+30EC_U+30A4_U+30E4_U+30FC 1
 62
   179
420
  2234388
370
    25
100
AcDb2dPolyline
 66
     1
 10
0.0
 20
0.0
 30
0.0
  0
VERTEX
  5
8C
330
8B
100
AcDbEntity
  8
_U+30EC_U+30A4_U+30E4_U+30FC 1
 62
   179
420
  2234388
370
    25
100
AcDbVertex
100
AcDb2dVertex
 10
99.0692112992887
 20
-142.18264343098
 30
0.0
  0
VERTEX
  5
8D
330
8B
100
AcDbEntity
  8
_U+30EC_U+30A4_U+30E4_U+30FC 1
 62
   179
420
  2234388
370
    25
100
AcDbVertex
100
AcDb2dVertex
 10
99.0692112992887
 20
-156.1829839527891
 30
0.0
  0
SEQEND
  5
8E
330
8B
100
AcDbEntity
  8
_U+30EC_U+30A4_U+30E4_U+30FC 1
 62
   179
420
  2234388
370
    25
  0
POLYLINE
  5
8F
330
1F
100
AcDbEntity
  8
_U+30EC_U+30A4_U+30E4_U+30FC 1
 62
   179
420
  2234388
370
    25
100
AcDb2dPolyline
 66
     1
 10
0.0
 20
0.0
 30
0.0
  0
VERTEX
  5
90
330
8F
100
AcDbEntity
  8
_U+30EC_U+30A4_U+30E4_U+30FC 1
 62
   179
420
  2234388
370
    25
100
AcDbVertex
100
AcDb2dVertex
 10
99.0692112992887
 20
-142.18264343098
 30
0.0
  0
VERTEX
  5
91
330
8F
100
AcDbEntity
  8
_U+30EC_U+30A4_U+30E4_U+30FC 1
 62
   179
420
  2234388
370
    25
100
AcDbVertex
100
AcDb2dVertex
 10
92.93546102107766
 20
-142.18264343098
 30
0.0
  0
SEQEND
  5
92
330
8F
100
AcDbEntity
  8
_U+30EC_U+30A4_U+30E4_U+30FC 1
 62
   179
420
  2234388
370
    25
  0
POLYLINE
  5
93
330
1F
100
AcDbEntity
  8
_U+30EC_U+30A4_U+30E4_U+30FC 1
 62
   179
420
  2234388
370
    25
100
AcDb2dPolyline
 66
     1
 10
0.0
 20
0.0
 30
0.0
  0
VERTEX
  5
94
330
93
100
AcDbEntity
  8
_U+30EC_U+30A4_U+30E4_U+30FC 1
 62
   179
420
  2234388
370
    25
100
AcDbVertex
100
AcDb2dVertex
 10
99.0692112992887
 20
-156.1827686343213
 30
0.0
  0
VERTEX
  5
95
330
93
100
AcDbEntity
  8
_U+30EC_U+30A4_U+30E4_U+30FC 1
 62
   179
420
  2234388
370
    25
100
AcDbVertex
100
AcDb2dVertex
 10
107.069498162523
 20
-156.1827686343213
 30
0.0
  0
SEQEND
  5
96
330
93
100
AcDbEntity
  8
_U+30EC_U+30A4_U+30E4_U+30FC 1
 62
   179
420
  2234388
370
    25
  0
POLYLINE
  5
97
330
1F
100
AcDbEntity
  8
_U+30EC_U+30A4_U+30E4_U+30FC 1
 62
   179
420
  2234388
370
    25
100
AcDb2dPolyline
 66
     1
 10
0.0
 20
0.0
 30
0.0
  0
VERTEX
  5
98
330
97
100
AcDbEntity
  8
_U+30EC_U+30A4_U+30E4_U+30FC 1
 62
   179
420
  2234388
370
    25
100
AcDbVertex
100
AcDb2dVertex
 10
92.06946090939637
 20
-142.6828497635914
 30
0.0
  0
VERTEX
  5
99
330
97
100
AcDbEntity
  8
_U+30EC_U+30A4_U+30E4_U+30FC 1
 62
   179
420
  2234388
370
    25
100
AcDbVertex
100
AcDb2dVertex
 10
92.06946090939637
 20
-143.1830991598965
 30
0.0
  0
SEQEND
  5
9A
330
97
100
AcDbEntity
  8
_U+30EC_U+30A4_U+30E4_U+30FC 1
 62
   179
420
  2234388
370
    25
  0
POLYLINE
  5
9B
330
1F
100
AcDbEntity
  8
_U+30EC_U+30A4_U+30E4_U+30FC 1
 62
   179
420
  2234388
370
    25
100
AcDb2dPolyline
 66
     1
 10
0.0
 20
0.0
 30
0.0
  0
VERTEX
  5
9C
330
9B
100
AcDbEntity
  8
_U+30EC_U+30A4_U+30E4_U+30FC 1
 62
   179
420
  2234388
370
    25
100
AcDbVertex
100
AcDb2dVertex
 10
92.06946090939637
 20
-142.6828497635914
 30
0.0
  0
VERTEX
  5
9D
330
9B
100
AcDbEntity
  8
_U+30EC_U+30A4_U+30E4_U+30FC 1
 62
   179
420
  2234388
370
    25
100
AcDbVertex
100
AcDb2dVertex
 10
92.93552561661801
 20
-142.1826111332098
 30
0.0
  0
SEQEND
  5
9E
330
9B
100
AcDbEntity
  8
_U+30EC_U+30A4_U+30E4_U+30FC 1
 62
   179
420
  2234388
370
    25
  0
POLYLINE
  5
9F
330
1F
100
AcDbEntity
  8
_U+30EC_U+30A4_U+30E4_U+30FC 1
 62
   179
420
  2234388
370
    25
100
AcDb2dPolyline
 66
     1
 10
0.0
 20
0.0
 30
0.0
  0
VERTEX
  5
A0
330
9F
100
AcDbEntity
  8
_U+30EC_U+30A4_U+30E4_U+30FC 1
 62
   179
420
  2234388
370
    25
100
AcDbVertex
100
AcDb2dVertex
 10
90.06921155585184
 20
-156.6826950529246
 30
0.0
  0
VERTEX
  5
A1
330
9F
100
AcDbEntity
  8
_U+30EC_U+30A4_U+30E4_U+30FC 1
 62
   179
420
  2234388
370
    25
100
AcDbVertex
100
AcDb2dVertex
 10
90.06921155585184
 20
-157.1829444492297
 30
0.0
  0
SEQEND
  5
A2
330
9F
100
AcDbEntity
  8
_U+30EC_U+30A4_U+30E4_U+30FC 1
 62
   179
420
  2234388
370
    25
  0
POLYLINE
  5
A3
330
1F
100
AcDbEntity
  8
_U+30EC_U+30A4_U+30E4_U+30FC 1
 62
   179
420
  2234388
370
    25
100
AcDb2dPolyline
 66
     1
 10
0.0
 20
0.0
 30
0.0
  0
VERTEX
  5
A4
330
A3
100
AcDbEntity
  8
_U+30EC_U+30A4_U+30E4_U+30FC 1
 62
   179
420
  2234388
370
    25
100
AcDbVertex
100
AcDb2dVertex
 10
90.06921155585184
 20
-156.6826950529246
 30
0.0
  0
VERTEX
  5
A5
330
A3
100
AcDbEntity
  8
_U+30EC_U+30A4_U+30E4_U+30FC 1
 62
   179
420
  2234388
370
    25
100
AcDbVertex
100
AcDb2dVertex
 10
90.93527626307348
 20
-156.1828116980149
 30
0.0
  0
SEQEND
  5
A6
330
A3
100
AcDbEntity
  8
_U+30EC_U+30A4_U+30E4_U+30FC 1
 62
   179
420
  2234388
370
    25
  0
POLYLINE
  5
A7
330
1F
100
AcDbEntity
  8
_U+30EC_U+30A4_U+30E4_U+30FC 1
 62
   179
420
  2234388
370
    25
100
AcDb2dPolyline
 66
     1
 10
0.0
 20
0.0
 30
0.0
  0
VERTEX
  5
A8
330
A7
100
AcDbEntity
  8
_U+30EC_U+30A4_U+30E4_U+30FC 1
 62
   179
420
  2234388
370
    25
100
AcDbVertex
100
AcDb2dVertex
 10
114.0691462761431
 20
-142.6828497635914
 30
0.0
  0
VERTEX
  5
A9
330
A7
100
AcDbEntity
  8
_U+30EC_U+30A4_U+30E4_U+30FC 1
 62
   179
420
  2234388
370
    25
100
AcDbVertex
100
AcDb2dVertex
 10
114.0691462761431
 20
-143.1830991598965
 30
0.0
  0
SEQEND
  5
AA
330
A7
100
AcDbEntity
  8
_U+30EC_U+30A4_U+30E4_U+30FC 1
 62
   179
420
  2234388
370
    25
  0
POLYLINE
  5
AB
330
1F
100
AcDbEntity
  8
_U+30EC_U+30A4_U+30E4_U+30FC 1
 62
   179
420
  2234388
370
    25
100
AcDb2dPolyline
 66
     1
 10
0.0
 20
0.0
 30
0.0
  0
VERTEX
  5
AC
330
AB
100
AcDbEntity
  8
_U+30EC_U+30A4_U+30E4_U+30FC 1
 62
   179
420
  2234388
370
    25
100
AcDbVertex
100
AcDb2dVertex
 10
114.0691462761431
 20
-142.6828497635914
 30
0.0
  0
VERTEX
  5
AD
330
AB
100
AcDbEntity
  8
_U+30EC_U+30A4_U+30E4_U+30FC 1
 62
   179
420
  2234388
370
    25
100
AcDbVertex
100
AcDb2dVertex
 10
113.2030708029981
 20
-142.1826111332098
 30
0.0
  0
SEQEND
  5
AE
330
AB
100
AcDbEntity
  8
_U+30EC_U+30A4_U+30E4_U+30FC 1
 62
   179
420
  2234388
370
    25
  0
POLYLINE
  5
AF
330
1F
100
AcDbEntity
  8
_U+30EC_U+30A4_U+30E4_U+30FC 1
 62
   179
420
  2234388
370
    25
100
AcDb2dPolyline
 66
     1
 10
0.0
 20
0.0
 30
0.0
  0
VERTEX
  5
B0
330
AF
100
AcDbEntity
  8
_U+30EC_U+30A4_U+30E4_U+30FC 1
 62
   179
420
  2234388
370
    25
100
AcDbVertex
100
AcDb2dVertex
 10
120.0691138073308
 20
-156.6826950529246
 30
0.0
  0
VERTEX
  5
B1
330
AF
100
AcDbEntity
  8
_U+30EC_U+30A4_U+30E4_U+30FC 1
 62
   179
420
  2234388
370
    25
100
AcDbVertex
100
AcDb2dVertex
 10
120.0691138073308
 20
-157.1829444492297
 30
0.0
  0
SEQEND
  5
B2
330
AF
100
AcDbEntity
  8
_U+30EC_U+30A4_U+30E4_U+30FC 1
 62
   179
420
  2234388
370
    25
  0
POLYLINE
  5
B3
330
1F
100
AcDbEntity
  8
_U+30EC_U+30A4_U+30E4_U+30FC 1
 62
   179
420
  2234388
370
    25
100
AcDb2dPolyline
 66
     1
 10
0.0
 20
0.0
 30
0.0
  0
VERTEX
  5
B4
330
B3
100
AcDbEntity
  8
_U+30EC_U+30A4_U+30E4_U+30FC 1
 62
   179
420
  2234388
370
    25
100
AcDbVertex
100
AcDb2dVertex
 10
120.0691138073308
 20
-156.6826950529246
 30
0.0
  0
VERTEX
  5
B5
330
B3
100
AcDbEntity
  8
_U+30EC_U+30A4_U+30E4_U+30FC 1
 62
   179
420
  2234388
370
    25
100
AcDbVertex
100
AcDb2dVertex
 10
119.376606551102
 20
-156.2826548715468
 30
0.0
  0
SEQEND
  5
B6
330
B3
100
AcDbEntity
  8
_U+30EC_U+30A4_U+30E4_U+30FC 1
 62
   179
420
  2234388
370
    25
  0
POLYLINE
  5
B7
330
1F
100
AcDbEntity
  8
_U+30EC_U+30A4_U+30E4_U+30FC 1
 62
   179
420
  2234388
370
    25
100
AcDb2dPolyline
 66
     1
 10
0.0
 20
0.0
 30
0.0
  0
VERTEX
  5
B8
330
B7
100
AcDbEntity
  8
_U+30EC_U+30A4_U+30E4_U+30FC 1
 62
   179
420
  2234388
370
    25
100
AcDbVertex
100
AcDb2dVertex
 10
114.0691462761431
 20
-156.2827194670871
 30
0.0
  0
VERTEX
  5
B9
330
B7
100
AcDbEntity
  8
_U+30EC_U+30A4_U+30E4_U+30FC 1
 62
   179
420
  2234388
370
    25
100
AcDbVertex
100
AcDb2dVertex
 10
119.3766819125658
 20
-156.2827194670871
 30
0.0
  0
SEQEND
  5
BA
330
B7
100
AcDbEntity
  8
_U+30EC_U+30A4_U+30E4_U+30FC 1
 62
   179
420
  2234388
370
    25
  0
POLYLINE
  5
BB
330
1F
100
AcDbEntity
  8
_U+30EC_U+30A4_U+30E4_U+30FC 1
 62
   179
420
  2234388
370
    25
100
AcDb2dPolyline
 66
     1
 10
0.0
 20
0.0
 30
0.0
  0
VERTEX
  5
BC
330
BB
100
AcDbEntity
  8
_U+30EC_U+30A4_U+30E4_U+30FC 1
 62
   179
420
  2234388
370
    25
100
AcDbVertex
100
AcDb2dVertex
 10
114.0691462761431
 20
-156.2827194670871
 30
0.0
  0
VERTEX
  5
BD
330
BB
100
AcDbEntity
  8
_U+30EC_U+30A4_U+30E4_U+30FC 1
 62
   179
420
  2234388
370
    25
100
AcDbVertex
100
AcDb2dVertex
 10
113.8962778442473
 20
-156.1828870594786
 30
0.0
  0
SEQEND
  5
BE
330
BB
100
AcDbEntity
  8
_U+30EC_U+30A4_U+30E4_U+30FC 1
 62
   179
420
  2234388
370
    25
  0
SPLINE
  5
BF
330
1F
100
AcDbEntity
  8
_U+30EC_U+30A4_U+30E4_U+30FC 1
 62
   179
420
  2234388
370
     9
100
AcDbSpline
210
0.0
220
0.0
230
1.0
 70
    11
 71
     3
 72
    17
 73
    13
 74
     0
 42
0.0000000001
 43
0.0000000001
 12
1.0
 22
0.0
 32
0.0
 13
1.0
 23
0.0
 33
0.0
 40
0.0
 40
0.0
 40
0.0
 40
0.0
 40
1.0
 40
1.0
 40
1.0
 40
2.0
 40
2.0
 40
2.0
 40
3.0
 40
3.0
 40
3.0
 40
4.0
 40
4.0
 40
4.0
 40
4.0
 10
92.16936867846862
 20
-138.1828875726049
 30
0.0
 10
92.16936867846862
 20
-138.1278629381514
 30
0.0
 10
92.12456090531359
 20
-138.0830551649964
 30
0.0
 10
92.06953088789874
 20
-138.0830551649964
 30
0.0
 10
92.01449548752187
 20
-138.0830551649964
 30
0.0
 10
91.96969309732822
 20
-138.1278629381514
 30
0.0
 10
91.96969309732822
 20
-138.1828875726049
 30
0.0
 10
91.96969309732822
 20
-138.2379229729817
 30
0.0
 10
92.01449548752187
 20
-138.2827307461371
 30
0.0
 10
92.06953088789874
 20
-138.2827307461371
 30
0.0
 10
92.12456090531359
 20
-138.2827307461371
 30
0.0
 10
92.16936867846862
 20
-138.2379229729817
 30
0.0
 10
92.16936867846862
 20
-138.1828875726049
 30
0.0
  0
SPLINE
  5
C0
330
1F
100
AcDbEntity
  8
_U+30EC_U+30A4_U+30E4_U+30FC 1
 62
   179
420
  2234388
370
     9
100
AcDbSpline
210
0.0
220
0.0
230
1.0
 70
    11
 71
     3
 72
    17
 73
    13
 74
     0
 42
0.0000000001
 43
0.0000000001
 12
1.0
 22
0.0
 32
0.0
 13
1.0
 23
0.0
 33
0.0
 40
0.0
 40
0.0
 40
0.0
 40
0.0
 40
1.0
 40
1.0
 40
1.0
 40
2.0
 40
2.0
 40
2.0
 40
3.0
 40
3.0
 40
3.0
 40
4.0
 40
4.0
 40
4.0
 40
4.0
 10
99.16911906836094
 20
-138.1828875726049
 30
0.0
 10
99.16911906836094
 20
-138.1278629381514
 30
0.0
 10
99.12431129520623
 20
-138.0830551649964
 30
0.0
 10
99.06927589482936
 20
-138.0830551649964
 30
0.0
 10
99.0142404944525
 20
-138.0830551649964
 30
0.0
 10
98.96944348722053
 20
-138.1278629381514
 30
0.0
 10
98.96944348722053
 20
-138.1828875726049
 30
0.0
 10
98.96944348722053
 20
-138.2379229729817
 30
0.0
 10
99.0142404944525
 20
-138.2827307461371
 30
0.0
 10
99.06927589482936
 20
-138.2827307461371
 30
0.0
 10
99.12431129520623
 20
-138.2827307461371
 30
0.0
 10
99.16911906836094
 20
-138.2379229729817
 30
0.0
 10
99.16911906836094
 20
-138.1828875726049
 30
0.0
  0
SPLINE
  5
C1
330
1F
100
AcDbEntity
  8
_U+30EC_U+30A4_U+30E4_U+30FC 1
 62
   179
420
  2234388
370
     9
100
AcDbSpline
210
0.0
220
0.0
230
1.0
 70
    11
 71
     3
 72
    17
 73
    13
 74
     0
 42
0.0000000001
 43
0.0000000001
 12
1.0
 22
0.0
 32
0.0
 13
1.0
 23
0.0
 33
0.0
 40
0.0
 40
0.0
 40
0.0
 40
0.0
 40
1.0
 40
1.0
 40
1.0
 40
2.0
 40
2.0
 40
2.0
 40
3.0
 40
3.0
 40
3.0
 40
4.0
 40
4.0
 40
4.0
 40
4.0
 10
107.1692982723613
 20
-138.1828875726049
 30
0.0
 10
107.1692982723613
 20
-138.1278629381514
 30
0.0
 10
107.1244904992063
 20
-138.0830551649964
 30
0.0
 10
107.0694550988294
 20
-138.0830551649964
 30
0.0
 10
107.0144196984526
 20
-138.0830551649964
 30
0.0
 10
106.9696226912209
 20
-138.1278629381514
 30
0.0
 10
106.9696226912209
 20
-138.1828875726049
 30
0.0
 10
106.9696226912209
 20
-138.2379229729817
 30
0.0
 10
107.0144196984526
 20
-138.2827307461371
 30
0.0
 10
107.0694550988294
 20
-138.2827307461371
 30
0.0
 10
107.1244904992063
 20
-138.2827307461371
 30
0.0
 10
107.1692982723613
 20
-138.2379229729817
 30
0.0
 10
107.1692982723613
 20
-138.1828875726049
 30
0.0
  0
SPLINE
  5
C2
330
1F
100
AcDbEntity
  8
_U+30EC_U+30A4_U+30E4_U+30FC 1
 62
   179
420
  2234388
370
     9
100
AcDbSpline
210
0.0
220
0.0
230
1.0
 70
    11
 71
     3
 72
    17
 73
    13
 74
     0
 42
0.0000000001
 43
0.0000000001
 12
1.0
 22
0.0
 32
0.0
 13
1.0
 23
0.0
 33
0.0
 40
0.0
 40
0.0
 40
0.0
 40
0.0
 40
1.0
 40
1.0
 40
1.0
 40
2.0
 40
2.0
 40
2.0
 40
3.0
 40
3.0
 40
3.0
 40
4.0
 40
4.0
 40
4.0
 40
4.0
 10
114.1690540452153
 20
-138.1828875726049
 30
0.0
 10
114.1690540452153
 20
-138.1278629381514
 30
0.0
 10
114.1242462720603
 20
-138.0830551649964
 30
0.0
 10
114.0692108716834
 20
-138.0830551649964
 30
0.0
 10
114.0141754713066
 20
-138.0830551649964
 30
0.0
 10
113.9693784640749
 20
-138.1278629381514
 30
0.0
 10
113.9693784640749
 20
-138.1828875726049
 30
0.0
 10
113.9693784640749
 20
-138.2379229729817
 30
0.0
 10
114.0141754713066
 20
-138.2827307461371
 30
0.0
 10
114.0692108716834
 20
-138.2827307461371
 30
0.0
 10
114.1242462720603
 20
-138.2827307461371
 30
0.0
 10
114.1690540452153
 20
-138.2379229729817
 30
0.0
 10
114.1690540452153
 20
-138.1828875726049
 30
0.0
  0
SPLINE
  5
C3
330
1F
100
AcDbEntity
  8
_U+30EC_U+30A4_U+30E4_U+30FC 1
 62
   179
420
  2234388
370
     9
100
AcDbSpline
210
0.0
220
0.0
230
1.0
 70
    11
 71
     3
 72
    17
 73
    13
 74
     0
 42
0.0000000001
 43
0.0000000001
 12
1.0
 22
0.0
 32
0.0
 13
1.0
 23
0.0
 33
0.0
 40
0.0
 40
0.0
 40
0.0
 40
0.0
 40
1.0
 40
1.0
 40
1.0
 40
2.0
 40
2.0
 40
2.0
 40
3.0
 40
3.0
 40
3.0
 40
4.0
 40
4.0
 40
4.0
 40
4.0
 10
118.1694773908407
 20
-143.1830883939731
 30
0.0
 10
118.1694773908407
 20
-143.1277084840477
 30
0.0
 10
118.1246696176856
 20
-143.0829007108927
 30
0.0
 10
118.0696342173088
 20
-143.0829007108927
 30
0.0
 10
118.0138990319115
 20
-143.0829007108927
 30
0.0
 10
117.9698018097003
 20
-143.1277084840477
 30
0.0
 10
117.9698018097003
 20
-143.1830883939731
 30
0.0
 10
117.9698018097003
 20
-143.23812379435
 30
0.0
 10
118.0138990319115
 20
-143.282931567505
 30
0.0
 10
118.0696342173088
 20
-143.282931567505
 30
0.0
 10
118.1246696176856
 20
-143.282931567505
 30
0.0
 10
118.1694773908407
 20
-143.23812379435
 30
0.0
 10
118.1694773908407
 20
-143.1830883939731
 30
0.0
  0
SPLINE
  5
C4
330
1F
100
AcDbEntity
  8
_U+30EC_U+30A4_U+30E4_U+30FC 1
 62
   179
420
  2234388
370
     9
100
AcDbSpline
210
0.0
220
0.0
230
1.0
 70
    11
 71
     3
 72
    17
 73
    13
 74
     0
 42
0.0000000001
 43
0.0000000001
 12
1.0
 22
0.0
 32
0.0
 13
1.0
 23
0.0
 33
0.0
 40
0.0
 40
0.0
 40
0.0
 40
0.0
 40
1.0
 40
1.0
 40
1.0
 40
2.0
 40
2.0
 40
2.0
 40
3.0
 40
3.0
 40
3.0
 40
4.0
 40
4.0
 40
4.0
 40
4.0
 10
118.1694773908407
 20
-156.1827686343213
 30
0.0
 10
118.1694773908407
 20
-156.1277439998678
 30
0.0
 10
118.1246696176856
 20
-156.0829362267128
 30
0.0
 10
118.0696342173088
 20
-156.0829362267128
 30
0.0
 10
118.0138990319115
 20
-156.0829362267128
 30
0.0
 10
117.9698018097003
 20
-156.1277439998678
 30
0.0
 10
117.9698018097003
 20
-156.1827686343213
 30
0.0
 10
117.9698018097003
 20
-156.2381593101701
 30
0.0
 10
118.0138990319115
 20
-156.2826118078532
 30
0.0
 10
118.0696342173088
 20
-156.2826118078532
 30
0.0
 10
118.1246696176856
 20
-156.2826118078532
 30
0.0
 10
118.1694773908407
 20
-156.2381593101701
 30
0.0
 10
118.1694773908407
 20
-156.1827686343213
 30
0.0
  0
SPLINE
  5
C5
330
1F
100
AcDbEntity
  8
_U+30EC_U+30A4_U+30E4_U+30FC 1
 62
   179
420
  2234388
370
     9
100
AcDbSpline
210
0.0
220
0.0
230
1.0
 70
    11
 71
     3
 72
    17
 73
    13
 74
     0
 42
0.0000000001
 43
0.0000000001
 12
1.0
 22
0.0
 32
0.0
 13
1.0
 23
0.0
 33
0.0
 40
0.0
 40
0.0
 40
0.0
 40
0.0
 40
1.0
 40
1.0
 40
1.0
 40
2.0
 40
2.0
 40
2.0
 40
3.0
 40
3.0
 40
3.0
 40
4.0
 40
4.0
 40
4.0
 40
4.0
 10
90.16915162269426
 20
-161.1913022803945
 30
0.0
 10
90.16915162269426
 20
-161.136277645941
 30
0.0
 10
90.12434384953956
 20
-161.091469872786
 30
0.0
 10
90.06931383212407
 20
-161.091469872786
 30
0.0
 10
90.0142784317472
 20
-161.091469872786
 30
0.0
 10
89.96947604155386
 20
-161.136277645941
 30
0.0
 10
89.96947604155386
 20
-161.1913022803945
 30
0.0
 10
89.96947604155386
 20
-161.2466929562432
 30
0.0
 10
90.0142784317472
 20
-161.2915007293983
 30
0.0
 10
90.06931383212407
 20
-161.2915007293983
 30
0.0
 10
90.12434384953956
 20
-161.2915007293983
 30
0.0
 10
90.16915162269426
 20
-161.2466929562432
 30
0.0
 10
90.16915162269426
 20
-161.1913022803945
 30
0.0
  0
SPLINE
  5
C6
330
1F
100
AcDbEntity
  8
_U+30EC_U+30A4_U+30E4_U+30FC 1
 62
   179
420
  2234388
370
     9
100
AcDbSpline
210
0.0
220
0.0
230
1.0
 70
    11
 71
     3
 72
    17
 73
    13
 74
     0
 42
0.0000000001
 43
0.0000000001
 12
1.0
 22
0.0
 32
0.0
 13
1.0
 23
0.0
 33
0.0
 40
0.0
 40
0.0
 40
0.0
 40
0.0
 40
1.0
 40
1.0
 40
1.0
 40
2.0
 40
2.0
 40
2.0
 40
3.0
 40
3.0
 40
3.0
 40
4.0
 40
4.0
 40
4.0
 40
4.0
 10
120.1690215764031
 20
-161.1913022803945
 30
0.0
 10
120.1690215764031
 20
-161.136277645941
 30
0.0
 10
120.124213803248
 20
-161.091469872786
 30
0.0
 10
120.0691784028712
 20
-161.091469872786
 30
0.0
 10
120.0141430024943
 20
-161.091469872786
 30
0.0
 10
119.9693459952627
 20
-161.136277645941
 30
0.0
 10
119.9693459952627
 20
-161.1913022803945
 30
0.0
 10
119.9693459952627
 20
-161.2466929562432
 30
0.0
 10
120.0141430024943
 20
-161.2915007293983
 30
0.0
 10
120.0691784028712
 20
-161.2915007293983
 30
0.0
 10
120.124213803248
 20
-161.2915007293983
 30
0.0
 10
120.1690215764031
 20
-161.2466929562432
 30
0.0
 10
120.1690215764031
 20
-161.1913022803945
 30
0.0
  0
POLYLINE
  5
C7
330
1F
100
AcDbEntity
  8
_U+30EC_U+30A4_U+30E4_U+30FC 1
 62
   179
420
  2234388
370
     9
100
AcDb2dPolyline
 66
     1
 10
0.0
 20
0.0
 30
0.0
  0
VERTEX
  5
C8
330
C7
100
AcDbEntity
  8
_U+30EC_U+30A4_U+30E4_U+30FC 1
 62
   179
420
  2234388
370
     9
100
AcDbVertex
100
AcDb2dVertex
 10
92.06946090939637
 20
-138.1828875726049
 30
0.0
  0
VERTEX
  5
C9
330
C7
100
AcDbEntity
  8
_U+30EC_U+30A4_U+30E4_U+30FC 1
 62
   179
420
  2234388
370
     9
100
AcDbVertex
100
AcDb2dVertex
 10
99.06927589482936
 20
-138.1828875726049
 30
0.0
  0
SEQEND
  5
CA
330
C7
100
AcDbEntity
  8
_U+30EC_U+30A4_U+30E4_U+30FC 1
 62
   179
420
  2234388
370
     9
  0
POLYLINE
  5
CB
330
1F
100
AcDbEntity
  8
_U+30EC_U+30A4_U+30E4_U+30FC 1
 62
   179
420
  2234388
370
     9
100
AcDb2dPolyline
 66
     1
 10
0.0
 20
0.0
 30
0.0
  0
VERTEX
  5
CC
330
CB
100
AcDbEntity
  8
_U+30EC_U+30A4_U+30E4_U+30FC 1
 62
   179
420
  2234388
370
     9
100
AcDbVertex
100
AcDb2dVertex
 10
92.06946090939637
 20
-140.1431361377886
 30
0.0
  0
VERTEX
  5
CD
330
CB
100
AcDbEntity
  8
_U+30EC_U+30A4_U+30E4_U+30FC 1
 62
   179
420
  2234388
370
     9
100
AcDbVertex
100
AcDb2dVertex
 10
92.06946090939637
 20
-137.1826256303097
 30
0.0
  0
SEQEND
  5
CE
330
CB
100
AcDbEntity
  8
_U+30EC_U+30A4_U+30E4_U+30FC 1
 62
   179
420
  2234388
370
     9
  0
POLYLINE
  5
CF
330
1F
100
AcDbEntity
  8
_U+30EC_U+30A4_U+30E4_U+30FC 1
 62
   179
420
  2234388
370
     9
100
AcDb2dPolyline
 66
     1
 10
0.0
 20
0.0
 30
0.0
  0
VERTEX
  5
D0
330
CF
100
AcDbEntity
  8
_U+30EC_U+30A4_U+30E4_U+30FC 1
 62
   179
420
  2234388
370
     9
100
AcDbVertex
100
AcDb2dVertex
 10
99.0692112992887
 20
-139.642897507407
 30
0.0
  0
VERTEX
  5
D1
330
CF
100
AcDbEntity
  8
_U+30EC_U+30A4_U+30E4_U+30FC 1
 62
   179
420
  2234388
370
     9
100
AcDbVertex
100
AcDb2dVertex
 10
99.0692112992887
 20
-137.1826256303097
 30
0.0
  0
SEQEND
  5
D2
330
CF
100
AcDbEntity
  8
_U+30EC_U+30A4_U+30E4_U+30FC 1
 62
   179
420
  2234388
370
     9
  0
INSERT
  5
D4
330
1F
100
AcDbEntity
  8
_U+30EC_U+30A4_U+30E4_U+30FC 1
100
AcDbBlockReference
  2
block 2
 10
0.0
 20
0.0
 30
0.0
  0
POLYLINE
  5
D9
330
1F
100
AcDbEntity
  8
_U+30EC_U+30A4_U+30E4_U+30FC 1
 62
   179
420
  2234388
370
     9
100
AcDb2dPolyline
 66
     1
 10
0.0
 20
0.0
 30
0.0
  0
VERTEX
  5
DA
330
D9
100
AcDbEntity
  8
_U+30EC_U+30A4_U+30E4_U+30FC 1
 62
   179
420
  2234388
370
     9
100
AcDbVertex
100
AcDb2dVertex
 10
99.0692112992887
 20
-138.1828875726049
 30
0.0
  0
VERTEX
  5
DB
330
D9
100
AcDbEntity
  8
_U+30EC_U+30A4_U+30E4_U+30FC 1
 62
   179
420
  2234388
370
     9
100
AcDbVertex
100
AcDb2dVertex
 10
107.069498162523
 20
-138.1828875726049
 30
0.0
  0
SEQEND
  5
DC
330
D9
100
AcDbEntity
  8
_U+30EC_U+30A4_U+30E4_U+30FC 1
 62
   179
420
  2234388
370
     9
  0
POLYLINE
  5
DD
330
1F
100
AcDbEntity
  8
_U+30EC_U+30A4_U+30E4_U+30FC 1
 62
   179
420
  2234388
370
     9
100
AcDb2dPolyline
 66
     1
 10
0.0
 20
0.0
 30
0.0
  0
VERTEX
  5
DE
330
DD
100
AcDbEntity
  8
_U+30EC_U+30A4_U+30E4_U+30FC 1
 62
   179
420
  2234388
370
     9
100
AcDbVertex
100
AcDb2dVertex
 10
107.0694012692125
 20
-139.642897507407
 30
0.0
  0
VERTEX
  5
DF
330
DD
100
AcDbEntity
  8
_U+30EC_U+30A4_U+30E4_U+30FC 1
 62
   179
420
  2234388
370
     9
100
AcDbVertex
100
AcDb2dVertex
 10
107.0694012692125
 20
-137.1826256303097
 30
0.0
  0
SEQEND
  5
E0
330
DD
100
AcDbEntity
  8
_U+30EC_U+30A4_U+30E4_U+30FC 1
 62
   179
420
  2234388
370
     9
  0
INSERT
  5
E2
330
1F
100
AcDbEntity
  8
_U+30EC_U+30A4_U+30E4_U+30FC 1
100
AcDbBlockReference
  2
block 3
 10
0.0
 20
0.0
 30
0.0
  0
POLYLINE
  5
E9
330
1F
100
AcDbEntity
  8
_U+30EC_U+30A4_U+30E4_U+30FC 1
 62
   179
420
  2234388
370
     9
100
AcDb2dPolyline
 66
     1
 10
0.0
 20
0.0
 30
0.0
  0
VERTEX
  5
EA
330
E9
100
AcDbEntity
  8
_U+30EC_U+30A4_U+30E4_U+30FC 1
 62
   179
420
  2234388
370
     9
100
AcDbVertex
100
AcDb2dVertex
 10
107.0694012692125
 20
-138.1828875726049
 30
0.0
  0
VERTEX
  5
EB
330
E9
100
AcDbEntity
  8
_U+30EC_U+30A4_U+30E4_U+30FC 1
 62
   179
420
  2234388
370
     9
100
AcDbVertex
100
AcDb2dVertex
 10
114.0692108716834
 20
-138.1828875726049
 30
0.0
  0
SEQEND
  5
EC
330
E9
100
AcDbEntity
  8
_U+30EC_U+30A4_U+30E4_U+30FC 1
 62
   179
420
  2234388
370
     9
  0
POLYLINE
  5
ED
330
1F
100
AcDbEntity
  8
_U+30EC_U+30A4_U+30E4_U+30FC 1
 62
   179
420
  2234388
370
     9
100
AcDb2dPolyline
 66
     1
 10
0.0
 20
0.0
 30
0.0
  0
VERTEX
  5
EE
330
ED
100
AcDbEntity
  8
_U+30EC_U+30A4_U+30E4_U+30FC 1
 62
   179
420
  2234388
370
     9
100
AcDbVertex
100
AcDb2dVertex
 10
107.0694012692125
 20
-139.642897507407
 30
0.0
  0
VERTEX
  5
EF
330
ED
100
AcDbEntity
  8
_U+30EC_U+30A4_U+30E4_U+30FC 1
 62
   179
420
  2234388
370
     9
100
AcDbVertex
100
AcDb2dVertex
 10
107.0694012692125
 20
-137.1826256303097
 30
0.0
  0
SEQEND
  5
F0
330
ED
100
AcDbEntity
  8
_U+30EC_U+30A4_U+30E4_U+30FC 1
 62
   179
420
  2234388
370
     9
  0
POLYLINE
  5
F1
330
1F
100
AcDbEntity
  8
_U+30EC_U+30A4_U+30E4_U+30FC 1
 62
   179
420
  2234388
370
     9
100
AcDb2dPolyline
 66
     1
 10
0.0
 20
0.0
 30
0.0
  0
VERTEX
  5
F2
330
F1
100
AcDbEntity
  8
_U+30EC_U+30A4_U+30E4_U+30FC 1
 62
   179
420
  2234388
370
     9
100
AcDbVertex
100
AcDb2dVertex
 10
114.0691462761431
 20
-140.1431361377886
 30
0.0
  0
VERTEX
  5
F3
330
F1
100
AcDbEntity
  8
_U+30EC_U+30A4_U+30E4_U+30FC 1
 62
   179
420
  2234388
370
     9
100
AcDbVertex
100
AcDb2dVertex
 10
114.0691462761431
 20
-137.1826256303097
 30
0.0
  0
SEQEND
  5
F4
330
F1
100
AcDbEntity
  8
_U+30EC_U+30A4_U+30E4_U+30FC 1
 62
   179
420
  2234388
370
     9
  0
INSERT
  5
F6
330
1F
100
AcDbEntity
  8
_U+30EC_U+30A4_U+30E4_U+30FC 1
100
AcDbBlockReference
  2
block 4
 10
0.0
 20
0.0
 30
0.0
  0
INSERT
  5
FC
330
1F
100
AcDbEntity
  8
_U+30EC_U+30A4_U+30E4_U+30FC 1
100
AcDbBlockReference
  2
block 5
 10
0.0
 20
0.0
 30
0.0
  0
POLYLINE
  5
104
330
1F
100
AcDbEntity
  8
_U+30EC_U+30A4_U+30E4_U+30FC 1
 62
   179
420
  2234388
370
     9
100
AcDb2dPolyline
 66
     1
 10
0.0
 20
0.0
 30
0.0
  0
VERTEX
  5
105
330
104
100
AcDbEntity
  8
_U+30EC_U+30A4_U+30E4_U+30FC 1
 62
   179
420
  2234388
370
     9
100
AcDbVertex
100
AcDb2dVertex
 10
118.0695696217684
 20
-143.1830883939731
 30
0.0
  0
VERTEX
  5
106
330
104
100
AcDbEntity
  8
_U+30EC_U+30A4_U+30E4_U+30FC 1
 62
   179
420
  2234388
370
     9
100
AcDbVertex
100
AcDb2dVertex
 10
118.0695696217684
 20
-156.1829516550189
 30
0.0
  0
SEQEND
  5
107
330
104
100
AcDbEntity
  8
_U+30EC_U+30A4_U+30E4_U+30FC 1
 62
   179
420
  2234388
370
     9
  0
POLYLINE
  5
108
330
1F
100
AcDbEntity
  8
_U+30EC_U+30A4_U+30E4_U+30FC 1
 62
   179
420
  2234388
370
     9
100
AcDb2dPolyline
 66
     1
 10
0.0
 20
0.0
 30
0.0
  0
VERTEX
  5
109
330
108
100
AcDbEntity
  8
_U+30EC_U+30A4_U+30E4_U+30FC 1
 62
   179
420
  2234388
370
     9
100
AcDbVertex
100
AcDb2dVertex
 10
116.6095704528897
 20
-143.1830883939731
 30
0.0
  0
VERTEX
  5
10A
330
108
100
AcDbEntity
  8
_U+30EC_U+30A4_U+30E4_U+30FC 1
 62
   179
420
  2234388
370
     9
100
AcDbVertex
100
AcDb2dVertex
 10
119.0694870545154
 20
-143.1830883939731
 30
0.0
  0
SEQEND
  5
10B
330
108
100
AcDbEntity
  8
_U+30EC_U+30A4_U+30E4_U+30FC 1
 62
   179
420
  2234388
370
     9
  0
POLYLINE
  5
10C
330
1F
100
AcDbEntity
  8
_U+30EC_U+30A4_U+30E4_U+30FC 1
 62
   179
420
  2234388
370
     9
100
AcDb2dPolyline
 66
     1
 10
0.0
 20
0.0
 30
0.0
  0
VERTEX
  5
10D
330
10C
100
AcDbEntity
  8
_U+30EC_U+30A4_U+30E4_U+30FC 1
 62
   179
420
  2234388
370
     9
100
AcDbVertex
100
AcDb2dVertex
 10
116.6095704528897
 20
-156.1827686343213
 30
0.0
  0
VERTEX
  5
10E
330
10C
100
AcDbEntity
  8
_U+30EC_U+30A4_U+30E4_U+30FC 1
 62
   179
420
  2234388
370
     9
100
AcDbVertex
100
AcDb2dVertex
 10
119.0694870545154
 20
-156.1827686343213
 30
0.0
  0
SEQEND
  5
10F
330
10C
100
AcDbEntity
  8
_U+30EC_U+30A4_U+30E4_U+30FC 1
 62
   179
420
  2234388
370
     9
  0
INSERT
  5
111
330
1F
100
AcDbEntity
  8
_U+30EC_U+30A4_U+30E4_U+30FC 1
100
AcDbBlockReference
  2
block 6
 10
0.0
 20
0.0
 30
0.0
  0
SPLINE
  5
118
330
1F
100
AcDbEntity
  8
_U+30EC_U+30A4_U+30E4_U+30FC 1
 62
   179
420
  2234388
370
     9
100
AcDbSpline
210
0.0
220
0.0
230
1.0
 70
    11
 71
     3
 72
    17
 73
    13
 74
     0
 42
0.0000000001
 43
0.0000000001
 12
1.0
 22
0.0
 32
0.0
 13
1.0
 23
0.0
 33
0.0
 40
0.0
 40
0.0
 40
0.0
 40
0.0
 40
1.0
 40
1.0
 40
1.0
 40
2.0
 40
2.0
 40
2.0
 40
3.0
 40
3.0
 40
3.0
 40
4.0
 40
4.0
 40
4.0
 40
4.0
 10
98.18105491726789
 20
-152.9123825538672
 30
0.0
 10
98.18105491726789
 20
-152.8573579194137
 30
0.0
 10
98.13624714411286
 20
-152.8125501462587
 30
0.0
 10
98.0812171266977
 20
-152.8125501462587
 30
0.0
 10
98.02618172632083
 20
-152.8125501462587
 30
0.0
 10
97.98137933612749
 20
-152.8573579194137
 30
0.0
 10
97.98137933612749
 20
-152.9123825538672
 30
0.0
 10
97.98137933612749
 20
-152.967417954244
 30
0.0
 10
98.02618172632083
 20
-153.0122257273991
 30
0.0
 10
98.0812171266977
 20
-153.0122257273991
 30
0.0
 10
98.13624714411286
 20
-153.0122257273991
 30
0.0
 10
98.18105491726789
 20
-152.967417954244
 30
0.0
 10
98.18105491726789
 20
-152.9123825538672
 30
0.0
  0
SPLINE
  5
119
330
1F
100
AcDbEntity
  8
_U+30EC_U+30A4_U+30E4_U+30FC 1
 62
   179
420
  2234388
370
     9
100
AcDbSpline
210
0.0
220
0.0
230
1.0
 70
    11
 71
     3
 72
    17
 73
    13
 74
     0
 42
0.0000000001
 43
0.0000000001
 12
1.0
 22
0.0
 32
0.0
 13
1.0
 23
0.0
 33
0.0
 40
0.0
 40
0.0
 40
0.0
 40
0.0
 40
1.0
 40
1.0
 40
1.0
 40
2.0
 40
2.0
 40
2.0
 40
3.0
 40
3.0
 40
3.0
 40
4.0
 40
4.0
 40
4.0
 40
4.0
 10
99.18149988026137
 20
-152.9123825538672
 30
0.0
 10
99.18149988026137
 20
-152.8573579194137
 30
0.0
 10
99.13669210710603
 20
-152.8125501462587
 30
0.0
 10
99.08165670672916
 20
-152.8125501462587
 30
0.0
 10
99.0266213063523
 20
-152.8125501462587
 30
0.0
 10
98.98182429912065
 20
-152.8573579194137
 30
0.0
 10
98.98182429912065
 20
-152.9123825538672
 30
0.0
 10
98.98182429912065
 20
-152.967417954244
 30
0.0
 10
99.0266213063523
 20
-153.0122257273991
 30
0.0
 10
99.08165670672916
 20
-153.0122257273991
 30
0.0
 10
99.13669210710603
 20
-153.0122257273991
 30
0.0
 10
99.18149988026137
 20
-152.967417954244
 30
0.0
 10
99.18149988026137
 20
-152.9123825538672
 30
0.0
  0
POLYLINE
  5
11A
330
1F
100
AcDbEntity
  8
_U+30EC_U+30A4_U+30E4_U+30FC 1
 62
   179
420
  2234388
370
     9
100
AcDb2dPolyline
 66
     1
 10
0.0
 20
0.0
 30
0.0
  0
VERTEX
  5
11B
330
11A
100
AcDbEntity
  8
_U+30EC_U+30A4_U+30E4_U+30FC 1
 62
   179
420
  2234388
370
     9
100
AcDbVertex
100
AcDb2dVertex
 10
99.08159211118912
 20
-152.9123825538672
 30
0.0
  0
VERTEX
  5
11C
330
11A
100
AcDbEntity
  8
_U+30EC_U+30A4_U+30E4_U+30FC 1
 62
   179
420
  2234388
370
     9
100
AcDbVertex
100
AcDb2dVertex
 10
102.8520768650208
 20
-152.9123825538672
 30
0.0
  0
SEQEND
  5
11D
330
11A
100
AcDbEntity
  8
_U+30EC_U+30A4_U+30E4_U+30FC 1
 62
   179
420
  2234388
370
     9
  0
POLYLINE
  5
11E
330
1F
100
AcDbEntity
  8
_U+30EC_U+30A4_U+30E4_U+30FC 1
 62
   179
420
  2234388
370
     9
100
AcDb2dPolyline
 66
     1
 10
0.0
 20
0.0
 30
0.0
  0
VERTEX
  5
11F
330
11E
100
AcDbEntity
  8
_U+30EC_U+30A4_U+30E4_U+30FC 1
 62
   179
420
  2234388
370
     9
100
AcDbVertex
100
AcDb2dVertex
 10
97.08137505541445
 20
-152.9123825538672
 30
0.0
  0
VERTEX
  5
120
330
11E
100
AcDbEntity
  8
_U+30EC_U+30A4_U+30E4_U+30FC 1
 62
   179
420
  2234388
370
     9
100
AcDbVertex
100
AcDb2dVertex
 10
99.08162440895899
 20
-152.9123825538672
 30
0.0
  0
SEQEND
  5
121
330
11E
100
AcDbEntity
  8
_U+30EC_U+30A4_U+30E4_U+30FC 1
 62
   179
420
  2234388
370
     9
  0
INSERT
  5
123
330
1F
100
AcDbEntity
  8
_U+30EC_U+30A4_U+30E4_U+30FC 1
100
AcDbBlockReference
  2
block 7
 10
0.0
 20
0.0
 30
0.0
  0
ENDSEC
  0
SECTION
  2
OBJECTS
  0
DICTIONARY
  5
C
330
0
100
AcDbDictionary
281
     1
  3
ACAD_GROUP
350
D
  3
ACAD_LAYOUT
350
1A
  3
ACAD_MATERIAL
350
3B
  3
ACAD_MLEADERSTYLE
350
129
  3
ACAD_MLINESTYLE
350
17
  3
ACAD_PLOTSETTINGS
350
19
  3
ACAD_PLOTSTYLENAME
350
E
  3
ACAD_TABLESTYLE
350
128
  3
ACAD_VISUALSTYLE
350
2A
  0
SUN
  5
3F
330
29
100
AcDbSun
 90
        1
290
     0
 63
     7
421
 16777215
 40
1.0
291
     1
 91
  2455826
 92
 54000000
292
     0
 70
     2
 71
   256
280
     1
  0
DICTIONARY
  5
D
102
{ACAD_REACTORS
330
C
102
}
330
C
100
AcDbDictionary
281
     1
  0
DICTIONARY
  5
1A
102
{ACAD_REACTORS
330
C
102
}
330
C
100
AcDbDictionary
281
     1
  3
Layout1
350
1E
  3
Layout2
350
26
  3
Model
350
22
  0
DICTIONARY
  5
3B
102
{ACAD_REACTORS
330
C
102
}
330
C
100
AcDbDictionary
281
     1
  3
ByBlock
350
3D
  3
ByLayer
350
3C
  3
Global
350
3E
  0
DICTIONARY
  5
129
102
{ACAD_REACTORS
330
C
102
}
330
C
100
AcDbDictionary
281
     1
  0
DICTIONARY
  5
17
102
{ACAD_REACTORS
330
C
102
}
330
C
100
AcDbDictionary
281
     1
  3
Standard
350
18
  0
DICTIONARY
  5
19
102
{ACAD_REACTORS
330
C
102
}
330
C
100
AcDbDictionary
281
     1
  0
ACDBDICTIONARYWDFLT
  5
E
102
{ACAD_REACTORS
330
C
102
}
330
C
100
AcDbDictionary
281
     1
  3
Normal
350
F
100
AcDbDictionaryWithDefault
340
F
  0
DICTIONARY
  5
128
102
{ACAD_REACTORS
330
C
102
}
330
C
100
AcDbDictionary
281
     1
  0
DICTIONARY
  5
2A
102
{ACAD_REACTORS
330
C
102
}
330
C
100
AcDbDictionary
281
     1
  3
2dWireframe
350
2F
  3
3D Hidden
350
31
  3
3dWireframe
350
30
  3
Basic
350
32
  3
Brighten
350
36
  3
ColorChange
350
3A
  3
Conceptual
350
34
  3
Dim
350
35
  3
Facepattern
350
39
  3
Flat
350
2B
  3
FlatWithEdges
350
2C
  3
Gouraud
350
2D
  3
GouraudWithEdges
350
2E
  3
Linepattern
350
38
  3
Realistic
350
33
  3
Thicken
350
37
  0
LAYOUT
  5
1E
102
{ACAD_REACTORS
330
1A
102
}
330
1A
100
AcDbPlotSettings
  1

  2
none_device
  4

  6

 40
0.0
 41
0.0
 42
0.0
 43
0.0
 44
0.0
 45
0.0
 46
0.0
 47
0.0
 48
0.0
 49
0.0
140
0.0
141
0.0
142
1.0
143
1.0
 70
   688
 72
     0
 73
     0
 74
     5
  7

 75
    16
 76
     0
 77
     2
 78
   300
147
1.0
148
0.0
149
0.0
100
AcDbLayout
  1
Layout1
 70
     1
 71
     1
 10
0.0
 20
0.0
 11
12.0
 21
9.0
 12
0.0
 22
0.0
 32
0.0
 14
1.000000000000000E+20
 24
1.000000000000000E+20
 34
1.000000000000000E+20
 15
-1.000000000000000E+20
 25
-1.000000000000000E+20
 35
-1.000000000000000E+20
146
0.0
 13
0.0
 23
0.0
 33
0.0
 16
1.0
 26
0.0
 36
0.0
 17
0.0
 27
1.0
 37
0.0
 76
     0
330
1B
  0
LAYOUT
  5
26
102
{ACAD_REACTORS
330
1A
102
}
330
1A
100
AcDbPlotSettings
  1

  2
none_device
  4

  6

 40
0.0
 41
0.0
 42
0.0
 43
0.0
 44
0.0
 45
0.0
 46
0.0
 47
0.0
 48
0.0
 49
0.0
140
0.0
141
0.0
142
1.0
143
1.0
 70
   688
 72
     0
 73
     0
 74
     5
  7

 75
    16
 76
     0
 77
     2
 78
   300
147
1.0
148
0.0
149
0.0
100
AcDbLayout
  1
Layout2
 70
     1
 71
     2
 10
0.0
 20
0.0
 11
0.0
 21
0.0
 12
0.0
 22
0.0
 32
0.0
 14
0.0
 24
0.0
 34
0.0
 15
0.0
 25
0.0
 35
0.0
146
0.0
 13
0.0
 23
0.0
 33
0.0
 16
1.0
 26
0.0
 36
0.0
 17
0.0
 27
1.0
 37
0.0
 76
     0
330
23
  0
LAYOUT
  5
22
102
{ACAD_REACTORS
330
1A
102
}
330
1A
100
AcDbPlotSettings
  1

  2
none_device
  4

  6

 40
0.0
 41
0.0
 42
0.0
 43
0.0
 44
0.0
 45
0.0
 46
0.0
 47
0.0
 48
0.0
 49
0.0
140
0.0
141
0.0
142
1.0
143
1.0
 70
  1712
 72
     0
 73
     0
 74
     0
  7

 75
     0
 76
     0
 77
     2
 78
   300
147
1.0
148
0.0
149
0.0
100
AcDbLayout
  1
Model
 70
     1
 71
     0
 10
0.0
 20
0.0
 11
12.0
 21
9.0
 12
0.0
 22
0.0
 32
0.0
 14
1.000000000000000E+20
 24
1.000000000000000E+20
 34
1.000000000000000E+20
 15
-1.000000000000000E+20
 25
-1.000000000000000E+20
 35
-1.000000000000000E+20
146
0.0
 13
0.0
 23
0.0
 33
0.0
 16
1.0
 26
0.0
 36
0.0
 17
0.0
 27
1.0
 37
0.0
 76
     0
330
1F
331
29
  0
MATERIAL
  5
3D
102
{ACAD_REACTORS
330
3B
102
}
330
3B
100
AcDbMaterial
  1
ByBlock
 72
     1
 94
      127
  0
MATERIAL
  5
3C
102
{ACAD_REACTORS
330
3B
102
}
330
3B
100
AcDbMaterial
  1
ByLayer
 72
     1
 94
      127
  0
MATERIAL
  5
3E
102
{ACAD_REACTORS
330
3B
102
}
330
3B
100
AcDbMaterial
  1
Global
 72
     1
 94
      127
  0
MLINESTYLE
  5
18
102
{ACAD_REACTORS
330
17
102
}
330
17
100
AcDbMlineStyle
  2
Standard
 70
     0
  3

 62
   256
 51
90.0
 52
90.0
 71
     2
 49
0.5
 62
   256
  6
BYLAYER
 49
-0.5
 62
   256
  6
BYLAYER
  0
ACDBPLACEHOLDER
  5
F
102
{ACAD_REACTORS
330
E
102
}
330
E
  0
VISUALSTYLE
  5
2F
102
{ACAD_REACTORS
330
2A
102
}
330
2A
100
AcDbVisualStyle
  2
2dWireframe
 70
     4
177
     2
291
     0
 71
     0
176
     1
 72
     2
176
     1
 73
     0
176
     1
 90
        0
176
     1
 40
-0.6
176
     1
 41
-30.0
176
     1
 62
     5
 63
     7
421
 16777215
176
     1
 74
     1
176
     1
 91
        4
176
     1
 64
     7
176
     1
 65
   257
176
     1
 75
     1
176
     1
175
     1
176
     1
 42
1.0
176
     1
 92
        0
176
     1
 66
   257
176
     1
 43
1.0
176
     1
 76
     1
176
     1
 77
     6
176
     1
 78
     2
176
     1
 67
     7
176
     1
 79
     5
176
     1
170
     0
176
     1
171
     0
176
     1
290
     0
176
     1
 93
        1
176
     1
 44
0.0
176
     1
173
     0
176
     1
  0
VISUALSTYLE
  5
31
102
{ACAD_REACTORS
330
2A
102
}
330
2A
100
AcDbVisualStyle
  2
3D Hidden
 70
     6
177
     2
291
     0
 71
     1
176
     1
 72
     2
176
     1
 73
     2
176
     1
 90
        0
176
     1
 40
-0.6
176
     1
 41
-30.0
176
     1
 62
     5
 63
     7
421
 16777215
176
     1
 74
     2
176
     1
 91
        2
176
     1
 64
     7
176
     1
 65
   257
176
     1
 75
     2
176
     1
175
     1
176
     1
 42
40.0
176
     1
 92
        0
176
     1
 66
   257
176
     1
 43
1.0
176
     1
 76
     1
176
     1
 77
     6
176
     1
 78
     2
176
     1
 67
     7
176
     1
 79
     3
176
     1
170
     0
176
     1
171
     0
176
     1
290
     0
176
     1
 93
        1
176
     1
 44
0.0
176
     1
173
     0
176
     1
  0
VISUALSTYLE
  5
30
102
{ACAD_REACTORS
330
2A
102
}
330
2A
100
AcDbVisualStyle
  2
3dWireframe
 70
     5
177
     2
291
     0
 71
     0
176
     1
 72
     2
176
     1
 73
     0
176
     1
 90
        0
176
     1
 40
-0.6
176
     1
 41
-30.0
176
     1
 62
     5
 63
     7
421
 16777215
176
     1
 74
     1
176
     1
 91
        4
176
     1
 64
     7
176
     1
 65
   257
176
     1
 75
     1
176
     1
175
     1
176
     1
 42
1.0
176
     1
 92
        0
176
     1
 66
   257
176
     1
 43
1.0
176
     1
 76
     1
176
     1
 77
     6
176
     1
 78
     2
176
     1
 67
     7
176
     1
 79
     5
176
     1
170
     0
176
     1
171
     0
176
     1
290
     0
176
     1
 93
        1
176
     1
 44
0.0
176
     1
173
     0
176
     1
  0
VISUALSTYLE
  5
32
102
{ACAD_REACTORS
330
2A
102
}
330
2A
100
AcDbVisualStyle
  2
Basic
 70
     7
177
     2
291
     1
 71
     1
176
     1
 72
     0
176
     1
 73
     1
176
     1
 90
        0
176
     1
 40
-0.6
176
     1
 41
-30.0
176
     1
 62
     5
 63
     7
421
 16777215
176
     1
 74
     0
176
     1
 91
        4
176
     1
 64
     7
176
     1
 65
   257
176
     1
 75
     1
176
     1
175
     1
176
     1
 42
1.0
176
     1
 92
        8
176
     1
 66
     7
176
     1
 43
1.0
176
     1
 76
     1
176
     1
 77
     6
176
     1
 78
     2
176
     1
 67
     7
176
     1
 79
     5
176
     1
170
     0
176
     1
171
     0
176
     1
290
     0
176
     1
 93
        1
176
     1
 44
0.0
176
     1
173
     0
176
     1
  0
VISUALSTYLE
  5
36
102
{ACAD_REACTORS
330
2A
102
}
330
2A
100
AcDbVisualStyle
  2
Brighten
 70
    12
177
     2
291
     1
 71
     2
176
     1
 72
     2
176
     1
 73
     0
176
     1
 90
        0
176
     1
 40
-0.6
176
     1
 41
-30.0
176
     1
 62
     5
 63
     7
421
 16777215
176
     1
 74
     1
176
     1
 91
        4
176
     1
 64
     7
176
     1
 65
   257
176
     1
 75
     1
176
     1
175
     1
176
     1
 42
1.0
176
     1
 92
        8
176
     1
 66
     7
176
     1
 43
1.0
176
     1
 76
     1
176
     1
 77
     6
176
     1
 78
     2
176
     1
 67
     7
176
     1
 79
     5
176
     1
170
     0
176
     1
171
     0
176
     1
290
     0
176
     1
 93
        1
176
     1
 44
50.0
176
     1
173
     0
176
     1
  0
VISUALSTYLE
  5
3A
102
{ACAD_REACTORS
330
2A
102
}
330
2A
100
AcDbVisualStyle
  2
ColorChange
 70
    16
177
     2
291
     1
 71
     2
176
     1
 72
     2
176
     1
 73
     3
176
     1
 90
        0
176
     1
 40
-0.6
176
     1
 41
-30.0
176
     1
 62
     5
 63
     8
421
  8421504
176
     1
 74
     1
176
     1
 91
        4
176
     1
 64
     7
176
     1
 65
   257
176
     1
 75
     1
176
     1
175
     1
176
     1
 42
1.0
176
     1
 92
        8
176
     1
 66
     8
424
  8421504
176
     1
 43
1.0
176
     1
 76
     1
176
     1
 77
     6
176
     1
 78
     2
176
     1
 67
     7
176
     1
 79
     5
176
     1
170
     0
176
     1
171
     0
176
     1
290
     0
176
     1
 93
        1
176
     1
 44
0.0
176
     1
173
     0
176
     1
  0
VISUALSTYLE
  5
34
102
{ACAD_REACTORS
330
2A
102
}
330
2A
100
AcDbVisualStyle
  2
Conceptual
 70
     9
177
     2
291
     0
 71
     3
176
     1
 72
     2
176
     1
 73
     0
176
     1
 90
        0
176
     1
 40
-0.6
176
     1
 41
-30.0
176
     1
 62
     5
 63
     7
421
 16777215
176
     1
 74
     2
176
     1
 91
        2
176
     1
 64
     7
176
     1
 65
   257
176
     1
 75
     1
176
     1
175
     1
176
     1
 42
40.0
176
     1
 92
        8
176
     1
 66
     7
176
     1
 43
1.0
176
     1
 76
     1
176
     1
 77
     6
176
     1
 78
     2
176
     1
 67
     7
176
     1
 79
     3
176
     1
170
     0
176
     1
171
     0
176
     1
290
     0
176
     1
 93
        1
176
     1
 44
0.0
176
     1
173
     0
176
     1
  0
VISUALSTYLE
  5
35
102
{ACAD_REACTORS
330
2A
102
}
330
2A
100
AcDbVisualStyle
  2
Dim
 70
    11
177
     2
291
     1
 71
     2
176
     1
 72
     2
176
     1
 73
     0
176
     1
 90
        0
176
     1
 40
-0.6
176
     1
 41
-30.0
176
     1
 62
     5
 63
     7
421
 16777215
176
     1
 74
     1
176
     1
 91
        4
176
     1
 64
     7
176
     1
 65
   257
176
     1
 75
     1
176
     1
175
     1
176
     1
 42
1.0
176
     1
 92
        8
176
     1
 66
     7
176
     1
 43
1.0
176
     1
 76
     1
176
     1
 77
     6
176
     1
 78
     2
176
     1
 67
     7
176
     1
 79
     5
176
     1
170
     0
176
     1
171
     0
176
     1
290
     0
176
     1
 93
        1
176
     1
 44
-50.0
176
     1
173
     0
176
     1
  0
VISUALSTYLE
  5
39
102
{ACAD_REACTORS
330
2A
102
}
330
2A
100
AcDbVisualStyle
  2
Facepattern
 70
    15
177
     2
291
     1
 71
     2
176
     1
 72
     2
176
     1
 73
     0
176
     1
 90
        0
176
     1
 40
-0.6
176
     1
 41
-30.0
176
     1
 62
     5
 63
     7
421
 16777215
176
     1
 74
     1
176
     1
 91
        4
176
     1
 64
     7
176
     1
 65
   257
176
     1
 75
     1
176
     1
175
     1
176
     1
 42
1.0
176
     1
 92
        8
176
     1
 66
     7
176
     1
 43
1.0
176
     1
 76
     1
176
     1
 77
     6
176
     1
 78
     2
176
     1
 67
     7
176
     1
 79
     5
176
     1
170
     0
176
     1
171
     0
176
     1
290
     0
176
     1
 93
        1
176
     1
 44
0.0
176
     1
173
     0
176
     1
  0
VISUALSTYLE
  5
2B
102
{ACAD_REACTORS
330
2A
102
}
330
2A
100
AcDbVisualStyle
  2
Flat
 70
     0
177
     2
291
     1
 71
     2
176
     1
 72
     1
176
     1
 73
     1
176
     1
 90
        2
176
     1
 40
-0.6
176
     1
 41
30.0
176
     1
 62
     5
 63
     7
421
 16777215
176
     1
 74
     0
176
     1
 91
        4
176
     1
 64
     7
176
     1
 65
   257
176
     1
 75
     1
176
     1
175
     1
176
     1
 42
1.0
176
     1
 92
        8
176
     1
 66
     7
176
     1
 43
1.0
176
     1
 76
     1
176
     1
 77
     6
176
     1
 78
     2
176
     1
 67
     7
176
     1
 79
     5
176
     1
170
     0
176
     1
171
     0
176
     1
290
     0
176
     1
 93
       13
176
     1
 44
0.0
176
     1
173
     0
176
     1
  0
VISUALSTYLE
  5
2C
102
{ACAD_REACTORS
330
2A
102
}
330
2A
100
AcDbVisualStyle
  2
FlatWithEdges
 70
     1
177
     2
291
     1
 71
     2
176
     1
 72
     1
176
     1
 73
     1
176
     1
 90
        2
176
     1
 40
-0.6
176
     1
 41
30.0
176
     1
 62
     5
 63
     7
421
 16777215
176
     1
 74
     1
176
     1
 91
        4
176
     1
 64
     7
176
     1
 65
   257
176
     1
 75
     1
176
     1
175
     1
176
     1
 42
1.0
176
     1
 92
        0
176
     1
 66
   257
176
     1
 43
1.0
176
     1
 76
     1
176
     1
 77
     6
176
     1
 78
     2
176
     1
 67
     7
176
     1
 79
     5
176
     1
170
     0
176
     1
171
     0
176
     1
290
     0
176
     1
 93
       13
176
     1
 44
0.0
176
     1
173
     0
176
     1
  0
VISUALSTYLE
  5
2D
102
{ACAD_REACTORS
330
2A
102
}
330
2A
100
AcDbVisualStyle
  2
Gouraud
 70
     2
177
     2
291
     1
 71
     2
176
     1
 72
     2
176
     1
 73
     1
176
     1
 90
        2
176
     1
 40
-0.6
176
     1
 41
30.0
176
     1
 62
     5
 63
     7
421
 16777215
176
     1
 74
     0
176
     1
 91
        4
176
     1
 64
     7
176
     1
 65
   257
176
     1
 75
     1
176
     1
175
     1
176
     1
 42
1.0
176
     1
 92
        0
176
     1
 66
     7
176
     1
 43
1.0
176
     1
 76
     1
176
     1
 77
     6
176
     1
 78
     2
176
     1
 67
     7
176
     1
 79
     5
176
     1
170
     0
176
     1
171
     0
176
     1
290
     0
176
     1
 93
       13
176
     1
 44
0.0
176
     1
173
     0
176
     1
  0
VISUALSTYLE
  5
2E
102
{ACAD_REACTORS
330
2A
102
}
330
2A
100
AcDbVisualStyle
  2
GouraudWithEdges
 70
     3
177
     2
291
     1
 71
     2
176
     1
 72
     2
176
     1
 73
     1
176
     1
 90
        2
176
     1
 40
-0.6
176
     1
 41
30.0
176
     1
 62
     5
 63
     7
421
 16777215
176
     1
 74
     1
176
     1
 91
        4
176
     1
 64
     7
176
     1
 65
   257
176
     1
 75
     1
176
     1
175
     1
176
     1
 42
1.0
176
     1
 92
        0
176
     1
 66
   257
176
     1
 43
1.0
176
     1
 76
     1
176
     1
 77
     6
176
     1
 78
     2
176
     1
 67
     7
176
     1
 79
     5
176
     1
170
     0
176
     1
171
     0
176
     1
290
     0
176
     1
 93
       13
176
     1
 44
0.0
176
     1
173
     0
176
     1
  0
VISUALSTYLE
  5
38
102
{ACAD_REACTORS
330
2A
102
}
330
2A
100
AcDbVisualStyle
  2
Linepattern
 70
    14
177
     2
291
     1
 71
     2
176
     1
 72
     2
176
     1
 73
     0
176
     1
 90
        0
176
     1
 40
-0.6
176
     1
 41
-30.0
176
     1
 62
     5
 63
     7
421
 16777215
176
     1
 74
     1
176
     1
 91
        4
176
     1
 64
     7
176
     1
 65
   257
176
     1
 75
     7
176
     1
175
     7
176
     1
 42
1.0
176
     1
 92
        8
176
     1
 66
     7
176
     1
 43
1.0
176
     1
 76
     1
176
     1
 77
     6
176
     1
 78
     2
176
     1
 67
     7
176
     1
 79
     5
176
     1
170
     0
176
     1
171
     0
176
     1
290
     0
176
     1
 93
        1
176
     1
 44
0.0
176
     1
173
     0
176
     1
  0
VISUALSTYLE
  5
33
102
{ACAD_REACTORS
330
2A
102
}
330
2A
100
AcDbVisualStyle
  2
Realistic
 70
     8
177
     2
291
     0
 71
     2
176
     1
 72
     2
176
     1
 73
     0
176
     1
 90
        0
176
     1
 40
-0.6
176
     1
 41
-30.0
176
     1
 62
     5
 63
     7
421
 16777215
176
     1
 74
     1
176
     1
 91
        0
176
     1
 64
     7
176
     1
 65
   257
176
     1
 75
     1
176
     1
175
     1
176
     1
 42
1.0
176
     1
 92
        8
176
     1
 66
     8
424
  7895160
176
     1
 43
1.0
176
     1
 76
     1
176
     1
 77
     6
176
     1
 78
     2
176
     1
 67
     7
176
     1
 79
     5
176
     1
170
     0
176
     1
171
     0
176
     1
290
     0
176
     1
 93
       13
176
     1
 44
0.0
176
     1
173
     0
176
     1
  0
VISUALSTYLE
  5
37
102
{ACAD_REACTORS
330
2A
102
}
330
2A
100
AcDbVisualStyle
  2
Thicken
 70
    13
177
     2
291
     1
 71
     2
176
     1
 72
     2
176
     1
 73
     0
176
     1
 90
        0
176
     1
 40
-0.6
176
     1
 41
-30.0
176
     1
 62
     5
 63
     7
421
 16777215
176
     1
 74
     1
176
     1
 91
        4
176
     1
 64
     7
176
     1
 65
   257
176
     1
 75
     1
176
     1
175
     1
176
     1
 42
1.0
176
     1
 92
       12
176
     1
 66
     7
176
     1
 43
1.0
176
     1
 76
     1
176
     1
 77
     6
176
     1
 78
     2
176
     1
 67
     7
176
     1
 79
     5
176
     1
170
     0
176
     1
171
     0
176
     1
290
     0
176
     1
 93
        1
176
     1
 44
0.0
176
     1
173
     0
176
     1
  0
ENDSEC
  0
EOF
