  0
SECTION
  2
HEADER
  9
$ACADVER
  1
AC1024
  9
$ACADMAINTVER
 70
     6
  9
$DWGCODEPAGE
  3
UNDEFINED
  9
$INSBASE
 10
0.0
 20
0.0
 30
0.0
  9
$EXTMIN
 10
1.000000000000000E+20
 20
1.000000000000000E+20
 30
1.000000000000000E+20
  9
$EXTMAX
 10
-1.000000000000000E+20
 20
-1.000000000000000E+20
 30
-1.000000000000000E+20
  9
$LIMMIN
 10
0.0
 20
0.0
  9
$LIMMAX
 10
12.0
 20
9.0
  9
$ORTHOMODE
 70
     0
  9
$REGENMODE
 70
     1
  9
$FILLMODE
 70
     1
  9
$QTEXTMODE
 70
     0
  9
$MIRRTEXT
 70
     1
  9
$LTSCALE
 40
1.0
  9
$ATTMODE
 70
     1
  9
$TEXTSIZE
 40
0.2
  9
$TRACEWID
 40
0.05
  9
$TEXTSTYLE
  7
Standard
  9
$CLAYER
  8
0
  9
$CELTYPE
  6
ByLayer
  9
$CECOLOR
 62
   256
  9
$CELTSCALE
 40
1.0
  9
$DISPSILH
 70
     0
  9
$DIMSCALE
 40
1.0
  9
$DIMASZ
 40
0.18
  9
$DIMEXO
 40
0.0625
  9
$DIMDLI
 40
0.38
  9
$DIMRND
 40
0.0
  9
$DIMDLE
 40
0.0
  9
$DIMEXE
 40
0.18
  9
$DIMTP
 40
0.0
  9
$DIMTM
 40
0.0
  9
$DIMTXT
 40
0.18
  9
$DIMCEN
 40
0.09
  9
$DIMTSZ
 40
0.0
  9
$DIMTOL
 70
     0
  9
$DIMLIM
 70
     0
  9
$DIMTIH
 70
     1
  9
$DIMTOH
 70
     1
  9
$DIMSE1
 70
     0
  9
$DIMSE2
 70
     0
  9
$DIMTAD
 70
     0
  9
$DIMZIN
 70
     0
  9
$DIMBLK
  1

  9
$DIMASO
 70
     1
  9
$DIMSHO
 70
     1
  9
$DIMPOST
  1

  9
$DIMAPOST
  1

  9
$DIMALT
 70
     0
  9
$DIMALTD
 70
     2
  9
$DIMALTF
 40
25.4
  9
$DIMLFAC
 40
1.0
  9
$DIMTOFL
 70
     0
  9
$DIMTVP
 40
0.0
  9
$DIMTIX
 70
     0
  9
$DIMSOXD
 70
     0
  9
$DIMSAH
 70
     0
  9
$DIMBLK1
  1

  9
$DIMBLK2
  1

  9
$DIMSTYLE
  2
Standard
  9
$DIMCLRD
 70
     0
  9
$DIMCLRE
 70
     0
  9
$DIMCLRT
 70
     0
  9
$DIMTFAC
 40
1.0
  9
$DIMGAP
 40
0.09
  9
$DIMJUST
 70
     0
  9
$DIMSD1
 70
     0
  9
$DIMSD2
 70
     0
  9
$DIMTOLJ
 70
     1
  9
$DIMTZIN
 70
     0
  9
$DIMALTZ
 70
     0
  9
$DIMALTTZ
 70
     0
  9
$DIMUPT
 70
     0
  9
$DIMDEC
 70
     4
  9
$DIMTDEC
 70
     4
  9
$DIMALTU
 70
     2
  9
$DIMALTTD
 70
     2
  9
$DIMTXSTY
  7
Standard
  9
$DIMAUNIT
 70
     0
  9
$DIMADEC
 70
     0
  9
$DIMALTRND
 40
0.0
  9
$DIMAZIN
 70
     0
  9
$DIMDSEP
 70
    46
  9
$DIMATFIT
 70
     3
  9
$DIMFRAC
 70
     0
  9
$DIMLDRBLK
  1

  9
$DIMLUNIT
 70
     2
  9
$DIMLWD
 70
    -2
  9
$DIMLWE
 70
    -2
  9
$DIMTMOVE
 70
     0
  9
$DIMFXL
 40
1.0
  9
$DIMFXLON
 70
     0
  9
$DIMJOGANG
 40
0.7853981633974483
  9
$DIMTFILL
 70
     0
  9
$DIMTFILLCLR
 70
     0
  9
$DIMARCSYM
 70
     0
  9
$DIMLTYPE
  6

  9
$DIMLTEX1
  6

  9
$DIMLTEX2
  6

  9
$DIMTXTDIRECTION
 70
     0
  9
$LUNITS
 70
     2
  9
$LUPREC
 70
     4
  9
$SKETCHINC
 40
0.1
  9
$FILLETRAD
 40
0.5
  9
$AUNITS
 70
     0
  9
$AUPREC
 70
     0
  9
$MENU
  1
.
  9
$ELEVATION
 40
0.0
  9
$PELEVATION
 40
0.0
  9
$THICKNESS
 40
0.0
  9
$LIMCHECK
 70
     0
  9
$CHAMFERA
 40
0.5
  9
$CHAMFERB
 40
0.5
  9
$CHAMFERC
 40
1.0
  9
$CHAMFERD
 40
0.0
  9
$SKPOLY
 70
     0
  9
$TDCREATE
 40
2458263.583252315
  9
$TDUCREATE
 40
2458263.208252315
  9
$TDUPDATE
 40
2458263.583263889
  9
$TDUUPDATE
 40
2458263.208263889
  9
$TDINDWG
 40
0.0000000116
  9
$TDUSRTIMER
 40
0.0000000116
  9
$USRTIMER
 70
     1
  9
$ANGBASE
 50
0.0
  9
$ANGDIR
 70
     0
  9
$PDMODE
 70
     0
  9
$PDSIZE
 40
0.0
  9
$PLINEWID
 40
0.0
  9
$SPLFRAME
 70
     0
  9
$SPLINETYPE
 70
     6
  9
$SPLINESEGS
 70
     8
  9
$HANDSEED
  5
B0
  9
$SURFTAB1
 70
     6
  9
$SURFTAB2
 70
     6
  9
$SURFTYPE
 70
     6
  9
$SURFU
 70
     6
  9
$SURFV
 70
     6
  9
$UCSBASE
  2

  9
$UCSNAME
  2

  9
$UCSORG
 10
0.0
 20
0.0
 30
0.0
  9
$UCSXDIR
 10
1.0
 20
0.0
 30
0.0
  9
$UCSYDIR
 10
0.0
 20
1.0
 30
0.0
  9
$UCSORTHOREF
  2

  9
$UCSORTHOVIEW
 70
     0
  9
$UCSORGTOP
 10
0.0
 20
0.0
 30
0.0
  9
$UCSORGBOTTOM
 10
0.0
 20
0.0
 30
0.0
  9
$UCSORGLEFT
 10
0.0
 20
0.0
 30
0.0
  9
$UCSORGRIGHT
 10
0.0
 20
0.0
 30
0.0
  9
$UCSORGFRONT
 10
0.0
 20
0.0
 30
0.0
  9
$UCSORGBACK
 10
0.0
 20
0.0
 30
0.0
  9
$PUCSBASE
  2

  9
$PUCSNAME
  2

  9
$PUCSORG
 10
0.0
 20
0.0
 30
0.0
  9
$PUCSXDIR
 10
1.0
 20
0.0
 30
0.0
  9
$PUCSYDIR
 10
0.0
 20
1.0
 30
0.0
  9
$PUCSORTHOREF
  2

  9
$PUCSORTHOVIEW
 70
     0
  9
$PUCSORGTOP
 10
0.0
 20
0.0
 30
0.0
  9
$PUCSORGBOTTOM
 10
0.0
 20
0.0
 30
0.0
  9
$PUCSORGLEFT
 10
0.0
 20
0.0
 30
0.0
  9
$PUCSORGRIGHT
 10
0.0
 20
0.0
 30
0.0
  9
$PUCSORGFRONT
 10
0.0
 20
0.0
 30
0.0
  9
$PUCSORGBACK
 10
0.0
 20
0.0
 30
0.0
  9
$USERI1
 70
     0
  9
$USERI2
 70
     0
  9
$USERI3
 70
     0
  9
$USERI4
 70
     0
  9
$USERI5
 70
     0
  9
$USERR1
 40
0.0
  9
$USERR2
 40
0.0
  9
$USERR3
 40
0.0
  9
$USERR4
 40
0.0
  9
$USERR5
 40
0.0
  9
$WORLDVIEW
 70
     1
  9
$SHADEDGE
 70
     3
  9
$SHADEDIF
 70
    70
  9
$TILEMODE
 70
     1
  9
$MAXACTVP
 70
    64
  9
$PINSBASE
 10
0.0
 20
0.0
 30
0.0
  9
$PLIMCHECK
 70
     0
  9
$PEXTMIN
 10
1.000000000000000E+20
 20
1.000000000000000E+20
 30
1.000000000000000E+20
  9
$PEXTMAX
 10
-1.000000000000000E+20
 20
-1.000000000000000E+20
 30
-1.000000000000000E+20
  9
$PLIMMIN
 10
0.0
 20
0.0
  9
$PLIMMAX
 10
12.0
 20
9.0
  9
$UNITMODE
 70
     0
  9
$VISRETAIN
 70
     1
  9
$PLINEGEN
 70
     0
  9
$PSLTSCALE
 70
     1
  9
$TREEDEPTH
 70
  3020
  9
$CMLSTYLE
  2
Standard
  9
$CMLJUST
 70
     0
  9
$CMLSCALE
 40
1.0
  9
$PROXYGRAPHICS
 70
     1
  9
$MEASUREMENT
 70
     0
  9
$CELWEIGHT
370
    -1
  9
$ENDCAPS
280
     0
  9
$JOINSTYLE
280
     0
  9
$LWDISPLAY
290
     1
  9
$INSUNITS
 70
     1
  9
$HYPERLINKBASE
  1

  9
$STYLESHEET
  1

  9
$XEDIT
290
     1
  9
$CEPSNTYPE
380
     0
  9
$PSTYLEMODE
290
     1
  9
$FINGERPRINTGUID
  2
{A7F16720-F6C9-ECB6-4283-A7B743E93F56}
  9
$VERSIONGUID
  2
{FAEB1C32-E019-11D5-929B-00C0DF256EC4}
  9
$EXTNAMES
290
     1
  9
$PSVPSCALE
 40
0.0
  9
$OLESTARTUP
290
     0
  9
$SORTENTS
280
   127
  9
$INDEXCTL
280
     0
  9
$HIDETEXT
280
     1
  9
$XCLIPFRAME
280
     2
  9
$HALOGAP
280
     0
  9
$OBSCOLOR
 70
   257
  9
$OBSLTYPE
280
     0
  9
$INTERSECTIONDISPLAY
280
     0
  9
$INTERSECTIONCOLOR
 70
   257
  9
$DIMASSOC
280
     2
  9
$PROJECTNAME
  1

  9
$CAMERADISPLAY
290
     0
  9
$LENSLENGTH
 40
50.0
  9
$CAMERAHEIGHT
 40
0.0
  9
$STEPSPERSEC
 40
2.0
  9
$STEPSIZE
 40
6.0
  9
$3DDWFPREC
 40
2.0
  9
$PSOLWIDTH
 40
0.25
  9
$PSOLHEIGHT
 40
4.0
  9
$LOFTANG1
 40
1.570796326794897
  9
$LOFTANG2
 40
1.570796326794897
  9
$LOFTMAG1
 40
0.0
  9
$LOFTMAG2
 40
0.0
  9
$LOFTPARAM
 70
     7
  9
$LOFTNORMALS
280
     1
  9
$LATITUDE
 40
37.795
  9
$LONGITUDE
 40
-122.394
  9
$NORTHDIRECTION
 40
0.0
  9
$TIMEZONE
 70
 -8000
  9
$LIGHTGLYPHDISPLAY
280
     1
  9
$TILEMODELIGHTSYNCH
280
     1
  9
$CMATERIAL
347
3C
  9
$SOLIDHIST
280
     1
  9
$SHOWHIST
280
     1
  9
$DWFFRAME
280
     2
  9
$DGNFRAME
280
     2
  9
$REALWORLDSCALE
290
     1
  9
$INTERFERECOLOR
 62
   256
  9
$CSHADOW
280
     0
  9
$SHADOWPLANELOCATION
 40
0.0
  0
ENDSEC
  0
SECTION
  2
CLASSES
  0
CLASS
  1
ACDBDICTIONARYWDFLT
  2
AcDbDictionaryWithDefault
  3
ObjectDBX Classes
 90
        0
 91
        4
280
     0
281
     0
  0
CLASS
  1
VISUALSTYLE
  2
AcDbVisualStyle
  3
ObjectDBX Classes
 90
     4095
 91
        4
280
     0
281
     0
  0
CLASS
  1
MATERIAL
  2
AcDbMaterial
  3
ObjectDBX Classes
 90
     1153
 91
        4
280
     0
281
     0
  0
CLASS
  1
SUN
  2
AcDbSun
  3
SCENEOE
 90
     1024
 91
        4
280
     0
281
     0
  0
ENDSEC
  0
SECTION
  2
TABLES
  0
TABLE
  2
VPORT
  5
8
330
0
100
AcDbSymbolTable
 70
     1
  0
VPORT
  5
29
330
8
100
AcDbSymbolTableRecord
100
AcDbViewportTableRecord
  2
*Active
 70
     0
 10
0.0
 20
0.0
 11
1.0
 21
1.0
 12
0.0
 22
0.0
 13
0.0
 23
0.0
 14
0.5
 24
0.5
 15
0.5
 25
0.5
 16
0.0
 26
0.0
 36
1.0
 17
105.0007777515277
 27
-148.5000416295416
 37
0.0
 40
297.0000832590831
 41
0.7070757462376333
 42
50.0
 43
0.0
 44
0.0
 50
0.0
 51
0.0
 71
     0
 72
   100
 73
     1
 74
     3
 75
     0
 76
     0
 77
     0
 78
     0
281
     0
 65
     1
110
0.0
120
0.0
130
0.0
111
1.0
121
0.0
131
0.0
112
0.0
122
1.0
132
0.0
 79
     0
146
0.0
 60
     3
 61
     5
292
     1
282
     1
141
0.0
142
0.0
 63
   250
361
3F
  0
ENDTAB
  0
TABLE
  2
LTYPE
  5
5
330
0
100
AcDbSymbolTable
 70
     1
  0
LTYPE
  5
14
330
5
100
AcDbSymbolTableRecord
100
AcDbLinetypeTableRecord
  2
ByBlock
 70
     0
  3

 72
    65
 73
     0
 40
0.0
  0
LTYPE
  5
15
330
5
100
AcDbSymbolTableRecord
100
AcDbLinetypeTableRecord
  2
ByLayer
 70
     0
  3

 72
    65
 73
     0
 40
0.0
  0
LTYPE
  5
16
330
5
100
AcDbSymbolTableRecord
100
AcDbLinetypeTableRecord
  2
Continuous
 70
     0
  3
Solid line
 72
    65
 73
     0
 40
0.0
  0
ENDTAB
  0
TABLE
  2
LAYER
  5
2
330
0
100
AcDbSymbolTable
 70
     2
  0
LAYER
  5
10
330
2
100
AcDbSymbolTableRecord
100
AcDbLayerTableRecord
  2
0
 70
     0
 62
     7
  6
Continuous
370
    -3
390
F
347
3E
  0
LAYER
  5
40
330
2
100
AcDbSymbolTableRecord
100
AcDbLayerTableRecord
  2
_U+30EC_U+30A4_U+30E4_U+30FC 1
 70
     0
 62
     7
  6
Continuous
370
    -3
390
F
347
3E
  0
ENDTAB
  0
TABLE
  2
STYLE
  5
3
330
0
100
AcDbSymbolTable
 70
     1
  0
STYLE
  5
11
330
3
100
AcDbSymbolTableRecord
100
AcDbTextStyleTableRecord
  2
Standard
 70
     0
 40
0.0
 41
1.0
 50
0.0
 71
     0
 42
0.2
  3
txt
  4

  0
ENDTAB
  0
TABLE
  2
VIEW
  5
6
330
0
100
AcDbSymbolTable
 70
     0
  0
ENDTAB
  0
TABLE
  2
UCS
  5
7
330
0
100
AcDbSymbolTable
 70
     0
  0
ENDTAB
  0
TABLE
  2
APPID
  5
9
330
0
100
AcDbSymbolTable
 70
     1
  0
APPID
  5
12
330
9
100
AcDbSymbolTableRecord
100
AcDbRegAppTableRecord
  2
ACAD
 70
     0
  0
ENDTAB
  0
TABLE
  2
DIMSTYLE
  5
A
330
0
100
AcDbSymbolTable
 70
     1
100
AcDbDimStyleTable
  0
DIMSTYLE
105
27
330
A
100
AcDbSymbolTableRecord
100
AcDbDimStyleTableRecord
  2
Standard
 70
     0
178
     0
340
11
  0
ENDTAB
  0
TABLE
  2
BLOCK_RECORD
  5
1
330
0
100
AcDbSymbolTable
 70
     6
  0
BLOCK_RECORD
  5
1F
330
1
100
AcDbSymbolTableRecord
100
AcDbBlockTableRecord
  2
*Model_Space
340
22
 70
     0
280
     1
281
     0
  0
BLOCK_RECORD
  5
1B
330
1
100
AcDbSymbolTableRecord
100
AcDbBlockTableRecord
  2
*Paper_Space
340
1E
 70
     0
280
     1
281
     0
  0
BLOCK_RECORD
  5
23
330
1
100
AcDbSymbolTableRecord
100
AcDbBlockTableRecord
  2
*Paper_Space0
340
26
 70
     0
280
     1
281
     0
  0
BLOCK_RECORD
  5
64
330
1
100
AcDbSymbolTableRecord
100
AcDbBlockTableRecord
  2
block 2
340
0
102
{BLKREFS
331
65
102
}
 70
     0
280
     1
281
     0
  0
BLOCK_RECORD
  5
6D
330
1
100
AcDbSymbolTableRecord
100
AcDbBlockTableRecord
  2
block 3
340
0
102
{BLKREFS
331
6E
102
}
 70
     0
280
     1
281
     0
  0
BLOCK_RECORD
  5
7D
330
1
100
AcDbSymbolTableRecord
100
AcDbBlockTableRecord
  2
block 4
340
0
102
{BLKREFS
331
7E
102
}
 70
     0
280
     1
281
     0
  0
BLOCK_RECORD
  5
83
330
1
100
AcDbSymbolTableRecord
100
AcDbBlockTableRecord
  2
block 5
340
0
102
{BLKREFS
331
84
102
}
 70
     0
280
     1
281
     0
  0
BLOCK_RECORD
  5
9F
330
1
100
AcDbSymbolTableRecord
100
AcDbBlockTableRecord
  2
block 6
340
0
102
{BLKREFS
331
A0
102
}
 70
     0
280
     1
281
     0
  0
ENDTAB
  0
ENDSEC
  0
SECTION
  2
BLOCKS
  0
BLOCK
  5
20
330
1F
100
AcDbEntity
  8
0
100
AcDbBlockBegin
  2
*Model_Space
 70
     0
 10
0.0
 20
0.0
 30
0.0
  3
*Model_Space
  1

  0
ENDBLK
  5
21
330
1F
100
AcDbEntity
  8
0
100
AcDbBlockEnd
  0
BLOCK
  5
1C
330
1B
100
AcDbEntity
 67
     1
  8
0
100
AcDbBlockBegin
  2
*Paper_Space
 70
     0
 10
0.0
 20
0.0
 30
0.0
  3
*Paper_Space
  1

  0
ENDBLK
  5
1D
330
1B
100
AcDbEntity
 67
     1
  8
0
100
AcDbBlockEnd
  0
BLOCK
  5
24
330
23
100
AcDbEntity
  8
0
100
AcDbBlockBegin
  2
*Paper_Space0
 70
     0
 10
0.0
 20
0.0
 30
0.0
  3
*Paper_Space0
  1

  0
ENDBLK
  5
25
330
23
100
AcDbEntity
  8
0
100
AcDbBlockEnd
  0
BLOCK
  5
66
330
64
100
AcDbEntity
  8
0
100
AcDbBlockBegin
  2
block 2
 70
     0
 10
0.0
 20
0.0
 30
0.0
  3
block 2
  1

  0
SPLINE
  5
68
330
64
100
AcDbEntity
  8
_U+30EC_U+30A4_U+30E4_U+30FC 1
370
     0
100
AcDbSpline
210
0.0
220
0.0
230
1.0
 70
    11
 71
     3
 72
    26
 73
    22
 74
     0
 42
0.0000000001
 43
0.0000000001
 12
1.0
 22
0.0
 32
0.0
 13
1.0
 23
0.0
 33
0.0
 40
0.0
 40
0.0
 40
0.0
 40
0.0
 40
1.0
 40
1.0
 40
1.0
 40
2.0
 40
2.0
 40
2.0
 40
3.0
 40
3.0
 40
3.0
 40
4.0
 40
4.0
 40
4.0
 40
5.0
 40
5.0
 40
5.0
 40
6.0
 40
6.0
 40
6.0
 40
7.0
 40
7.0
 40
7.0
 40
7.0
 10
87.49577905798716
 20
-153.9282443191568
 30
0.0
 10
87.49577905798716
 20
-153.9282443191568
 30
0.0
 10
86.39145370019034
 20
-153.9282443191568
 30
0.0
 10
86.39145370019034
 20
-153.9282443191568
 30
0.0
 10
86.39145370019034
 20
-153.9282443191568
 30
0.0
 10
86.39145370019034
 20
-154.2582844666438
 30
0.0
 10
86.39145370019034
 20
-154.2582844666438
 30
0.0
 10
86.39145370019034
 20
-154.2582844666438
 30
0.0
 10
86.24348684909886
 20
-154.2582844666438
 30
0.0
 10
86.24348684909886
 20
-154.2582844666438
 30
0.0
 10
86.22867293851228
 20
-153.9261772618657
 30
0.0
 10
86.06571992205997
 20
-153.8796684728148
 30
0.0
 10
85.95151500672394
 20
-153.8500406516417
 30
0.0
 10
85.95151500672394
 20
-153.8500406516417
 30
0.0
 10
85.95151500672394
 20
-153.7039686030671
 30
0.0
 10
85.95151500672394
 20
-153.7039686030671
 30
0.0
 10
85.95151500672394
 20
-153.7039686030671
 30
0.0
 10
87.49577905798716
 20
-153.7039686030671
 30
0.0
 10
87.49577905798716
 20
-153.7039686030671
 30
0.0
 10
87.49577905798716
 20
-153.7039686030671
 30
0.0
 10
87.49577905798716
 20
-153.9282443191568
 30
0.0
 10
87.49577905798716
 20
-153.9282443191568
 30
0.0
  0
HATCH
  5
69
330
64
100
AcDbEntity
  8
_U+30EC_U+30A4_U+30E4_U+30FC 1
 62
   179
420
  2234388
100
AcDbHatch
 10
0.0
 20
0.0
 30
0.0
210
0.0
220
0.0
230
1.0
  2
SOLID
 70
     1
 71
     0
 91
        1
 92
        1
 93
        1
 72
     4
 94
        3
 73
     0
 74
     1
 95
       26
 96
       22
 40
0.0
 40
0.0
 40
0.0
 40
0.0
 40
1.0
 40
1.0
 40
1.0
 40
2.0
 40
2.0
 40
2.0
 40
3.0
 40
3.0
 40
3.0
 40
4.0
 40
4.0
 40
4.0
 40
5.0
 40
5.0
 40
5.0
 40
6.0
 40
6.0
 40
6.0
 40
7.0
 40
7.0
 40
7.0
 40
7.0
 10
87.49577905798716
 20
-153.9282443191568
 10
87.49577905798716
 20
-153.9282443191568
 10
86.39145370019034
 20
-153.9282443191568
 10
86.39145370019034
 20
-153.9282443191568
 10
86.39145370019034
 20
-153.9282443191568
 10
86.39145370019034
 20
-154.2582844666438
 10
86.39145370019034
 20
-154.2582844666438
 10
86.39145370019034
 20
-154.2582844666438
 10
86.24348684909886
 20
-154.2582844666438
 10
86.24348684909886
 20
-154.2582844666438
 10
86.22867293851228
 20
-153.9261772618657
 10
86.06571992205997
 20
-153.8796684728148
 10
85.95151500672394
 20
-153.8500406516417
 10
85.95151500672394
 20
-153.8500406516417
 10
85.95151500672394
 20
-153.7039686030671
 10
85.95151500672394
 20
-153.7039686030671
 10
85.95151500672394
 20
-153.7039686030671
 10
87.49577905798716
 20
-153.7039686030671
 10
87.49577905798716
 20
-153.7039686030671
 10
87.49577905798716
 20
-153.7039686030671
 10
87.49577905798716
 20
-153.9282443191568
 10
87.49577905798716
 20
-153.9282443191568
 97
        0
 97
        0
 75
     2
 76
     1
 98
        0
  0
SPLINE
  5
6A
330
64
100
AcDbEntity
  8
_U+30EC_U+30A4_U+30E4_U+30FC 1
370
     0
100
AcDbSpline
210
0.0
220
0.0
230
1.0
 70
    11
 71
     3
 72
    29
 73
    25
 74
     0
 42
0.0000000001
 43
0.0000000001
 12
1.0
 22
0.0
 32
0.0
 13
1.0
 23
0.0
 33
0.0
 40
0.0
 40
0.0
 40
0.0
 40
0.0
 40
1.0
 40
1.0
 40
1.0
 40
2.0
 40
2.0
 40
2.0
 40
3.0
 40
3.0
 40
3.0
 40
4.0
 40
4.0
 40
4.0
 40
5.0
 40
5.0
 40
5.0
 40
6.0
 40
6.0
 40
6.0
 40
7.0
 40
7.0
 40
7.0
 40
8.0
 40
8.0
 40
8.0
 40
8.0
 10
87.31801213094828
 20
-152.3049153265071
 30
0.0
 10
87.52747393645147
 20
-152.413091324744
 30
0.0
 10
87.54659421639461
 20
-152.586379627652
 30
0.0
 10
87.54659421639461
 20
-152.7028238550535
 30
0.0
 10
87.54659421639461
 20
-152.8637098142146
 30
0.0
 10
87.50008542734373
 20
-153.0053032386584
 30
0.0
 10
87.31801213094828
 20
-153.1007323835998
 30
0.0
 10
87.12336423603166
 20
-153.2040852481573
 30
0.0
 10
86.88651392142074
 20
-153.2233777828747
 30
0.0
 10
86.72356090496842
 20
-153.2233777828747
 30
0.0
 10
86.57972816845924
 20
-153.2233777828747
 30
0.0
 10
86.32806394326174
 20
-153.2061523054485
 30
0.0
 10
86.12910967898856
 20
-153.1007323835998
 30
0.0
 10
85.92602130013309
 20
-152.992556385363
 30
0.0
 10
85.90276690560765
 20
-152.8320149357503
 30
0.0
 10
85.90276690560765
 20
-152.7028238550535
 30
0.0
 10
85.90276690560765
 20
-152.5440049531834
 30
0.0
 10
85.94720863736737
 20
-152.4003444714485
 30
0.0
 10
86.12910967898856
 20
-152.3049153265071
 30
0.0
 10
86.32169051661403
 20
-152.2056965765319
 30
0.0
 10
86.55010034728609
 20
-152.1822699272322
 30
0.0
 10
86.72356090496842
 20
-152.1822699272322
 30
0.0
 10
86.8949544053596
 20
-152.1822699272322
 30
0.0
 10
87.12560354809708
 20
-152.2036295192408
 30
0.0
 10
87.31801213094828
 20
-152.3049153265071
 30
0.0
  0
SPLINE
  5
6B
330
64
100
AcDbEntity
  8
_U+30EC_U+30A4_U+30E4_U+30FC 1
370
     0
100
AcDbSpline
210
0.0
220
0.0
230
1.0
 70
    11
 71
     3
 72
    17
 73
    13
 74
     0
 42
0.0000000001
 43
0.0000000001
 12
1.0
 22
0.0
 32
0.0
 13
1.0
 23
0.0
 33
0.0
 40
0.0
 40
0.0
 40
0.0
 40
0.0
 40
1.0
 40
1.0
 40
1.0
 40
2.0
 40
2.0
 40
2.0
 40
3.0
 40
3.0
 40
3.0
 40
4.0
 40
4.0
 40
4.0
 40
4.0
 10
86.0953477432331
 20
-152.7028238550535
 30
0.0
 10
86.0953477432331
 20
-152.9525932777341
 30
0.0
 10
86.37887910166917
 20
-152.9987575572364
 30
0.0
 10
86.72356090496842
 20
-152.9987575572364
 30
0.0
 10
87.04309351122534
 20
-152.9987575572364
 30
0.0
 10
87.351946321478
 20
-152.9629285641898
 30
0.0
 10
87.351946321478
 20
-152.7028238550535
 30
0.0
 10
87.351946321478
 20
-152.455121489664
 30
0.0
 10
87.07048202033307
 20
-152.406545643322
 30
0.0
 10
86.72356090496842
 20
-152.406545643322
 30
0.0
 10
86.40420055348577
 20
-152.406545643322
 30
0.0
 10
86.0953477432331
 20
-152.4447862032083
 30
0.0
 10
86.0953477432331
 20
-152.7028238550535
 30
0.0
  0
HATCH
  5
6C
330
64
100
AcDbEntity
  8
_U+30EC_U+30A4_U+30E4_U+30FC 1
 62
   179
420
  2234388
100
AcDbHatch
 10
0.0
 20
0.0
 30
0.0
210
0.0
220
0.0
230
1.0
  2
SOLID
 70
     1
 71
     0
 91
        2
 92
        1
 93
        1
 72
     4
 94
        3
 73
     0
 74
     1
 95
       29
 96
       25
 40
0.0
 40
0.0
 40
0.0
 40
0.0
 40
1.0
 40
1.0
 40
1.0
 40
2.0
 40
2.0
 40
2.0
 40
3.0
 40
3.0
 40
3.0
 40
4.0
 40
4.0
 40
4.0
 40
5.0
 40
5.0
 40
5.0
 40
6.0
 40
6.0
 40
6.0
 40
7.0
 40
7.0
 40
7.0
 40
8.0
 40
8.0
 40
8.0
 40
8.0
 10
87.31801213094828
 20
-152.3049153265071
 10
87.52747393645147
 20
-152.413091324744
 10
87.54659421639461
 20
-152.586379627652
 10
87.54659421639461
 20
-152.7028238550535
 10
87.54659421639461
 20
-152.8637098142146
 10
87.50008542734373
 20
-153.0053032386584
 10
87.31801213094828
 20
-153.1007323835998
 10
87.12336423603166
 20
-153.2040852481573
 10
86.88651392142074
 20
-153.2233777828747
 10
86.72356090496842
 20
-153.2233777828747
 10
86.57972816845924
 20
-153.2233777828747
 10
86.32806394326174
 20
-153.2061523054485
 10
86.12910967898856
 20
-153.1007323835998
 10
85.92602130013309
 20
-152.992556385363
 10
85.90276690560765
 20
-152.8320149357503
 10
85.90276690560765
 20
-152.7028238550535
 10
85.90276690560765
 20
-152.5440049531834
 10
85.94720863736737
 20
-152.4003444714485
 10
86.12910967898856
 20
-152.3049153265071
 10
86.32169051661403
 20
-152.2056965765319
 10
86.55010034728609
 20
-152.1822699272322
 10
86.72356090496842
 20
-152.1822699272322
 10
86.8949544053596
 20
-152.1822699272322
 10
87.12560354809708
 20
-152.2036295192408
 10
87.31801213094828
 20
-152.3049153265071
 97
        0
 97
        0
 92
        1
 93
        1
 72
     4
 94
        3
 73
     0
 74
     1
 95
       17
 96
       13
 40
0.0
 40
0.0
 40
0.0
 40
0.0
 40
1.0
 40
1.0
 40
1.0
 40
2.0
 40
2.0
 40
2.0
 40
3.0
 40
3.0
 40
3.0
 40
4.0
 40
4.0
 40
4.0
 40
4.0
 10
86.0953477432331
 20
-152.7028238550535
 10
86.0953477432331
 20
-152.9525932777341
 10
86.37887910166917
 20
-152.9987575572364
 10
86.72356090496842
 20
-152.9987575572364
 10
87.04309351122534
 20
-152.9987575572364
 10
87.351946321478
 20
-152.9629285641898
 10
87.351946321478
 20
-152.7028238550535
 10
87.351946321478
 20
-152.455121489664
 10
87.07048202033307
 20
-152.406545643322
 10
86.72356090496842
 20
-152.406545643322
 10
86.40420055348577
 20
-152.406545643322
 10
86.0953477432331
 20
-152.4447862032083
 10
86.0953477432331
 20
-152.7028238550535
 97
        0
 97
        0
 75
     2
 76
     1
 98
        0
  0
ENDBLK
  5
67
330
64
100
AcDbEntity
  8
0
100
AcDbBlockEnd
  0
BLOCK
  5
6F
330
6D
100
AcDbEntity
  8
0
100
AcDbBlockBegin
  2
block 3
 70
     0
 10
0.0
 20
0.0
 30
0.0
  3
block 3
  1

  0
SPLINE
  5
71
330
6D
100
AcDbEntity
  8
_U+30EC_U+30A4_U+30E4_U+30FC 1
370
     0
100
AcDbSpline
210
0.0
220
0.0
230
1.0
 70
    11
 71
     3
 72
    62
 73
    58
 74
     0
 42
0.0000000001
 43
0.0000000001
 12
1.0
 22
0.0
 32
0.0
 13
1.0
 23
0.0
 33
0.0
 40
0.0
 40
0.0
 40
0.0
 40
0.0
 40
1.0
 40
1.0
 40
1.0
 40
2.0
 40
2.0
 40
2.0
 40
3.0
 40
3.0
 40
3.0
 40
4.0
 40
4.0
 40
4.0
 40
5.0
 40
5.0
 40
5.0
 40
6.0
 40
6.0
 40
6.0
 40
7.0
 40
7.0
 40
7.0
 40
8.0
 40
8.0
 40
8.0
 40
9.0
 40
9.0
 40
9.0
 40
10.0
 40
10.0
 40
10.0
 40
11.0
 40
11.0
 40
11.0
 40
12.0
 40
12.0
 40
12.0
 40
13.0
 40
13.0
 40
13.0
 40
14.0
 40
14.0
 40
14.0
 40
15.0
 40
15.0
 40
15.0
 40
16.0
 40
16.0
 40
16.0
 40
17.0
 40
17.0
 40
17.0
 40
18.0
 40
18.0
 40
18.0
 40
19.0
 40
19.0
 40
19.0
 40
19.0
 10
123.8156982112336
 20
-157.5517957505426
 30
0.0
 10
123.8156982112336
 20
-157.6468803859355
 30
0.0
 10
123.794338619225
 20
-157.8649549301518
 30
0.0
 10
123.6083034630215
 20
-157.9896673867179
 30
0.0
 10
123.4959933502024
 20
-158.0637369396507
 30
0.0
 10
123.3967746002272
 20
-158.0678710542331
 30
0.0
 10
123.3120252512901
 20
-158.0720051688153
 30
0.0
 10
123.3120252512901
 20
-158.0720051688153
 30
0.0
 10
123.3120252512901
 20
-157.8522080768564
 30
0.0
 10
123.3120252512901
 20
-157.8522080768564
 30
0.0
 10
123.3860948042229
 20
-157.8501410195653
 30
0.0
 10
123.621050316317
 20
-157.839461223561
 30
0.0
 10
123.621050316317
 20
-157.5559298651249
 30
0.0
 10
123.621050316317
 20
-157.4184705552634
 30
0.0
 10
123.5511148779664
 20
-157.2661973348154
 30
0.0
 10
123.3227050472943
 20
-157.2661973348154
 30
0.0
 10
123.2062608198929
 20
-157.2661973348154
 30
0.0
 10
123.1576849735509
 20
-157.3044378947017
 30
0.0
 10
123.1259900950866
 20
-157.336132773166
 30
0.0
 10
123.0519205421537
 20
-157.4098578165503
 30
0.0
 10
123.0391736888583
 20
-157.5263020439518
 30
0.0
 10
123.0391736888583
 20
-157.5814235717158
 30
0.0
 10
123.0391736888583
 20
-157.6003715968846
 30
0.0
 10
123.0412407461494
 20
-157.6365450994797
 30
0.0
 10
123.0453748607317
 20
-157.6641058633618
 30
0.0
 10
123.0453748607317
 20
-157.6641058633618
 30
0.0
 10
122.8507269658151
 20
-157.6641058633618
 30
0.0
 10
122.8507269658151
 20
-157.6641058633618
 30
0.0
 10
122.8572726472371
 20
-157.6258653034755
 30
0.0
 10
122.8593397045282
 20
-157.5834906290069
 30
0.0
 10
122.8593397045282
 20
-157.5772894571335
 30
0.0
 10
122.8593397045282
 20
-157.5118326429137
 30
0.0
 10
122.8383246220682
 20
-157.3127061238663
 30
0.0
 10
122.601302052683
 20
-157.3127061238663
 30
0.0
 10
122.4235351256441
 20
-157.3127061238663
 30
0.0
 10
122.3684135978801
 20
-157.4439642618543
 30
0.0
 10
122.3684135978801
 20
-157.5538628078338
 30
0.0
 10
122.3684135978801
 20
-157.818446141101
 30
0.0
 10
122.601302052683
 20
-157.8267143702656
 30
0.0
 10
122.6733045483247
 20
-157.8308484848478
 30
0.0
 10
122.6733045483247
 20
-157.8308484848478
 30
0.0
 10
122.6733045483247
 20
-158.0341091184776
 30
0.0
 10
122.6733045483247
 20
-158.0341091184776
 30
0.0
 10
122.5482475822102
 20
-158.025840889313
 30
0.0
 10
122.1716986456724
 20
-157.998280125431
 30
0.0
 10
122.1716986456724
 20
-157.5414604640869
 30
0.0
 10
122.1716986456724
 20
-157.3168402384486
 30
0.0
 10
122.2988226690781
 20
-157.0756835544811
 30
0.0
 10
122.594756371261
 20
-157.0756835544811
 30
0.0
 10
122.7811360370131
 20
-157.0756835544811
 30
0.0
 10
122.8634738191105
 20
-157.170768189874
 30
0.0
 10
122.924796518748
 20
-157.2706759589462
 30
0.0
 10
122.95235728263
 20
-157.2090087497602
 30
0.0
 10
123.0329725169848
 20
-157.0271077081391
 30
0.0
 10
123.3099581939989
 20
-157.0271077081391
 30
0.0
 10
123.648611080199
 20
-157.0271077081391
 30
0.0
 10
123.8156982112336
 20
-157.2748100735285
 30
0.0
 10
123.8156982112336
 20
-157.5517957505426
 30
0.0
  0
HATCH
  5
72
330
6D
100
AcDbEntity
  8
_U+30EC_U+30A4_U+30E4_U+30FC 1
 62
   179
420
  2234388
100
AcDbHatch
 10
0.0
 20
0.0
 30
0.0
210
0.0
220
0.0
230
1.0
  2
SOLID
 70
     1
 71
     0
 91
        1
 92
        1
 93
        1
 72
     4
 94
        3
 73
     0
 74
     1
 95
       62
 96
       58
 40
0.0
 40
0.0
 40
0.0
 40
0.0
 40
1.0
 40
1.0
 40
1.0
 40
2.0
 40
2.0
 40
2.0
 40
3.0
 40
3.0
 40
3.0
 40
4.0
 40
4.0
 40
4.0
 40
5.0
 40
5.0
 40
5.0
 40
6.0
 40
6.0
 40
6.0
 40
7.0
 40
7.0
 40
7.0
 40
8.0
 40
8.0
 40
8.0
 40
9.0
 40
9.0
 40
9.0
 40
10.0
 40
10.0
 40
10.0
 40
11.0
 40
11.0
 40
11.0
 40
12.0
 40
12.0
 40
12.0
 40
13.0
 40
13.0
 40
13.0
 40
14.0
 40
14.0
 40
14.0
 40
15.0
 40
15.0
 40
15.0
 40
16.0
 40
16.0
 40
16.0
 40
17.0
 40
17.0
 40
17.0
 40
18.0
 40
18.0
 40
18.0
 40
19.0
 40
19.0
 40
19.0
 40
19.0
 10
123.8156982112336
 20
-157.5517957505426
 10
123.8156982112336
 20
-157.6468803859355
 10
123.794338619225
 20
-157.8649549301518
 10
123.6083034630215
 20
-157.9896673867179
 10
123.4959933502024
 20
-158.0637369396507
 10
123.3967746002272
 20
-158.0678710542331
 10
123.3120252512901
 20
-158.0720051688153
 10
123.3120252512901
 20
-158.0720051688153
 10
123.3120252512901
 20
-157.8522080768564
 10
123.3120252512901
 20
-157.8522080768564
 10
123.3860948042229
 20
-157.8501410195653
 10
123.621050316317
 20
-157.839461223561
 10
123.621050316317
 20
-157.5559298651249
 10
123.621050316317
 20
-157.4184705552634
 10
123.5511148779664
 20
-157.2661973348154
 10
123.3227050472943
 20
-157.2661973348154
 10
123.2062608198929
 20
-157.2661973348154
 10
123.1576849735509
 20
-157.3044378947017
 10
123.1259900950866
 20
-157.336132773166
 10
123.0519205421537
 20
-157.4098578165503
 10
123.0391736888583
 20
-157.5263020439518
 10
123.0391736888583
 20
-157.5814235717158
 10
123.0391736888583
 20
-157.6003715968846
 10
123.0412407461494
 20
-157.6365450994797
 10
123.0453748607317
 20
-157.6641058633618
 10
123.0453748607317
 20
-157.6641058633618
 10
122.8507269658151
 20
-157.6641058633618
 10
122.8507269658151
 20
-157.6641058633618
 10
122.8572726472371
 20
-157.6258653034755
 10
122.8593397045282
 20
-157.5834906290069
 10
122.8593397045282
 20
-157.5772894571335
 10
122.8593397045282
 20
-157.5118326429137
 10
122.8383246220682
 20
-157.3127061238663
 10
122.601302052683
 20
-157.3127061238663
 10
122.4235351256441
 20
-157.3127061238663
 10
122.3684135978801
 20
-157.4439642618543
 10
122.3684135978801
 20
-157.5538628078338
 10
122.3684135978801
 20
-157.818446141101
 10
122.601302052683
 20
-157.8267143702656
 10
122.6733045483247
 20
-157.8308484848478
 10
122.6733045483247
 20
-157.8308484848478
 10
122.6733045483247
 20
-158.0341091184776
 10
122.6733045483247
 20
-158.0341091184776
 10
122.5482475822102
 20
-158.025840889313
 10
122.1716986456724
 20
-157.998280125431
 10
122.1716986456724
 20
-157.5414604640869
 10
122.1716986456724
 20
-157.3168402384486
 10
122.2988226690781
 20
-157.0756835544811
 10
122.594756371261
 20
-157.0756835544811
 10
122.7811360370131
 20
-157.0756835544811
 10
122.8634738191105
 20
-157.170768189874
 10
122.924796518748
 20
-157.2706759589462
 10
122.95235728263
 20
-157.2090087497602
 10
123.0329725169848
 20
-157.0271077081391
 10
123.3099581939989
 20
-157.0271077081391
 10
123.648611080199
 20
-157.0271077081391
 10
123.8156982112336
 20
-157.2748100735285
 10
123.8156982112336
 20
-157.5517957505426
 97
        0
 97
        0
 75
     2
 76
     1
 98
        0
  0
POLYLINE
  5
73
330
6D
100
AcDbEntity
  8
_U+30EC_U+30A4_U+30E4_U+30FC 1
370
     0
100
AcDb2dPolyline
 66
     1
 10
0.0
 20
0.0
 30
0.0
  0
VERTEX
  5
74
330
73
100
AcDbEntity
  8
_U+30EC_U+30A4_U+30E4_U+30FC 1
370
     0
100
AcDbVertex
100
AcDb2dVertex
 10
123.7647107980519
 20
-156.8062770875345
 30
0.0
  0
VERTEX
  5
75
330
73
100
AcDbEntity
  8
_U+30EC_U+30A4_U+30E4_U+30FC 1
370
     0
100
AcDbVertex
100
AcDb2dVertex
 10
123.5132188276286
 20
-156.8062770875345
 30
0.0
  0
VERTEX
  5
76
330
73
100
AcDbEntity
  8
_U+30EC_U+30A4_U+30E4_U+30FC 1
370
     0
100
AcDbVertex
100
AcDb2dVertex
 10
123.5132188276286
 20
-156.5547851171113
 30
0.0
  0
VERTEX
  5
77
330
73
100
AcDbEntity
  8
_U+30EC_U+30A4_U+30E4_U+30FC 1
370
     0
100
AcDbVertex
100
AcDb2dVertex
 10
123.7647107980519
 20
-156.5547851171113
 30
0.0
  0
VERTEX
  5
78
330
73
100
AcDbEntity
  8
_U+30EC_U+30A4_U+30E4_U+30FC 1
370
     0
100
AcDbVertex
100
AcDb2dVertex
 10
123.7647107980519
 20
-156.8062770875345
 30
0.0
  0
SEQEND
  5
79
330
73
100
AcDbEntity
  8
_U+30EC_U+30A4_U+30E4_U+30FC 1
370
     0
  0
HATCH
  5
7A
330
6D
100
AcDbEntity
  8
_U+30EC_U+30A4_U+30E4_U+30FC 1
 62
   179
420
  2234388
100
AcDbHatch
 10
0.0
 20
0.0
 30
0.0
210
0.0
220
0.0
230
1.0
  2
SOLID
 70
     1
 71
     0
 91
        1
 92
        1
 93
        4
 72
     1
 10
123.7647107980519
 20
-156.8062770875345
 11
123.5132188276286
 21
-156.8062770875345
 72
     1
 10
123.5132188276286
 20
-156.8062770875345
 11
123.5132188276286
 21
-156.5547851171113
 72
     1
 10
123.5132188276286
 20
-156.5547851171113
 11
123.7647107980519
 21
-156.5547851171113
 72
     1
 10
123.7647107980519
 20
-156.5547851171113
 11
123.7647107980519
 21
-156.8062770875345
 97
        0
 75
     2
 76
     1
 98
        0
  0
SPLINE
  5
7B
330
6D
100
AcDbEntity
  8
_U+30EC_U+30A4_U+30E4_U+30FC 1
370
     0
100
AcDbSpline
210
0.0
220
0.0
230
1.0
 70
    11
 71
     3
 72
    53
 73
    49
 74
     0
 42
0.0000000001
 43
0.0000000001
 12
1.0
 22
0.0
 32
0.0
 13
1.0
 23
0.0
 33
0.0
 40
0.0
 40
0.0
 40
0.0
 40
0.0
 40
1.0
 40
1.0
 40
1.0
 40
2.0
 40
2.0
 40
2.0
 40
3.0
 40
3.0
 40
3.0
 40
4.0
 40
4.0
 40
4.0
 40
5.0
 40
5.0
 40
5.0
 40
6.0
 40
6.0
 40
6.0
 40
7.0
 40
7.0
 40
7.0
 40
8.0
 40
8.0
 40
8.0
 40
9.0
 40
9.0
 40
9.0
 40
10.0
 40
10.0
 40
10.0
 40
11.0
 40
11.0
 40
11.0
 40
12.0
 40
12.0
 40
12.0
 40
13.0
 40
13.0
 40
13.0
 40
14.0
 40
14.0
 40
14.0
 40
15.0
 40
15.0
 40
15.0
 40
16.0
 40
16.0
 40
16.0
 40
16.0
 10
123.8156982112336
 20
-155.8371717275338
 30
0.0
 10
123.8156982112336
 20
-155.915375395049
 30
0.0
 10
123.7984727338073
 20
-156.0170057118638
 30
0.0
 10
123.7350829768787
 20
-156.1186360286787
 30
0.0
 10
123.6251844308993
 20
-156.2922688411353
 30
0.0
 10
123.4939262929112
 20
-156.3132839235953
 30
0.0
 10
123.3860948042229
 20
-156.3322319487642
 30
0.0
 10
123.3860948042229
 20
-156.3322319487642
 30
0.0
 10
123.3860948042229
 20
-156.1103677995141
 30
0.0
 10
123.3860948042229
 20
-156.1103677995141
 30
0.0
 10
123.5848768137218
 20
-156.0552462717501
 30
0.0
 10
123.614504634895
 20
-155.9281222483444
 30
0.0
 10
123.614504634895
 20
-155.8351046702426
 30
0.0
 10
123.614504634895
 20
-155.69557830309
 30
0.0
 10
123.5152858849198
 20
-155.543305082642
 30
0.0
 10
123.2823974301169
 20
-155.543305082642
 30
0.0
 10
123.0264268355628
 20
-155.543305082642
 30
0.0
 10
122.9568359067608
 20
-155.723139066972
 30
0.0
 10
122.9568359067608
 20
-155.8437174089557
 30
0.0
 10
122.9568359067608
 20
-155.87541228742
 30
0.0
 10
122.9568359067608
 20
-156.0170057118638
 30
0.0
 10
123.0856824779091
 20
-156.1058891753833
 30
0.0
 10
123.0856824779091
 20
-156.1058891753833
 30
0.0
 10
123.0667344527403
 20
-156.2812445355825
 30
0.0
 10
123.0667344527403
 20
-156.2812445355825
 30
0.0
 10
123.0667344527403
 20
-156.2812445355825
 30
0.0
 10
122.2206190015629
 20
-156.1606661935987
 30
0.0
 10
122.2206190015629
 20
-156.1606661935987
 30
0.0
 10
122.2206190015629
 20
-156.1606661935987
 30
0.0
 10
122.2206190015629
 20
-155.3824191234808
 30
0.0
 10
122.2206190015629
 20
-155.3824191234808
 30
0.0
 10
122.2206190015629
 20
-155.3824191234808
 30
0.0
 10
122.4152668964795
 20
-155.3824191234808
 30
0.0
 10
122.4152668964795
 20
-155.3824191234808
 30
0.0
 10
122.4152668964795
 20
-155.3824191234808
 30
0.0
 10
122.4152668964795
 20
-155.9980576866949
 30
0.0
 10
122.4152668964795
 20
-155.9980576866949
 30
0.0
 10
122.4152668964795
 20
-155.9980576866949
 30
0.0
 10
122.8383246220682
 20
-156.0635145009147
 30
0.0
 10
122.8383246220682
 20
-156.0635145009147
 30
0.0
 10
122.8042181767642
 20
-156.0021918012772
 30
0.0
 10
122.7642550691353
 20
-155.9195095096312
 30
0.0
 10
122.7642550691353
 20
-155.8013427344872
 30
0.0
 10
122.7642550691353
 20
-155.5474391972243
 30
0.0
 10
122.9502902253388
 20
-155.3104166278391
 30
0.0
 10
123.263449404948
 20
-155.3104166278391
 30
0.0
 10
123.5807426991395
 20
-155.3104166278391
 30
0.0
 10
123.8156982112336
 20
-155.5346923439288
 30
0.0
 10
123.8156982112336
 20
-155.8371717275338
 30
0.0
  0
HATCH
  5
7C
330
6D
100
AcDbEntity
  8
_U+30EC_U+30A4_U+30E4_U+30FC 1
 62
   179
420
  2234388
100
AcDbHatch
 10
0.0
 20
0.0
 30
0.0
210
0.0
220
0.0
230
1.0
  2
SOLID
 70
     1
 71
     0
 91
        1
 92
        1
 93
        1
 72
     4
 94
        3
 73
     0
 74
     1
 95
       53
 96
       49
 40
0.0
 40
0.0
 40
0.0
 40
0.0
 40
1.0
 40
1.0
 40
1.0
 40
2.0
 40
2.0
 40
2.0
 40
3.0
 40
3.0
 40
3.0
 40
4.0
 40
4.0
 40
4.0
 40
5.0
 40
5.0
 40
5.0
 40
6.0
 40
6.0
 40
6.0
 40
7.0
 40
7.0
 40
7.0
 40
8.0
 40
8.0
 40
8.0
 40
9.0
 40
9.0
 40
9.0
 40
10.0
 40
10.0
 40
10.0
 40
11.0
 40
11.0
 40
11.0
 40
12.0
 40
12.0
 40
12.0
 40
13.0
 40
13.0
 40
13.0
 40
14.0
 40
14.0
 40
14.0
 40
15.0
 40
15.0
 40
15.0
 40
16.0
 40
16.0
 40
16.0
 40
16.0
 10
123.8156982112336
 20
-155.8371717275338
 10
123.8156982112336
 20
-155.915375395049
 10
123.7984727338073
 20
-156.0170057118638
 10
123.7350829768787
 20
-156.1186360286787
 10
123.6251844308993
 20
-156.2922688411353
 10
123.4939262929112
 20
-156.3132839235953
 10
123.3860948042229
 20
-156.3322319487642
 10
123.3860948042229
 20
-156.3322319487642
 10
123.3860948042229
 20
-156.1103677995141
 10
123.3860948042229
 20
-156.1103677995141
 10
123.5848768137218
 20
-156.0552462717501
 10
123.614504634895
 20
-155.9281222483444
 10
123.614504634895
 20
-155.8351046702426
 10
123.614504634895
 20
-155.69557830309
 10
123.5152858849198
 20
-155.543305082642
 10
123.2823974301169
 20
-155.543305082642
 10
123.0264268355628
 20
-155.543305082642
 10
122.9568359067608
 20
-155.723139066972
 10
122.9568359067608
 20
-155.8437174089557
 10
122.9568359067608
 20
-155.87541228742
 10
122.9568359067608
 20
-156.0170057118638
 10
123.0856824779091
 20
-156.1058891753833
 10
123.0856824779091
 20
-156.1058891753833
 10
123.0667344527403
 20
-156.2812445355825
 10
123.0667344527403
 20
-156.2812445355825
 10
123.0667344527403
 20
-156.2812445355825
 10
122.2206190015629
 20
-156.1606661935987
 10
122.2206190015629
 20
-156.1606661935987
 10
122.2206190015629
 20
-156.1606661935987
 10
122.2206190015629
 20
-155.3824191234808
 10
122.2206190015629
 20
-155.3824191234808
 10
122.2206190015629
 20
-155.3824191234808
 10
122.4152668964795
 20
-155.3824191234808
 10
122.4152668964795
 20
-155.3824191234808
 10
122.4152668964795
 20
-155.3824191234808
 10
122.4152668964795
 20
-155.9980576866949
 10
122.4152668964795
 20
-155.9980576866949
 10
122.4152668964795
 20
-155.9980576866949
 10
122.8383246220682
 20
-156.0635145009147
 10
122.8383246220682
 20
-156.0635145009147
 10
122.8042181767642
 20
-156.0021918012772
 10
122.7642550691353
 20
-155.9195095096312
 10
122.7642550691353
 20
-155.8013427344872
 10
122.7642550691353
 20
-155.5474391972243
 10
122.9502902253388
 20
-155.3104166278391
 10
123.263449404948
 20
-155.3104166278391
 10
123.5807426991395
 20
-155.3104166278391
 10
123.8156982112336
 20
-155.5346923439288
 10
123.8156982112336
 20
-155.8371717275338
 97
        0
 97
        0
 75
     2
 76
     1
 98
        0
  0
ENDBLK
  5
70
330
6D
100
AcDbEntity
  8
0
100
AcDbBlockEnd
  0
BLOCK
  5
7F
330
7D
100
AcDbEntity
  8
0
100
AcDbBlockBegin
  2
block 4
 70
     0
 10
0.0
 20
0.0
 30
0.0
  3
block 4
  1

  0
SPLINE
  5
81
330
7D
100
AcDbEntity
  8
_U+30EC_U+30A4_U+30E4_U+30FC 1
370
     0
100
AcDbSpline
210
0.0
220
0.0
230
1.0
 70
    11
 71
     3
 72
    26
 73
    22
 74
     0
 42
0.0000000001
 43
0.0000000001
 12
1.0
 22
0.0
 32
0.0
 13
1.0
 23
0.0
 33
0.0
 40
0.0
 40
0.0
 40
0.0
 40
0.0
 40
1.0
 40
1.0
 40
1.0
 40
2.0
 40
2.0
 40
2.0
 40
3.0
 40
3.0
 40
3.0
 40
4.0
 40
4.0
 40
4.0
 40
5.0
 40
5.0
 40
5.0
 40
6.0
 40
6.0
 40
6.0
 40
7.0
 40
7.0
 40
7.0
 40
7.0
 10
122.0714463670516
 20
-152.5991264809475
 30
0.0
 10
122.0714463670516
 20
-152.5991264809475
 30
0.0
 10
120.967293264029
 20
-152.5991264809475
 30
0.0
 10
120.967293264029
 20
-152.5991264809475
 30
0.0
 10
120.967293264029
 20
-152.5991264809475
 30
0.0
 10
120.967293264029
 20
-152.9291666284344
 30
0.0
 10
120.967293264029
 20
-152.9291666284344
 30
0.0
 10
120.967293264029
 20
-152.9291666284344
 30
0.0
 10
120.8191541581633
 20
-152.9291666284344
 30
0.0
 10
120.8191541581633
 20
-152.9291666284344
 30
0.0
 10
120.8043402475767
 20
-152.5970594236563
 30
0.0
 10
120.6413872311244
 20
-152.5505506346054
 30
0.0
 10
120.5273545705626
 20
-152.5209228134323
 30
0.0
 10
120.5273545705626
 20
-152.5209228134323
 30
0.0
 10
120.5273545705626
 20
-152.3748507648577
 30
0.0
 10
120.5273545705626
 20
-152.3748507648577
 30
0.0
 10
120.5273545705626
 20
-152.3748507648577
 30
0.0
 10
122.0714463670516
 20
-152.3748507648577
 30
0.0
 10
122.0714463670516
 20
-152.3748507648577
 30
0.0
 10
122.0714463670516
 20
-152.3748507648577
 30
0.0
 10
122.0714463670516
 20
-152.5991264809475
 30
0.0
 10
122.0714463670516
 20
-152.5991264809475
 30
0.0
  0
HATCH
  5
82
330
7D
100
AcDbEntity
  8
_U+30EC_U+30A4_U+30E4_U+30FC 1
 62
   179
420
  2234388
100
AcDbHatch
 10
0.0
 20
0.0
 30
0.0
210
0.0
220
0.0
230
1.0
  2
SOLID
 70
     1
 71
     0
 91
        1
 92
        1
 93
        1
 72
     4
 94
        3
 73
     0
 74
     1
 95
       26
 96
       22
 40
0.0
 40
0.0
 40
0.0
 40
0.0
 40
1.0
 40
1.0
 40
1.0
 40
2.0
 40
2.0
 40
2.0
 40
3.0
 40
3.0
 40
3.0
 40
4.0
 40
4.0
 40
4.0
 40
5.0
 40
5.0
 40
5.0
 40
6.0
 40
6.0
 40
6.0
 40
7.0
 40
7.0
 40
7.0
 40
7.0
 10
122.0714463670516
 20
-152.5991264809475
 10
122.0714463670516
 20
-152.5991264809475
 10
120.967293264029
 20
-152.5991264809475
 10
120.967293264029
 20
-152.5991264809475
 10
120.967293264029
 20
-152.5991264809475
 10
120.967293264029
 20
-152.9291666284344
 10
120.967293264029
 20
-152.9291666284344
 10
120.967293264029
 20
-152.9291666284344
 10
120.8191541581633
 20
-152.9291666284344
 10
120.8191541581633
 20
-152.9291666284344
 10
120.8043402475767
 20
-152.5970594236563
 10
120.6413872311244
 20
-152.5505506346054
 10
120.5273545705626
 20
-152.5209228134323
 10
120.5273545705626
 20
-152.5209228134323
 10
120.5273545705626
 20
-152.3748507648577
 10
120.5273545705626
 20
-152.3748507648577
 10
120.5273545705626
 20
-152.3748507648577
 10
122.0714463670516
 20
-152.3748507648577
 10
122.0714463670516
 20
-152.3748507648577
 10
122.0714463670516
 20
-152.3748507648577
 10
122.0714463670516
 20
-152.5991264809475
 10
122.0714463670516
 20
-152.5991264809475
 97
        0
 97
        0
 75
     2
 76
     1
 98
        0
  0
ENDBLK
  5
80
330
7D
100
AcDbEntity
  8
0
100
AcDbBlockEnd
  0
BLOCK
  5
85
330
83
100
AcDbEntity
  8
0
100
AcDbBlockBegin
  2
block 5
 70
     0
 10
0.0
 20
0.0
 30
0.0
  3
block 5
  1

  0
SPLINE
  5
87
330
83
100
AcDbEntity
  8
_U+30EC_U+30A4_U+30E4_U+30FC 1
370
     0
100
AcDbSpline
210
0.0
220
0.0
230
1.0
 70
    11
 71
     3
 72
    26
 73
    22
 74
     0
 42
0.0000000001
 43
0.0000000001
 12
1.0
 22
0.0
 32
0.0
 13
1.0
 23
0.0
 33
0.0
 40
0.0
 40
0.0
 40
0.0
 40
0.0
 40
1.0
 40
1.0
 40
1.0
 40
2.0
 40
2.0
 40
2.0
 40
3.0
 40
3.0
 40
3.0
 40
4.0
 40
4.0
 40
4.0
 40
5.0
 40
5.0
 40
5.0
 40
6.0
 40
6.0
 40
6.0
 40
7.0
 40
7.0
 40
7.0
 40
7.0
 10
87.49784611527832
 20
-141.4335720132527
 30
0.0
 10
87.49784611527832
 20
-141.4335720132527
 30
0.0
 10
86.39369301225575
 20
-141.4335720132527
 30
0.0
 10
86.39369301225575
 20
-141.4335720132527
 30
0.0
 10
86.39369301225575
 20
-141.4335720132527
 30
0.0
 10
86.39369301225575
 20
-141.7636121607397
 30
0.0
 10
86.39369301225575
 20
-141.7636121607397
 30
0.0
 10
86.39369301225575
 20
-141.7636121607397
 30
0.0
 10
86.24555390639
 20
-141.7636121607397
 30
0.0
 10
86.24555390639
 20
-141.7636121607397
 30
0.0
 10
86.23073999580343
 20
-141.4315049559616
 30
0.0
 10
86.06778697935111
 20
-141.3849961669107
 30
0.0
 10
85.95375431878934
 20
-141.3553683457376
 30
0.0
 10
85.95375431878934
 20
-141.3553683457376
 30
0.0
 10
85.95375431878934
 20
-141.209296297163
 30
0.0
 10
85.95375431878934
 20
-141.209296297163
 30
0.0
 10
85.95375431878934
 20
-141.209296297163
 30
0.0
 10
87.49784611527832
 20
-141.209296297163
 30
0.0
 10
87.49784611527832
 20
-141.209296297163
 30
0.0
 10
87.49784611527832
 20
-141.209296297163
 30
0.0
 10
87.49784611527832
 20
-141.4335720132527
 30
0.0
 10
87.49784611527832
 20
-141.4335720132527
 30
0.0
  0
HATCH
  5
88
330
83
100
AcDbEntity
  8
_U+30EC_U+30A4_U+30E4_U+30FC 1
 62
   179
420
  2234388
100
AcDbHatch
 10
0.0
 20
0.0
 30
0.0
210
0.0
220
0.0
230
1.0
  2
SOLID
 70
     1
 71
     0
 91
        1
 92
        1
 93
        1
 72
     4
 94
        3
 73
     0
 74
     1
 95
       26
 96
       22
 40
0.0
 40
0.0
 40
0.0
 40
0.0
 40
1.0
 40
1.0
 40
1.0
 40
2.0
 40
2.0
 40
2.0
 40
3.0
 40
3.0
 40
3.0
 40
4.0
 40
4.0
 40
4.0
 40
5.0
 40
5.0
 40
5.0
 40
6.0
 40
6.0
 40
6.0
 40
7.0
 40
7.0
 40
7.0
 40
7.0
 10
87.49784611527832
 20
-141.4335720132527
 10
87.49784611527832
 20
-141.4335720132527
 10
86.39369301225575
 20
-141.4335720132527
 10
86.39369301225575
 20
-141.4335720132527
 10
86.39369301225575
 20
-141.4335720132527
 10
86.39369301225575
 20
-141.7636121607397
 10
86.39369301225575
 20
-141.7636121607397
 10
86.39369301225575
 20
-141.7636121607397
 10
86.24555390639
 20
-141.7636121607397
 10
86.24555390639
 20
-141.7636121607397
 10
86.23073999580343
 20
-141.4315049559616
 10
86.06778697935111
 20
-141.3849961669107
 10
85.95375431878934
 20
-141.3553683457376
 10
85.95375431878934
 20
-141.3553683457376
 10
85.95375431878934
 20
-141.209296297163
 10
85.95375431878934
 20
-141.209296297163
 10
85.95375431878934
 20
-141.209296297163
 10
87.49784611527832
 20
-141.209296297163
 10
87.49784611527832
 20
-141.209296297163
 10
87.49784611527832
 20
-141.209296297163
 10
87.49784611527832
 20
-141.4335720132527
 10
87.49784611527832
 20
-141.4335720132527
 97
        0
 97
        0
 75
     2
 76
     1
 98
        0
  0
SPLINE
  5
89
330
83
100
AcDbEntity
  8
_U+30EC_U+30A4_U+30E4_U+30FC 1
370
     0
100
AcDbSpline
210
0.0
220
0.0
230
1.0
 70
    11
 71
     3
 72
    53
 73
    49
 74
     0
 42
0.0000000001
 43
0.0000000001
 12
1.0
 22
0.0
 32
0.0
 13
1.0
 23
0.0
 33
0.0
 40
0.0
 40
0.0
 40
0.0
 40
0.0
 40
1.0
 40
1.0
 40
1.0
 40
2.0
 40
2.0
 40
2.0
 40
3.0
 40
3.0
 40
3.0
 40
4.0
 40
4.0
 40
4.0
 40
5.0
 40
5.0
 40
5.0
 40
6.0
 40
6.0
 40
6.0
 40
7.0
 40
7.0
 40
7.0
 40
8.0
 40
8.0
 40
8.0
 40
9.0
 40
9.0
 40
9.0
 40
10.0
 40
10.0
 40
10.0
 40
11.0
 40
11.0
 40
11.0
 40
12.0
 40
12.0
 40
12.0
 40
13.0
 40
13.0
 40
13.0
 40
14.0
 40
14.0
 40
14.0
 40
15.0
 40
15.0
 40
15.0
 40
16.0
 40
16.0
 40
16.0
 40
16.0
 10
87.54883352846002
 20
-140.2270995743182
 30
0.0
 10
87.54883352846002
 20
-140.3054754966077
 30
0.0
 10
87.53160805103377
 20
-140.4069335586483
 30
0.0
 10
87.46821829410517
 20
-140.5085638754632
 30
0.0
 10
87.35831974812571
 20
-140.6820244331455
 30
0.0
 10
87.22706161013768
 20
-140.7032117703798
 30
0.0
 10
87.11923012144936
 20
-140.7221597955486
 30
0.0
 10
87.11923012144936
 20
-140.7221597955486
 30
0.0
 10
87.11923012144936
 20
-140.5001233915243
 30
0.0
 10
87.11923012144936
 20
-140.5001233915243
 30
0.0
 10
87.31801213094828
 20
-140.4450018637603
 30
0.0
 10
87.34763995212143
 20
-140.3180500951288
 30
0.0
 10
87.34763995212143
 20
-140.2250325170271
 30
0.0
 10
87.34763995212143
 20
-140.0855061498745
 30
0.0
 10
87.24842120214623
 20
-139.9330606746522
 30
0.0
 10
87.01553274734334
 20
-139.9330606746522
 30
0.0
 10
86.75956215278929
 20
-139.9330606746522
 30
0.0
 10
86.68997122398723
 20
-140.1128946589822
 30
0.0
 10
86.68997122398723
 20
-140.2334730009659
 30
0.0
 10
86.68997122398723
 20
-140.2651678794302
 30
0.0
 10
86.68997122398723
 20
-140.4069335586483
 30
0.0
 10
86.81881779513557
 20
-140.4958170221677
 30
0.0
 10
86.81881779513557
 20
-140.4958170221677
 30
0.0
 10
86.7998697699667
 20
-140.6713446371412
 30
0.0
 10
86.7998697699667
 20
-140.6713446371412
 30
0.0
 10
86.7998697699667
 20
-140.6713446371412
 30
0.0
 10
85.95375431878934
 20
-140.5507662951574
 30
0.0
 10
85.95375431878934
 20
-140.5507662951574
 30
0.0
 10
85.95375431878934
 20
-140.5507662951574
 30
0.0
 10
85.95375431878934
 20
-139.7723469702653
 30
0.0
 10
85.95375431878934
 20
-139.7723469702653
 30
0.0
 10
85.95375431878934
 20
-139.7723469702653
 30
0.0
 10
86.14840221370596
 20
-139.7723469702653
 30
0.0
 10
86.14840221370596
 20
-139.7723469702653
 30
0.0
 10
86.14840221370596
 20
-139.7723469702653
 30
0.0
 10
86.14840221370596
 20
-140.3879855334794
 30
0.0
 10
86.14840221370596
 20
-140.3879855334794
 30
0.0
 10
86.14840221370596
 20
-140.3879855334794
 30
0.0
 10
86.57145993929464
 20
-140.4534423476991
 30
0.0
 10
86.57145993929464
 20
-140.4534423476991
 30
0.0
 10
86.53735349399066
 20
-140.3921196480617
 30
0.0
 10
86.49739038636177
 20
-140.30960961119
 30
0.0
 10
86.49739038636177
 20
-140.1912705812716
 30
0.0
 10
86.49739038636177
 20
-139.9373670440087
 30
0.0
 10
86.68342554256526
 20
-139.7003444746235
 30
0.0
 10
86.99658472217448
 20
-139.7003444746235
 30
0.0
 10
87.31387801636598
 20
-139.7003444746235
 30
0.0
 10
87.54883352846002
 20
-139.9246201907133
 30
0.0
 10
87.54883352846002
 20
-140.2270995743182
 30
0.0
  0
HATCH
  5
8A
330
83
100
AcDbEntity
  8
_U+30EC_U+30A4_U+30E4_U+30FC 1
 62
   179
420
  2234388
100
AcDbHatch
 10
0.0
 20
0.0
 30
0.0
210
0.0
220
0.0
230
1.0
  2
SOLID
 70
     1
 71
     0
 91
        1
 92
        1
 93
        1
 72
     4
 94
        3
 73
     0
 74
     1
 95
       53
 96
       49
 40
0.0
 40
0.0
 40
0.0
 40
0.0
 40
1.0
 40
1.0
 40
1.0
 40
2.0
 40
2.0
 40
2.0
 40
3.0
 40
3.0
 40
3.0
 40
4.0
 40
4.0
 40
4.0
 40
5.0
 40
5.0
 40
5.0
 40
6.0
 40
6.0
 40
6.0
 40
7.0
 40
7.0
 40
7.0
 40
8.0
 40
8.0
 40
8.0
 40
9.0
 40
9.0
 40
9.0
 40
10.0
 40
10.0
 40
10.0
 40
11.0
 40
11.0
 40
11.0
 40
12.0
 40
12.0
 40
12.0
 40
13.0
 40
13.0
 40
13.0
 40
14.0
 40
14.0
 40
14.0
 40
15.0
 40
15.0
 40
15.0
 40
16.0
 40
16.0
 40
16.0
 40
16.0
 10
87.54883352846002
 20
-140.2270995743182
 10
87.54883352846002
 20
-140.3054754966077
 10
87.53160805103377
 20
-140.4069335586483
 10
87.46821829410517
 20
-140.5085638754632
 10
87.35831974812571
 20
-140.6820244331455
 10
87.22706161013768
 20
-140.7032117703798
 10
87.11923012144936
 20
-140.7221597955486
 10
87.11923012144936
 20
-140.7221597955486
 10
87.11923012144936
 20
-140.5001233915243
 10
87.11923012144936
 20
-140.5001233915243
 10
87.31801213094828
 20
-140.4450018637603
 10
87.34763995212143
 20
-140.3180500951288
 10
87.34763995212143
 20
-140.2250325170271
 10
87.34763995212143
 20
-140.0855061498745
 10
87.24842120214623
 20
-139.9330606746522
 10
87.01553274734334
 20
-139.9330606746522
 10
86.75956215278929
 20
-139.9330606746522
 10
86.68997122398723
 20
-140.1128946589822
 10
86.68997122398723
 20
-140.2334730009659
 10
86.68997122398723
 20
-140.2651678794302
 10
86.68997122398723
 20
-140.4069335586483
 10
86.81881779513557
 20
-140.4958170221677
 10
86.81881779513557
 20
-140.4958170221677
 10
86.7998697699667
 20
-140.6713446371412
 10
86.7998697699667
 20
-140.6713446371412
 10
86.7998697699667
 20
-140.6713446371412
 10
85.95375431878934
 20
-140.5507662951574
 10
85.95375431878934
 20
-140.5507662951574
 10
85.95375431878934
 20
-140.5507662951574
 10
85.95375431878934
 20
-139.7723469702653
 10
85.95375431878934
 20
-139.7723469702653
 10
85.95375431878934
 20
-139.7723469702653
 10
86.14840221370596
 20
-139.7723469702653
 10
86.14840221370596
 20
-139.7723469702653
 10
86.14840221370596
 20
-139.7723469702653
 10
86.14840221370596
 20
-140.3879855334794
 10
86.14840221370596
 20
-140.3879855334794
 10
86.14840221370596
 20
-140.3879855334794
 10
86.57145993929464
 20
-140.4534423476991
 10
86.57145993929464
 20
-140.4534423476991
 10
86.53735349399066
 20
-140.3921196480617
 10
86.49739038636177
 20
-140.30960961119
 10
86.49739038636177
 20
-140.1912705812716
 10
86.49739038636177
 20
-139.9373670440087
 10
86.68342554256526
 20
-139.7003444746235
 10
86.99658472217448
 20
-139.7003444746235
 10
87.31387801636598
 20
-139.7003444746235
 10
87.54883352846002
 20
-139.9246201907133
 10
87.54883352846002
 20
-140.2270995743182
 97
        0
 97
        0
 75
     2
 76
     1
 98
        0
  0
ENDBLK
  5
86
330
83
100
AcDbEntity
  8
0
100
AcDbBlockEnd
  0
BLOCK
  5
A1
330
9F
100
AcDbEntity
  8
0
100
AcDbBlockBegin
  2
block 6
 70
     0
 10
0.0
 20
0.0
 30
0.0
  3
block 6
  1

  0
SPLINE
  5
A3
330
9F
100
AcDbEntity
  8
_U+30EC_U+30A4_U+30E4_U+30FC 1
370
     0
100
AcDbSpline
210
0.0
220
0.0
230
1.0
 70
    11
 71
     3
 72
    44
 73
    40
 74
     0
 42
0.0000000001
 43
0.0000000001
 12
1.0
 22
0.0
 32
0.0
 13
1.0
 23
0.0
 33
0.0
 40
0.0
 40
0.0
 40
0.0
 40
0.0
 40
1.0
 40
1.0
 40
1.0
 40
2.0
 40
2.0
 40
2.0
 40
3.0
 40
3.0
 40
3.0
 40
4.0
 40
4.0
 40
4.0
 40
5.0
 40
5.0
 40
5.0
 40
6.0
 40
6.0
 40
6.0
 40
7.0
 40
7.0
 40
7.0
 40
8.0
 40
8.0
 40
8.0
 40
9.0
 40
9.0
 40
9.0
 40
10.0
 40
10.0
 40
10.0
 40
11.0
 40
11.0
 40
11.0
 40
12.0
 40
12.0
 40
12.0
 40
13.0
 40
13.0
 40
13.0
 40
13.0
 10
87.59585908183368
 20
-163.6819986569962
 30
0.0
 10
87.57243243253397
 20
-163.6375569252365
 30
0.0
 10
87.55141735007396
 20
-163.5848469643121
 30
0.0
 10
87.54917803800855
 20
-163.3540255668004
 30
0.0
 10
87.54504392342625
 20
-163.1108018255418
 30
0.0
 10
87.48578828107995
 20
-163.0412108967397
 30
0.0
 10
87.30802135404106
 20
-163.0412108967397
 30
0.0
 10
87.30802135404106
 20
-163.0412108967397
 30
0.0
 10
86.89977753903895
 20
-163.0412108967397
 30
0.0
 10
86.89977753903895
 20
-163.0412108967397
 30
0.0
 10
86.89977753903895
 20
-163.0412108967397
 30
0.0
 10
86.89977753903895
 20
-163.6819986569962
 30
0.0
 10
86.89977753903895
 20
-163.6819986569962
 30
0.0
 10
86.89977753903895
 20
-163.6819986569962
 30
0.0
 10
86.66499428171917
 20
-163.6819986569962
 30
0.0
 10
86.66499428171917
 20
-163.6819986569962
 30
0.0
 10
86.66499428171917
 20
-163.6819986569962
 30
0.0
 10
86.66499428171917
 20
-162.1379068605072
 30
0.0
 10
86.66499428171917
 20
-162.1379068605072
 30
0.0
 10
86.66499428171917
 20
-162.1379068605072
 30
0.0
 10
87.33971623250535
 20
-162.1379068605072
 30
0.0
 10
87.33971623250535
 20
-162.1379068605072
 30
0.0
 10
87.64650198546686
 20
-162.1379068605072
 30
0.0
 10
87.81376137127573
 20
-162.3091281061241
 30
0.0
 10
87.81376137127573
 20
-162.5650987006782
 30
0.0
 10
87.81376137127573
 20
-162.6157416043114
 30
0.0
 10
87.8051486325626
 20
-162.6984238959573
 30
0.0
 10
87.76070690080289
 20
-162.7786946207637
 30
0.0
 10
87.70162351323084
 20
-162.8823919948697
 30
0.0
 10
87.63599444423684
 20
-162.9013400200386
 30
0.0
 10
87.57467174459939
 20
-162.9182209879163
 30
0.0
 10
87.71213105446085
 20
-162.9605956623849
 30
0.0
 10
87.77982718074603
 20
-163.0095160182754
 30
0.0
 10
87.78413355010258
 20
-163.3243977456272
 30
0.0
 10
87.78826766468488
 20
-163.5951822507679
 30
0.0
 10
87.82426891250574
 20
-163.6272216387807
 30
0.0
 10
87.8919650387909
 20
-163.6819986569962
 30
0.0
 10
87.8919650387909
 20
-163.6819986569962
 30
0.0
 10
87.59585908183368
 20
-163.6819986569962
 30
0.0
 10
87.59585908183368
 20
-163.6819986569962
 30
0.0
  0
SPLINE
  5
A4
330
9F
100
AcDbEntity
  8
_U+30EC_U+30A4_U+30E4_U+30FC 1
370
     0
100
AcDbSpline
210
0.0
220
0.0
230
1.0
 70
    11
 71
     3
 72
    20
 73
    16
 74
     0
 42
0.0000000001
 43
0.0000000001
 12
1.0
 22
0.0
 32
0.0
 13
1.0
 23
0.0
 33
0.0
 40
0.0
 40
0.0
 40
0.0
 40
0.0
 40
1.0
 40
1.0
 40
1.0
 40
2.0
 40
2.0
 40
2.0
 40
3.0
 40
3.0
 40
3.0
 40
4.0
 40
4.0
 40
4.0
 40
5.0
 40
5.0
 40
5.0
 40
5.0
 10
87.34402260186191
 20
-162.3494357233015
 30
0.0
 10
87.34402260186191
 20
-162.3494357233015
 30
0.0
 10
86.89977753903895
 20
-162.3494357233015
 30
0.0
 10
86.89977753903895
 20
-162.3494357233015
 30
0.0
 10
86.89977753903895
 20
-162.3494357233015
 30
0.0
 10
86.89977753903895
 20
-162.8296820339454
 30
0.0
 10
86.89977753903895
 20
-162.8296820339454
 30
0.0
 10
86.89977753903895
 20
-162.8296820339454
 30
0.0
 10
87.34195554457077
 20
-162.8296820339454
 30
0.0
 10
87.34195554457077
 20
-162.8296820339454
 30
0.0
 10
87.44134654932023
 20
-162.8296820339454
 30
0.0
 10
87.57673880189054
 20
-162.7535454237213
 30
0.0
 10
87.57673880189054
 20
-162.5819796685559
 30
0.0
 10
87.57673880189054
 20
-162.5037760010407
 30
0.0
 10
87.54297686613509
 20
-162.3494357233015
 30
0.0
 10
87.34402260186191
 20
-162.3494357233015
 30
0.0
  0
HATCH
  5
A5
330
9F
100
AcDbEntity
  8
_U+30EC_U+30A4_U+30E4_U+30FC 1
 62
   179
420
  2234388
100
AcDbHatch
 10
0.0
 20
0.0
 30
0.0
210
0.0
220
0.0
230
1.0
  2
SOLID
 70
     1
 71
     0
 91
        2
 92
        1
 93
        1
 72
     4
 94
        3
 73
     0
 74
     1
 95
       44
 96
       40
 40
0.0
 40
0.0
 40
0.0
 40
0.0
 40
1.0
 40
1.0
 40
1.0
 40
2.0
 40
2.0
 40
2.0
 40
3.0
 40
3.0
 40
3.0
 40
4.0
 40
4.0
 40
4.0
 40
5.0
 40
5.0
 40
5.0
 40
6.0
 40
6.0
 40
6.0
 40
7.0
 40
7.0
 40
7.0
 40
8.0
 40
8.0
 40
8.0
 40
9.0
 40
9.0
 40
9.0
 40
10.0
 40
10.0
 40
10.0
 40
11.0
 40
11.0
 40
11.0
 40
12.0
 40
12.0
 40
12.0
 40
13.0
 40
13.0
 40
13.0
 40
13.0
 10
87.59585908183368
 20
-163.6819986569962
 10
87.57243243253397
 20
-163.6375569252365
 10
87.55141735007396
 20
-163.5848469643121
 10
87.54917803800855
 20
-163.3540255668004
 10
87.54504392342625
 20
-163.1108018255418
 10
87.48578828107995
 20
-163.0412108967397
 10
87.30802135404106
 20
-163.0412108967397
 10
87.30802135404106
 20
-163.0412108967397
 10
86.89977753903895
 20
-163.0412108967397
 10
86.89977753903895
 20
-163.0412108967397
 10
86.89977753903895
 20
-163.0412108967397
 10
86.89977753903895
 20
-163.6819986569962
 10
86.89977753903895
 20
-163.6819986569962
 10
86.89977753903895
 20
-163.6819986569962
 10
86.66499428171917
 20
-163.6819986569962
 10
86.66499428171917
 20
-163.6819986569962
 10
86.66499428171917
 20
-163.6819986569962
 10
86.66499428171917
 20
-162.1379068605072
 10
86.66499428171917
 20
-162.1379068605072
 10
86.66499428171917
 20
-162.1379068605072
 10
87.33971623250535
 20
-162.1379068605072
 10
87.33971623250535
 20
-162.1379068605072
 10
87.64650198546686
 20
-162.1379068605072
 10
87.81376137127573
 20
-162.3091281061241
 10
87.81376137127573
 20
-162.5650987006782
 10
87.81376137127573
 20
-162.6157416043114
 10
87.8051486325626
 20
-162.6984238959573
 10
87.76070690080289
 20
-162.7786946207637
 10
87.70162351323084
 20
-162.8823919948697
 10
87.63599444423684
 20
-162.9013400200386
 10
87.57467174459939
 20
-162.9182209879163
 10
87.71213105446085
 20
-162.9605956623849
 10
87.77982718074603
 20
-163.0095160182754
 10
87.78413355010258
 20
-163.3243977456272
 10
87.78826766468488
 20
-163.5951822507679
 10
87.82426891250574
 20
-163.6272216387807
 10
87.8919650387909
 20
-163.6819986569962
 10
87.8919650387909
 20
-163.6819986569962
 10
87.59585908183368
 20
-163.6819986569962
 10
87.59585908183368
 20
-163.6819986569962
 97
        0
 97
        0
 92
        1
 93
        1
 72
     4
 94
        3
 73
     0
 74
     1
 95
       20
 96
       16
 40
0.0
 40
0.0
 40
0.0
 40
0.0
 40
1.0
 40
1.0
 40
1.0
 40
2.0
 40
2.0
 40
2.0
 40
3.0
 40
3.0
 40
3.0
 40
4.0
 40
4.0
 40
4.0
 40
5.0
 40
5.0
 40
5.0
 40
5.0
 10
87.34402260186191
 20
-162.3494357233015
 10
87.34402260186191
 20
-162.3494357233015
 10
86.89977753903895
 20
-162.3494357233015
 10
86.89977753903895
 20
-162.3494357233015
 10
86.89977753903895
 20
-162.3494357233015
 10
86.89977753903895
 20
-162.8296820339454
 10
86.89977753903895
 20
-162.8296820339454
 10
86.89977753903895
 20
-162.8296820339454
 10
87.34195554457077
 20
-162.8296820339454
 10
87.34195554457077
 20
-162.8296820339454
 10
87.44134654932023
 20
-162.8296820339454
 10
87.57673880189054
 20
-162.7535454237213
 10
87.57673880189054
 20
-162.5819796685559
 10
87.57673880189054
 20
-162.5037760010407
 10
87.54297686613509
 20
-162.3494357233015
 10
87.34402260186191
 20
-162.3494357233015
 97
        0
 97
        0
 75
     2
 76
     1
 98
        0
  0
SPLINE
  5
A6
330
9F
100
AcDbEntity
  8
_U+30EC_U+30A4_U+30E4_U+30FC 1
370
     0
100
AcDbSpline
210
0.0
220
0.0
230
1.0
 70
    11
 71
     3
 72
    26
 73
    22
 74
     0
 42
0.0000000001
 43
0.0000000001
 12
1.0
 22
0.0
 32
0.0
 13
1.0
 23
0.0
 33
0.0
 40
0.0
 40
0.0
 40
0.0
 40
0.0
 40
1.0
 40
1.0
 40
1.0
 40
2.0
 40
2.0
 40
2.0
 40
3.0
 40
3.0
 40
3.0
 40
4.0
 40
4.0
 40
4.0
 40
5.0
 40
5.0
 40
5.0
 40
6.0
 40
6.0
 40
6.0
 40
7.0
 40
7.0
 40
7.0
 40
7.0
 10
88.4829711692855
 20
-163.6819986569962
 30
0.0
 10
88.4829711692855
 20
-163.6819986569962
 30
0.0
 10
88.4829711692855
 20
-162.5778455539736
 30
0.0
 10
88.4829711692855
 20
-162.5778455539736
 30
0.0
 10
88.4829711692855
 20
-162.5778455539736
 30
0.0
 10
88.15293102179858
 20
-162.5778455539736
 30
0.0
 10
88.15293102179858
 20
-162.5778455539736
 30
0.0
 10
88.15293102179858
 20
-162.5778455539736
 30
0.0
 10
88.15293102179858
 20
-162.4297064481079
 30
0.0
 10
88.15293102179858
 20
-162.4297064481079
 30
0.0
 10
88.48503822657666
 20
-162.4148925375213
 30
0.0
 10
88.53154701562754
 20
-162.251939521069
 30
0.0
 10
88.56117483680069
 20
-162.1379068605072
 30
0.0
 10
88.56117483680069
 20
-162.1379068605072
 30
0.0
 10
88.70724688537527
 20
-162.1379068605072
 30
0.0
 10
88.70724688537527
 20
-162.1379068605072
 30
0.0
 10
88.70724688537527
 20
-162.1379068605072
 30
0.0
 10
88.70724688537527
 20
-163.6819986569962
 30
0.0
 10
88.70724688537527
 20
-163.6819986569962
 30
0.0
 10
88.70724688537527
 20
-163.6819986569962
 30
0.0
 10
88.4829711692855
 20
-163.6819986569962
 30
0.0
 10
88.4829711692855
 20
-163.6819986569962
 30
0.0
  0
HATCH
  5
A7
330
9F
100
AcDbEntity
  8
_U+30EC_U+30A4_U+30E4_U+30FC 1
 62
   179
420
  2234388
100
AcDbHatch
 10
0.0
 20
0.0
 30
0.0
210
0.0
220
0.0
230
1.0
  2
SOLID
 70
     1
 71
     0
 91
        1
 92
        1
 93
        1
 72
     4
 94
        3
 73
     0
 74
     1
 95
       26
 96
       22
 40
0.0
 40
0.0
 40
0.0
 40
0.0
 40
1.0
 40
1.0
 40
1.0
 40
2.0
 40
2.0
 40
2.0
 40
3.0
 40
3.0
 40
3.0
 40
4.0
 40
4.0
 40
4.0
 40
5.0
 40
5.0
 40
5.0
 40
6.0
 40
6.0
 40
6.0
 40
7.0
 40
7.0
 40
7.0
 40
7.0
 10
88.4829711692855
 20
-163.6819986569962
 10
88.4829711692855
 20
-163.6819986569962
 10
88.4829711692855
 20
-162.5778455539736
 10
88.4829711692855
 20
-162.5778455539736
 10
88.4829711692855
 20
-162.5778455539736
 10
88.15293102179858
 20
-162.5778455539736
 10
88.15293102179858
 20
-162.5778455539736
 10
88.15293102179858
 20
-162.5778455539736
 10
88.15293102179858
 20
-162.4297064481079
 10
88.15293102179858
 20
-162.4297064481079
 10
88.48503822657666
 20
-162.4148925375213
 10
88.53154701562754
 20
-162.251939521069
 10
88.56117483680069
 20
-162.1379068605072
 10
88.56117483680069
 20
-162.1379068605072
 10
88.70724688537527
 20
-162.1379068605072
 10
88.70724688537527
 20
-162.1379068605072
 10
88.70724688537527
 20
-162.1379068605072
 10
88.70724688537527
 20
-163.6819986569962
 10
88.70724688537527
 20
-163.6819986569962
 10
88.70724688537527
 20
-163.6819986569962
 10
88.4829711692855
 20
-163.6819986569962
 10
88.4829711692855
 20
-163.6819986569962
 97
        0
 97
        0
 75
     2
 76
     1
 98
        0
  0
ENDBLK
  5
A2
330
9F
100
AcDbEntity
  8
0
100
AcDbBlockEnd
  0
ENDSEC
  0
SECTION
  2
ENTITIES
  0
SPLINE
  5
41
330
1F
100
AcDbEntity
  8
_U+30EC_U+30A4_U+30E4_U+30FC 1
370
     0
100
AcDbSpline
210
0.0
220
0.0
230
1.0
 70
    11
 71
     3
 72
    53
 73
    49
 74
     0
 42
0.0000000001
 43
0.0000000001
 12
1.0
 22
0.0
 32
0.0
 13
1.0
 23
0.0
 33
0.0
 40
0.0
 40
0.0
 40
0.0
 40
0.0
 40
1.0
 40
1.0
 40
1.0
 40
2.0
 40
2.0
 40
2.0
 40
3.0
 40
3.0
 40
3.0
 40
4.0
 40
4.0
 40
4.0
 40
5.0
 40
5.0
 40
5.0
 40
6.0
 40
6.0
 40
6.0
 40
7.0
 40
7.0
 40
7.0
 40
8.0
 40
8.0
 40
8.0
 40
9.0
 40
9.0
 40
9.0
 40
10.0
 40
10.0
 40
10.0
 40
11.0
 40
11.0
 40
11.0
 40
12.0
 40
12.0
 40
12.0
 40
13.0
 40
13.0
 40
13.0
 40
14.0
 40
14.0
 40
14.0
 40
15.0
 40
15.0
 40
15.0
 40
16.0
 40
16.0
 40
16.0
 40
16.0
 10
101.5484581163636
 20
-158.4397045163254
 30
0.0
 10
101.5484581163636
 20
-158.4397045163254
 30
0.0
 10
93.10613320460162
 20
-158.4365393348483
 30
0.0
 10
93.10613320460162
 20
-158.4365393348483
 30
0.0
 10
93.10613320460162
 20
-158.4365393348483
 30
0.0
 10
91.59024543591728
 20
-158.5543616004439
 30
0.0
 10
91.59024543591728
 20
-157.29424256525
 30
0.0
 10
91.59024543591728
 20
-157.29424256525
 30
0.0
 10
91.59024543591728
 20
-148.4395181920568
 30
0.0
 10
91.59024543591728
 20
-148.4395181920568
 30
0.0
 10
91.59024543591728
 20
-148.4395181920568
 30
0.0
 10
95.08098305338498
 20
-148.4395181920568
 30
0.0
 10
95.08098305338498
 20
-148.4395181920568
 30
0.0
 10
95.08098305338498
 20
-148.4395181920568
 30
0.0
 10
95.08098305338498
 20
-133.4394217263515
 30
0.0
 10
95.08098305338498
 20
-133.4394217263515
 30
0.0
 10
95.08098305338498
 20
-133.4394217263515
 30
0.0
 10
96.08075514616618
 20
-133.4394217263515
 30
0.0
 10
96.08075514616618
 20
-133.4394217263515
 30
0.0
 10
96.08075514616618
 20
-133.4394217263515
 30
0.0
 10
96.08075514616618
 20
-149.4399954528201
 30
0.0
 10
96.08075514616618
 20
-149.4399954528201
 30
0.0
 10
96.08075514616618
 20
-149.4399954528201
 30
0.0
 10
92.59001752869847
 20
-149.4399954528201
 30
0.0
 10
92.59001752869847
 20
-149.4399954528201
 30
0.0
 10
92.59001752869847
 20
-149.4399954528201
 30
0.0
 10
92.59001752869847
 20
-156.624311450373
 30
0.0
 10
92.59001752869847
 20
-156.624311450373
 30
0.0
 10
92.59001752869847
 20
-156.624311450373
 30
0.0
 10
92.52193113769037
 20
-157.4399378065059
 30
0.0
 10
93.21760895835826
 20
-157.4399378065059
 30
0.0
 10
93.21760895835826
 20
-157.4399378065059
 30
0.0
 10
100.5483307481105
 20
-157.4399378065059
 30
0.0
 10
100.5483307481105
 20
-157.4399378065059
 30
0.0
 10
100.5483307481105
 20
-157.4399378065059
 30
0.0
 10
100.5483307481105
 20
-153.9417878507832
 30
0.0
 10
100.5483307481105
 20
-153.9417878507832
 30
0.0
 10
100.5483307481105
 20
-153.9417878507832
 30
0.0
 10
116.5905470662571
 20
-153.9417878507832
 30
0.0
 10
116.5905470662571
 20
-153.9417878507832
 30
0.0
 10
116.5905470662571
 20
-153.9417878507832
 30
0.0
 10
116.5905470662571
 20
-154.9398104810133
 30
0.0
 10
116.5905470662571
 20
-154.9398104810133
 30
0.0
 10
116.5905470662571
 20
-154.9398104810133
 30
0.0
 10
101.5484581163636
 20
-154.9398104810133
 30
0.0
 10
101.5484581163636
 20
-154.9398104810133
 30
0.0
 10
101.5484581163636
 20
-154.9398104810133
 30
0.0
 10
101.5484581163636
 20
-158.4397045163254
 30
0.0
 10
101.5484581163636
 20
-158.4397045163254
 30
0.0
  0
HATCH
  5
42
330
1F
100
AcDbEntity
  8
_U+30EC_U+30A4_U+30E4_U+30FC 1
 62
     9
420
 12566464
100
AcDbHatch
 10
0.0
 20
0.0
 30
0.0
210
0.0
220
0.0
230
1.0
  2
SOLID
 70
     1
 71
     0
 91
        1
 92
        1
 93
        2
 72
     4
 94
        3
 73
     0
 74
     0
 95
       53
 96
       49
 40
0.0
 40
0.0
 40
0.0
 40
0.0
 40
0.3527777776895833
 40
0.3527777776895833
 40
0.3527777776895833
 40
0.7055555553791667
 40
0.7055555553791667
 40
0.7055555553791667
 40
1.05833333306875
 40
1.05833333306875
 40
1.05833333306875
 40
1.411111110758333
 40
1.411111110758333
 40
1.411111110758333
 40
1.763888888447917
 40
1.763888888447917
 40
1.763888888447917
 40
2.1166666661375
 40
2.1166666661375
 40
2.1166666661375
 40
2.469444443827083
 40
2.469444443827083
 40
2.469444443827083
 40
2.822222221516667
 40
2.822222221516667
 40
2.822222221516667
 40
3.17499999920625
 40
3.17499999920625
 40
3.17499999920625
 40
3.527777776895833
 40
3.527777776895833
 40
3.527777776895833
 40
3.880555554585417
 40
3.880555554585417
 40
3.880555554585417
 40
4.233333332275
 40
4.233333332275
 40
4.233333332275
 40
4.586111109964584
 40
4.586111109964584
 40
4.586111109964584
 40
4.938888887654167
 40
4.938888887654167
 40
4.938888887654167
 40
5.29166666534375
 40
5.29166666534375
 40
5.29166666534375
 40
5.644444443033334
 40
5.644444443033334
 40
5.644444443033334
 40
5.644444443033334
 10
101.5484581163636
 20
-158.4397045163254
 10
101.5484581163636
 20
-158.4397045163254
 10
93.10613320460162
 20
-158.4365393348483
 10
93.10613320460162
 20
-158.4365393348483
 10
93.10613320460162
 20
-158.4365393348483
 10
91.59024543591728
 20
-158.5543616004439
 10
91.59024543591728
 20
-157.29424256525
 10
91.59024543591728
 20
-157.29424256525
 10
91.59024543591728
 20
-148.4395181920568
 10
91.59024543591728
 20
-148.4395181920568
 10
91.59024543591728
 20
-148.4395181920568
 10
95.08098305338498
 20
-148.4395181920568
 10
95.08098305338498
 20
-148.4395181920568
 10
95.08098305338498
 20
-148.4395181920568
 10
95.08098305338498
 20
-133.4394217263515
 10
95.08098305338498
 20
-133.4394217263515
 10
95.08098305338498
 20
-133.4394217263515
 10
96.08075514616618
 20
-133.4394217263515
 10
96.08075514616618
 20
-133.4394217263515
 10
96.08075514616618
 20
-133.4394217263515
 10
96.08075514616618
 20
-149.4399954528201
 10
96.08075514616618
 20
-149.4399954528201
 10
96.08075514616618
 20
-149.4399954528201
 10
92.59001752869847
 20
-149.4399954528201
 10
92.59001752869847
 20
-149.4399954528201
 10
92.59001752869847
 20
-149.4399954528201
 10
92.59001752869847
 20
-156.624311450373
 10
92.59001752869847
 20
-156.624311450373
 10
92.59001752869847
 20
-156.624311450373
 10
92.52193113769037
 20
-157.4399378065059
 10
93.21760895835826
 20
-157.4399378065059
 10
93.21760895835826
 20
-157.4399378065059
 10
100.5483307481105
 20
-157.4399378065059
 10
100.5483307481105
 20
-157.4399378065059
 10
100.5483307481105
 20
-157.4399378065059
 10
100.5483307481105
 20
-153.9417878507832
 10
100.5483307481105
 20
-153.9417878507832
 10
100.5483307481105
 20
-153.9417878507832
 10
116.5905470662571
 20
-153.9417878507832
 10
116.5905470662571
 20
-153.9417878507832
 10
116.5905470662571
 20
-153.9417878507832
 10
116.5905470662571
 20
-154.9398104810133
 10
116.5905470662571
 20
-154.9398104810133
 10
116.5905470662571
 20
-154.9398104810133
 10
101.5484581163636
 20
-154.9398104810133
 10
101.5484581163636
 20
-154.9398104810133
 10
101.5484581163636
 20
-154.9398104810133
 10
101.5484581163636
 20
-158.4397045163254
 10
101.5484581163636
 20
-158.4397045163254
 97
        0
 72
     1
 10
101.5484581163636
 20
-158.4397045163254
 11
101.5484581163636
 21
-158.4397045163254
 97
        0
 75
     2
 76
     1
 98
        0
  0
SPLINE
  5
43
330
1F
100
AcDbEntity
  8
_U+30EC_U+30A4_U+30E4_U+30FC 1
 62
   179
420
  2234388
370
    25
100
AcDbSpline
210
0.0
220
0.0
230
1.0
 70
    11
 71
     3
 72
    53
 73
    49
 74
     0
 42
0.0000000001
 43
0.0000000001
 12
1.0
 22
0.0
 32
0.0
 13
1.0
 23
0.0
 33
0.0
 40
0.0
 40
0.0
 40
0.0
 40
0.0
 40
1.0
 40
1.0
 40
1.0
 40
2.0
 40
2.0
 40
2.0
 40
3.0
 40
3.0
 40
3.0
 40
4.0
 40
4.0
 40
4.0
 40
5.0
 40
5.0
 40
5.0
 40
6.0
 40
6.0
 40
6.0
 40
7.0
 40
7.0
 40
7.0
 40
8.0
 40
8.0
 40
8.0
 40
9.0
 40
9.0
 40
9.0
 40
10.0
 40
10.0
 40
10.0
 40
11.0
 40
11.0
 40
11.0
 40
12.0
 40
12.0
 40
12.0
 40
13.0
 40
13.0
 40
13.0
 40
14.0
 40
14.0
 40
14.0
 40
15.0
 40
15.0
 40
15.0
 40
16.0
 40
16.0
 40
16.0
 40
16.0
 10
101.5484581163636
 20
-158.4397045163254
 30
0.0
 10
101.5484581163636
 20
-158.4397045163254
 30
0.0
 10
93.10613320460162
 20
-158.4365393348483
 30
0.0
 10
93.10613320460162
 20
-158.4365393348483
 30
0.0
 10
93.10613320460162
 20
-158.4365393348483
 30
0.0
 10
91.59024543591728
 20
-158.5543616004439
 30
0.0
 10
91.59024543591728
 20
-157.29424256525
 30
0.0
 10
91.59024543591728
 20
-157.29424256525
 30
0.0
 10
91.59024543591728
 20
-148.4395181920568
 30
0.0
 10
91.59024543591728
 20
-148.4395181920568
 30
0.0
 10
91.59024543591728
 20
-148.4395181920568
 30
0.0
 10
95.08098305338498
 20
-148.4395181920568
 30
0.0
 10
95.08098305338498
 20
-148.4395181920568
 30
0.0
 10
95.08098305338498
 20
-148.4395181920568
 30
0.0
 10
95.08098305338498
 20
-133.4394217263515
 30
0.0
 10
95.08098305338498
 20
-133.4394217263515
 30
0.0
 10
95.08098305338498
 20
-133.4394217263515
 30
0.0
 10
96.08075514616618
 20
-133.4394217263515
 30
0.0
 10
96.08075514616618
 20
-133.4394217263515
 30
0.0
 10
96.08075514616618
 20
-133.4394217263515
 30
0.0
 10
96.08075514616618
 20
-149.4399954528201
 30
0.0
 10
96.08075514616618
 20
-149.4399954528201
 30
0.0
 10
96.08075514616618
 20
-149.4399954528201
 30
0.0
 10
92.59001752869847
 20
-149.4399954528201
 30
0.0
 10
92.59001752869847
 20
-149.4399954528201
 30
0.0
 10
92.59001752869847
 20
-149.4399954528201
 30
0.0
 10
92.59001752869847
 20
-156.624311450373
 30
0.0
 10
92.59001752869847
 20
-156.624311450373
 30
0.0
 10
92.59001752869847
 20
-156.624311450373
 30
0.0
 10
92.52193113769037
 20
-157.4399378065059
 30
0.0
 10
93.21760895835826
 20
-157.4399378065059
 30
0.0
 10
93.21760895835826
 20
-157.4399378065059
 30
0.0
 10
100.5483307481105
 20
-157.4399378065059
 30
0.0
 10
100.5483307481105
 20
-157.4399378065059
 30
0.0
 10
100.5483307481105
 20
-157.4399378065059
 30
0.0
 10
100.5483307481105
 20
-153.9417878507832
 30
0.0
 10
100.5483307481105
 20
-153.9417878507832
 30
0.0
 10
100.5483307481105
 20
-153.9417878507832
 30
0.0
 10
116.5905470662571
 20
-153.9417878507832
 30
0.0
 10
116.5905470662571
 20
-153.9417878507832
 30
0.0
 10
116.5905470662571
 20
-153.9417878507832
 30
0.0
 10
116.5905470662571
 20
-154.9398104810133
 30
0.0
 10
116.5905470662571
 20
-154.9398104810133
 30
0.0
 10
116.5905470662571
 20
-154.9398104810133
 30
0.0
 10
101.5484581163636
 20
-154.9398104810133
 30
0.0
 10
101.5484581163636
 20
-154.9398104810133
 30
0.0
 10
101.5484581163636
 20
-154.9398104810133
 30
0.0
 10
101.5484581163636
 20
-158.4397045163254
 30
0.0
 10
101.5484581163636
 20
-158.4397045163254
 30
0.0
  0
POLYLINE
  5
44
330
1F
100
AcDbEntity
  8
_U+30EC_U+30A4_U+30E4_U+30FC 1
 62
   179
420
  2234388
370
     9
100
AcDb2dPolyline
 66
     1
 10
0.0
 20
0.0
 30
0.0
  0
VERTEX
  5
45
330
44
100
AcDbEntity
  8
_U+30EC_U+30A4_U+30E4_U+30FC 1
 62
   179
420
  2234388
370
     9
100
AcDbVertex
100
AcDb2dVertex
 10
88.13775376129755
 20
-158.4365608666951
 30
0.0
  0
VERTEX
  5
46
330
44
100
AcDbEntity
  8
_U+30EC_U+30A4_U+30E4_U+30FC 1
 62
   179
420
  2234388
370
     9
100
AcDbVertex
100
AcDb2dVertex
 10
88.13775376129755
 20
-148.4367405838218
 30
0.0
  0
SEQEND
  5
47
330
44
100
AcDbEntity
  8
_U+30EC_U+30A4_U+30E4_U+30FC 1
 62
   179
420
  2234388
370
     9
  0
POLYLINE
  5
48
330
1F
100
AcDbEntity
  8
_U+30EC_U+30A4_U+30E4_U+30FC 1
 62
   179
420
  2234388
370
     9
100
AcDb2dPolyline
 66
     1
 10
0.0
 20
0.0
 30
0.0
  0
VERTEX
  5
49
330
48
100
AcDbEntity
  8
_U+30EC_U+30A4_U+30E4_U+30FC 1
 62
   179
420
  2234388
370
     9
100
AcDbVertex
100
AcDb2dVertex
 10
88.13775376129755
 20
-148.4399272971457
 30
0.0
  0
VERTEX
  5
4A
330
48
100
AcDbEntity
  8
_U+30EC_U+30A4_U+30E4_U+30FC 1
 62
   179
420
  2234388
370
     9
100
AcDbVertex
100
AcDb2dVertex
 10
88.13775376129755
 20
-133.4398308314404
 30
0.0
  0
SEQEND
  5
4B
330
48
100
AcDbEntity
  8
_U+30EC_U+30A4_U+30E4_U+30FC 1
 62
   179
420
  2234388
370
     9
  0
POLYLINE
  5
4C
330
1F
100
AcDbEntity
  8
_U+30EC_U+30A4_U+30E4_U+30FC 1
 62
   179
420
  2234388
370
     9
100
AcDb2dPolyline
 66
     1
 10
0.0
 20
0.0
 30
0.0
  0
VERTEX
  5
4D
330
4C
100
AcDbEntity
  8
_U+30EC_U+30A4_U+30E4_U+30FC 1
 62
   179
420
  2234388
370
     9
100
AcDbVertex
100
AcDb2dVertex
 10
89.9929053823344
 20
-158.4365608666951
 30
0.0
  0
VERTEX
  5
4E
330
4C
100
AcDbEntity
  8
_U+30EC_U+30A4_U+30E4_U+30FC 1
 62
   179
420
  2234388
370
     9
100
AcDbVertex
100
AcDb2dVertex
 10
87.23770910837179
 20
-158.4365608666951
 30
0.0
  0
SEQEND
  5
4F
330
4C
100
AcDbEntity
  8
_U+30EC_U+30A4_U+30E4_U+30FC 1
 62
   179
420
  2234388
370
     9
  0
POLYLINE
  5
50
330
1F
100
AcDbEntity
  8
_U+30EC_U+30A4_U+30E4_U+30FC 1
 62
   179
420
  2234388
370
     9
100
AcDb2dPolyline
 66
     1
 10
0.0
 20
0.0
 30
0.0
  0
VERTEX
  5
51
330
50
100
AcDbEntity
  8
_U+30EC_U+30A4_U+30E4_U+30FC 1
 62
   179
420
  2234388
370
     9
100
AcDbVertex
100
AcDb2dVertex
 10
121.5217490846098
 20
-158.4369484399372
 30
0.0
  0
VERTEX
  5
52
330
50
100
AcDbEntity
  8
_U+30EC_U+30A4_U+30E4_U+30FC 1
 62
   179
420
  2234388
370
     9
100
AcDbVertex
100
AcDb2dVertex
 10
102.523603159387
 20
-158.4369484399372
 30
0.0
  0
SEQEND
  5
53
330
50
100
AcDbEntity
  8
_U+30EC_U+30A4_U+30E4_U+30FC 1
 62
   179
420
  2234388
370
     9
  0
POLYLINE
  5
54
330
1F
100
AcDbEntity
  8
_U+30EC_U+30A4_U+30E4_U+30FC 1
 62
   179
420
  2234388
370
     9
100
AcDb2dPolyline
 66
     1
 10
0.0
 20
0.0
 30
0.0
  0
VERTEX
  5
55
330
54
100
AcDbEntity
  8
_U+30EC_U+30A4_U+30E4_U+30FC 1
 62
   179
420
  2234388
370
     9
100
AcDbVertex
100
AcDb2dVertex
 10
121.5217490846098
 20
-154.9320805480183
 30
0.0
  0
VERTEX
  5
56
330
54
100
AcDbEntity
  8
_U+30EC_U+30A4_U+30E4_U+30FC 1
 62
   179
420
  2234388
370
     9
100
AcDbVertex
100
AcDb2dVertex
 10
117.3543839479156
 20
-154.9320805480183
 30
0.0
  0
SEQEND
  5
57
330
54
100
AcDbEntity
  8
_U+30EC_U+30A4_U+30E4_U+30FC 1
 62
   179
420
  2234388
370
     9
  0
POLYLINE
  5
58
330
1F
100
AcDbEntity
  8
_U+30EC_U+30A4_U+30E4_U+30FC 1
 62
   179
420
  2234388
370
     9
100
AcDb2dPolyline
 66
     1
 10
0.0
 20
0.0
 30
0.0
  0
VERTEX
  5
59
330
58
100
AcDbEntity
  8
_U+30EC_U+30A4_U+30E4_U+30FC 1
 62
   179
420
  2234388
370
     9
100
AcDbVertex
100
AcDb2dVertex
 10
121.5217490846098
 20
-153.9347038731917
 30
0.0
  0
VERTEX
  5
5A
330
58
100
AcDbEntity
  8
_U+30EC_U+30A4_U+30E4_U+30FC 1
 62
   179
420
  2234388
370
     9
100
AcDbVertex
100
AcDb2dVertex
 10
117.3543839479156
 20
-153.9347038731917
 30
0.0
  0
SEQEND
  5
5B
330
58
100
AcDbEntity
  8
_U+30EC_U+30A4_U+30E4_U+30FC 1
 62
   179
420
  2234388
370
     9
  0
POLYLINE
  5
5C
330
1F
100
AcDbEntity
  8
_U+30EC_U+30A4_U+30E4_U+30FC 1
 62
   179
420
  2234388
370
     9
100
AcDb2dPolyline
 66
     1
 10
0.0
 20
0.0
 30
0.0
  0
VERTEX
  5
5D
330
5C
100
AcDbEntity
  8
_U+30EC_U+30A4_U+30E4_U+30FC 1
 62
   179
420
  2234388
370
     9
100
AcDbVertex
100
AcDb2dVertex
 10
89.81136499914683
 20
-148.4423603958321
 30
0.0
  0
VERTEX
  5
5E
330
5C
100
AcDbEntity
  8
_U+30EC_U+30A4_U+30E4_U+30FC 1
 62
   179
420
  2234388
370
     9
100
AcDbVertex
100
AcDb2dVertex
 10
87.23784906537587
 20
-148.4423603958321
 30
0.0
  0
SEQEND
  5
5F
330
5C
100
AcDbEntity
  8
_U+30EC_U+30A4_U+30E4_U+30FC 1
 62
   179
420
  2234388
370
     9
  0
POLYLINE
  5
60
330
1F
100
AcDbEntity
  8
_U+30EC_U+30A4_U+30E4_U+30FC 1
 62
   179
420
  2234388
370
     9
100
AcDb2dPolyline
 66
     1
 10
0.0
 20
0.0
 30
0.0
  0
VERTEX
  5
61
330
60
100
AcDbEntity
  8
_U+30EC_U+30A4_U+30E4_U+30FC 1
 62
   179
420
  2234388
370
     9
100
AcDbVertex
100
AcDb2dVertex
 10
93.9637358960376
 20
-133.4393355989644
 30
0.0
  0
VERTEX
  5
62
330
60
100
AcDbEntity
  8
_U+30EC_U+30A4_U+30E4_U+30FC 1
 62
   179
420
  2234388
370
     9
100
AcDbVertex
100
AcDb2dVertex
 10
87.23802670311183
 20
-133.4393355989644
 30
0.0
  0
SEQEND
  5
63
330
60
100
AcDbEntity
  8
_U+30EC_U+30A4_U+30E4_U+30FC 1
 62
   179
420
  2234388
370
     9
  0
INSERT
  5
65
330
1F
100
AcDbEntity
  8
_U+30EC_U+30A4_U+30E4_U+30FC 1
100
AcDbBlockReference
  2
block 2
 10
0.0
 20
0.0
 30
0.0
  0
INSERT
  5
6E
330
1F
100
AcDbEntity
  8
_U+30EC_U+30A4_U+30E4_U+30FC 1
100
AcDbBlockReference
  2
block 3
 10
0.0
 20
0.0
 30
0.0
  0
INSERT
  5
7E
330
1F
100
AcDbEntity
  8
_U+30EC_U+30A4_U+30E4_U+30FC 1
100
AcDbBlockReference
  2
block 4
 10
0.0
 20
0.0
 30
0.0
  0
INSERT
  5
84
330
1F
100
AcDbEntity
  8
_U+30EC_U+30A4_U+30E4_U+30FC 1
100
AcDbBlockReference
  2
block 5
 10
0.0
 20
0.0
 30
0.0
  0
POLYLINE
  5
8B
330
1F
100
AcDbEntity
  8
_U+30EC_U+30A4_U+30E4_U+30FC 1
 62
   179
420
  2234388
370
     9
100
AcDb2dPolyline
 66
     1
 10
0.0
 20
0.0
 30
0.0
  0
VERTEX
  5
8C
330
8B
100
AcDbEntity
  8
_U+30EC_U+30A4_U+30E4_U+30FC 1
 62
   179
420
  2234388
370
     9
100
AcDbVertex
100
AcDb2dVertex
 10
120.053454771758
 20
-158.437271417639
 30
0.0
  0
VERTEX
  5
8D
330
8B
100
AcDbEntity
  8
_U+30EC_U+30A4_U+30E4_U+30FC 1
 62
   179
420
  2234388
370
     9
100
AcDbVertex
100
AcDb2dVertex
 10
120.053454771758
 20
-154.9373773823269
 30
0.0
  0
SEQEND
  5
8E
330
8B
100
AcDbEntity
  8
_U+30EC_U+30A4_U+30E4_U+30FC 1
 62
   179
420
  2234388
370
     9
  0
POLYLINE
  5
8F
330
1F
100
AcDbEntity
  8
_U+30EC_U+30A4_U+30E4_U+30FC 1
 62
   179
420
  2234388
370
     9
100
AcDb2dPolyline
 66
     1
 10
0.0
 20
0.0
 30
0.0
  0
VERTEX
  5
90
330
8F
100
AcDbEntity
  8
_U+30EC_U+30A4_U+30E4_U+30FC 1
 62
   179
420
  2234388
370
     9
100
AcDbVertex
100
AcDb2dVertex
 10
120.053454771758
 20
-154.9348150925597
 30
0.0
  0
VERTEX
  5
91
330
8F
100
AcDbEntity
  8
_U+30EC_U+30A4_U+30E4_U+30FC 1
 62
   179
420
  2234388
370
     9
100
AcDbVertex
100
AcDb2dVertex
 10
120.053454771758
 20
-153.9347038731917
 30
0.0
  0
SEQEND
  5
92
330
8F
100
AcDbEntity
  8
_U+30EC_U+30A4_U+30E4_U+30FC 1
 62
   179
420
  2234388
370
     9
  0
POLYLINE
  5
93
330
1F
100
AcDbEntity
  8
_U+30EC_U+30A4_U+30E4_U+30FC 1
 62
   179
420
  2234388
370
     9
100
AcDb2dPolyline
 66
     1
 10
0.0
 20
0.0
 30
0.0
  0
VERTEX
  5
94
330
93
100
AcDbEntity
  8
_U+30EC_U+30A4_U+30E4_U+30FC 1
 62
   179
420
  2234388
370
     9
100
AcDbVertex
100
AcDb2dVertex
 10
90.87728292524483
 20
-158.9161612219355
 30
0.0
  0
VERTEX
  5
95
330
93
100
AcDbEntity
  8
_U+30EC_U+30A4_U+30E4_U+30FC 1
 62
   179
420
  2234388
370
     9
100
AcDbVertex
100
AcDb2dVertex
 10
91.6569214909611
 20
-158.4663717085659
 30
0.0
  0
SEQEND
  5
96
330
93
100
AcDbEntity
  8
_U+30EC_U+30A4_U+30E4_U+30FC 1
 62
   179
420
  2234388
370
     9
  0
POLYLINE
  5
97
330
1F
100
AcDbEntity
  8
_U+30EC_U+30A4_U+30E4_U+30FC 1
 62
   179
420
  2234388
370
     9
100
AcDb2dPolyline
 66
     1
 10
0.0
 20
0.0
 30
0.0
  0
VERTEX
  5
98
330
97
100
AcDbEntity
  8
_U+30EC_U+30A4_U+30E4_U+30FC 1
 62
   179
420
  2234388
370
     9
100
AcDbVertex
100
AcDb2dVertex
 10
91.20663674511556
 20
-159.2454800525552
 30
0.0
  0
VERTEX
  5
99
330
97
100
AcDbEntity
  8
_U+30EC_U+30A4_U+30E4_U+30FC 1
 62
   179
420
  2234388
370
     9
100
AcDbVertex
100
AcDb2dVertex
 10
91.65677884247616
 20
-158.4661994537917
 30
0.0
  0
SEQEND
  5
9A
330
97
100
AcDbEntity
  8
_U+30EC_U+30A4_U+30E4_U+30FC 1
 62
   179
420
  2234388
370
     9
  0
POLYLINE
  5
9B
330
1F
100
AcDbEntity
  8
_U+30EC_U+30A4_U+30E4_U+30FC 1
 62
   179
420
  2234388
370
     9
100
AcDb2dPolyline
 66
     1
 10
0.0
 20
0.0
 30
0.0
  0
VERTEX
  5
9C
330
9B
100
AcDbEntity
  8
_U+30EC_U+30A4_U+30E4_U+30FC 1
 62
   179
420
  2234388
370
     9
100
AcDbVertex
100
AcDb2dVertex
 10
88.53840221734701
 20
-161.584678355193
 30
0.0
  0
VERTEX
  5
9D
330
9B
100
AcDbEntity
  8
_U+30EC_U+30A4_U+30E4_U+30FC 1
 62
   179
420
  2234388
370
     9
100
AcDbVertex
100
AcDb2dVertex
 10
91.65695648021212
 20
-158.4661240923279
 30
0.0
  0
SEQEND
  5
9E
330
9B
100
AcDbEntity
  8
_U+30EC_U+30A4_U+30E4_U+30FC 1
 62
   179
420
  2234388
370
     9
  0
INSERT
  5
A0
330
1F
100
AcDbEntity
  8
_U+30EC_U+30A4_U+30E4_U+30FC 1
100
AcDbBlockReference
  2
block 6
 10
0.0
 20
0.0
 30
0.0
  0
SPLINE
  5
A8
330
1F
100
AcDbEntity
  8
_U+30EC_U+30A4_U+30E4_U+30FC 1
 62
   179
420
  2234388
370
     9
100
AcDbSpline
210
0.0
220
0.0
230
1.0
 70
    11
 71
     3
 72
    17
 73
    13
 74
     0
 42
0.0000000001
 43
0.0000000001
 12
1.0
 22
0.0
 32
0.0
 13
1.0
 23
0.0
 33
0.0
 40
0.0
 40
0.0
 40
0.0
 40
0.0
 40
1.0
 40
1.0
 40
1.0
 40
2.0
 40
2.0
 40
2.0
 40
3.0
 40
3.0
 40
3.0
 40
4.0
 40
4.0
 40
4.0
 40
4.0
 10
88.23180486804486
 20
-133.4396801085129
 30
0.0
 10
88.23180486804486
 20
-133.3846662399831
 30
0.0
 10
88.18699978637068
 20
-133.3398584668278
 30
0.0
 10
88.13196707747466
 20
-133.3398584668278
 30
0.0
 10
88.07693436857865
 20
-133.3398584668278
 30
0.0
 10
88.03213197838531
 20
-133.3846662399831
 30
0.0
 10
88.03213197838531
 20
-133.4396801085129
 30
0.0
 10
88.03213197838531
 20
-133.4954260598339
 30
0.0
 10
88.07693436857865
 20
-133.5402338329886
 30
0.0
 10
88.13196707747466
 20
-133.5402338329886
 30
0.0
 10
88.18699978637068
 20
-133.5402338329886
 30
0.0
 10
88.23180486804486
 20
-133.4954260598339
 30
0.0
 10
88.23180486804486
 20
-133.4396801085129
 30
0.0
  0
SPLINE
  5
A9
330
1F
100
AcDbEntity
  8
_U+30EC_U+30A4_U+30E4_U+30FC 1
 62
   179
420
  2234388
370
     9
100
AcDbSpline
210
0.0
220
0.0
230
1.0
 70
    11
 71
     3
 72
    17
 73
    13
 74
     0
 42
0.0000000001
 43
0.0000000001
 12
1.0
 22
0.0
 32
0.0
 13
1.0
 23
0.0
 33
0.0
 40
0.0
 40
0.0
 40
0.0
 40
0.0
 40
1.0
 40
1.0
 40
1.0
 40
2.0
 40
2.0
 40
2.0
 40
3.0
 40
3.0
 40
3.0
 40
4.0
 40
4.0
 40
4.0
 40
4.0
 10
88.2369536709068
 20
-148.4361592239587
 30
0.0
 10
88.2369536709068
 20
-148.3811453554286
 30
0.0
 10
88.19214858923262
 20
-148.3363375822736
 30
0.0
 10
88.13711588033661
 20
-148.3363375822736
 30
0.0
 10
88.08208317144059
 20
-148.3363375822736
 30
0.0
 10
88.03728078124725
 20
-148.3811453554286
 30
0.0
 10
88.03728078124725
 20
-148.4361592239587
 30
0.0
 10
88.03728078124725
 20
-148.4915606657308
 30
0.0
 10
88.08208317144059
 20
-148.5363684388862
 30
0.0
 10
88.13711588033661
 20
-148.5363684388862
 30
0.0
 10
88.19214858923262
 20
-148.5363684388862
 30
0.0
 10
88.2369536709068
 20
-148.4915606657308
 30
0.0
 10
88.2369536709068
 20
-148.4361592239587
 30
0.0
  0
SPLINE
  5
AA
330
1F
100
AcDbEntity
  8
_U+30EC_U+30A4_U+30E4_U+30FC 1
 62
   179
420
  2234388
370
     9
100
AcDbSpline
210
0.0
220
0.0
230
1.0
 70
    11
 71
     3
 72
    17
 73
    13
 74
     0
 42
0.0000000001
 43
0.0000000001
 12
1.0
 22
0.0
 32
0.0
 13
1.0
 23
0.0
 33
0.0
 40
0.0
 40
0.0
 40
0.0
 40
0.0
 40
1.0
 40
1.0
 40
1.0
 40
2.0
 40
2.0
 40
2.0
 40
3.0
 40
3.0
 40
3.0
 40
4.0
 40
4.0
 40
4.0
 40
4.0
 10
88.23180486804486
 20
-158.429681441648
 30
0.0
 10
88.23180486804486
 20
-158.3746568071945
 30
0.0
 10
88.18699978637068
 20
-158.3298490340395
 30
0.0
 10
88.13196707747466
 20
-158.3298490340395
 30
0.0
 10
88.07693436857865
 20
-158.3298490340395
 30
0.0
 10
88.03213197838531
 20
-158.3746568071945
 30
0.0
 10
88.03213197838531
 20
-158.429681441648
 30
0.0
 10
88.03213197838531
 20
-158.4854273929687
 30
0.0
 10
88.07693436857865
 20
-158.5302244002004
 30
0.0
 10
88.13196707747466
 20
-158.5302244002004
 30
0.0
 10
88.18699978637068
 20
-158.5302244002004
 30
0.0
 10
88.23180486804486
 20
-158.4854273929687
 30
0.0
 10
88.23180486804486
 20
-158.429681441648
 30
0.0
  0
SPLINE
  5
AB
330
1F
100
AcDbEntity
  8
_U+30EC_U+30A4_U+30E4_U+30FC 1
 62
   179
420
  2234388
370
     9
100
AcDbSpline
210
0.0
220
0.0
230
1.0
 70
    11
 71
     3
 72
    17
 73
    13
 74
     0
 42
0.0000000001
 43
0.0000000001
 12
1.0
 22
0.0
 32
0.0
 13
1.0
 23
0.0
 33
0.0
 40
0.0
 40
0.0
 40
0.0
 40
0.0
 40
1.0
 40
1.0
 40
1.0
 40
2.0
 40
2.0
 40
2.0
 40
3.0
 40
3.0
 40
3.0
 40
4.0
 40
4.0
 40
4.0
 40
4.0
 10
120.1540300280805
 20
-153.9347038731917
 30
0.0
 10
120.1540300280805
 20
-153.8796900046616
 30
0.0
 10
120.1092222549255
 20
-153.8348822315066
 30
0.0
 10
120.0541922375103
 20
-153.8348822315066
 30
0.0
 10
119.9991568371335
 20
-153.8348822315066
 30
0.0
 10
119.9543544469401
 20
-153.8796900046616
 30
0.0
 10
119.9543544469401
 20
-153.9347038731917
 30
0.0
 10
119.9543544469401
 20
-153.9897392735685
 30
0.0
 10
119.9991568371335
 20
-154.0345470467236
 30
0.0
 10
120.0541922375103
 20
-154.0345470467236
 30
0.0
 10
120.1092222549255
 20
-154.0345470467236
 30
0.0
 10
120.1540300280805
 20
-153.9897392735685
 30
0.0
 10
120.1540300280805
 20
-153.9347038731917
 30
0.0
  0
SPLINE
  5
AC
330
1F
100
AcDbEntity
  8
_U+30EC_U+30A4_U+30E4_U+30FC 1
 62
   179
420
  2234388
370
     9
100
AcDbSpline
210
0.0
220
0.0
230
1.0
 70
    11
 71
     3
 72
    17
 73
    13
 74
     0
 42
0.0000000001
 43
0.0000000001
 12
1.0
 22
0.0
 32
0.0
 13
1.0
 23
0.0
 33
0.0
 40
0.0
 40
0.0
 40
0.0
 40
0.0
 40
1.0
 40
1.0
 40
1.0
 40
2.0
 40
2.0
 40
2.0
 40
3.0
 40
3.0
 40
3.0
 40
4.0
 40
4.0
 40
4.0
 40
4.0
 10
120.1540300280805
 20
-154.9348150925597
 30
0.0
 10
120.1540300280805
 20
-154.8798012240296
 30
0.0
 10
120.1092222549255
 20
-154.8349934508746
 30
0.0
 10
120.0541922375103
 20
-154.8349934508746
 30
0.0
 10
119.9991568371335
 20
-154.8349934508746
 30
0.0
 10
119.9543544469401
 20
-154.8798012240296
 30
0.0
 10
119.9543544469401
 20
-154.9348150925597
 30
0.0
 10
119.9543544469401
 20
-154.9898504929366
 30
0.0
 10
119.9991568371335
 20
-155.0346582660916
 30
0.0
 10
120.0541922375103
 20
-155.0346582660916
 30
0.0
 10
120.1092222549255
 20
-155.0346582660916
 30
0.0
 10
120.1540300280805
 20
-154.9898504929366
 30
0.0
 10
120.1540300280805
 20
-154.9348150925597
 30
0.0
  0
SPLINE
  5
AD
330
1F
100
AcDbEntity
  8
_U+30EC_U+30A4_U+30E4_U+30FC 1
 62
   179
420
  2234388
370
     9
100
AcDbSpline
210
0.0
220
0.0
230
1.0
 70
    11
 71
     3
 72
    17
 73
    13
 74
     0
 42
0.0000000001
 43
0.0000000001
 12
1.0
 22
0.0
 32
0.0
 13
1.0
 23
0.0
 33
0.0
 40
0.0
 40
0.0
 40
0.0
 40
0.0
 40
1.0
 40
1.0
 40
1.0
 40
2.0
 40
2.0
 40
2.0
 40
3.0
 40
3.0
 40
3.0
 40
4.0
 40
4.0
 40
4.0
 40
4.0
 10
120.1540300280805
 20
-158.4369484399372
 30
0.0
 10
120.1540300280805
 20
-158.3819238054837
 30
0.0
 10
120.1092222549255
 20
-158.3371160323287
 30
0.0
 10
120.0541922375103
 20
-158.3371160323287
 30
0.0
 10
119.9991568371335
 20
-158.3371160323287
 30
0.0
 10
119.9543544469401
 20
-158.3819238054837
 30
0.0
 10
119.9543544469401
 20
-158.4369484399372
 30
0.0
 10
119.9543544469401
 20
-158.4919838403141
 30
0.0
 10
119.9991568371335
 20
-158.5367916134691
 30
0.0
 10
120.0541922375103
 20
-158.5367916134691
 30
0.0
 10
120.1092222549255
 20
-158.5367916134691
 30
0.0
 10
120.1540300280805
 20
-158.4919838403141
 30
0.0
 10
120.1540300280805
 20
-158.4369484399372
 30
0.0
  0
ENDSEC
  0
SECTION
  2
OBJECTS
  0
DICTIONARY
  5
C
330
0
100
AcDbDictionary
281
     1
  3
ACAD_GROUP
350
D
  3
ACAD_LAYOUT
350
1A
  3
ACAD_MATERIAL
350
3B
  3
ACAD_MLEADERSTYLE
350
AF
  3
ACAD_MLINESTYLE
350
17
  3
ACAD_PLOTSETTINGS
350
19
  3
ACAD_PLOTSTYLENAME
350
E
  3
ACAD_TABLESTYLE
350
AE
  3
ACAD_VISUALSTYLE
350
2A
  0
SUN
  5
3F
330
29
100
AcDbSun
 90
        1
290
     0
 63
     7
421
 16777215
 40
1.0
291
     1
 91
  2455826
 92
 54000000
292
     0
 70
     2
 71
   256
280
     1
  0
DICTIONARY
  5
D
102
{ACAD_REACTORS
330
C
102
}
330
C
100
AcDbDictionary
281
     1
  0
DICTIONARY
  5
1A
102
{ACAD_REACTORS
330
C
102
}
330
C
100
AcDbDictionary
281
     1
  3
Layout1
350
1E
  3
Layout2
350
26
  3
Model
350
22
  0
DICTIONARY
  5
3B
102
{ACAD_REACTORS
330
C
102
}
330
C
100
AcDbDictionary
281
     1
  3
ByBlock
350
3D
  3
ByLayer
350
3C
  3
Global
350
3E
  0
DICTIONARY
  5
AF
102
{ACAD_REACTORS
330
C
102
}
330
C
100
AcDbDictionary
281
     1
  0
DICTIONARY
  5
17
102
{ACAD_REACTORS
330
C
102
}
330
C
100
AcDbDictionary
281
     1
  3
Standard
350
18
  0
DICTIONARY
  5
19
102
{ACAD_REACTORS
330
C
102
}
330
C
100
AcDbDictionary
281
     1
  0
ACDBDICTIONARYWDFLT
  5
E
102
{ACAD_REACTORS
330
C
102
}
330
C
100
AcDbDictionary
281
     1
  3
Normal
350
F
100
AcDbDictionaryWithDefault
340
F
  0
DICTIONARY
  5
AE
102
{ACAD_REACTORS
330
C
102
}
330
C
100
AcDbDictionary
281
     1
  0
DICTIONARY
  5
2A
102
{ACAD_REACTORS
330
C
102
}
330
C
100
AcDbDictionary
281
     1
  3
2dWireframe
350
2F
  3
3D Hidden
350
31
  3
3dWireframe
350
30
  3
Basic
350
32
  3
Brighten
350
36
  3
ColorChange
350
3A
  3
Conceptual
350
34
  3
Dim
350
35
  3
Facepattern
350
39
  3
Flat
350
2B
  3
FlatWithEdges
350
2C
  3
Gouraud
350
2D
  3
GouraudWithEdges
350
2E
  3
Linepattern
350
38
  3
Realistic
350
33
  3
Thicken
350
37
  0
LAYOUT
  5
1E
102
{ACAD_REACTORS
330
1A
102
}
330
1A
100
AcDbPlotSettings
  1

  2
none_device
  4

  6

 40
0.0
 41
0.0
 42
0.0
 43
0.0
 44
0.0
 45
0.0
 46
0.0
 47
0.0
 48
0.0
 49
0.0
140
0.0
141
0.0
142
1.0
143
1.0
 70
   688
 72
     0
 73
     0
 74
     5
  7

 75
    16
 76
     0
 77
     2
 78
   300
147
1.0
148
0.0
149
0.0
100
AcDbLayout
  1
Layout1
 70
     1
 71
     1
 10
0.0
 20
0.0
 11
12.0
 21
9.0
 12
0.0
 22
0.0
 32
0.0
 14
1.000000000000000E+20
 24
1.000000000000000E+20
 34
1.000000000000000E+20
 15
-1.000000000000000E+20
 25
-1.000000000000000E+20
 35
-1.000000000000000E+20
146
0.0
 13
0.0
 23
0.0
 33
0.0
 16
1.0
 26
0.0
 36
0.0
 17
0.0
 27
1.0
 37
0.0
 76
     0
330
1B
  0
LAYOUT
  5
26
102
{ACAD_REACTORS
330
1A
102
}
330
1A
100
AcDbPlotSettings
  1

  2
none_device
  4

  6

 40
0.0
 41
0.0
 42
0.0
 43
0.0
 44
0.0
 45
0.0
 46
0.0
 47
0.0
 48
0.0
 49
0.0
140
0.0
141
0.0
142
1.0
143
1.0
 70
   688
 72
     0
 73
     0
 74
     5
  7

 75
    16
 76
     0
 77
     2
 78
   300
147
1.0
148
0.0
149
0.0
100
AcDbLayout
  1
Layout2
 70
     1
 71
     2
 10
0.0
 20
0.0
 11
0.0
 21
0.0
 12
0.0
 22
0.0
 32
0.0
 14
0.0
 24
0.0
 34
0.0
 15
0.0
 25
0.0
 35
0.0
146
0.0
 13
0.0
 23
0.0
 33
0.0
 16
1.0
 26
0.0
 36
0.0
 17
0.0
 27
1.0
 37
0.0
 76
     0
330
23
  0
LAYOUT
  5
22
102
{ACAD_REACTORS
330
1A
102
}
330
1A
100
AcDbPlotSettings
  1

  2
none_device
  4

  6

 40
0.0
 41
0.0
 42
0.0
 43
0.0
 44
0.0
 45
0.0
 46
0.0
 47
0.0
 48
0.0
 49
0.0
140
0.0
141
0.0
142
1.0
143
1.0
 70
  1712
 72
     0
 73
     0
 74
     0
  7

 75
     0
 76
     0
 77
     2
 78
   300
147
1.0
148
0.0
149
0.0
100
AcDbLayout
  1
Model
 70
     1
 71
     0
 10
0.0
 20
0.0
 11
12.0
 21
9.0
 12
0.0
 22
0.0
 32
0.0
 14
1.000000000000000E+20
 24
1.000000000000000E+20
 34
1.000000000000000E+20
 15
-1.000000000000000E+20
 25
-1.000000000000000E+20
 35
-1.000000000000000E+20
146
0.0
 13
0.0
 23
0.0
 33
0.0
 16
1.0
 26
0.0
 36
0.0
 17
0.0
 27
1.0
 37
0.0
 76
     0
330
1F
331
29
  0
MATERIAL
  5
3D
102
{ACAD_REACTORS
330
3B
102
}
330
3B
100
AcDbMaterial
  1
ByBlock
 72
     1
 94
      127
  0
MATERIAL
  5
3C
102
{ACAD_REACTORS
330
3B
102
}
330
3B
100
AcDbMaterial
  1
ByLayer
 72
     1
 94
      127
  0
MATERIAL
  5
3E
102
{ACAD_REACTORS
330
3B
102
}
330
3B
100
AcDbMaterial
  1
Global
 72
     1
 94
      127
  0
MLINESTYLE
  5
18
102
{ACAD_REACTORS
330
17
102
}
330
17
100
AcDbMlineStyle
  2
Standard
 70
     0
  3

 62
   256
 51
90.0
 52
90.0
 71
     2
 49
0.5
 62
   256
  6
BYLAYER
 49
-0.5
 62
   256
  6
BYLAYER
  0
ACDBPLACEHOLDER
  5
F
102
{ACAD_REACTORS
330
E
102
}
330
E
  0
VISUALSTYLE
  5
2F
102
{ACAD_REACTORS
330
2A
102
}
330
2A
100
AcDbVisualStyle
  2
2dWireframe
 70
     4
177
     2
291
     0
 71
     0
176
     1
 72
     2
176
     1
 73
     0
176
     1
 90
        0
176
     1
 40
-0.6
176
     1
 41
-30.0
176
     1
 62
     5
 63
     7
421
 16777215
176
     1
 74
     1
176
     1
 91
        4
176
     1
 64
     7
176
     1
 65
   257
176
     1
 75
     1
176
     1
175
     1
176
     1
 42
1.0
176
     1
 92
        0
176
     1
 66
   257
176
     1
 43
1.0
176
     1
 76
     1
176
     1
 77
     6
176
     1
 78
     2
176
     1
 67
     7
176
     1
 79
     5
176
     1
170
     0
176
     1
171
     0
176
     1
290
     0
176
     1
 93
        1
176
     1
 44
0.0
176
     1
173
     0
176
     1
  0
VISUALSTYLE
  5
31
102
{ACAD_REACTORS
330
2A
102
}
330
2A
100
AcDbVisualStyle
  2
3D Hidden
 70
     6
177
     2
291
     0
 71
     1
176
     1
 72
     2
176
     1
 73
     2
176
     1
 90
        0
176
     1
 40
-0.6
176
     1
 41
-30.0
176
     1
 62
     5
 63
     7
421
 16777215
176
     1
 74
     2
176
     1
 91
        2
176
     1
 64
     7
176
     1
 65
   257
176
     1
 75
     2
176
     1
175
     1
176
     1
 42
40.0
176
     1
 92
        0
176
     1
 66
   257
176
     1
 43
1.0
176
     1
 76
     1
176
     1
 77
     6
176
     1
 78
     2
176
     1
 67
     7
176
     1
 79
     3
176
     1
170
     0
176
     1
171
     0
176
     1
290
     0
176
     1
 93
        1
176
     1
 44
0.0
176
     1
173
     0
176
     1
  0
VISUALSTYLE
  5
30
102
{ACAD_REACTORS
330
2A
102
}
330
2A
100
AcDbVisualStyle
  2
3dWireframe
 70
     5
177
     2
291
     0
 71
     0
176
     1
 72
     2
176
     1
 73
     0
176
     1
 90
        0
176
     1
 40
-0.6
176
     1
 41
-30.0
176
     1
 62
     5
 63
     7
421
 16777215
176
     1
 74
     1
176
     1
 91
        4
176
     1
 64
     7
176
     1
 65
   257
176
     1
 75
     1
176
     1
175
     1
176
     1
 42
1.0
176
     1
 92
        0
176
     1
 66
   257
176
     1
 43
1.0
176
     1
 76
     1
176
     1
 77
     6
176
     1
 78
     2
176
     1
 67
     7
176
     1
 79
     5
176
     1
170
     0
176
     1
171
     0
176
     1
290
     0
176
     1
 93
        1
176
     1
 44
0.0
176
     1
173
     0
176
     1
  0
VISUALSTYLE
  5
32
102
{ACAD_REACTORS
330
2A
102
}
330
2A
100
AcDbVisualStyle
  2
Basic
 70
     7
177
     2
291
     1
 71
     1
176
     1
 72
     0
176
     1
 73
     1
176
     1
 90
        0
176
     1
 40
-0.6
176
     1
 41
-30.0
176
     1
 62
     5
 63
     7
421
 16777215
176
     1
 74
     0
176
     1
 91
        4
176
     1
 64
     7
176
     1
 65
   257
176
     1
 75
     1
176
     1
175
     1
176
     1
 42
1.0
176
     1
 92
        8
176
     1
 66
     7
176
     1
 43
1.0
176
     1
 76
     1
176
     1
 77
     6
176
     1
 78
     2
176
     1
 67
     7
176
     1
 79
     5
176
     1
170
     0
176
     1
171
     0
176
     1
290
     0
176
     1
 93
        1
176
     1
 44
0.0
176
     1
173
     0
176
     1
  0
VISUALSTYLE
  5
36
102
{ACAD_REACTORS
330
2A
102
}
330
2A
100
AcDbVisualStyle
  2
Brighten
 70
    12
177
     2
291
     1
 71
     2
176
     1
 72
     2
176
     1
 73
     0
176
     1
 90
        0
176
     1
 40
-0.6
176
     1
 41
-30.0
176
     1
 62
     5
 63
     7
421
 16777215
176
     1
 74
     1
176
     1
 91
        4
176
     1
 64
     7
176
     1
 65
   257
176
     1
 75
     1
176
     1
175
     1
176
     1
 42
1.0
176
     1
 92
        8
176
     1
 66
     7
176
     1
 43
1.0
176
     1
 76
     1
176
     1
 77
     6
176
     1
 78
     2
176
     1
 67
     7
176
     1
 79
     5
176
     1
170
     0
176
     1
171
     0
176
     1
290
     0
176
     1
 93
        1
176
     1
 44
50.0
176
     1
173
     0
176
     1
  0
VISUALSTYLE
  5
3A
102
{ACAD_REACTORS
330
2A
102
}
330
2A
100
AcDbVisualStyle
  2
ColorChange
 70
    16
177
     2
291
     1
 71
     2
176
     1
 72
     2
176
     1
 73
     3
176
     1
 90
        0
176
     1
 40
-0.6
176
     1
 41
-30.0
176
     1
 62
     5
 63
     8
421
  8421504
176
     1
 74
     1
176
     1
 91
        4
176
     1
 64
     7
176
     1
 65
   257
176
     1
 75
     1
176
     1
175
     1
176
     1
 42
1.0
176
     1
 92
        8
176
     1
 66
     8
424
  8421504
176
     1
 43
1.0
176
     1
 76
     1
176
     1
 77
     6
176
     1
 78
     2
176
     1
 67
     7
176
     1
 79
     5
176
     1
170
     0
176
     1
171
     0
176
     1
290
     0
176
     1
 93
        1
176
     1
 44
0.0
176
     1
173
     0
176
     1
  0
VISUALSTYLE
  5
34
102
{ACAD_REACTORS
330
2A
102
}
330
2A
100
AcDbVisualStyle
  2
Conceptual
 70
     9
177
     2
291
     0
 71
     3
176
     1
 72
     2
176
     1
 73
     0
176
     1
 90
        0
176
     1
 40
-0.6
176
     1
 41
-30.0
176
     1
 62
     5
 63
     7
421
 16777215
176
     1
 74
     2
176
     1
 91
        2
176
     1
 64
     7
176
     1
 65
   257
176
     1
 75
     1
176
     1
175
     1
176
     1
 42
40.0
176
     1
 92
        8
176
     1
 66
     7
176
     1
 43
1.0
176
     1
 76
     1
176
     1
 77
     6
176
     1
 78
     2
176
     1
 67
     7
176
     1
 79
     3
176
     1
170
     0
176
     1
171
     0
176
     1
290
     0
176
     1
 93
        1
176
     1
 44
0.0
176
     1
173
     0
176
     1
  0
VISUALSTYLE
  5
35
102
{ACAD_REACTORS
330
2A
102
}
330
2A
100
AcDbVisualStyle
  2
Dim
 70
    11
177
     2
291
     1
 71
     2
176
     1
 72
     2
176
     1
 73
     0
176
     1
 90
        0
176
     1
 40
-0.6
176
     1
 41
-30.0
176
     1
 62
     5
 63
     7
421
 16777215
176
     1
 74
     1
176
     1
 91
        4
176
     1
 64
     7
176
     1
 65
   257
176
     1
 75
     1
176
     1
175
     1
176
     1
 42
1.0
176
     1
 92
        8
176
     1
 66
     7
176
     1
 43
1.0
176
     1
 76
     1
176
     1
 77
     6
176
     1
 78
     2
176
     1
 67
     7
176
     1
 79
     5
176
     1
170
     0
176
     1
171
     0
176
     1
290
     0
176
     1
 93
        1
176
     1
 44
-50.0
176
     1
173
     0
176
     1
  0
VISUALSTYLE
  5
39
102
{ACAD_REACTORS
330
2A
102
}
330
2A
100
AcDbVisualStyle
  2
Facepattern
 70
    15
177
     2
291
     1
 71
     2
176
     1
 72
     2
176
     1
 73
     0
176
     1
 90
        0
176
     1
 40
-0.6
176
     1
 41
-30.0
176
     1
 62
     5
 63
     7
421
 16777215
176
     1
 74
     1
176
     1
 91
        4
176
     1
 64
     7
176
     1
 65
   257
176
     1
 75
     1
176
     1
175
     1
176
     1
 42
1.0
176
     1
 92
        8
176
     1
 66
     7
176
     1
 43
1.0
176
     1
 76
     1
176
     1
 77
     6
176
     1
 78
     2
176
     1
 67
     7
176
     1
 79
     5
176
     1
170
     0
176
     1
171
     0
176
     1
290
     0
176
     1
 93
        1
176
     1
 44
0.0
176
     1
173
     0
176
     1
  0
VISUALSTYLE
  5
2B
102
{ACAD_REACTORS
330
2A
102
}
330
2A
100
AcDbVisualStyle
  2
Flat
 70
     0
177
     2
291
     1
 71
     2
176
     1
 72
     1
176
     1
 73
     1
176
     1
 90
        2
176
     1
 40
-0.6
176
     1
 41
30.0
176
     1
 62
     5
 63
     7
421
 16777215
176
     1
 74
     0
176
     1
 91
        4
176
     1
 64
     7
176
     1
 65
   257
176
     1
 75
     1
176
     1
175
     1
176
     1
 42
1.0
176
     1
 92
        8
176
     1
 66
     7
176
     1
 43
1.0
176
     1
 76
     1
176
     1
 77
     6
176
     1
 78
     2
176
     1
 67
     7
176
     1
 79
     5
176
     1
170
     0
176
     1
171
     0
176
     1
290
     0
176
     1
 93
       13
176
     1
 44
0.0
176
     1
173
     0
176
     1
  0
VISUALSTYLE
  5
2C
102
{ACAD_REACTORS
330
2A
102
}
330
2A
100
AcDbVisualStyle
  2
FlatWithEdges
 70
     1
177
     2
291
     1
 71
     2
176
     1
 72
     1
176
     1
 73
     1
176
     1
 90
        2
176
     1
 40
-0.6
176
     1
 41
30.0
176
     1
 62
     5
 63
     7
421
 16777215
176
     1
 74
     1
176
     1
 91
        4
176
     1
 64
     7
176
     1
 65
   257
176
     1
 75
     1
176
     1
175
     1
176
     1
 42
1.0
176
     1
 92
        0
176
     1
 66
   257
176
     1
 43
1.0
176
     1
 76
     1
176
     1
 77
     6
176
     1
 78
     2
176
     1
 67
     7
176
     1
 79
     5
176
     1
170
     0
176
     1
171
     0
176
     1
290
     0
176
     1
 93
       13
176
     1
 44
0.0
176
     1
173
     0
176
     1
  0
VISUALSTYLE
  5
2D
102
{ACAD_REACTORS
330
2A
102
}
330
2A
100
AcDbVisualStyle
  2
Gouraud
 70
     2
177
     2
291
     1
 71
     2
176
     1
 72
     2
176
     1
 73
     1
176
     1
 90
        2
176
     1
 40
-0.6
176
     1
 41
30.0
176
     1
 62
     5
 63
     7
421
 16777215
176
     1
 74
     0
176
     1
 91
        4
176
     1
 64
     7
176
     1
 65
   257
176
     1
 75
     1
176
     1
175
     1
176
     1
 42
1.0
176
     1
 92
        0
176
     1
 66
     7
176
     1
 43
1.0
176
     1
 76
     1
176
     1
 77
     6
176
     1
 78
     2
176
     1
 67
     7
176
     1
 79
     5
176
     1
170
     0
176
     1
171
     0
176
     1
290
     0
176
     1
 93
       13
176
     1
 44
0.0
176
     1
173
     0
176
     1
  0
VISUALSTYLE
  5
2E
102
{ACAD_REACTORS
330
2A
102
}
330
2A
100
AcDbVisualStyle
  2
GouraudWithEdges
 70
     3
177
     2
291
     1
 71
     2
176
     1
 72
     2
176
     1
 73
     1
176
     1
 90
        2
176
     1
 40
-0.6
176
     1
 41
30.0
176
     1
 62
     5
 63
     7
421
 16777215
176
     1
 74
     1
176
     1
 91
        4
176
     1
 64
     7
176
     1
 65
   257
176
     1
 75
     1
176
     1
175
     1
176
     1
 42
1.0
176
     1
 92
        0
176
     1
 66
   257
176
     1
 43
1.0
176
     1
 76
     1
176
     1
 77
     6
176
     1
 78
     2
176
     1
 67
     7
176
     1
 79
     5
176
     1
170
     0
176
     1
171
     0
176
     1
290
     0
176
     1
 93
       13
176
     1
 44
0.0
176
     1
173
     0
176
     1
  0
VISUALSTYLE
  5
38
102
{ACAD_REACTORS
330
2A
102
}
330
2A
100
AcDbVisualStyle
  2
Linepattern
 70
    14
177
     2
291
     1
 71
     2
176
     1
 72
     2
176
     1
 73
     0
176
     1
 90
        0
176
     1
 40
-0.6
176
     1
 41
-30.0
176
     1
 62
     5
 63
     7
421
 16777215
176
     1
 74
     1
176
     1
 91
        4
176
     1
 64
     7
176
     1
 65
   257
176
     1
 75
     7
176
     1
175
     7
176
     1
 42
1.0
176
     1
 92
        8
176
     1
 66
     7
176
     1
 43
1.0
176
     1
 76
     1
176
     1
 77
     6
176
     1
 78
     2
176
     1
 67
     7
176
     1
 79
     5
176
     1
170
     0
176
     1
171
     0
176
     1
290
     0
176
     1
 93
        1
176
     1
 44
0.0
176
     1
173
     0
176
     1
  0
VISUALSTYLE
  5
33
102
{ACAD_REACTORS
330
2A
102
}
330
2A
100
AcDbVisualStyle
  2
Realistic
 70
     8
177
     2
291
     0
 71
     2
176
     1
 72
     2
176
     1
 73
     0
176
     1
 90
        0
176
     1
 40
-0.6
176
     1
 41
-30.0
176
     1
 62
     5
 63
     7
421
 16777215
176
     1
 74
     1
176
     1
 91
        0
176
     1
 64
     7
176
     1
 65
   257
176
     1
 75
     1
176
     1
175
     1
176
     1
 42
1.0
176
     1
 92
        8
176
     1
 66
     8
424
  7895160
176
     1
 43
1.0
176
     1
 76
     1
176
     1
 77
     6
176
     1
 78
     2
176
     1
 67
     7
176
     1
 79
     5
176
     1
170
     0
176
     1
171
     0
176
     1
290
     0
176
     1
 93
       13
176
     1
 44
0.0
176
     1
173
     0
176
     1
  0
VISUALSTYLE
  5
37
102
{ACAD_REACTORS
330
2A
102
}
330
2A
100
AcDbVisualStyle
  2
Thicken
 70
    13
177
     2
291
     1
 71
     2
176
     1
 72
     2
176
     1
 73
     0
176
     1
 90
        0
176
     1
 40
-0.6
176
     1
 41
-30.0
176
     1
 62
     5
 63
     7
421
 16777215
176
     1
 74
     1
176
     1
 91
        4
176
     1
 64
     7
176
     1
 65
   257
176
     1
 75
     1
176
     1
175
     1
176
     1
 42
1.0
176
     1
 92
       12
176
     1
 66
     7
176
     1
 43
1.0
176
     1
 76
     1
176
     1
 77
     6
176
     1
 78
     2
176
     1
 67
     7
176
     1
 79
     5
176
     1
170
     0
176
     1
171
     0
176
     1
290
     0
176
     1
 93
        1
176
     1
 44
0.0
176
     1
173
     0
176
     1
  0
ENDSEC
  0
EOF
