  0
SECTION
  2
HEADER
  9
$ACADVER
  1
AC1024
  9
$ACADMAINTVER
 70
     6
  9
$DWGCODEPAGE
  3
UNDEFINED
  9
$INSBASE
 10
0.0
 20
0.0
 30
0.0
  9
$EXTMIN
 10
1.000000000000000E+20
 20
1.000000000000000E+20
 30
1.000000000000000E+20
  9
$EXTMAX
 10
-1.000000000000000E+20
 20
-1.000000000000000E+20
 30
-1.000000000000000E+20
  9
$LIMMIN
 10
0.0
 20
0.0
  9
$LIMMAX
 10
12.0
 20
9.0
  9
$ORTHOMODE
 70
     0
  9
$REGENMODE
 70
     1
  9
$FILLMODE
 70
     1
  9
$QTEXTMODE
 70
     0
  9
$MIRRTEXT
 70
     1
  9
$LTSCALE
 40
1.0
  9
$ATTMODE
 70
     1
  9
$TEXTSIZE
 40
0.2
  9
$TRACEWID
 40
0.05
  9
$TEXTSTYLE
  7
Standard
  9
$CLAYER
  8
0
  9
$CELTYPE
  6
ByLayer
  9
$CECOLOR
 62
   256
  9
$CELTSCALE
 40
1.0
  9
$DISPSILH
 70
     0
  9
$DIMSCALE
 40
1.0
  9
$DIMASZ
 40
0.18
  9
$DIMEXO
 40
0.0625
  9
$DIMDLI
 40
0.38
  9
$DIMRND
 40
0.0
  9
$DIMDLE
 40
0.0
  9
$DIMEXE
 40
0.18
  9
$DIMTP
 40
0.0
  9
$DIMTM
 40
0.0
  9
$DIMTXT
 40
0.18
  9
$DIMCEN
 40
0.09
  9
$DIMTSZ
 40
0.0
  9
$DIMTOL
 70
     0
  9
$DIMLIM
 70
     0
  9
$DIMTIH
 70
     1
  9
$DIMTOH
 70
     1
  9
$DIMSE1
 70
     0
  9
$DIMSE2
 70
     0
  9
$DIMTAD
 70
     0
  9
$DIMZIN
 70
     0
  9
$DIMBLK
  1

  9
$DIMASO
 70
     1
  9
$DIMSHO
 70
     1
  9
$DIMPOST
  1

  9
$DIMAPOST
  1

  9
$DIMALT
 70
     0
  9
$DIMALTD
 70
     2
  9
$DIMALTF
 40
25.4
  9
$DIMLFAC
 40
1.0
  9
$DIMTOFL
 70
     0
  9
$DIMTVP
 40
0.0
  9
$DIMTIX
 70
     0
  9
$DIMSOXD
 70
     0
  9
$DIMSAH
 70
     0
  9
$DIMBLK1
  1

  9
$DIMBLK2
  1

  9
$DIMSTYLE
  2
Standard
  9
$DIMCLRD
 70
     0
  9
$DIMCLRE
 70
     0
  9
$DIMCLRT
 70
     0
  9
$DIMTFAC
 40
1.0
  9
$DIMGAP
 40
0.09
  9
$DIMJUST
 70
     0
  9
$DIMSD1
 70
     0
  9
$DIMSD2
 70
     0
  9
$DIMTOLJ
 70
     1
  9
$DIMTZIN
 70
     0
  9
$DIMALTZ
 70
     0
  9
$DIMALTTZ
 70
     0
  9
$DIMUPT
 70
     0
  9
$DIMDEC
 70
     4
  9
$DIMTDEC
 70
     4
  9
$DIMALTU
 70
     2
  9
$DIMALTTD
 70
     2
  9
$DIMTXSTY
  7
Standard
  9
$DIMAUNIT
 70
     0
  9
$DIMADEC
 70
     0
  9
$DIMALTRND
 40
0.0
  9
$DIMAZIN
 70
     0
  9
$DIMDSEP
 70
    46
  9
$DIMATFIT
 70
     3
  9
$DIMFRAC
 70
     0
  9
$DIMLDRBLK
  1

  9
$DIMLUNIT
 70
     2
  9
$DIMLWD
 70
    -2
  9
$DIMLWE
 70
    -2
  9
$DIMTMOVE
 70
     0
  9
$DIMFXL
 40
1.0
  9
$DIMFXLON
 70
     0
  9
$DIMJOGANG
 40
0.7853981633974483
  9
$DIMTFILL
 70
     0
  9
$DIMTFILLCLR
 70
     0
  9
$DIMARCSYM
 70
     0
  9
$DIMLTYPE
  6

  9
$DIMLTEX1
  6

  9
$DIMLTEX2
  6

  9
$DIMTXTDIRECTION
 70
     0
  9
$LUNITS
 70
     2
  9
$LUPREC
 70
     4
  9
$SKETCHINC
 40
0.1
  9
$FILLETRAD
 40
0.5
  9
$AUNITS
 70
     0
  9
$AUPREC
 70
     0
  9
$MENU
  1
.
  9
$ELEVATION
 40
0.0
  9
$PELEVATION
 40
0.0
  9
$THICKNESS
 40
0.0
  9
$LIMCHECK
 70
     0
  9
$CHAMFERA
 40
0.5
  9
$CHAMFERB
 40
0.5
  9
$CHAMFERC
 40
1.0
  9
$CHAMFERD
 40
0.0
  9
$SKPOLY
 70
     0
  9
$TDCREATE
 40
2457917.623645822
  9
$TDUCREATE
 40
2457917.248645833
  9
$TDUPDATE
 40
2457917.623645822
  9
$TDUUPDATE
 40
2457917.248645833
  9
$TDINDWG
 40
0.0000000116
  9
$TDUSRTIMER
 40
0.0000000116
  9
$USRTIMER
 70
     1
  9
$ANGBASE
 50
0.0
  9
$ANGDIR
 70
     0
  9
$PDMODE
 70
     0
  9
$PDSIZE
 40
0.0
  9
$PLINEWID
 40
0.0
  9
$SPLFRAME
 70
     0
  9
$SPLINETYPE
 70
     6
  9
$SPLINESEGS
 70
     8
  9
$HANDSEED
  5
F2
  9
$SURFTAB1
 70
     6
  9
$SURFTAB2
 70
     6
  9
$SURFTYPE
 70
     6
  9
$SURFU
 70
     6
  9
$SURFV
 70
     6
  9
$UCSBASE
  2

  9
$UCSNAME
  2

  9
$UCSORG
 10
0.0
 20
0.0
 30
0.0
  9
$UCSXDIR
 10
1.0
 20
0.0
 30
0.0
  9
$UCSYDIR
 10
0.0
 20
1.0
 30
0.0
  9
$UCSORTHOREF
  2

  9
$UCSORTHOVIEW
 70
     0
  9
$UCSORGTOP
 10
0.0
 20
0.0
 30
0.0
  9
$UCSORGBOTTOM
 10
0.0
 20
0.0
 30
0.0
  9
$UCSORGLEFT
 10
0.0
 20
0.0
 30
0.0
  9
$UCSORGRIGHT
 10
0.0
 20
0.0
 30
0.0
  9
$UCSORGFRONT
 10
0.0
 20
0.0
 30
0.0
  9
$UCSORGBACK
 10
0.0
 20
0.0
 30
0.0
  9
$PUCSBASE
  2

  9
$PUCSNAME
  2

  9
$PUCSORG
 10
0.0
 20
0.0
 30
0.0
  9
$PUCSXDIR
 10
1.0
 20
0.0
 30
0.0
  9
$PUCSYDIR
 10
0.0
 20
1.0
 30
0.0
  9
$PUCSORTHOREF
  2

  9
$PUCSORTHOVIEW
 70
     0
  9
$PUCSORGTOP
 10
0.0
 20
0.0
 30
0.0
  9
$PUCSORGBOTTOM
 10
0.0
 20
0.0
 30
0.0
  9
$PUCSORGLEFT
 10
0.0
 20
0.0
 30
0.0
  9
$PUCSORGRIGHT
 10
0.0
 20
0.0
 30
0.0
  9
$PUCSORGFRONT
 10
0.0
 20
0.0
 30
0.0
  9
$PUCSORGBACK
 10
0.0
 20
0.0
 30
0.0
  9
$USERI1
 70
     0
  9
$USERI2
 70
     0
  9
$USERI3
 70
     0
  9
$USERI4
 70
     0
  9
$USERI5
 70
     0
  9
$USERR1
 40
0.0
  9
$USERR2
 40
0.0
  9
$USERR3
 40
0.0
  9
$USERR4
 40
0.0
  9
$USERR5
 40
0.0
  9
$WORLDVIEW
 70
     1
  9
$SHADEDGE
 70
     3
  9
$SHADEDIF
 70
    70
  9
$TILEMODE
 70
     1
  9
$MAXACTVP
 70
    64
  9
$PINSBASE
 10
0.0
 20
0.0
 30
0.0
  9
$PLIMCHECK
 70
     0
  9
$PEXTMIN
 10
1.000000000000000E+20
 20
1.000000000000000E+20
 30
1.000000000000000E+20
  9
$PEXTMAX
 10
-1.000000000000000E+20
 20
-1.000000000000000E+20
 30
-1.000000000000000E+20
  9
$PLIMMIN
 10
0.0
 20
0.0
  9
$PLIMMAX
 10
12.0
 20
9.0
  9
$UNITMODE
 70
     0
  9
$VISRETAIN
 70
     1
  9
$PLINEGEN
 70
     0
  9
$PSLTSCALE
 70
     1
  9
$TREEDEPTH
 70
  3020
  9
$CMLSTYLE
  2
Standard
  9
$CMLJUST
 70
     0
  9
$CMLSCALE
 40
1.0
  9
$PROXYGRAPHICS
 70
     1
  9
$MEASUREMENT
 70
     0
  9
$CELWEIGHT
370
    -1
  9
$ENDCAPS
280
     0
  9
$JOINSTYLE
280
     0
  9
$LWDISPLAY
290
     1
  9
$INSUNITS
 70
     1
  9
$HYPERLINKBASE
  1

  9
$STYLESHEET
  1

  9
$XEDIT
290
     1
  9
$CEPSNTYPE
380
     0
  9
$PSTYLEMODE
290
     1
  9
$FINGERPRINTGUID
  2
{B2651242-A34C-F7A4-A7F9-64DBB40E0983}
  9
$VERSIONGUID
  2
{FAEB1C32-E019-11D5-929B-00C0DF256EC4}
  9
$EXTNAMES
290
     1
  9
$PSVPSCALE
 40
0.0
  9
$OLESTARTUP
290
     0
  9
$SORTENTS
280
   127
  9
$INDEXCTL
280
     0
  9
$HIDETEXT
280
     1
  9
$XCLIPFRAME
280
     2
  9
$HALOGAP
280
     0
  9
$OBSCOLOR
 70
   257
  9
$OBSLTYPE
280
     0
  9
$INTERSECTIONDISPLAY
280
     0
  9
$INTERSECTIONCOLOR
 70
   257
  9
$DIMASSOC
280
     2
  9
$PROJECTNAME
  1

  9
$CAMERADISPLAY
290
     0
  9
$LENSLENGTH
 40
50.0
  9
$CAMERAHEIGHT
 40
0.0
  9
$STEPSPERSEC
 40
2.0
  9
$STEPSIZE
 40
6.0
  9
$3DDWFPREC
 40
2.0
  9
$PSOLWIDTH
 40
0.25
  9
$PSOLHEIGHT
 40
4.0
  9
$LOFTANG1
 40
1.570796326794897
  9
$LOFTANG2
 40
1.570796326794897
  9
$LOFTMAG1
 40
0.0
  9
$LOFTMAG2
 40
0.0
  9
$LOFTPARAM
 70
     7
  9
$LOFTNORMALS
280
     1
  9
$LATITUDE
 40
37.795
  9
$LONGITUDE
 40
-122.394
  9
$NORTHDIRECTION
 40
0.0
  9
$TIMEZONE
 70
 -8000
  9
$LIGHTGLYPHDISPLAY
280
     1
  9
$TILEMODELIGHTSYNCH
280
     1
  9
$CMATERIAL
347
3C
  9
$SOLIDHIST
280
     1
  9
$SHOWHIST
280
     1
  9
$DWFFRAME
280
     2
  9
$DGNFRAME
280
     2
  9
$REALWORLDSCALE
290
     1
  9
$INTERFERECOLOR
 62
   256
  9
$CSHADOW
280
     0
  9
$SHADOWPLANELOCATION
 40
0.0
  0
ENDSEC
  0
SECTION
  2
CLASSES
  0
CLASS
  1
ACDBDICTIONARYWDFLT
  2
AcDbDictionaryWithDefault
  3
ObjectDBX Classes
 90
        0
 91
        4
280
     0
281
     0
  0
CLASS
  1
VISUALSTYLE
  2
AcDbVisualStyle
  3
ObjectDBX Classes
 90
     4095
 91
        4
280
     0
281
     0
  0
CLASS
  1
MATERIAL
  2
AcDbMaterial
  3
ObjectDBX Classes
 90
     1153
 91
        4
280
     0
281
     0
  0
CLASS
  1
SUN
  2
AcDbSun
  3
SCENEOE
 90
     1024
 91
        4
280
     0
281
     0
  0
ENDSEC
  0
SECTION
  2
TABLES
  0
TABLE
  2
VPORT
  5
8
330
0
100
AcDbSymbolTable
 70
     1
  0
VPORT
  5
29
330
8
100
AcDbSymbolTableRecord
100
AcDbViewportTableRecord
  2
*Active
 70
     0
 10
0.0
 20
0.0
 11
1.0
 21
1.0
 12
0.0
 22
0.0
 13
0.0
 23
0.0
 14
0.5
 24
0.5
 15
0.5
 25
0.5
 16
0.0
 26
0.0
 36
1.0
 17
91.00082462281999
 27
-128.4993055234307
 37
0.0
 40
256.9986110468615
 41
0.7081814508812795
 42
50.0
 43
0.0
 44
0.0
 50
0.0
 51
0.0
 71
     0
 72
   100
 73
     1
 74
     3
 75
     0
 76
     0
 77
     0
 78
     0
281
     0
 65
     1
110
0.0
120
0.0
130
0.0
111
1.0
121
0.0
131
0.0
112
0.0
122
1.0
132
0.0
 79
     0
146
0.0
 60
     3
 61
     5
292
     1
282
     1
141
0.0
142
0.0
 63
   250
361
3F
  0
ENDTAB
  0
TABLE
  2
LTYPE
  5
5
330
0
100
AcDbSymbolTable
 70
     1
  0
LTYPE
  5
14
330
5
100
AcDbSymbolTableRecord
100
AcDbLinetypeTableRecord
  2
ByBlock
 70
     0
  3

 72
    65
 73
     0
 40
0.0
  0
LTYPE
  5
15
330
5
100
AcDbSymbolTableRecord
100
AcDbLinetypeTableRecord
  2
ByLayer
 70
     0
  3

 72
    65
 73
     0
 40
0.0
  0
LTYPE
  5
16
330
5
100
AcDbSymbolTableRecord
100
AcDbLinetypeTableRecord
  2
Continuous
 70
     0
  3
Solid line
 72
    65
 73
     0
 40
0.0
  0
ENDTAB
  0
TABLE
  2
LAYER
  5
2
330
0
100
AcDbSymbolTable
 70
     2
  0
LAYER
  5
10
330
2
100
AcDbSymbolTableRecord
100
AcDbLayerTableRecord
  2
0
 70
     0
 62
     7
  6
Continuous
370
    -3
390
F
347
3E
  0
LAYER
  5
40
330
2
100
AcDbSymbolTableRecord
100
AcDbLayerTableRecord
  2
_U+30EC_U+30A4_U+30E4_U+30FC 1
 70
     0
 62
     7
  6
Continuous
370
    -3
390
F
347
3E
  0
ENDTAB
  0
TABLE
  2
STYLE
  5
3
330
0
100
AcDbSymbolTable
 70
     1
  0
STYLE
  5
11
330
3
100
AcDbSymbolTableRecord
100
AcDbTextStyleTableRecord
  2
Standard
 70
     0
 40
0.0
 41
1.0
 50
0.0
 71
     0
 42
0.2
  3
txt
  4

  0
ENDTAB
  0
TABLE
  2
VIEW
  5
6
330
0
100
AcDbSymbolTable
 70
     0
  0
ENDTAB
  0
TABLE
  2
UCS
  5
7
330
0
100
AcDbSymbolTable
 70
     0
  0
ENDTAB
  0
TABLE
  2
APPID
  5
9
330
0
100
AcDbSymbolTable
 70
     1
  0
APPID
  5
12
330
9
100
AcDbSymbolTableRecord
100
AcDbRegAppTableRecord
  2
ACAD
 70
     0
  0
ENDTAB
  0
TABLE
  2
DIMSTYLE
  5
A
330
0
100
AcDbSymbolTable
 70
     1
100
AcDbDimStyleTable
  0
DIMSTYLE
105
27
330
A
100
AcDbSymbolTableRecord
100
AcDbDimStyleTableRecord
  2
Standard
 70
     0
178
     0
340
11
  0
ENDTAB
  0
TABLE
  2
BLOCK_RECORD
  5
1
330
0
100
AcDbSymbolTable
 70
     7
  0
BLOCK_RECORD
  5
1F
330
1
100
AcDbSymbolTableRecord
100
AcDbBlockTableRecord
  2
*Model_Space
340
22
 70
     0
280
     1
281
     0
  0
BLOCK_RECORD
  5
1B
330
1
100
AcDbSymbolTableRecord
100
AcDbBlockTableRecord
  2
*Paper_Space
340
1E
 70
     0
280
     1
281
     0
  0
BLOCK_RECORD
  5
23
330
1
100
AcDbSymbolTableRecord
100
AcDbBlockTableRecord
  2
*Paper_Space0
340
26
 70
     0
280
     1
281
     0
  0
BLOCK_RECORD
  5
67
330
1
100
AcDbSymbolTableRecord
100
AcDbBlockTableRecord
  2
block 2
340
0
102
{BLKREFS
331
68
102
}
 70
     0
280
     1
281
     0
  0
BLOCK_RECORD
  5
76
330
1
100
AcDbSymbolTableRecord
100
AcDbBlockTableRecord
  2
block 3
340
0
102
{BLKREFS
331
77
102
}
 70
     0
280
     1
281
     0
  0
BLOCK_RECORD
  5
96
330
1
100
AcDbSymbolTableRecord
100
AcDbBlockTableRecord
  2
block 4
340
0
102
{BLKREFS
331
97
102
}
 70
     0
280
     1
281
     0
  0
BLOCK_RECORD
  5
9C
330
1
100
AcDbSymbolTableRecord
100
AcDbBlockTableRecord
  2
block 5
340
0
102
{BLKREFS
331
9D
102
}
 70
     0
280
     1
281
     0
  0
BLOCK_RECORD
  5
BC
330
1
100
AcDbSymbolTableRecord
100
AcDbBlockTableRecord
  2
block 6
340
0
102
{BLKREFS
331
BD
102
}
 70
     0
280
     1
281
     0
  0
BLOCK_RECORD
  5
D0
330
1
100
AcDbSymbolTableRecord
100
AcDbBlockTableRecord
  2
block 7
340
0
102
{BLKREFS
331
D1
102
}
 70
     0
280
     1
281
     0
  0
ENDTAB
  0
ENDSEC
  0
SECTION
  2
BLOCKS
  0
BLOCK
  5
20
330
1F
100
AcDbEntity
  8
0
100
AcDbBlockBegin
  2
*Model_Space
 70
     0
 10
0.0
 20
0.0
 30
0.0
  3
*Model_Space
  1

  0
ENDBLK
  5
21
330
1F
100
AcDbEntity
  8
0
100
AcDbBlockEnd
  0
BLOCK
  5
1C
330
1B
100
AcDbEntity
 67
     1
  8
0
100
AcDbBlockBegin
  2
*Paper_Space
 70
     0
 10
0.0
 20
0.0
 30
0.0
  3
*Paper_Space
  1

  0
ENDBLK
  5
1D
330
1B
100
AcDbEntity
 67
     1
  8
0
100
AcDbBlockEnd
  0
BLOCK
  5
24
330
23
100
AcDbEntity
  8
0
100
AcDbBlockBegin
  2
*Paper_Space0
 70
     0
 10
0.0
 20
0.0
 30
0.0
  3
*Paper_Space0
  1

  0
ENDBLK
  5
25
330
23
100
AcDbEntity
  8
0
100
AcDbBlockEnd
  0
BLOCK
  5
69
330
67
100
AcDbEntity
  8
0
100
AcDbBlockBegin
  2
block 2
 70
     0
 10
0.0
 20
0.0
 30
0.0
  3
block 2
  1

  0
SPLINE
  5
6B
330
67
100
AcDbEntity
  8
_U+30EC_U+30A4_U+30E4_U+30FC 1
370
     0
100
AcDbSpline
210
0.0
220
0.0
230
1.0
 70
    11
 71
     3
 72
    62
 73
    58
 74
     0
 42
0.0000000001
 43
0.0000000001
 12
1.0
 22
0.0
 32
0.0
 13
1.0
 23
0.0
 33
0.0
 40
0.0
 40
0.0
 40
0.0
 40
0.0
 40
1.0
 40
1.0
 40
1.0
 40
2.0
 40
2.0
 40
2.0
 40
3.0
 40
3.0
 40
3.0
 40
4.0
 40
4.0
 40
4.0
 40
5.0
 40
5.0
 40
5.0
 40
6.0
 40
6.0
 40
6.0
 40
7.0
 40
7.0
 40
7.0
 40
8.0
 40
8.0
 40
8.0
 40
9.0
 40
9.0
 40
9.0
 40
10.0
 40
10.0
 40
10.0
 40
11.0
 40
11.0
 40
11.0
 40
12.0
 40
12.0
 40
12.0
 40
13.0
 40
13.0
 40
13.0
 40
14.0
 40
14.0
 40
14.0
 40
15.0
 40
15.0
 40
15.0
 40
16.0
 40
16.0
 40
16.0
 40
17.0
 40
17.0
 40
17.0
 40
18.0
 40
18.0
 40
18.0
 40
19.0
 40
19.0
 40
19.0
 40
19.0
 10
101.1028726960784
 20
-123.2124619917663
 30
0.0
 10
101.1028726960784
 20
-123.3140923085812
 30
0.0
 10
101.0818576136184
 20
-123.5469807633841
 30
0.0
 10
100.8958224574149
 20
-123.6803059586633
 30
0.0
 10
100.7835123445958
 20
-123.759543154824
 30
0.0
 10
100.6842935946206
 20
-123.7640217789548
 30
0.0
 10
100.5995442456834
 20
-123.7685004030857
 30
0.0
 10
100.5995442456834
 20
-123.7685004030857
 30
0.0
 10
100.5995442456834
 20
-123.5335448909916
 30
0.0
 10
100.5995442456834
 20
-123.5335448909916
 30
0.0
 10
100.6736137986163
 20
-123.5311333241519
 30
0.0
 10
100.9082248011618
 20
-123.5197645090506
 30
0.0
 10
100.9082248011618
 20
-123.2169406158972
 30
0.0
 10
100.9082248011618
 20
-123.069835038677
 30
0.0
 10
100.8386338723598
 20
-122.9072265317732
 30
0.0
 10
100.6102240416877
 20
-122.9072265317732
 30
0.0
 10
100.4937798142863
 20
-122.9072265317732
 30
0.0
 10
100.4452039679443
 20
-122.9478786584991
 30
0.0
 10
100.41350908948
 20
-122.9816405942546
 30
0.0
 10
100.3394395365471
 20
-123.0608777904153
 30
0.0
 10
100.3266926832517
 20
-123.1852457374329
 30
0.0
 10
100.3266926832517
 20
-123.2441568702306
 30
0.0
 10
100.3266926832517
 20
-123.2644829335936
 30
0.0
 10
100.3287597405428
 20
-123.3027234934799
 30
0.0
 10
100.3328938551251
 20
-123.332351314653
 30
0.0
 10
100.3328938551251
 20
-123.332351314653
 30
0.0
 10
100.1382459602085
 20
-123.332351314653
 30
0.0
 10
100.1382459602085
 20
-123.332351314653
 30
0.0
 10
100.1447916416305
 20
-123.2916991879271
 30
0.0
 10
100.1468586989216
 20
-123.2462239275218
 30
0.0
 10
100.1468586989216
 20
-123.2396782460998
 30
0.0
 10
100.1468586989216
 20
-123.1693982982007
 30
0.0
 10
100.1254991069131
 20
-122.9568359067608
 30
0.0
 10
99.8888210470764
 20
-122.9568359067608
 30
0.0
 10
99.71105412003752
 20
-122.9568359067608
 30
0.0
 10
99.65593259227352
 20
-123.0970512930105
 30
0.0
 10
99.65593259227352
 20
-123.2145290490575
 30
0.0
 10
99.65593259227352
 20
-123.4973713883965
 30
0.0
 10
99.8888210470764
 20
-123.5063286366581
 30
0.0
 10
99.9604790331696
 20
-123.510807260789
 30
0.0
 10
99.9604790331696
 20
-123.510807260789
 30
0.0
 10
99.9604790331696
 20
-123.7278482763597
 30
0.0
 10
99.9604790331696
 20
-123.7278482763597
 30
0.0
 10
99.83576657660356
 20
-123.7188910280981
 30
0.0
 10
99.45921764006576
 20
-123.6896077164734
 30
0.0
 10
99.45921764006576
 20
-123.201093176665
 30
0.0
 10
99.45921764006576
 20
-122.9613145308916
 30
0.0
 10
99.58634166347147
 20
-122.7036213885949
 30
0.0
 10
99.88227536565444
 20
-122.7036213885949
 30
0.0
 10
100.0686550314065
 20
-122.7036213885949
 30
0.0
 10
100.1509928135039
 20
-122.8055962149583
 30
0.0
 10
100.2123155131414
 20
-122.911705155904
 30
0.0
 10
100.2398762770234
 20
-122.8462483416843
 30
0.0
 10
100.3201470018297
 20
-122.6516004467677
 30
0.0
 10
100.5974771883923
 20
-122.6516004467677
 30
0.0
 10
100.9357855650438
 20
-122.6516004467677
 30
0.0
 10
101.1028726960784
 20
-122.9161837800348
 30
0.0
 10
101.1028726960784
 20
-123.2124619917663
 30
0.0
  0
HATCH
  5
6C
330
67
100
AcDbEntity
  8
_U+30EC_U+30A4_U+30E4_U+30FC 1
 62
     7
420
 16777215
100
AcDbHatch
 10
0.0
 20
0.0
 30
0.0
210
0.0
220
0.0
230
1.0
  2
SOLID
 70
     1
 71
     0
 91
        1
 92
        1
 93
        1
 72
     4
 94
        3
 73
     0
 74
     1
 95
       62
 96
       58
 40
0.0
 40
0.0
 40
0.0
 40
0.0
 40
1.0
 40
1.0
 40
1.0
 40
2.0
 40
2.0
 40
2.0
 40
3.0
 40
3.0
 40
3.0
 40
4.0
 40
4.0
 40
4.0
 40
5.0
 40
5.0
 40
5.0
 40
6.0
 40
6.0
 40
6.0
 40
7.0
 40
7.0
 40
7.0
 40
8.0
 40
8.0
 40
8.0
 40
9.0
 40
9.0
 40
9.0
 40
10.0
 40
10.0
 40
10.0
 40
11.0
 40
11.0
 40
11.0
 40
12.0
 40
12.0
 40
12.0
 40
13.0
 40
13.0
 40
13.0
 40
14.0
 40
14.0
 40
14.0
 40
15.0
 40
15.0
 40
15.0
 40
16.0
 40
16.0
 40
16.0
 40
17.0
 40
17.0
 40
17.0
 40
18.0
 40
18.0
 40
18.0
 40
19.0
 40
19.0
 40
19.0
 40
19.0
 10
101.1028726960784
 20
-123.2124619917663
 10
101.1028726960784
 20
-123.3140923085812
 10
101.0818576136184
 20
-123.5469807633841
 10
100.8958224574149
 20
-123.6803059586633
 10
100.7835123445958
 20
-123.759543154824
 10
100.6842935946206
 20
-123.7640217789548
 10
100.5995442456834
 20
-123.7685004030857
 10
100.5995442456834
 20
-123.7685004030857
 10
100.5995442456834
 20
-123.5335448909916
 10
100.5995442456834
 20
-123.5335448909916
 10
100.6736137986163
 20
-123.5311333241519
 10
100.9082248011618
 20
-123.5197645090506
 10
100.9082248011618
 20
-123.2169406158972
 10
100.9082248011618
 20
-123.069835038677
 10
100.8386338723598
 20
-122.9072265317732
 10
100.6102240416877
 20
-122.9072265317732
 10
100.4937798142863
 20
-122.9072265317732
 10
100.4452039679443
 20
-122.9478786584991
 10
100.41350908948
 20
-122.9816405942546
 10
100.3394395365471
 20
-123.0608777904153
 10
100.3266926832517
 20
-123.1852457374329
 10
100.3266926832517
 20
-123.2441568702306
 10
100.3266926832517
 20
-123.2644829335936
 10
100.3287597405428
 20
-123.3027234934799
 10
100.3328938551251
 20
-123.332351314653
 10
100.3328938551251
 20
-123.332351314653
 10
100.1382459602085
 20
-123.332351314653
 10
100.1382459602085
 20
-123.332351314653
 10
100.1447916416305
 20
-123.2916991879271
 10
100.1468586989216
 20
-123.2462239275218
 10
100.1468586989216
 20
-123.2396782460998
 10
100.1468586989216
 20
-123.1693982982007
 10
100.1254991069131
 20
-122.9568359067608
 10
99.8888210470764
 20
-122.9568359067608
 10
99.71105412003752
 20
-122.9568359067608
 10
99.65593259227352
 20
-123.0970512930105
 10
99.65593259227352
 20
-123.2145290490575
 10
99.65593259227352
 20
-123.4973713883965
 10
99.8888210470764
 20
-123.5063286366581
 10
99.9604790331696
 20
-123.510807260789
 10
99.9604790331696
 20
-123.510807260789
 10
99.9604790331696
 20
-123.7278482763597
 10
99.9604790331696
 20
-123.7278482763597
 10
99.83576657660356
 20
-123.7188910280981
 10
99.45921764006576
 20
-123.6896077164734
 10
99.45921764006576
 20
-123.201093176665
 10
99.45921764006576
 20
-122.9613145308916
 10
99.58634166347147
 20
-122.7036213885949
 10
99.88227536565444
 20
-122.7036213885949
 10
100.0686550314065
 20
-122.7036213885949
 10
100.1509928135039
 20
-122.8055962149583
 10
100.2123155131414
 20
-122.911705155904
 10
100.2398762770234
 20
-122.8462483416843
 10
100.3201470018297
 20
-122.6516004467677
 10
100.5974771883923
 20
-122.6516004467677
 10
100.9357855650438
 20
-122.6516004467677
 10
101.1028726960784
 20
-122.9161837800348
 10
101.1028726960784
 20
-123.2124619917663
 97
        0
 97
        0
 75
     2
 76
     1
 98
        0
  0
ENDBLK
  5
6A
330
67
100
AcDbEntity
  8
0
100
AcDbBlockEnd
  0
BLOCK
  5
78
330
76
100
AcDbEntity
  8
0
100
AcDbBlockBegin
  2
block 3
 70
     0
 10
0.0
 20
0.0
 30
0.0
  3
block 3
  1

  0
SPLINE
  5
7A
330
76
100
AcDbEntity
  8
_U+30EC_U+30A4_U+30E4_U+30FC 1
370
     0
100
AcDbSpline
210
0.0
220
0.0
230
1.0
 70
    11
 71
     3
 72
    32
 73
    28
 74
     0
 42
0.0000000001
 43
0.0000000001
 12
1.0
 22
0.0
 32
0.0
 13
1.0
 23
0.0
 33
0.0
 40
0.0
 40
0.0
 40
0.0
 40
0.0
 40
1.0
 40
1.0
 40
1.0
 40
2.0
 40
2.0
 40
2.0
 40
3.0
 40
3.0
 40
3.0
 40
4.0
 40
4.0
 40
4.0
 40
5.0
 40
5.0
 40
5.0
 40
6.0
 40
6.0
 40
6.0
 40
7.0
 40
7.0
 40
7.0
 40
8.0
 40
8.0
 40
8.0
 40
9.0
 40
9.0
 40
9.0
 40
9.0
 10
101.1028726960784
 20
-130.5553385090278
 30
0.0
 10
101.1028726960784
 20
-130.7406846461343
 30
0.0
 10
101.0332817672764
 20
-131.0028564125618
 30
0.0
 10
100.7011745624983
 20
-131.0435085392877
 30
0.0
 10
100.7011745624983
 20
-131.0435085392877
 30
0.0
 10
100.7011745624983
 20
-130.8154432181642
 30
0.0
 10
100.7011745624983
 20
-130.8154432181642
 30
0.0
 10
100.7604302048446
 20
-130.8040744030629
 30
0.0
 10
100.9082248011618
 20
-130.7699679577589
 30
0.0
 10
100.9082248011618
 20
-130.5529269421882
 30
0.0
 10
100.9082248011618
 20
-130.241145800773
 30
0.0
 10
100.5781846536749
 20
-130.2004936740471
 30
0.0
 10
100.3732014723025
 20
-130.1867132921061
 30
0.0
 10
100.4534721971089
 20
-130.2838649847901
 30
0.0
 10
100.510660782164
 20
-130.3562119899804
 30
0.0
 10
100.510660782164
 20
-130.550859884897
 30
0.0
 10
100.510660782164
 20
-130.743096212974
 30
0.0
 10
100.4048963507668
 20
-131.0662461694904
 30
0.0
 10
99.99871959305588
 20
-131.0662461694904
 30
0.0
 10
99.67935924157322
 20
-131.0662461694904
 30
0.0
 10
99.45921764006576
 20
-130.8536837780505
 30
0.0
 10
99.45921764006576
 20
-130.5146863823019
 30
0.0
 10
99.45921764006576
 20
-129.9651936524045
 30
0.0
 10
100.0135335036424
 20
-129.9538248373032
 30
0.0
 10
100.2271294237279
 20
-129.9538248373032
 30
0.0
 10
100.4576063116912
 20
-129.9538248373032
 30
0.0
 10
101.1028726960784
 20
-129.9741509006662
 30
0.0
 10
101.1028726960784
 20
-130.5553385090278
 30
0.0
  0
SPLINE
  5
7B
330
76
100
AcDbEntity
  8
_U+30EC_U+30A4_U+30E4_U+30FC 1
370
     0
100
AcDbSpline
210
0.0
220
0.0
230
1.0
 70
    11
 71
     3
 72
    17
 73
    13
 74
     0
 42
0.0000000001
 43
0.0000000001
 12
1.0
 22
0.0
 32
0.0
 13
1.0
 23
0.0
 33
0.0
 40
0.0
 40
0.0
 40
0.0
 40
0.0
 40
1.0
 40
1.0
 40
1.0
 40
2.0
 40
2.0
 40
2.0
 40
3.0
 40
3.0
 40
3.0
 40
4.0
 40
4.0
 40
4.0
 40
4.0
 10
99.65179847769122
 20
-130.5122748154622
 30
0.0
 10
99.65179847769122
 20
-130.6390543293194
 30
0.0
 10
99.70898706274637
 20
-130.826467523717
 30
0.0
 10
99.99458547847358
 20
-130.826467523717
 30
0.0
 10
100.2209282518545
 20
-130.826467523717
 30
0.0
 10
100.3160128872474
 20
-130.6772948892057
 30
0.0
 10
100.3160128872474
 20
-130.5326008788252
 30
0.0
 10
100.3160128872474
 20
-130.2525146158744
 30
0.0
 10
100.1065510817442
 20
-130.2115179795999
 30
0.0
 10
99.99010685434276
 20
-130.2115179795999
 30
0.0
 10
99.81475149414354
 20
-130.2115179795999
 30
0.0
 10
99.65179847769122
 20
-130.3134928059633
 30
0.0
 10
99.65179847769122
 20
-130.5122748154622
 30
0.0
  0
HATCH
  5
7C
330
76
100
AcDbEntity
  8
_U+30EC_U+30A4_U+30E4_U+30FC 1
 62
     7
420
 16777215
100
AcDbHatch
 10
0.0
 20
0.0
 30
0.0
210
0.0
220
0.0
230
1.0
  2
SOLID
 70
     1
 71
     0
 91
        2
 92
        1
 93
        1
 72
     4
 94
        3
 73
     0
 74
     1
 95
       32
 96
       28
 40
0.0
 40
0.0
 40
0.0
 40
0.0
 40
1.0
 40
1.0
 40
1.0
 40
2.0
 40
2.0
 40
2.0
 40
3.0
 40
3.0
 40
3.0
 40
4.0
 40
4.0
 40
4.0
 40
5.0
 40
5.0
 40
5.0
 40
6.0
 40
6.0
 40
6.0
 40
7.0
 40
7.0
 40
7.0
 40
8.0
 40
8.0
 40
8.0
 40
9.0
 40
9.0
 40
9.0
 40
9.0
 10
101.1028726960784
 20
-130.5553385090278
 10
101.1028726960784
 20
-130.7406846461343
 10
101.0332817672764
 20
-131.0028564125618
 10
100.7011745624983
 20
-131.0435085392877
 10
100.7011745624983
 20
-131.0435085392877
 10
100.7011745624983
 20
-130.8154432181642
 10
100.7011745624983
 20
-130.8154432181642
 10
100.7604302048446
 20
-130.8040744030629
 10
100.9082248011618
 20
-130.7699679577589
 10
100.9082248011618
 20
-130.5529269421882
 10
100.9082248011618
 20
-130.241145800773
 10
100.5781846536749
 20
-130.2004936740471
 10
100.3732014723025
 20
-130.1867132921061
 10
100.4534721971089
 20
-130.2838649847901
 10
100.510660782164
 20
-130.3562119899804
 10
100.510660782164
 20
-130.550859884897
 10
100.510660782164
 20
-130.743096212974
 10
100.4048963507668
 20
-131.0662461694904
 10
99.99871959305588
 20
-131.0662461694904
 10
99.67935924157322
 20
-131.0662461694904
 10
99.45921764006576
 20
-130.8536837780505
 10
99.45921764006576
 20
-130.5146863823019
 10
99.45921764006576
 20
-129.9651936524045
 10
100.0135335036424
 20
-129.9538248373032
 10
100.2271294237279
 20
-129.9538248373032
 10
100.4576063116912
 20
-129.9538248373032
 10
101.1028726960784
 20
-129.9741509006662
 10
101.1028726960784
 20
-130.5553385090278
 97
        0
 97
        0
 92
        1
 93
        1
 72
     4
 94
        3
 73
     0
 74
     1
 95
       17
 96
       13
 40
0.0
 40
0.0
 40
0.0
 40
0.0
 40
1.0
 40
1.0
 40
1.0
 40
2.0
 40
2.0
 40
2.0
 40
3.0
 40
3.0
 40
3.0
 40
4.0
 40
4.0
 40
4.0
 40
4.0
 10
99.65179847769122
 20
-130.5122748154622
 10
99.65179847769122
 20
-130.6390543293194
 10
99.70898706274637
 20
-130.826467523717
 10
99.99458547847358
 20
-130.826467523717
 10
100.2209282518545
 20
-130.826467523717
 10
100.3160128872474
 20
-130.6772948892057
 10
100.3160128872474
 20
-130.5326008788252
 10
100.3160128872474
 20
-130.2525146158744
 10
100.1065510817442
 20
-130.2115179795999
 10
99.99010685434276
 20
-130.2115179795999
 10
99.81475149414354
 20
-130.2115179795999
 10
99.65179847769122
 20
-130.3134928059633
 10
99.65179847769122
 20
-130.5122748154622
 97
        0
 97
        0
 75
     2
 76
     1
 98
        0
  0
POLYLINE
  5
7D
330
76
100
AcDbEntity
  8
_U+30EC_U+30A4_U+30E4_U+30FC 1
370
     0
100
AcDb2dPolyline
 66
     1
 10
0.0
 20
0.0
 30
0.0
  0
VERTEX
  5
7E
330
7D
100
AcDbEntity
  8
_U+30EC_U+30A4_U+30E4_U+30FC 1
370
     0
100
AcDbVertex
100
AcDb2dVertex
 10
101.0522297924453
 20
-129.7226589302429
 30
0.0
  0
VERTEX
  5
7F
330
7D
100
AcDbEntity
  8
_U+30EC_U+30A4_U+30E4_U+30FC 1
370
     0
100
AcDbVertex
100
AcDb2dVertex
 10
100.8003933124735
 20
-129.7226589302429
 30
0.0
  0
VERTEX
  5
80
330
7D
100
AcDbEntity
  8
_U+30EC_U+30A4_U+30E4_U+30FC 1
370
     0
100
AcDbVertex
100
AcDb2dVertex
 10
100.8003933124735
 20
-129.4535969728449
 30
0.0
  0
VERTEX
  5
81
330
7D
100
AcDbEntity
  8
_U+30EC_U+30A4_U+30E4_U+30FC 1
370
     0
100
AcDbVertex
100
AcDb2dVertex
 10
101.0522297924453
 20
-129.4535969728449
 30
0.0
  0
VERTEX
  5
82
330
7D
100
AcDbEntity
  8
_U+30EC_U+30A4_U+30E4_U+30FC 1
370
     0
100
AcDbVertex
100
AcDb2dVertex
 10
101.0522297924453
 20
-129.7226589302429
 30
0.0
  0
SEQEND
  5
83
330
7D
100
AcDbEntity
  8
_U+30EC_U+30A4_U+30E4_U+30FC 1
370
     0
  0
HATCH
  5
84
330
76
100
AcDbEntity
  8
_U+30EC_U+30A4_U+30E4_U+30FC 1
 62
     7
420
 16777215
100
AcDbHatch
 10
0.0
 20
0.0
 30
0.0
210
0.0
220
0.0
230
1.0
  2
SOLID
 70
     1
 71
     0
 91
        1
 92
        1
 93
        4
 72
     1
 10
101.0522297924453
 20
-129.7226589302429
 11
100.8003933124735
 21
-129.7226589302429
 72
     1
 10
100.8003933124735
 20
-129.7226589302429
 11
100.8003933124735
 21
-129.4535969728449
 72
     1
 10
100.8003933124735
 20
-129.4535969728449
 11
101.0522297924453
 21
-129.4535969728449
 72
     1
 10
101.0522297924453
 20
-129.4535969728449
 11
101.0522297924453
 21
-129.7226589302429
 97
        0
 75
     2
 76
     1
 98
        0
  0
SPLINE
  5
85
330
76
100
AcDbEntity
  8
_U+30EC_U+30A4_U+30E4_U+30FC 1
370
     0
100
AcDbSpline
210
0.0
220
0.0
230
1.0
 70
    11
 71
     3
 72
    53
 73
    49
 74
     0
 42
0.0000000001
 43
0.0000000001
 12
1.0
 22
0.0
 32
0.0
 13
1.0
 23
0.0
 33
0.0
 40
0.0
 40
0.0
 40
0.0
 40
0.0
 40
1.0
 40
1.0
 40
1.0
 40
2.0
 40
2.0
 40
2.0
 40
3.0
 40
3.0
 40
3.0
 40
4.0
 40
4.0
 40
4.0
 40
5.0
 40
5.0
 40
5.0
 40
6.0
 40
6.0
 40
6.0
 40
7.0
 40
7.0
 40
7.0
 40
8.0
 40
8.0
 40
8.0
 40
9.0
 40
9.0
 40
9.0
 40
10.0
 40
10.0
 40
10.0
 40
11.0
 40
11.0
 40
11.0
 40
12.0
 40
12.0
 40
12.0
 40
13.0
 40
13.0
 40
13.0
 40
14.0
 40
14.0
 40
14.0
 40
15.0
 40
15.0
 40
15.0
 40
16.0
 40
16.0
 40
16.0
 40
16.0
 10
101.1028726960784
 20
-128.6867187178283
 30
0.0
 10
101.1028726960784
 20
-128.7704345381199
 30
0.0
 10
101.0859917282007
 20
-128.8786105363567
 30
0.0
 10
101.0226019712721
 20
-128.9874755536906
 30
0.0
 10
100.9127034252927
 20
-129.1728216907971
 30
0.0
 10
100.7814452873046
 20
-129.1952148114512
 30
0.0
 10
100.6736137986163
 20
-129.2155408748142
 30
0.0
 10
100.6736137986163
 20
-129.2155408748142
 30
0.0
 10
100.6736137986163
 20
-128.9781737958805
 30
0.0
 10
100.6736137986163
 20
-128.9781737958805
 30
0.0
 10
100.8723958081152
 20
-128.9196071726312
 30
0.0
 10
100.9020236292884
 20
-128.7838704105124
 30
0.0
 10
100.9020236292884
 20
-128.6843071509886
 30
0.0
 10
100.9020236292884
 20
-128.5351345164773
 30
0.0
 10
100.8024603697647
 20
-128.372181500025
 30
0.0
 10
100.5699164245103
 20
-128.372181500025
 30
0.0
 10
100.3139458299562
 20
-128.372181500025
 30
0.0
 10
100.2440103916057
 20
-128.564417828102
 30
0.0
 10
100.2440103916057
 20
-128.6932643992503
 30
0.0
 10
100.2440103916057
 20
-128.7273708445543
 30
0.0
 10
100.2440103916057
 20
-128.8786105363567
 30
0.0
 10
100.3732014723025
 20
-128.9736951717496
 30
0.0
 10
100.3732014723025
 20
-128.9736951717496
 30
0.0
 10
100.3542534471337
 20
-129.1614528756957
 30
0.0
 10
100.3542534471337
 20
-129.1614528756957
 30
0.0
 10
100.3542534471337
 20
-129.1614528756957
 30
0.0
 10
99.50779348640778
 20
-129.0326063045474
 30
0.0
 10
99.50779348640778
 20
-129.0326063045474
 30
0.0
 10
99.50779348640778
 20
-129.0326063045474
 30
0.0
 10
99.50779348640778
 20
-128.2006157448596
 30
0.0
 10
99.50779348640778
 20
-128.2006157448596
 30
0.0
 10
99.50779348640778
 20
-128.2006157448596
 30
0.0
 10
99.70244138132439
 20
-128.2006157448596
 30
0.0
 10
99.70244138132439
 20
-128.2006157448596
 30
0.0
 10
99.70244138132439
 20
-128.2006157448596
 30
0.0
 10
99.70244138132439
 20
-128.8582844729938
 30
0.0
 10
99.70244138132439
 20
-128.8582844729938
 30
0.0
 10
99.70244138132439
 20
-128.8582844729938
 30
0.0
 10
100.1254991069131
 20
-128.9285644208929
 30
0.0
 10
100.1254991069131
 20
-128.9285644208929
 30
0.0
 10
100.0917371711576
 20
-128.8631076066731
 30
0.0
 10
100.0514295539802
 20
-128.7749131622507
 30
0.0
 10
100.0514295539802
 20
-128.6481336483935
 30
0.0
 10
100.0514295539802
 20
-128.3770046337044
 30
0.0
 10
100.2378092197322
 20
-128.1237901155385
 30
0.0
 10
100.5509683993414
 20
-128.1237901155385
 30
0.0
 10
100.8682616935329
 20
-128.1237901155385
 30
0.0
 10
101.1028726960784
 20
-128.3632242517634
 30
0.0
 10
101.1028726960784
 20
-128.6867187178283
 30
0.0
  0
HATCH
  5
86
330
76
100
AcDbEntity
  8
_U+30EC_U+30A4_U+30E4_U+30FC 1
 62
     7
420
 16777215
100
AcDbHatch
 10
0.0
 20
0.0
 30
0.0
210
0.0
220
0.0
230
1.0
  2
SOLID
 70
     1
 71
     0
 91
        1
 92
        1
 93
        1
 72
     4
 94
        3
 73
     0
 74
     1
 95
       53
 96
       49
 40
0.0
 40
0.0
 40
0.0
 40
0.0
 40
1.0
 40
1.0
 40
1.0
 40
2.0
 40
2.0
 40
2.0
 40
3.0
 40
3.0
 40
3.0
 40
4.0
 40
4.0
 40
4.0
 40
5.0
 40
5.0
 40
5.0
 40
6.0
 40
6.0
 40
6.0
 40
7.0
 40
7.0
 40
7.0
 40
8.0
 40
8.0
 40
8.0
 40
9.0
 40
9.0
 40
9.0
 40
10.0
 40
10.0
 40
10.0
 40
11.0
 40
11.0
 40
11.0
 40
12.0
 40
12.0
 40
12.0
 40
13.0
 40
13.0
 40
13.0
 40
14.0
 40
14.0
 40
14.0
 40
15.0
 40
15.0
 40
15.0
 40
16.0
 40
16.0
 40
16.0
 40
16.0
 10
101.1028726960784
 20
-128.6867187178283
 10
101.1028726960784
 20
-128.7704345381199
 10
101.0859917282007
 20
-128.8786105363567
 10
101.0226019712721
 20
-128.9874755536906
 10
100.9127034252927
 20
-129.1728216907971
 10
100.7814452873046
 20
-129.1952148114512
 10
100.6736137986163
 20
-129.2155408748142
 10
100.6736137986163
 20
-129.2155408748142
 10
100.6736137986163
 20
-128.9781737958805
 10
100.6736137986163
 20
-128.9781737958805
 10
100.8723958081152
 20
-128.9196071726312
 10
100.9020236292884
 20
-128.7838704105124
 10
100.9020236292884
 20
-128.6843071509886
 10
100.9020236292884
 20
-128.5351345164773
 10
100.8024603697647
 20
-128.372181500025
 10
100.5699164245103
 20
-128.372181500025
 10
100.3139458299562
 20
-128.372181500025
 10
100.2440103916057
 20
-128.564417828102
 10
100.2440103916057
 20
-128.6932643992503
 10
100.2440103916057
 20
-128.7273708445543
 10
100.2440103916057
 20
-128.8786105363567
 10
100.3732014723025
 20
-128.9736951717496
 10
100.3732014723025
 20
-128.9736951717496
 10
100.3542534471337
 20
-129.1614528756957
 10
100.3542534471337
 20
-129.1614528756957
 10
100.3542534471337
 20
-129.1614528756957
 10
99.50779348640778
 20
-129.0326063045474
 10
99.50779348640778
 20
-129.0326063045474
 10
99.50779348640778
 20
-129.0326063045474
 10
99.50779348640778
 20
-128.2006157448596
 10
99.50779348640778
 20
-128.2006157448596
 10
99.50779348640778
 20
-128.2006157448596
 10
99.70244138132439
 20
-128.2006157448596
 10
99.70244138132439
 20
-128.2006157448596
 10
99.70244138132439
 20
-128.2006157448596
 10
99.70244138132439
 20
-128.8582844729938
 10
99.70244138132439
 20
-128.8582844729938
 10
99.70244138132439
 20
-128.8582844729938
 10
100.1254991069131
 20
-128.9285644208929
 10
100.1254991069131
 20
-128.9285644208929
 10
100.0917371711576
 20
-128.8631076066731
 10
100.0514295539802
 20
-128.7749131622507
 10
100.0514295539802
 20
-128.6481336483935
 10
100.0514295539802
 20
-128.3770046337044
 10
100.2378092197322
 20
-128.1237901155385
 10
100.5509683993414
 20
-128.1237901155385
 10
100.8682616935329
 20
-128.1237901155385
 10
101.1028726960784
 20
-128.3632242517634
 10
101.1028726960784
 20
-128.6867187178283
 97
        0
 97
        0
 75
     2
 76
     1
 98
        0
  0
ENDBLK
  5
79
330
76
100
AcDbEntity
  8
0
100
AcDbBlockEnd
  0
BLOCK
  5
98
330
96
100
AcDbEntity
  8
0
100
AcDbBlockBegin
  2
block 4
 70
     0
 10
0.0
 20
0.0
 30
0.0
  3
block 4
  1

  0
SPLINE
  5
9A
330
96
100
AcDbEntity
  8
_U+30EC_U+30A4_U+30E4_U+30FC 1
370
     0
100
AcDbSpline
210
0.0
220
0.0
230
1.0
 70
    11
 71
     3
 72
    26
 73
    22
 74
     0
 42
0.0000000001
 43
0.0000000001
 12
1.0
 22
0.0
 32
0.0
 13
1.0
 23
0.0
 33
0.0
 40
0.0
 40
0.0
 40
0.0
 40
0.0
 40
1.0
 40
1.0
 40
1.0
 40
2.0
 40
2.0
 40
2.0
 40
3.0
 40
3.0
 40
3.0
 40
4.0
 40
4.0
 40
4.0
 40
5.0
 40
5.0
 40
5.0
 40
6.0
 40
6.0
 40
6.0
 40
7.0
 40
7.0
 40
7.0
 40
7.0
 10
104.4311794443783
 20
-135.1500623577055
 30
0.0
 10
104.4311794443783
 20
-135.1500623577055
 30
0.0
 10
103.3270263413557
 20
-135.1500623577055
 30
0.0
 10
103.3270263413557
 20
-135.1500623577055
 30
0.0
 10
103.3270263413557
 20
-135.1500623577055
 30
0.0
 10
103.3270263413557
 20
-135.5024956258466
 30
0.0
 10
103.3270263413557
 20
-135.5024956258466
 30
0.0
 10
103.3270263413557
 20
-135.5024956258466
 30
0.0
 10
103.17888723549
 20
-135.5024956258466
 30
0.0
 10
103.17888723549
 20
-135.5024956258466
 30
0.0
 10
103.1640733249034
 20
-135.1476507908659
 30
0.0
 10
103.0011203084511
 20
-135.0980414158783
 30
0.0
 10
102.8867431383408
 20
-135.066346537414
 30
0.0
 10
102.8867431383408
 20
-135.066346537414
 30
0.0
 10
102.8867431383408
 20
-134.9102837119322
 30
0.0
 10
102.8867431383408
 20
-134.9102837119322
 30
0.0
 10
102.8867431383408
 20
-134.9102837119322
 30
0.0
 10
104.4311794443783
 20
-134.9102837119322
 30
0.0
 10
104.4311794443783
 20
-134.9102837119322
 30
0.0
 10
104.4311794443783
 20
-134.9102837119322
 30
0.0
 10
104.4311794443783
 20
-135.1500623577055
 30
0.0
 10
104.4311794443783
 20
-135.1500623577055
 30
0.0
  0
HATCH
  5
9B
330
96
100
AcDbEntity
  8
_U+30EC_U+30A4_U+30E4_U+30FC 1
 62
     7
420
 16777215
100
AcDbHatch
 10
0.0
 20
0.0
 30
0.0
210
0.0
220
0.0
230
1.0
  2
SOLID
 70
     1
 71
     0
 91
        1
 92
        1
 93
        1
 72
     4
 94
        3
 73
     0
 74
     1
 95
       26
 96
       22
 40
0.0
 40
0.0
 40
0.0
 40
0.0
 40
1.0
 40
1.0
 40
1.0
 40
2.0
 40
2.0
 40
2.0
 40
3.0
 40
3.0
 40
3.0
 40
4.0
 40
4.0
 40
4.0
 40
5.0
 40
5.0
 40
5.0
 40
6.0
 40
6.0
 40
6.0
 40
7.0
 40
7.0
 40
7.0
 40
7.0
 10
104.4311794443783
 20
-135.1500623577055
 10
104.4311794443783
 20
-135.1500623577055
 10
103.3270263413557
 20
-135.1500623577055
 10
103.3270263413557
 20
-135.1500623577055
 10
103.3270263413557
 20
-135.1500623577055
 10
103.3270263413557
 20
-135.5024956258466
 10
103.3270263413557
 20
-135.5024956258466
 10
103.3270263413557
 20
-135.5024956258466
 10
103.17888723549
 20
-135.5024956258466
 10
103.17888723549
 20
-135.5024956258466
 10
103.1640733249034
 20
-135.1476507908659
 10
103.0011203084511
 20
-135.0980414158783
 10
102.8867431383408
 20
-135.066346537414
 10
102.8867431383408
 20
-135.066346537414
 10
102.8867431383408
 20
-134.9102837119322
 10
102.8867431383408
 20
-134.9102837119322
 10
102.8867431383408
 20
-134.9102837119322
 10
104.4311794443783
 20
-134.9102837119322
 10
104.4311794443783
 20
-134.9102837119322
 10
104.4311794443783
 20
-134.9102837119322
 10
104.4311794443783
 20
-135.1500623577055
 10
104.4311794443783
 20
-135.1500623577055
 97
        0
 97
        0
 75
     2
 76
     1
 98
        0
  0
ENDBLK
  5
99
330
96
100
AcDbEntity
  8
0
100
AcDbBlockEnd
  0
BLOCK
  5
9E
330
9C
100
AcDbEntity
  8
0
100
AcDbBlockBegin
  2
block 5
 70
     0
 10
0.0
 20
0.0
 30
0.0
  3
block 5
  1

  0
SPLINE
  5
A0
330
9C
100
AcDbEntity
  8
_U+30EC_U+30A4_U+30E4_U+30FC 1
370
     0
100
AcDbSpline
210
0.0
220
0.0
230
1.0
 70
    11
 71
     3
 72
    26
 73
    22
 74
     0
 42
0.0000000001
 43
0.0000000001
 12
1.0
 22
0.0
 32
0.0
 13
1.0
 23
0.0
 33
0.0
 40
0.0
 40
0.0
 40
0.0
 40
0.0
 40
1.0
 40
1.0
 40
1.0
 40
2.0
 40
2.0
 40
2.0
 40
3.0
 40
3.0
 40
3.0
 40
4.0
 40
4.0
 40
4.0
 40
5.0
 40
5.0
 40
5.0
 40
6.0
 40
6.0
 40
6.0
 40
7.0
 40
7.0
 40
7.0
 40
7.0
 10
104.4311794443783
 20
-129.7908718208509
 30
0.0
 10
104.4311794443783
 20
-129.7908718208509
 30
0.0
 10
103.3270263413557
 20
-129.7908718208509
 30
0.0
 10
103.3270263413557
 20
-129.7908718208509
 30
0.0
 10
103.3270263413557
 20
-129.7908718208509
 30
0.0
 10
103.3270263413557
 20
-130.143305088992
 30
0.0
 10
103.3270263413557
 20
-130.143305088992
 30
0.0
 10
103.3270263413557
 20
-130.143305088992
 30
0.0
 10
103.17888723549
 20
-130.143305088992
 30
0.0
 10
103.17888723549
 20
-130.143305088992
 30
0.0
 10
103.1640733249034
 20
-129.7884602540112
 30
0.0
 10
103.0011203084511
 20
-129.7388508790236
 30
0.0
 10
102.8867431383408
 20
-129.7071560005593
 30
0.0
 10
102.8867431383408
 20
-129.7071560005593
 30
0.0
 10
102.8867431383408
 20
-129.5510931750775
 30
0.0
 10
102.8867431383408
 20
-129.5510931750775
 30
0.0
 10
102.8867431383408
 20
-129.5510931750775
 30
0.0
 10
104.4311794443783
 20
-129.5510931750775
 30
0.0
 10
104.4311794443783
 20
-129.5510931750775
 30
0.0
 10
104.4311794443783
 20
-129.5510931750775
 30
0.0
 10
104.4311794443783
 20
-129.7908718208509
 30
0.0
 10
104.4311794443783
 20
-129.7908718208509
 30
0.0
  0
HATCH
  5
A1
330
9C
100
AcDbEntity
  8
_U+30EC_U+30A4_U+30E4_U+30FC 1
 62
     7
420
 16777215
100
AcDbHatch
 10
0.0
 20
0.0
 30
0.0
210
0.0
220
0.0
230
1.0
  2
SOLID
 70
     1
 71
     0
 91
        1
 92
        1
 93
        1
 72
     4
 94
        3
 73
     0
 74
     1
 95
       26
 96
       22
 40
0.0
 40
0.0
 40
0.0
 40
0.0
 40
1.0
 40
1.0
 40
1.0
 40
2.0
 40
2.0
 40
2.0
 40
3.0
 40
3.0
 40
3.0
 40
4.0
 40
4.0
 40
4.0
 40
5.0
 40
5.0
 40
5.0
 40
6.0
 40
6.0
 40
6.0
 40
7.0
 40
7.0
 40
7.0
 40
7.0
 10
104.4311794443783
 20
-129.7908718208509
 10
104.4311794443783
 20
-129.7908718208509
 10
103.3270263413557
 20
-129.7908718208509
 10
103.3270263413557
 20
-129.7908718208509
 10
103.3270263413557
 20
-129.7908718208509
 10
103.3270263413557
 20
-130.143305088992
 10
103.3270263413557
 20
-130.143305088992
 10
103.3270263413557
 20
-130.143305088992
 10
103.17888723549
 20
-130.143305088992
 10
103.17888723549
 20
-130.143305088992
 10
103.1640733249034
 20
-129.7884602540112
 10
103.0011203084511
 20
-129.7388508790236
 10
102.8867431383408
 20
-129.7071560005593
 10
102.8867431383408
 20
-129.7071560005593
 10
102.8867431383408
 20
-129.5510931750775
 10
102.8867431383408
 20
-129.5510931750775
 10
102.8867431383408
 20
-129.5510931750775
 10
104.4311794443783
 20
-129.5510931750775
 10
104.4311794443783
 20
-129.5510931750775
 10
104.4311794443783
 20
-129.5510931750775
 10
104.4311794443783
 20
-129.7908718208509
 10
104.4311794443783
 20
-129.7908718208509
 97
        0
 97
        0
 75
     2
 76
     1
 98
        0
  0
SPLINE
  5
A2
330
9C
100
AcDbEntity
  8
_U+30EC_U+30A4_U+30E4_U+30FC 1
370
     0
100
AcDbSpline
210
0.0
220
0.0
230
1.0
 70
    11
 71
     3
 72
    44
 73
    40
 74
     0
 42
0.0000000001
 43
0.0000000001
 12
1.0
 22
0.0
 32
0.0
 13
1.0
 23
0.0
 33
0.0
 40
0.0
 40
0.0
 40
0.0
 40
0.0
 40
1.0
 40
1.0
 40
1.0
 40
2.0
 40
2.0
 40
2.0
 40
3.0
 40
3.0
 40
3.0
 40
4.0
 40
4.0
 40
4.0
 40
5.0
 40
5.0
 40
5.0
 40
6.0
 40
6.0
 40
6.0
 40
7.0
 40
7.0
 40
7.0
 40
8.0
 40
8.0
 40
8.0
 40
9.0
 40
9.0
 40
9.0
 40
10.0
 40
10.0
 40
10.0
 40
11.0
 40
11.0
 40
11.0
 40
12.0
 40
12.0
 40
12.0
 40
13.0
 40
13.0
 40
13.0
 40
13.0
 10
103.8493028169196
 20
-128.3814832578352
 30
0.0
 10
104.0081217187896
 20
-128.6143717126381
 30
0.0
 10
104.0821912717225
 20
-128.7139349721618
 30
0.0
 10
104.2258517534574
 20
-128.7659559139891
 30
0.0
 10
104.2258517534574
 20
-128.7659559139891
 30
0.0
 10
104.2258517534574
 20
-127.9336208447527
 30
0.0
 10
104.2258517534574
 20
-127.9336208447527
 30
0.0
 10
104.2258517534574
 20
-127.9336208447527
 30
0.0
 10
104.4311794443783
 20
-127.9336208447527
 30
0.0
 10
104.4311794443783
 20
-127.9336208447527
 30
0.0
 10
104.4311794443783
 20
-127.9336208447527
 30
0.0
 10
104.4311794443783
 20
-129.0326063045474
 30
0.0
 10
104.4311794443783
 20
-129.0326063045474
 30
0.0
 10
104.0735785330094
 20
-128.9984998592434
 30
0.0
 10
103.9953748654942
 20
-128.9285644208929
 30
0.0
 10
103.6970295964716
 20
-128.517220019954
 30
0.0
 10
103.4982475869727
 20
-128.2436794384252
 30
0.0
 10
103.4303792059132
 20
-128.1733994905261
 30
0.0
 10
103.2929198960518
 20
-128.1733994905261
 30
0.0
 10
103.1744086113592
 20
-128.1733994905261
 30
0.0
 10
103.0434949829197
 20
-128.2502251198472
 30
0.0
 10
103.0434949829197
 20
-128.4607204539959
 30
0.0
 10
103.0434949829197
 20
-128.7387396596556
 30
0.0
 10
103.2739718708829
 20
-128.7476969079173
 30
0.0
 10
103.3904160982843
 20
-128.7521755320481
 30
0.0
 10
103.3904160982843
 20
-128.7521755320481
 30
0.0
 10
103.3904160982843
 20
-128.9919541778215
 30
0.0
 10
103.3904160982843
 20
-128.9919541778215
 30
0.0
 10
103.2632920748786
 20
-128.9829969295598
 30
0.0
 10
103.151326471608
 20
-128.9716281144585
 30
0.0
 10
103.0328151869154
 20
-128.8855007273272
 30
0.0
 10
102.8719292277543
 20
-128.7680229712802
 30
0.0
 10
102.8381672919988
 20
-128.5692409617813
 30
0.0
 10
102.8381672919988
 20
-128.4448730147638
 30
0.0
 10
102.8381672919988
 20
-128.1485948030323
 30
0.0
 10
103.0221353909111
 20
-127.9270751633307
 30
0.0
 10
103.2949869533429
 20
-127.9270751633307
 30
0.0
 10
103.5237412935635
 20
-127.9270751633307
 30
0.0
 10
103.6229600435387
 20
-128.0514431103483
 30
0.0
 10
103.8493028169196
 20
-128.3814832578352
 30
0.0
  0
HATCH
  5
A3
330
9C
100
AcDbEntity
  8
_U+30EC_U+30A4_U+30E4_U+30FC 1
 62
     7
420
 16777215
100
AcDbHatch
 10
0.0
 20
0.0
 30
0.0
210
0.0
220
0.0
230
1.0
  2
SOLID
 70
     1
 71
     0
 91
        1
 92
        1
 93
        1
 72
     4
 94
        3
 73
     0
 74
     1
 95
       44
 96
       40
 40
0.0
 40
0.0
 40
0.0
 40
0.0
 40
1.0
 40
1.0
 40
1.0
 40
2.0
 40
2.0
 40
2.0
 40
3.0
 40
3.0
 40
3.0
 40
4.0
 40
4.0
 40
4.0
 40
5.0
 40
5.0
 40
5.0
 40
6.0
 40
6.0
 40
6.0
 40
7.0
 40
7.0
 40
7.0
 40
8.0
 40
8.0
 40
8.0
 40
9.0
 40
9.0
 40
9.0
 40
10.0
 40
10.0
 40
10.0
 40
11.0
 40
11.0
 40
11.0
 40
12.0
 40
12.0
 40
12.0
 40
13.0
 40
13.0
 40
13.0
 40
13.0
 10
103.8493028169196
 20
-128.3814832578352
 10
104.0081217187896
 20
-128.6143717126381
 10
104.0821912717225
 20
-128.7139349721618
 10
104.2258517534574
 20
-128.7659559139891
 10
104.2258517534574
 20
-128.7659559139891
 10
104.2258517534574
 20
-127.9336208447527
 10
104.2258517534574
 20
-127.9336208447527
 10
104.2258517534574
 20
-127.9336208447527
 10
104.4311794443783
 20
-127.9336208447527
 10
104.4311794443783
 20
-127.9336208447527
 10
104.4311794443783
 20
-127.9336208447527
 10
104.4311794443783
 20
-129.0326063045474
 10
104.4311794443783
 20
-129.0326063045474
 10
104.0735785330094
 20
-128.9984998592434
 10
103.9953748654942
 20
-128.9285644208929
 10
103.6970295964716
 20
-128.517220019954
 10
103.4982475869727
 20
-128.2436794384252
 10
103.4303792059132
 20
-128.1733994905261
 10
103.2929198960518
 20
-128.1733994905261
 10
103.1744086113592
 20
-128.1733994905261
 10
103.0434949829197
 20
-128.2502251198472
 10
103.0434949829197
 20
-128.4607204539959
 10
103.0434949829197
 20
-128.7387396596556
 10
103.2739718708829
 20
-128.7476969079173
 10
103.3904160982843
 20
-128.7521755320481
 10
103.3904160982843
 20
-128.7521755320481
 10
103.3904160982843
 20
-128.9919541778215
 10
103.3904160982843
 20
-128.9919541778215
 10
103.2632920748786
 20
-128.9829969295598
 10
103.151326471608
 20
-128.9716281144585
 10
103.0328151869154
 20
-128.8855007273272
 10
102.8719292277543
 20
-128.7680229712802
 10
102.8381672919988
 20
-128.5692409617813
 10
102.8381672919988
 20
-128.4448730147638
 10
102.8381672919988
 20
-128.1485948030323
 10
103.0221353909111
 20
-127.9270751633307
 10
103.2949869533429
 20
-127.9270751633307
 10
103.5237412935635
 20
-127.9270751633307
 10
103.6229600435387
 20
-128.0514431103483
 10
103.8493028169196
 20
-128.3814832578352
 97
        0
 97
        0
 75
     2
 76
     1
 98
        0
  0
POLYLINE
  5
A4
330
9C
100
AcDbEntity
  8
_U+30EC_U+30A4_U+30E4_U+30FC 1
370
     0
100
AcDb2dPolyline
 66
     1
 10
0.0
 20
0.0
 30
0.0
  0
VERTEX
  5
A5
330
A4
100
AcDbEntity
  8
_U+30EC_U+30A4_U+30E4_U+30FC 1
370
     0
100
AcDbVertex
100
AcDb2dVertex
 10
104.4311794443783
 20
-127.6934976894308
 30
0.0
  0
VERTEX
  5
A6
330
A4
100
AcDbEntity
  8
_U+30EC_U+30A4_U+30E4_U+30FC 1
370
     0
100
AcDbVertex
100
AcDb2dVertex
 10
104.1793429644066
 20
-127.6934976894308
 30
0.0
  0
VERTEX
  5
A7
330
A4
100
AcDbEntity
  8
_U+30EC_U+30A4_U+30E4_U+30FC 1
370
     0
100
AcDbVertex
100
AcDb2dVertex
 10
104.1793429644066
 20
-127.4244357320328
 30
0.0
  0
VERTEX
  5
A8
330
A4
100
AcDbEntity
  8
_U+30EC_U+30A4_U+30E4_U+30FC 1
370
     0
100
AcDbVertex
100
AcDb2dVertex
 10
104.4311794443783
 20
-127.4244357320328
 30
0.0
  0
VERTEX
  5
A9
330
A4
100
AcDbEntity
  8
_U+30EC_U+30A4_U+30E4_U+30FC 1
370
     0
100
AcDbVertex
100
AcDb2dVertex
 10
104.4311794443783
 20
-127.6934976894308
 30
0.0
  0
SEQEND
  5
AA
330
A4
100
AcDbEntity
  8
_U+30EC_U+30A4_U+30E4_U+30FC 1
370
     0
  0
HATCH
  5
AB
330
9C
100
AcDbEntity
  8
_U+30EC_U+30A4_U+30E4_U+30FC 1
 62
     7
420
 16777215
100
AcDbHatch
 10
0.0
 20
0.0
 30
0.0
210
0.0
220
0.0
230
1.0
  2
SOLID
 70
     1
 71
     0
 91
        1
 92
        1
 93
        4
 72
     1
 10
104.4311794443783
 20
-127.6934976894308
 11
104.1793429644066
 21
-127.6934976894308
 72
     1
 10
104.1793429644066
 20
-127.6934976894308
 11
104.1793429644066
 21
-127.4244357320328
 72
     1
 10
104.1793429644066
 20
-127.4244357320328
 11
104.4311794443783
 21
-127.4244357320328
 72
     1
 10
104.4311794443783
 20
-127.4244357320328
 11
104.4311794443783
 21
-127.6934976894308
 97
        0
 75
     2
 76
     1
 98
        0
  0
SPLINE
  5
AC
330
9C
100
AcDbEntity
  8
_U+30EC_U+30A4_U+30E4_U+30FC 1
370
     0
100
AcDbSpline
210
0.0
220
0.0
230
1.0
 70
    11
 71
     3
 72
    53
 73
    49
 74
     0
 42
0.0000000001
 43
0.0000000001
 12
1.0
 22
0.0
 32
0.0
 13
1.0
 23
0.0
 33
0.0
 40
0.0
 40
0.0
 40
0.0
 40
0.0
 40
1.0
 40
1.0
 40
1.0
 40
2.0
 40
2.0
 40
2.0
 40
3.0
 40
3.0
 40
3.0
 40
4.0
 40
4.0
 40
4.0
 40
5.0
 40
5.0
 40
5.0
 40
6.0
 40
6.0
 40
6.0
 40
7.0
 40
7.0
 40
7.0
 40
8.0
 40
8.0
 40
8.0
 40
9.0
 40
9.0
 40
9.0
 40
10.0
 40
10.0
 40
10.0
 40
11.0
 40
11.0
 40
11.0
 40
12.0
 40
12.0
 40
12.0
 40
13.0
 40
13.0
 40
13.0
 40
14.0
 40
14.0
 40
14.0
 40
15.0
 40
15.0
 40
15.0
 40
16.0
 40
16.0
 40
16.0
 40
16.0
 10
104.4818223480115
 20
-126.6575574770162
 30
0.0
 10
104.4818223480115
 20
-126.7409287877592
 30
0.0
 10
104.4649413801338
 20
-126.8497938050931
 30
0.0
 10
104.4015516232052
 20
-126.95796980333
 30
0.0
 10
104.2916530772257
 20
-127.1436604499849
 30
0.0
 10
104.1603949392377
 20
-127.1660535706391
 30
0.0
 10
104.0525634505494
 20
-127.186379634002
 30
0.0
 10
104.0525634505494
 20
-127.186379634002
 30
0.0
 10
104.0525634505494
 20
-126.9490125550683
 30
0.0
 10
104.0525634505494
 20
-126.9490125550683
 30
0.0
 10
104.2513454600483
 20
-126.8904459318191
 30
0.0
 10
104.2809732812214
 20
-126.7547091697002
 30
0.0
 10
104.2809732812214
 20
-126.6551459101765
 30
0.0
 10
104.2809732812214
 20
-126.5059732756652
 30
0.0
 10
104.1814100216977
 20
-126.3433647687614
 30
0.0
 10
103.9488660764433
 20
-126.3433647687614
 30
0.0
 10
103.6928954818893
 20
-126.3433647687614
 30
0.0
 10
103.6229600435387
 20
-126.5352565872898
 30
0.0
 10
103.6229600435387
 20
-126.6641031584382
 30
0.0
 10
103.6229600435387
 20
-126.6982096037421
 30
0.0
 10
103.6229600435387
 20
-126.8497938050931
 30
0.0
 10
103.7521511242356
 20
-126.9445339309375
 30
0.0
 10
103.7521511242356
 20
-126.9445339309375
 30
0.0
 10
103.7332030990667
 20
-127.1322916348836
 30
0.0
 10
103.7332030990667
 20
-127.1322916348836
 30
0.0
 10
103.7332030990667
 20
-127.1322916348836
 30
0.0
 10
102.8867431383408
 20
-127.0034450637353
 30
0.0
 10
102.8867431383408
 20
-127.0034450637353
 30
0.0
 10
102.8867431383408
 20
-127.0034450637353
 30
0.0
 10
102.8867431383408
 20
-126.1714545040474
 30
0.0
 10
102.8867431383408
 20
-126.1714545040474
 30
0.0
 10
102.8867431383408
 20
-126.1714545040474
 30
0.0
 10
103.0813910332574
 20
-126.1714545040474
 30
0.0
 10
103.0813910332574
 20
-126.1714545040474
 30
0.0
 10
103.0813910332574
 20
-126.1714545040474
 30
0.0
 10
103.0813910332574
 20
-126.8291232321816
 30
0.0
 10
103.0813910332574
 20
-126.8291232321816
 30
0.0
 10
103.0813910332574
 20
-126.8291232321816
 30
0.0
 10
103.5044487588461
 20
-126.8994031800807
 30
0.0
 10
103.5044487588461
 20
-126.8994031800807
 30
0.0
 10
103.4706868230907
 20
-126.833946365861
 30
0.0
 10
103.4303792059132
 20
-126.7457519214386
 30
0.0
 10
103.4303792059132
 20
-126.6189724075814
 30
0.0
 10
103.4303792059132
 20
-126.3478433928922
 30
0.0
 10
103.6167588716653
 20
-126.0946288747264
 30
0.0
 10
103.9299180512745
 20
-126.0946288747264
 30
0.0
 10
104.247211345466
 20
-126.0946288747264
 30
0.0
 10
104.4818223480115
 20
-126.3340630109512
 30
0.0
 10
104.4818223480115
 20
-126.6575574770162
 30
0.0
  0
HATCH
  5
AD
330
9C
100
AcDbEntity
  8
_U+30EC_U+30A4_U+30E4_U+30FC 1
 62
     7
420
 16777215
100
AcDbHatch
 10
0.0
 20
0.0
 30
0.0
210
0.0
220
0.0
230
1.0
  2
SOLID
 70
     1
 71
     0
 91
        1
 92
        1
 93
        1
 72
     4
 94
        3
 73
     0
 74
     1
 95
       53
 96
       49
 40
0.0
 40
0.0
 40
0.0
 40
0.0
 40
1.0
 40
1.0
 40
1.0
 40
2.0
 40
2.0
 40
2.0
 40
3.0
 40
3.0
 40
3.0
 40
4.0
 40
4.0
 40
4.0
 40
5.0
 40
5.0
 40
5.0
 40
6.0
 40
6.0
 40
6.0
 40
7.0
 40
7.0
 40
7.0
 40
8.0
 40
8.0
 40
8.0
 40
9.0
 40
9.0
 40
9.0
 40
10.0
 40
10.0
 40
10.0
 40
11.0
 40
11.0
 40
11.0
 40
12.0
 40
12.0
 40
12.0
 40
13.0
 40
13.0
 40
13.0
 40
14.0
 40
14.0
 40
14.0
 40
15.0
 40
15.0
 40
15.0
 40
16.0
 40
16.0
 40
16.0
 40
16.0
 10
104.4818223480115
 20
-126.6575574770162
 10
104.4818223480115
 20
-126.7409287877592
 10
104.4649413801338
 20
-126.8497938050931
 10
104.4015516232052
 20
-126.95796980333
 10
104.2916530772257
 20
-127.1436604499849
 10
104.1603949392377
 20
-127.1660535706391
 10
104.0525634505494
 20
-127.186379634002
 10
104.0525634505494
 20
-127.186379634002
 10
104.0525634505494
 20
-126.9490125550683
 10
104.0525634505494
 20
-126.9490125550683
 10
104.2513454600483
 20
-126.8904459318191
 10
104.2809732812214
 20
-126.7547091697002
 10
104.2809732812214
 20
-126.6551459101765
 10
104.2809732812214
 20
-126.5059732756652
 10
104.1814100216977
 20
-126.3433647687614
 10
103.9488660764433
 20
-126.3433647687614
 10
103.6928954818893
 20
-126.3433647687614
 10
103.6229600435387
 20
-126.5352565872898
 10
103.6229600435387
 20
-126.6641031584382
 10
103.6229600435387
 20
-126.6982096037421
 10
103.6229600435387
 20
-126.8497938050931
 10
103.7521511242356
 20
-126.9445339309375
 10
103.7521511242356
 20
-126.9445339309375
 10
103.7332030990667
 20
-127.1322916348836
 10
103.7332030990667
 20
-127.1322916348836
 10
103.7332030990667
 20
-127.1322916348836
 10
102.8867431383408
 20
-127.0034450637353
 10
102.8867431383408
 20
-127.0034450637353
 10
102.8867431383408
 20
-127.0034450637353
 10
102.8867431383408
 20
-126.1714545040474
 10
102.8867431383408
 20
-126.1714545040474
 10
102.8867431383408
 20
-126.1714545040474
 10
103.0813910332574
 20
-126.1714545040474
 10
103.0813910332574
 20
-126.1714545040474
 10
103.0813910332574
 20
-126.1714545040474
 10
103.0813910332574
 20
-126.8291232321816
 10
103.0813910332574
 20
-126.8291232321816
 10
103.0813910332574
 20
-126.8291232321816
 10
103.5044487588461
 20
-126.8994031800807
 10
103.5044487588461
 20
-126.8994031800807
 10
103.4706868230907
 20
-126.833946365861
 10
103.4303792059132
 20
-126.7457519214386
 10
103.4303792059132
 20
-126.6189724075814
 10
103.4303792059132
 20
-126.3478433928922
 10
103.6167588716653
 20
-126.0946288747264
 10
103.9299180512745
 20
-126.0946288747264
 10
104.247211345466
 20
-126.0946288747264
 10
104.4818223480115
 20
-126.3340630109512
 10
104.4818223480115
 20
-126.6575574770162
 97
        0
 97
        0
 75
     2
 76
     1
 98
        0
  0
ENDBLK
  5
9F
330
9C
100
AcDbEntity
  8
0
100
AcDbBlockEnd
  0
BLOCK
  5
BE
330
BC
100
AcDbEntity
  8
0
100
AcDbBlockBegin
  2
block 6
 70
     0
 10
0.0
 20
0.0
 30
0.0
  3
block 6
  1

  0
SPLINE
  5
C0
330
BC
100
AcDbEntity
  8
_U+30EC_U+30A4_U+30E4_U+30FC 1
370
     0
100
AcDbSpline
210
0.0
220
0.0
230
1.0
 70
    11
 71
     3
 72
    62
 73
    58
 74
     0
 42
0.0000000001
 43
0.0000000001
 12
1.0
 22
0.0
 32
0.0
 13
1.0
 23
0.0
 33
0.0
 40
0.0
 40
0.0
 40
0.0
 40
0.0
 40
1.0
 40
1.0
 40
1.0
 40
2.0
 40
2.0
 40
2.0
 40
3.0
 40
3.0
 40
3.0
 40
4.0
 40
4.0
 40
4.0
 40
5.0
 40
5.0
 40
5.0
 40
6.0
 40
6.0
 40
6.0
 40
7.0
 40
7.0
 40
7.0
 40
8.0
 40
8.0
 40
8.0
 40
9.0
 40
9.0
 40
9.0
 40
10.0
 40
10.0
 40
10.0
 40
11.0
 40
11.0
 40
11.0
 40
12.0
 40
12.0
 40
12.0
 40
13.0
 40
13.0
 40
13.0
 40
14.0
 40
14.0
 40
14.0
 40
15.0
 40
15.0
 40
15.0
 40
16.0
 40
16.0
 40
16.0
 40
17.0
 40
17.0
 40
17.0
 40
18.0
 40
18.0
 40
18.0
 40
19.0
 40
19.0
 40
19.0
 40
19.0
 10
87.57243243253397
 20
-119.5492919623002
 30
0.0
 10
87.47080211571911
 20
-119.5492919623002
 30
0.0
 10
87.23791366091622
 20
-119.5282768798402
 30
0.0
 10
87.10458846563705
 20
-119.3422417236367
 30
0.0
 10
87.0253512694763
 20
-119.2299316108175
 30
0.0
 10
87.02087264534548
 20
-119.1307128608423
 30
0.0
 10
87.01639402121465
 20
-119.0459635119052
 30
0.0
 10
87.01639402121465
 20
-119.0459635119052
 30
0.0
 10
87.2513495333087
 20
-119.0459635119052
 30
0.0
 10
87.2513495333087
 20
-119.0459635119052
 30
0.0
 10
87.25376110014837
 20
-119.1200330648381
 30
0.0
 10
87.26512991524969
 20
-119.3546440673836
 30
0.0
 10
87.56795380840316
 20
-119.3546440673836
 30
0.0
 10
87.71505938562332
 20
-119.3546440673836
 30
0.0
 10
87.87766789252711
 20
-119.2850531385815
 30
0.0
 10
87.87766789252711
 20
-119.0566433079095
 30
0.0
 10
87.87766789252711
 20
-118.940199080508
 30
0.0
 10
87.83701576580117
 20
-118.891623234166
 30
0.0
 10
87.80325383004572
 20
-118.8599283557017
 30
0.0
 10
87.72401663388497
 20
-118.7858588027688
 30
0.0
 10
87.59964868686745
 20
-118.7731119494734
 30
0.0
 10
87.54073755406968
 20
-118.7731119494734
 30
0.0
 10
87.5204114907067
 20
-118.7731119494734
 30
0.0
 10
87.48217093082043
 20
-118.7751790067645
 30
0.0
 10
87.45254310964728
 20
-118.7793131213468
 30
0.0
 10
87.45254310964728
 20
-118.7793131213468
 30
0.0
 10
87.45254310964728
 20
-118.5846652264302
 30
0.0
 10
87.45254310964728
 20
-118.5846652264302
 30
0.0
 10
87.49319523637324
 20
-118.5912109078522
 30
0.0
 10
87.53867049677854
 20
-118.5932779651434
 30
0.0
 10
87.5452161782005
 20
-118.5932779651434
 30
0.0
 10
87.6154961260996
 20
-118.5932779651434
 30
0.0
 10
87.82805851753952
 20
-118.5719183731348
 30
0.0
 10
87.82805851753952
 20
-118.3352403132981
 30
0.0
 10
87.82805851753952
 20
-118.1574733862593
 30
0.0
 10
87.68784313128985
 20
-118.1023518584953
 30
0.0
 10
87.57036537524283
 20
-118.1023518584953
 30
0.0
 10
87.28752303590382
 20
-118.1023518584953
 30
0.0
 10
87.27856578764217
 20
-118.3352403132981
 30
0.0
 10
87.27408716351134
 20
-118.4068982993913
 30
0.0
 10
87.27408716351134
 20
-118.4068982993913
 30
0.0
 10
87.05704614794061
 20
-118.4068982993913
 30
0.0
 10
87.05704614794061
 20
-118.4068982993913
 30
0.0
 10
87.06600339620225
 20
-118.2821858428253
 30
0.0
 10
87.09528670782687
 20
-117.9056369062875
 30
0.0
 10
87.58380124763531
 20
-117.9056369062875
 30
0.0
 10
87.82357989340869
 20
-117.9056369062875
 30
0.0
 10
88.08127303570538
 20
-118.0327609296932
 30
0.0
 10
88.08127303570538
 20
-118.3286946318762
 30
0.0
 10
88.08127303570538
 20
-118.5150742976282
 30
0.0
 10
87.97929820934199
 20
-118.5974120797257
 30
0.0
 10
87.87318926839629
 20
-118.6587347793631
 30
0.0
 10
87.93864608261603
 20
-118.6862955432451
 30
0.0
 10
88.13329397753266
 20
-118.7665662680514
 30
0.0
 10
88.13329397753266
 20
-119.043896454614
 30
0.0
 10
88.13329397753266
 20
-119.3822048312656
 30
0.0
 10
87.86871064426546
 20
-119.5492919623002
 30
0.0
 10
87.57243243253397
 20
-119.5492919623002
 30
0.0
  0
HATCH
  5
C1
330
BC
100
AcDbEntity
  8
_U+30EC_U+30A4_U+30E4_U+30FC 1
 62
     7
420
 16777215
100
AcDbHatch
 10
0.0
 20
0.0
 30
0.0
210
0.0
220
0.0
230
1.0
  2
SOLID
 70
     1
 71
     0
 91
        1
 92
        1
 93
        1
 72
     4
 94
        3
 73
     0
 74
     1
 95
       62
 96
       58
 40
0.0
 40
0.0
 40
0.0
 40
0.0
 40
1.0
 40
1.0
 40
1.0
 40
2.0
 40
2.0
 40
2.0
 40
3.0
 40
3.0
 40
3.0
 40
4.0
 40
4.0
 40
4.0
 40
5.0
 40
5.0
 40
5.0
 40
6.0
 40
6.0
 40
6.0
 40
7.0
 40
7.0
 40
7.0
 40
8.0
 40
8.0
 40
8.0
 40
9.0
 40
9.0
 40
9.0
 40
10.0
 40
10.0
 40
10.0
 40
11.0
 40
11.0
 40
11.0
 40
12.0
 40
12.0
 40
12.0
 40
13.0
 40
13.0
 40
13.0
 40
14.0
 40
14.0
 40
14.0
 40
15.0
 40
15.0
 40
15.0
 40
16.0
 40
16.0
 40
16.0
 40
17.0
 40
17.0
 40
17.0
 40
18.0
 40
18.0
 40
18.0
 40
19.0
 40
19.0
 40
19.0
 40
19.0
 10
87.57243243253397
 20
-119.5492919623002
 10
87.47080211571911
 20
-119.5492919623002
 10
87.23791366091622
 20
-119.5282768798402
 10
87.10458846563705
 20
-119.3422417236367
 10
87.0253512694763
 20
-119.2299316108175
 10
87.02087264534548
 20
-119.1307128608423
 10
87.01639402121465
 20
-119.0459635119052
 10
87.01639402121465
 20
-119.0459635119052
 10
87.2513495333087
 20
-119.0459635119052
 10
87.2513495333087
 20
-119.0459635119052
 10
87.25376110014837
 20
-119.1200330648381
 10
87.26512991524969
 20
-119.3546440673836
 10
87.56795380840316
 20
-119.3546440673836
 10
87.71505938562332
 20
-119.3546440673836
 10
87.87766789252711
 20
-119.2850531385815
 10
87.87766789252711
 20
-119.0566433079095
 10
87.87766789252711
 20
-118.940199080508
 10
87.83701576580117
 20
-118.891623234166
 10
87.80325383004572
 20
-118.8599283557017
 10
87.72401663388497
 20
-118.7858588027688
 10
87.59964868686745
 20
-118.7731119494734
 10
87.54073755406968
 20
-118.7731119494734
 10
87.5204114907067
 20
-118.7731119494734
 10
87.48217093082043
 20
-118.7751790067645
 10
87.45254310964728
 20
-118.7793131213468
 10
87.45254310964728
 20
-118.7793131213468
 10
87.45254310964728
 20
-118.5846652264302
 10
87.45254310964728
 20
-118.5846652264302
 10
87.49319523637324
 20
-118.5912109078522
 10
87.53867049677854
 20
-118.5932779651434
 10
87.5452161782005
 20
-118.5932779651434
 10
87.6154961260996
 20
-118.5932779651434
 10
87.82805851753952
 20
-118.5719183731348
 10
87.82805851753952
 20
-118.3352403132981
 10
87.82805851753952
 20
-118.1574733862593
 10
87.68784313128985
 20
-118.1023518584953
 10
87.57036537524283
 20
-118.1023518584953
 10
87.28752303590382
 20
-118.1023518584953
 10
87.27856578764217
 20
-118.3352403132981
 10
87.27408716351134
 20
-118.4068982993913
 10
87.27408716351134
 20
-118.4068982993913
 10
87.05704614794061
 20
-118.4068982993913
 10
87.05704614794061
 20
-118.4068982993913
 10
87.06600339620225
 20
-118.2821858428253
 10
87.09528670782687
 20
-117.9056369062875
 10
87.58380124763531
 20
-117.9056369062875
 10
87.82357989340869
 20
-117.9056369062875
 10
88.08127303570538
 20
-118.0327609296932
 10
88.08127303570538
 20
-118.3286946318762
 10
88.08127303570538
 20
-118.5150742976282
 10
87.97929820934199
 20
-118.5974120797257
 10
87.87318926839629
 20
-118.6587347793631
 10
87.93864608261603
 20
-118.6862955432451
 10
88.13329397753266
 20
-118.7665662680514
 10
88.13329397753266
 20
-119.043896454614
 10
88.13329397753266
 20
-119.3822048312656
 10
87.86871064426546
 20
-119.5492919623002
 10
87.57243243253397
 20
-119.5492919623002
 97
        0
 97
        0
 75
     2
 76
     1
 98
        0
  0
ENDBLK
  5
BF
330
BC
100
AcDbEntity
  8
0
100
AcDbBlockEnd
  0
BLOCK
  5
D2
330
D0
100
AcDbEntity
  8
0
100
AcDbBlockBegin
  2
block 7
 70
     0
 10
0.0
 20
0.0
 30
0.0
  3
block 7
  1

  0
SPLINE
  5
D4
330
D0
100
AcDbEntity
  8
_U+30EC_U+30A4_U+30E4_U+30FC 1
370
     0
100
AcDbSpline
210
0.0
220
0.0
230
1.0
 70
    11
 71
     3
 72
    44
 73
    40
 74
     0
 42
0.0000000001
 43
0.0000000001
 12
1.0
 22
0.0
 32
0.0
 13
1.0
 23
0.0
 33
0.0
 40
0.0
 40
0.0
 40
0.0
 40
0.0
 40
1.0
 40
1.0
 40
1.0
 40
2.0
 40
2.0
 40
2.0
 40
3.0
 40
3.0
 40
3.0
 40
4.0
 40
4.0
 40
4.0
 40
5.0
 40
5.0
 40
5.0
 40
6.0
 40
6.0
 40
6.0
 40
7.0
 40
7.0
 40
7.0
 40
8.0
 40
8.0
 40
8.0
 40
9.0
 40
9.0
 40
9.0
 40
10.0
 40
10.0
 40
10.0
 40
11.0
 40
11.0
 40
11.0
 40
12.0
 40
12.0
 40
12.0
 40
13.0
 40
13.0
 40
13.0
 40
13.0
 10
87.21603730458489
 20
-137.6377658076045
 30
0.0
 10
86.983148849782
 20
-137.7965847094745
 30
0.0
 10
86.88358559025828
 20
-137.8706542624074
 30
0.0
 10
86.83190915797952
 20
-138.0143147441423
 30
0.0
 10
86.83190915797952
 20
-138.0143147441423
 30
0.0
 10
87.66355520811884
 20
-138.0143147441423
 30
0.0
 10
87.66355520811884
 20
-138.0143147441423
 30
0.0
 10
87.66355520811884
 20
-138.0143147441423
 30
0.0
 10
87.66355520811884
 20
-138.2196424350632
 30
0.0
 10
87.66355520811884
 20
-138.2196424350632
 30
0.0
 10
87.66355520811884
 20
-138.2196424350632
 30
0.0
 10
86.56491425787266
 20
-138.2196424350632
 30
0.0
 10
86.56491425787266
 20
-138.2196424350632
 30
0.0
 10
86.59902070317663
 20
-137.8620415236942
 30
0.0
 10
86.6689561415272
 20
-137.783837856179
 30
0.0
 10
87.08030054246603
 20
-137.4854925871564
 30
0.0
 10
87.35384112399488
 20
-137.2867105776575
 30
0.0
 10
87.42412107189398
 20
-137.2188421965981
 30
0.0
 10
87.42412107189398
 20
-137.0813828867366
 30
0.0
 10
87.42412107189398
 20
-136.962871602044
 30
0.0
 10
87.3472954425729
 20
-136.8319579736045
 30
0.0
 10
87.13680010842414
 20
-136.8319579736045
 30
0.0
 10
86.85878090276448
 20
-136.8319579736045
 30
0.0
 10
86.84982365450283
 20
-137.0624348615677
 30
0.0
 10
86.845345030372
 20
-137.1788790889692
 30
0.0
 10
86.845345030372
 20
-137.1788790889692
 30
0.0
 10
86.60556638459862
 20
-137.1788790889692
 30
0.0
 10
86.60556638459862
 20
-137.1788790889692
 30
0.0
 10
86.61486814240878
 20
-137.0517550655635
 30
0.0
 10
86.62589244796159
 20
-136.9397894622929
 30
0.0
 10
86.71201983509283
 20
-136.8212781776002
 30
0.0
 10
86.82949759113986
 20
-136.6603922184391
 30
0.0
 10
87.02827960063877
 20
-136.6266302826836
 30
0.0
 10
87.15264754765629
 20
-136.6266302826836
 30
0.0
 10
87.44892575938778
 20
-136.6266302826836
 30
0.0
 10
87.67044539908933
 20
-136.810598381596
 30
0.0
 10
87.67044539908933
 20
-137.0834499440278
 30
0.0
 10
87.67044539908933
 20
-137.3122042842483
 30
0.0
 10
87.54607745207181
 20
-137.4114230342235
 30
0.0
 10
87.21603730458489
 20
-137.6377658076045
 30
0.0
  0
HATCH
  5
D5
330
D0
100
AcDbEntity
  8
_U+30EC_U+30A4_U+30E4_U+30FC 1
 62
     7
420
 16777215
100
AcDbHatch
 10
0.0
 20
0.0
 30
0.0
210
0.0
220
0.0
230
1.0
  2
SOLID
 70
     1
 71
     0
 91
        1
 92
        1
 93
        1
 72
     4
 94
        3
 73
     0
 74
     1
 95
       44
 96
       40
 40
0.0
 40
0.0
 40
0.0
 40
0.0
 40
1.0
 40
1.0
 40
1.0
 40
2.0
 40
2.0
 40
2.0
 40
3.0
 40
3.0
 40
3.0
 40
4.0
 40
4.0
 40
4.0
 40
5.0
 40
5.0
 40
5.0
 40
6.0
 40
6.0
 40
6.0
 40
7.0
 40
7.0
 40
7.0
 40
8.0
 40
8.0
 40
8.0
 40
9.0
 40
9.0
 40
9.0
 40
10.0
 40
10.0
 40
10.0
 40
11.0
 40
11.0
 40
11.0
 40
12.0
 40
12.0
 40
12.0
 40
13.0
 40
13.0
 40
13.0
 40
13.0
 10
87.21603730458489
 20
-137.6377658076045
 10
86.983148849782
 20
-137.7965847094745
 10
86.88358559025828
 20
-137.8706542624074
 10
86.83190915797952
 20
-138.0143147441423
 10
86.83190915797952
 20
-138.0143147441423
 10
87.66355520811884
 20
-138.0143147441423
 10
87.66355520811884
 20
-138.0143147441423
 10
87.66355520811884
 20
-138.0143147441423
 10
87.66355520811884
 20
-138.2196424350632
 10
87.66355520811884
 20
-138.2196424350632
 10
87.66355520811884
 20
-138.2196424350632
 10
86.56491425787266
 20
-138.2196424350632
 10
86.56491425787266
 20
-138.2196424350632
 10
86.59902070317663
 20
-137.8620415236942
 10
86.6689561415272
 20
-137.783837856179
 10
87.08030054246603
 20
-137.4854925871564
 10
87.35384112399488
 20
-137.2867105776575
 10
87.42412107189398
 20
-137.2188421965981
 10
87.42412107189398
 20
-137.0813828867366
 10
87.42412107189398
 20
-136.962871602044
 10
87.3472954425729
 20
-136.8319579736045
 10
87.13680010842414
 20
-136.8319579736045
 10
86.85878090276448
 20
-136.8319579736045
 10
86.84982365450283
 20
-137.0624348615677
 10
86.845345030372
 20
-137.1788790889692
 10
86.845345030372
 20
-137.1788790889692
 10
86.60556638459862
 20
-137.1788790889692
 10
86.60556638459862
 20
-137.1788790889692
 10
86.61486814240878
 20
-137.0517550655635
 10
86.62589244796159
 20
-136.9397894622929
 10
86.71201983509283
 20
-136.8212781776002
 10
86.82949759113986
 20
-136.6603922184391
 10
87.02827960063877
 20
-136.6266302826836
 10
87.15264754765629
 20
-136.6266302826836
 10
87.44892575938778
 20
-136.6266302826836
 10
87.67044539908933
 20
-136.810598381596
 10
87.67044539908933
 20
-137.0834499440278
 10
87.67044539908933
 20
-137.3122042842483
 10
87.54607745207181
 20
-137.4114230342235
 10
87.21603730458489
 20
-137.6377658076045
 97
        0
 97
        0
 75
     2
 76
     1
 98
        0
  0
SPLINE
  5
D6
330
D0
100
AcDbEntity
  8
_U+30EC_U+30A4_U+30E4_U+30FC 1
370
     0
100
AcDbSpline
210
0.0
220
0.0
230
1.0
 70
    11
 71
     3
 72
    62
 73
    58
 74
     0
 42
0.0000000001
 43
0.0000000001
 12
1.0
 22
0.0
 32
0.0
 13
1.0
 23
0.0
 33
0.0
 40
0.0
 40
0.0
 40
0.0
 40
0.0
 40
1.0
 40
1.0
 40
1.0
 40
2.0
 40
2.0
 40
2.0
 40
3.0
 40
3.0
 40
3.0
 40
4.0
 40
4.0
 40
4.0
 40
5.0
 40
5.0
 40
5.0
 40
6.0
 40
6.0
 40
6.0
 40
7.0
 40
7.0
 40
7.0
 40
8.0
 40
8.0
 40
8.0
 40
9.0
 40
9.0
 40
9.0
 40
10.0
 40
10.0
 40
10.0
 40
11.0
 40
11.0
 40
11.0
 40
12.0
 40
12.0
 40
12.0
 40
13.0
 40
13.0
 40
13.0
 40
14.0
 40
14.0
 40
14.0
 40
15.0
 40
15.0
 40
15.0
 40
16.0
 40
16.0
 40
16.0
 40
17.0
 40
17.0
 40
17.0
 40
18.0
 40
18.0
 40
18.0
 40
19.0
 40
19.0
 40
19.0
 40
19.0
 10
88.36532115846423
 20
-138.2702853386963
 30
0.0
 10
88.26369084164936
 20
-138.2702853386963
 30
0.0
 10
88.03080238684647
 20
-138.2492702562363
 30
0.0
 10
87.8974771915673
 20
-138.0632351000328
 30
0.0
 10
87.81823999540656
 20
-137.9509249872137
 30
0.0
 10
87.81376137127573
 20
-137.8517062372385
 30
0.0
 10
87.8092827471449
 20
-137.7669568883013
 30
0.0
 10
87.8092827471449
 20
-137.7669568883013
 30
0.0
 10
88.04423825923894
 20
-137.7669568883013
 30
0.0
 10
88.04423825923894
 20
-137.7669568883013
 30
0.0
 10
88.04664982607862
 20
-137.8410264412342
 30
0.0
 10
88.05801864117994
 20
-138.0756374437797
 30
0.0
 10
88.3608425343334
 20
-138.0756374437797
 30
0.0
 10
88.50794811155357
 20
-138.0756374437797
 30
0.0
 10
88.67055661845737
 20
-138.0060465149777
 30
0.0
 10
88.67055661845737
 20
-137.7776366843056
 30
0.0
 10
88.67055661845737
 20
-137.6611924569042
 30
0.0
 10
88.62990449173142
 20
-137.6126166105621
 30
0.0
 10
88.59579804642745
 20
-137.5809217320978
 30
0.0
 10
88.51690535981523
 20
-137.506852179165
 30
0.0
 10
88.39253741279771
 20
-137.4941053258695
 30
0.0
 10
88.33362627999993
 20
-137.4941053258695
 30
0.0
 10
88.31330021663696
 20
-137.4941053258695
 30
0.0
 10
88.27505965675068
 20
-137.4961723831607
 30
0.0
 10
88.24543183557753
 20
-137.500306497743
 30
0.0
 10
88.24543183557753
 20
-137.500306497743
 30
0.0
 10
88.24543183557753
 20
-137.3056586028264
 30
0.0
 10
88.24543183557753
 20
-137.3056586028264
 30
0.0
 10
88.28608396230348
 20
-137.3122042842483
 30
0.0
 10
88.33155922270878
 20
-137.3142713415395
 30
0.0
 10
88.33810490413076
 20
-137.3142713415395
 30
0.0
 10
88.40838485202985
 20
-137.3142713415395
 30
0.0
 10
88.62094724346977
 20
-137.292911749531
 30
0.0
 10
88.62094724346977
 20
-137.0562336896943
 30
0.0
 10
88.62094724346977
 20
-136.8784667626554
 30
0.0
 10
88.48073185722009
 20
-136.8233452348914
 30
0.0
 10
88.36325410117308
 20
-136.8233452348914
 30
0.0
 10
88.08041176183407
 20
-136.8233452348914
 30
0.0
 10
88.07145451357242
 20
-137.0562336896943
 30
0.0
 10
88.0669758894416
 20
-137.1278916757875
 30
0.0
 10
88.0669758894416
 20
-137.1278916757875
 30
0.0
 10
87.84993487387085
 20
-137.1278916757875
 30
0.0
 10
87.84993487387085
 20
-137.1278916757875
 30
0.0
 10
87.8588921221325
 20
-137.0031792192214
 30
0.0
 10
87.88817543375713
 20
-136.6266302826836
 30
0.0
 10
88.37668997356555
 20
-136.6266302826836
 30
0.0
 10
88.61646861933895
 20
-136.6266302826836
 30
0.0
 10
88.87416176163563
 20
-136.7537543060893
 30
0.0
 10
88.87416176163563
 20
-137.0496880082723
 30
0.0
 10
88.87416176163563
 20
-137.2360676740243
 30
0.0
 10
88.77218693527223
 20
-137.3184054561218
 30
0.0
 10
88.66607799432654
 20
-137.3797281557592
 30
0.0
 10
88.73153480854629
 20
-137.4072889196412
 30
0.0
 10
88.9261827034629
 20
-137.4875596444476
 30
0.0
 10
88.9261827034629
 20
-137.7648898310102
 30
0.0
 10
88.9261827034629
 20
-138.1031982076617
 30
0.0
 10
88.66159937019572
 20
-138.2702853386963
 30
0.0
 10
88.36532115846423
 20
-138.2702853386963
 30
0.0
  0
HATCH
  5
D7
330
D0
100
AcDbEntity
  8
_U+30EC_U+30A4_U+30E4_U+30FC 1
 62
     7
420
 16777215
100
AcDbHatch
 10
0.0
 20
0.0
 30
0.0
210
0.0
220
0.0
230
1.0
  2
SOLID
 70
     1
 71
     0
 91
        1
 92
        1
 93
        1
 72
     4
 94
        3
 73
     0
 74
     1
 95
       62
 96
       58
 40
0.0
 40
0.0
 40
0.0
 40
0.0
 40
1.0
 40
1.0
 40
1.0
 40
2.0
 40
2.0
 40
2.0
 40
3.0
 40
3.0
 40
3.0
 40
4.0
 40
4.0
 40
4.0
 40
5.0
 40
5.0
 40
5.0
 40
6.0
 40
6.0
 40
6.0
 40
7.0
 40
7.0
 40
7.0
 40
8.0
 40
8.0
 40
8.0
 40
9.0
 40
9.0
 40
9.0
 40
10.0
 40
10.0
 40
10.0
 40
11.0
 40
11.0
 40
11.0
 40
12.0
 40
12.0
 40
12.0
 40
13.0
 40
13.0
 40
13.0
 40
14.0
 40
14.0
 40
14.0
 40
15.0
 40
15.0
 40
15.0
 40
16.0
 40
16.0
 40
16.0
 40
17.0
 40
17.0
 40
17.0
 40
18.0
 40
18.0
 40
18.0
 40
19.0
 40
19.0
 40
19.0
 40
19.0
 10
88.36532115846423
 20
-138.2702853386963
 10
88.26369084164936
 20
-138.2702853386963
 10
88.03080238684647
 20
-138.2492702562363
 10
87.8974771915673
 20
-138.0632351000328
 10
87.81823999540656
 20
-137.9509249872137
 10
87.81376137127573
 20
-137.8517062372385
 10
87.8092827471449
 20
-137.7669568883013
 10
87.8092827471449
 20
-137.7669568883013
 10
88.04423825923894
 20
-137.7669568883013
 10
88.04423825923894
 20
-137.7669568883013
 10
88.04664982607862
 20
-137.8410264412342
 10
88.05801864117994
 20
-138.0756374437797
 10
88.3608425343334
 20
-138.0756374437797
 10
88.50794811155357
 20
-138.0756374437797
 10
88.67055661845737
 20
-138.0060465149777
 10
88.67055661845737
 20
-137.7776366843056
 10
88.67055661845737
 20
-137.6611924569042
 10
88.62990449173142
 20
-137.6126166105621
 10
88.59579804642745
 20
-137.5809217320978
 10
88.51690535981523
 20
-137.506852179165
 10
88.39253741279771
 20
-137.4941053258695
 10
88.33362627999993
 20
-137.4941053258695
 10
88.31330021663696
 20
-137.4941053258695
 10
88.27505965675068
 20
-137.4961723831607
 10
88.24543183557753
 20
-137.500306497743
 10
88.24543183557753
 20
-137.500306497743
 10
88.24543183557753
 20
-137.3056586028264
 10
88.24543183557753
 20
-137.3056586028264
 10
88.28608396230348
 20
-137.3122042842483
 10
88.33155922270878
 20
-137.3142713415395
 10
88.33810490413076
 20
-137.3142713415395
 10
88.40838485202985
 20
-137.3142713415395
 10
88.62094724346977
 20
-137.292911749531
 10
88.62094724346977
 20
-137.0562336896943
 10
88.62094724346977
 20
-136.8784667626554
 10
88.48073185722009
 20
-136.8233452348914
 10
88.36325410117308
 20
-136.8233452348914
 10
88.08041176183407
 20
-136.8233452348914
 10
88.07145451357242
 20
-137.0562336896943
 10
88.0669758894416
 20
-137.1278916757875
 10
88.0669758894416
 20
-137.1278916757875
 10
87.84993487387085
 20
-137.1278916757875
 10
87.84993487387085
 20
-137.1278916757875
 10
87.8588921221325
 20
-137.0031792192214
 10
87.88817543375713
 20
-136.6266302826836
 10
88.37668997356555
 20
-136.6266302826836
 10
88.61646861933895
 20
-136.6266302826836
 10
88.87416176163563
 20
-136.7537543060893
 10
88.87416176163563
 20
-137.0496880082723
 10
88.87416176163563
 20
-137.2360676740243
 10
88.77218693527223
 20
-137.3184054561218
 10
88.66607799432654
 20
-137.3797281557592
 10
88.73153480854629
 20
-137.4072889196412
 10
88.9261827034629
 20
-137.4875596444476
 10
88.9261827034629
 20
-137.7648898310102
 10
88.9261827034629
 20
-138.1031982076617
 10
88.66159937019572
 20
-138.2702853386963
 10
88.36532115846423
 20
-138.2702853386963
 97
        0
 97
        0
 75
     2
 76
     1
 98
        0
  0
ENDBLK
  5
D3
330
D0
100
AcDbEntity
  8
0
100
AcDbBlockEnd
  0
ENDSEC
  0
SECTION
  2
ENTITIES
  0
POLYLINE
  5
41
330
1F
100
AcDbEntity
  8
_U+30EC_U+30A4_U+30E4_U+30FC 1
370
     0
100
AcDb2dPolyline
 66
     1
 10
0.0
 20
0.0
 30
0.0
  0
VERTEX
  5
42
330
41
100
AcDbEntity
  8
_U+30EC_U+30A4_U+30E4_U+30FC 1
370
     0
100
AcDbVertex
100
AcDb2dVertex
 10
88.89689328760686
 20
-125.0318174687421
 30
0.0
  0
VERTEX
  5
43
330
41
100
AcDbEntity
  8
_U+30EC_U+30A4_U+30E4_U+30FC 1
370
     0
100
AcDbVertex
100
AcDb2dVertex
 10
85.99335586168228
 20
-125.0318174687421
 30
0.0
  0
VERTEX
  5
44
330
41
100
AcDbEntity
  8
_U+30EC_U+30A4_U+30E4_U+30FC 1
370
     0
100
AcDbVertex
100
AcDb2dVertex
 10
85.99335586168228
 20
-122.0749046917035
 30
0.0
  0
VERTEX
  5
45
330
41
100
AcDbEntity
  8
_U+30EC_U+30A4_U+30E4_U+30FC 1
370
     0
100
AcDbVertex
100
AcDb2dVertex
 10
88.89689328760686
 20
-122.0749046917035
 30
0.0
  0
VERTEX
  5
46
330
41
100
AcDbEntity
  8
_U+30EC_U+30A4_U+30E4_U+30FC 1
370
     0
100
AcDbVertex
100
AcDb2dVertex
 10
88.89689328760686
 20
-125.0318174687421
 30
0.0
  0
SEQEND
  5
48
330
41
100
AcDbEntity
  8
_U+30EC_U+30A4_U+30E4_U+30FC 1
370
     0
  0
HATCH
  5
47
330
1F
100
AcDbEntity
  8
_U+30EC_U+30A4_U+30E4_U+30FC 1
 62
   253
420
 11711154
100
AcDbHatch
 10
0.0
 20
0.0
 30
0.0
210
0.0
220
0.0
230
1.0
  2
SOLID
 70
     1
 71
     0
 91
        1
 92
        1
 93
        4
 72
     1
 10
88.89689328760686
 20
-125.0318174687421
 11
85.99335586168228
 21
-125.0318174687421
 72
     1
 10
85.99335586168228
 20
-125.0318174687421
 11
85.99335586168228
 21
-122.0749046917035
 72
     1
 10
85.99335586168228
 20
-122.0749046917035
 11
88.89689328760686
 21
-122.0749046917035
 72
     1
 10
88.89689328760686
 20
-122.0749046917035
 11
88.89689328760686
 21
-125.0318174687421
 97
        0
 75
     2
 76
     1
 98
        0
  0
POLYLINE
  5
49
330
1F
100
AcDbEntity
  8
_U+30EC_U+30A4_U+30E4_U+30FC 1
370
     0
100
AcDb2dPolyline
 66
     1
 10
0.0
 20
0.0
 30
0.0
  0
VERTEX
  5
4A
330
49
100
AcDbEntity
  8
_U+30EC_U+30A4_U+30E4_U+30FC 1
370
     0
100
AcDbVertex
100
AcDb2dVertex
 10
87.87542525811112
 20
-135.0863369106727
 30
0.0
  0
VERTEX
  5
4B
330
49
100
AcDbEntity
  8
_U+30EC_U+30A4_U+30E4_U+30FC 1
370
     0
100
AcDbVertex
100
AcDb2dVertex
 10
86.96144861476195
 20
-135.0863369106727
 30
0.0
  0
VERTEX
  5
4C
330
49
100
AcDbEntity
  8
_U+30EC_U+30A4_U+30E4_U+30FC 1
370
     0
100
AcDbVertex
100
AcDb2dVertex
 10
86.96144861476195
 20
-123.7953666357179
 30
0.0
  0
VERTEX
  5
4D
330
49
100
AcDbEntity
  8
_U+30EC_U+30A4_U+30E4_U+30FC 1
370
     0
100
AcDbVertex
100
AcDb2dVertex
 10
87.87542525811112
 20
-123.7953666357179
 30
0.0
  0
VERTEX
  5
4E
330
49
100
AcDbEntity
  8
_U+30EC_U+30A4_U+30E4_U+30FC 1
370
     0
100
AcDbVertex
100
AcDb2dVertex
 10
87.87542525811112
 20
-135.0863369106727
 30
0.0
  0
SEQEND
  5
50
330
49
100
AcDbEntity
  8
_U+30EC_U+30A4_U+30E4_U+30FC 1
370
     0
  0
HATCH
  5
4F
330
1F
100
AcDbEntity
  8
_U+30EC_U+30A4_U+30E4_U+30FC 1
 62
   253
420
 11711154
100
AcDbHatch
 10
0.0
 20
0.0
 30
0.0
210
0.0
220
0.0
230
1.0
  2
SOLID
 70
     1
 71
     0
 91
        1
 92
        1
 93
        4
 72
     1
 10
87.87542525811112
 20
-135.0863369106727
 11
86.96144861476195
 21
-135.0863369106727
 72
     1
 10
86.96144861476195
 20
-135.0863369106727
 11
86.96144861476195
 21
-123.7953666357179
 72
     1
 10
86.96144861476195
 20
-123.7953666357179
 11
87.87542525811112
 21
-123.7953666357179
 72
     1
 10
87.87542525811112
 20
-123.7953666357179
 11
87.87542525811112
 21
-135.0863369106727
 97
        0
 75
     2
 76
     1
 98
        0
  0
POLYLINE
  5
51
330
1F
100
AcDbEntity
  8
_U+30EC_U+30A4_U+30E4_U+30FC 1
370
     0
100
AcDb2dPolyline
 66
     1
 10
0.0
 20
0.0
 30
0.0
  0
VERTEX
  5
52
330
51
100
AcDbEntity
  8
_U+30EC_U+30A4_U+30E4_U+30FC 1
370
     0
100
AcDbVertex
100
AcDb2dVertex
 10
98.95105969777038
 20
-135.4625391328013
 30
0.0
  0
VERTEX
  5
53
330
51
100
AcDbEntity
  8
_U+30EC_U+30A4_U+30E4_U+30FC 1
370
     0
100
AcDbVertex
100
AcDb2dVertex
 10
75.93918945151876
 20
-135.4625391328013
 30
0.0
  0
VERTEX
  5
54
330
51
100
AcDbEntity
  8
_U+30EC_U+30A4_U+30E4_U+30FC 1
370
     0
100
AcDbVertex
100
AcDb2dVertex
 10
75.93918945151876
 20
-134.6022905219052
 30
0.0
  0
VERTEX
  5
55
330
51
100
AcDbEntity
  8
_U+30EC_U+30A4_U+30E4_U+30FC 1
370
     0
100
AcDbVertex
100
AcDb2dVertex
 10
98.95105969777038
 20
-134.6022905219052
 30
0.0
  0
VERTEX
  5
56
330
51
100
AcDbEntity
  8
_U+30EC_U+30A4_U+30E4_U+30FC 1
370
     0
100
AcDbVertex
100
AcDb2dVertex
 10
98.95105969777038
 20
-135.4625391328013
 30
0.0
  0
SEQEND
  5
58
330
51
100
AcDbEntity
  8
_U+30EC_U+30A4_U+30E4_U+30FC 1
370
     0
  0
HATCH
  5
57
330
1F
100
AcDbEntity
  8
_U+30EC_U+30A4_U+30E4_U+30FC 1
 62
   253
420
 11711154
100
AcDbHatch
 10
0.0
 20
0.0
 30
0.0
210
0.0
220
0.0
230
1.0
  2
SOLID
 70
     1
 71
     0
 91
        1
 92
        1
 93
        4
 72
     1
 10
98.95105969777038
 20
-135.4625391328013
 11
75.93918945151876
 21
-135.4625391328013
 72
     1
 10
75.93918945151876
 20
-135.4625391328013
 11
75.93918945151876
 21
-134.6022905219052
 72
     1
 10
75.93918945151876
 20
-134.6022905219052
 11
98.95105969777038
 21
-134.6022905219052
 72
     1
 10
98.95105969777038
 20
-134.6022905219052
 11
98.95105969777038
 21
-135.4625391328013
 97
        0
 75
     2
 76
     1
 98
        0
  0
SPLINE
  5
59
330
1F
100
AcDbEntity
  8
_U+30EC_U+30A4_U+30E4_U+30FC 1
 62
     7
420
 16777215
370
     9
100
AcDbSpline
210
0.0
220
0.0
230
1.0
 70
    11
 71
     3
 72
    17
 73
    13
 74
     0
 42
0.0000000001
 43
0.0000000001
 12
1.0
 22
0.0
 32
0.0
 13
1.0
 23
0.0
 33
0.0
 40
0.0
 40
0.0
 40
0.0
 40
0.0
 40
1.0
 40
1.0
 40
1.0
 40
2.0
 40
2.0
 40
2.0
 40
3.0
 40
3.0
 40
3.0
 40
4.0
 40
4.0
 40
4.0
 40
4.0
 10
101.7484815708466
 20
-124.8030763576881
 30
0.0
 10
101.7484815708466
 20
-124.7479371910354
 30
0.0
 10
101.7036787942119
 20
-124.7031696910465
 30
0.0
 10
101.6485749067288
 20
-124.7031696910465
 30
0.0
 10
101.5934357414689
 20
-124.7031696910465
 30
0.0
 10
101.548668242611
 20
-124.7479371910354
 30
0.0
 10
101.548668242611
 20
-124.8030763576881
 30
0.0
 10
101.548668242611
 20
-124.8588858021186
 30
0.0
 10
101.5934357414689
 20
-124.9036533021075
 30
0.0
 10
101.6485749067288
 20
-124.9036533021075
 30
0.0
 10
101.7036787942119
 20
-124.9036533021075
 30
0.0
 10
101.7484815708466
 20
-124.8588858021186
 30
0.0
 10
101.7484815708466
 20
-124.8030763576881
 30
0.0
  0
POLYLINE
  5
5A
330
1F
100
AcDbEntity
  8
_U+30EC_U+30A4_U+30E4_U+30FC 1
 62
     7
420
 16777215
370
     9
100
AcDb2dPolyline
 66
     1
 10
0.0
 20
0.0
 30
0.0
  0
VERTEX
  5
5B
330
5A
100
AcDbEntity
  8
_U+30EC_U+30A4_U+30E4_U+30FC 1
 62
     7
420
 16777215
370
     9
100
AcDbVertex
100
AcDb2dVertex
 10
101.6485749067288
 20
-124.7031696910465
 30
0.0
  0
VERTEX
  5
5C
330
5A
100
AcDbEntity
  8
_U+30EC_U+30A4_U+30E4_U+30FC 1
 62
     7
420
 16777215
370
     9
100
AcDbVertex
100
AcDb2dVertex
 10
101.6485749067288
 20
-121.7031827473518
 30
0.0
  0
SEQEND
  5
5D
330
5A
100
AcDbEntity
  8
_U+30EC_U+30A4_U+30E4_U+30FC 1
 62
     7
420
 16777215
370
     9
  0
POLYLINE
  5
5E
330
1F
100
AcDbEntity
  8
_U+30EC_U+30A4_U+30E4_U+30FC 1
 62
     7
420
 16777215
370
     9
100
AcDb2dPolyline
 66
     1
 10
0.0
 20
0.0
 30
0.0
  0
VERTEX
  5
5F
330
5E
100
AcDbEntity
  8
_U+30EC_U+30A4_U+30E4_U+30FC 1
 62
     7
420
 16777215
370
     9
100
AcDbVertex
100
AcDb2dVertex
 10
90.46580185869178
 20
-124.8030763576881
 30
0.0
  0
VERTEX
  5
60
330
5E
100
AcDbEntity
  8
_U+30EC_U+30A4_U+30E4_U+30FC 1
 62
     7
420
 16777215
370
     9
100
AcDbVertex
100
AcDb2dVertex
 10
102.3620679440816
 20
-124.8030763576881
 30
0.0
  0
SEQEND
  5
61
330
5E
100
AcDbEntity
  8
_U+30EC_U+30A4_U+30E4_U+30FC 1
 62
     7
420
 16777215
370
     9
  0
SPLINE
  5
62
330
1F
100
AcDbEntity
  8
_U+30EC_U+30A4_U+30E4_U+30FC 1
 62
     7
420
 16777215
370
     9
100
AcDbSpline
210
0.0
220
0.0
230
1.0
 70
    11
 71
     3
 72
    17
 73
    13
 74
     0
 42
0.0000000001
 43
0.0000000001
 12
1.0
 22
0.0
 32
0.0
 13
1.0
 23
0.0
 33
0.0
 40
0.0
 40
0.0
 40
0.0
 40
0.0
 40
1.0
 40
1.0
 40
1.0
 40
2.0
 40
2.0
 40
2.0
 40
3.0
 40
3.0
 40
3.0
 40
4.0
 40
4.0
 40
4.0
 40
4.0
 10
101.7484815708466
 20
-121.8030894139938
 30
0.0
 10
101.7484815708466
 20
-121.7479502473407
 30
0.0
 10
101.7036787942119
 20
-121.7031827473518
 30
0.0
 10
101.6485749067288
 20
-121.7031827473518
 30
0.0
 10
101.5934357414689
 20
-121.7031827473518
 30
0.0
 10
101.548668242611
 20
-121.7479502473407
 30
0.0
 10
101.548668242611
 20
-121.8030894139938
 30
0.0
 10
101.548668242611
 20
-121.8588988584242
 30
0.0
 10
101.5934357414689
 20
-121.9036663584131
 30
0.0
 10
101.6485749067288
 20
-121.9036663584131
 30
0.0
 10
101.7036787942119
 20
-121.9036663584131
 30
0.0
 10
101.7484815708466
 20
-121.8588988584242
 30
0.0
 10
101.7484815708466
 20
-121.8030894139938
 30
0.0
  0
POLYLINE
  5
63
330
1F
100
AcDbEntity
  8
_U+30EC_U+30A4_U+30E4_U+30FC 1
 62
     7
420
 16777215
370
     9
100
AcDb2dPolyline
 66
     1
 10
0.0
 20
0.0
 30
0.0
  0
VERTEX
  5
64
330
63
100
AcDbEntity
  8
_U+30EC_U+30A4_U+30E4_U+30FC 1
 62
     7
420
 16777215
370
     9
100
AcDbVertex
100
AcDb2dVertex
 10
90.46580185869178
 20
-121.8030894139938
 30
0.0
  0
VERTEX
  5
65
330
63
100
AcDbEntity
  8
_U+30EC_U+30A4_U+30E4_U+30FC 1
 62
     7
420
 16777215
370
     9
100
AcDbVertex
100
AcDb2dVertex
 10
106.0638003496426
 20
-121.8030894139938
 30
0.0
  0
SEQEND
  5
66
330
63
100
AcDbEntity
  8
_U+30EC_U+30A4_U+30E4_U+30FC 1
 62
     7
420
 16777215
370
     9
  0
INSERT
  5
68
330
1F
100
AcDbEntity
  8
_U+30EC_U+30A4_U+30E4_U+30FC 1
100
AcDbBlockReference
  2
block 2
 10
0.0
 20
0.0
 30
0.0
  0
SPLINE
  5
6D
330
1F
100
AcDbEntity
  8
_U+30EC_U+30A4_U+30E4_U+30FC 1
 62
     7
420
 16777215
370
     9
100
AcDbSpline
210
0.0
220
0.0
230
1.0
 70
    11
 71
     3
 72
    17
 73
    13
 74
     0
 42
0.0000000001
 43
0.0000000001
 12
1.0
 22
0.0
 32
0.0
 13
1.0
 23
0.0
 33
0.0
 40
0.0
 40
0.0
 40
0.0
 40
0.0
 40
1.0
 40
1.0
 40
1.0
 40
2.0
 40
2.0
 40
2.0
 40
3.0
 40
3.0
 40
3.0
 40
4.0
 40
4.0
 40
4.0
 40
4.0
 10
101.7484815708466
 20
-134.4376138552797
 30
0.0
 10
101.7484815708466
 20
-134.3825099664041
 30
0.0
 10
101.7036787942119
 20
-134.337707188638
 30
0.0
 10
101.6485749067288
 20
-134.337707188638
 30
0.0
 10
101.5934357414689
 20
-134.337707188638
 30
0.0
 10
101.548668242611
 20
-134.3825099664041
 30
0.0
 10
101.548668242611
 20
-134.4376138552797
 30
0.0
 10
101.548668242611
 20
-134.4934232997101
 30
0.0
 10
101.5934357414689
 20
-134.5382260774768
 30
0.0
 10
101.6485749067288
 20
-134.5382260774768
 30
0.0
 10
101.7036787942119
 20
-134.5382260774768
 30
0.0
 10
101.7484815708466
 20
-134.4934232997101
 30
0.0
 10
101.7484815708466
 20
-134.4376138552797
 30
0.0
  0
POLYLINE
  5
6E
330
1F
100
AcDbEntity
  8
_U+30EC_U+30A4_U+30E4_U+30FC 1
 62
     7
420
 16777215
370
     9
100
AcDb2dPolyline
 66
     1
 10
0.0
 20
0.0
 30
0.0
  0
VERTEX
  5
6F
330
6E
100
AcDbEntity
  8
_U+30EC_U+30A4_U+30E4_U+30FC 1
 62
     7
420
 16777215
370
     9
100
AcDbVertex
100
AcDb2dVertex
 10
101.6485749067288
 20
-134.337707188638
 30
0.0
  0
VERTEX
  5
70
330
6E
100
AcDbEntity
  8
_U+30EC_U+30A4_U+30E4_U+30FC 1
 62
     7
420
 16777215
370
     9
100
AcDbVertex
100
AcDb2dVertex
 10
101.6485749067288
 20
-124.8378602465684
 30
0.0
  0
SEQEND
  5
71
330
6E
100
AcDbEntity
  8
_U+30EC_U+30A4_U+30E4_U+30FC 1
 62
     7
420
 16777215
370
     9
  0
POLYLINE
  5
72
330
1F
100
AcDbEntity
  8
_U+30EC_U+30A4_U+30E4_U+30FC 1
 62
     7
420
 16777215
370
     9
100
AcDb2dPolyline
 66
     1
 10
0.0
 20
0.0
 30
0.0
  0
VERTEX
  5
73
330
72
100
AcDbEntity
  8
_U+30EC_U+30A4_U+30E4_U+30FC 1
 62
     7
420
 16777215
370
     9
100
AcDbVertex
100
AcDb2dVertex
 10
100.1885360860639
 20
-134.4376138552797
 30
0.0
  0
VERTEX
  5
74
330
72
100
AcDbEntity
  8
_U+30EC_U+30A4_U+30E4_U+30FC 1
 62
     7
420
 16777215
370
     9
100
AcDbVertex
100
AcDb2dVertex
 10
105.9749356296875
 20
-134.4376138552797
 30
0.0
  0
SEQEND
  5
75
330
72
100
AcDbEntity
  8
_U+30EC_U+30A4_U+30E4_U+30FC 1
 62
     7
420
 16777215
370
     9
  0
INSERT
  5
77
330
1F
100
AcDbEntity
  8
_U+30EC_U+30A4_U+30E4_U+30FC 1
100
AcDbBlockReference
  2
block 3
 10
0.0
 20
0.0
 30
0.0
  0
SPLINE
  5
87
330
1F
100
AcDbEntity
  8
_U+30EC_U+30A4_U+30E4_U+30FC 1
 62
     7
420
 16777215
370
     9
100
AcDbSpline
210
0.0
220
0.0
230
1.0
 70
    11
 71
     3
 72
    17
 73
    13
 74
     0
 42
0.0000000001
 43
0.0000000001
 12
1.0
 22
0.0
 32
0.0
 13
1.0
 23
0.0
 33
0.0
 40
0.0
 40
0.0
 40
0.0
 40
0.0
 40
1.0
 40
1.0
 40
1.0
 40
2.0
 40
2.0
 40
2.0
 40
3.0
 40
3.0
 40
3.0
 40
4.0
 40
4.0
 40
4.0
 40
4.0
 10
104.9937548213862
 20
-134.4079805219535
 30
0.0
 10
104.9937548213862
 20
-134.3528766330786
 30
0.0
 10
104.9489873225283
 20
-134.3080738553118
 30
0.0
 10
104.8938481572683
 20
-134.3080738553118
 30
0.0
 10
104.8387442697853
 20
-134.3080738553118
 30
0.0
 10
104.7939414931505
 20
-134.3528766330786
 30
0.0
 10
104.7939414931505
 20
-134.4079805219535
 30
0.0
 10
104.7939414931505
 20
-134.4637899663839
 30
0.0
 10
104.8387442697853
 20
-134.5085927441507
 30
0.0
 10
104.8938481572683
 20
-134.5085927441507
 30
0.0
 10
104.9489873225283
 20
-134.5085927441507
 30
0.0
 10
104.9937548213862
 20
-134.4637899663839
 30
0.0
 10
104.9937548213862
 20
-134.4079805219535
 30
0.0
  0
POLYLINE
  5
88
330
1F
100
AcDbEntity
  8
_U+30EC_U+30A4_U+30E4_U+30FC 1
 62
     7
420
 16777215
370
     9
100
AcDb2dPolyline
 66
     1
 10
0.0
 20
0.0
 30
0.0
  0
VERTEX
  5
89
330
88
100
AcDbEntity
  8
_U+30EC_U+30A4_U+30E4_U+30FC 1
 62
     7
420
 16777215
370
     9
100
AcDbVertex
100
AcDb2dVertex
 10
104.8938481572683
 20
-134.4376138552797
 30
0.0
  0
VERTEX
  5
8A
330
88
100
AcDbEntity
  8
_U+30EC_U+30A4_U+30E4_U+30FC 1
 62
     7
420
 16777215
370
     9
100
AcDbVertex
100
AcDb2dVertex
 10
104.8938481572683
 20
-121.937427191738
 30
0.0
  0
SEQEND
  5
8B
330
88
100
AcDbEntity
  8
_U+30EC_U+30A4_U+30E4_U+30FC 1
 62
     7
420
 16777215
370
     9
  0
SPLINE
  5
8C
330
1F
100
AcDbEntity
  8
_U+30EC_U+30A4_U+30E4_U+30FC 1
 62
     7
420
 16777215
370
     9
100
AcDbSpline
210
0.0
220
0.0
230
1.0
 70
    11
 71
     3
 72
    17
 73
    13
 74
     0
 42
0.0000000001
 43
0.0000000001
 12
1.0
 22
0.0
 32
0.0
 13
1.0
 23
0.0
 33
0.0
 40
0.0
 40
0.0
 40
0.0
 40
0.0
 40
1.0
 40
1.0
 40
1.0
 40
2.0
 40
2.0
 40
2.0
 40
3.0
 40
3.0
 40
3.0
 40
4.0
 40
4.0
 40
4.0
 40
4.0
 10
104.9937548213862
 20
-121.802736636216
 30
0.0
 10
104.9937548213862
 20
-121.7475974695633
 30
0.0
 10
104.9489873225283
 20
-121.7028299695744
 30
0.0
 10
104.8938481572683
 20
-121.7028299695744
 30
0.0
 10
104.8387442697853
 20
-121.7028299695744
 30
0.0
 10
104.7939414931505
 20
-121.7475974695633
 30
0.0
 10
104.7939414931505
 20
-121.802736636216
 30
0.0
 10
104.7939414931505
 20
-121.8585460806465
 30
0.0
 10
104.8387442697853
 20
-121.9033135806354
 30
0.0
 10
104.8938481572683
 20
-121.9033135806354
 30
0.0
 10
104.9489873225283
 20
-121.9033135806354
 30
0.0
 10
104.9937548213862
 20
-121.8585460806465
 30
0.0
 10
104.9937548213862
 20
-121.802736636216
 30
0.0
  0
SPLINE
  5
8D
330
1F
100
AcDbEntity
  8
_U+30EC_U+30A4_U+30E4_U+30FC 1
 62
     7
420
 16777215
370
     9
100
AcDbSpline
210
0.0
220
0.0
230
1.0
 70
    11
 71
     3
 72
    17
 73
    13
 74
     0
 42
0.0000000001
 43
0.0000000001
 12
1.0
 22
0.0
 32
0.0
 13
1.0
 23
0.0
 33
0.0
 40
0.0
 40
0.0
 40
0.0
 40
0.0
 40
1.0
 40
1.0
 40
1.0
 40
2.0
 40
2.0
 40
2.0
 40
3.0
 40
3.0
 40
3.0
 40
4.0
 40
4.0
 40
4.0
 40
4.0
 10
104.9937548213862
 20
-135.6716657994152
 30
0.0
 10
104.9937548213862
 20
-135.6165266327628
 30
0.0
 10
104.9489873225283
 20
-135.5717591327736
 30
0.0
 10
104.8938481572683
 20
-135.5717591327736
 30
0.0
 10
104.8387442697853
 20
-135.5717591327736
 30
0.0
 10
104.7939414931505
 20
-135.6165266327628
 30
0.0
 10
104.7939414931505
 20
-135.6716657994152
 30
0.0
 10
104.7939414931505
 20
-135.7274752438456
 30
0.0
 10
104.8387442697853
 20
-135.7722427438349
 30
0.0
 10
104.8938481572683
 20
-135.7722427438349
 30
0.0
 10
104.9489873225283
 20
-135.7722427438349
 30
0.0
 10
104.9937548213862
 20
-135.7274752438456
 30
0.0
 10
104.9937548213862
 20
-135.6716657994152
 30
0.0
  0
POLYLINE
  5
8E
330
1F
100
AcDbEntity
  8
_U+30EC_U+30A4_U+30E4_U+30FC 1
 62
     7
420
 16777215
370
     9
100
AcDb2dPolyline
 66
     1
 10
0.0
 20
0.0
 30
0.0
  0
VERTEX
  5
8F
330
8E
100
AcDbEntity
  8
_U+30EC_U+30A4_U+30E4_U+30FC 1
 62
     7
420
 16777215
370
     9
100
AcDbVertex
100
AcDb2dVertex
 10
104.8938481572683
 20
-135.5717591327736
 30
0.0
  0
VERTEX
  5
90
330
8E
100
AcDbEntity
  8
_U+30EC_U+30A4_U+30E4_U+30FC 1
 62
     7
420
 16777215
370
     9
100
AcDbVertex
100
AcDb2dVertex
 10
104.8938481572683
 20
-134.5719869108017
 30
0.0
  0
SEQEND
  5
91
330
8E
100
AcDbEntity
  8
_U+30EC_U+30A4_U+30E4_U+30FC 1
 62
     7
420
 16777215
370
     9
  0
POLYLINE
  5
92
330
1F
100
AcDbEntity
  8
_U+30EC_U+30A4_U+30E4_U+30FC 1
 62
     7
420
 16777215
370
     9
100
AcDb2dPolyline
 66
     1
 10
0.0
 20
0.0
 30
0.0
  0
VERTEX
  5
93
330
92
100
AcDbEntity
  8
_U+30EC_U+30A4_U+30E4_U+30FC 1
 62
     7
420
 16777215
370
     9
100
AcDbVertex
100
AcDb2dVertex
 10
103.4338068056282
 20
-135.6716657994152
 30
0.0
  0
VERTEX
  5
94
330
92
100
AcDbEntity
  8
_U+30EC_U+30A4_U+30E4_U+30FC 1
 62
     7
420
 16777215
370
     9
100
AcDbVertex
100
AcDb2dVertex
 10
105.8936203539842
 20
-135.6716657994152
 30
0.0
  0
SEQEND
  5
95
330
92
100
AcDbEntity
  8
_U+30EC_U+30A4_U+30E4_U+30FC 1
 62
     7
420
 16777215
370
     9
  0
INSERT
  5
97
330
1F
100
AcDbEntity
  8
_U+30EC_U+30A4_U+30E4_U+30FC 1
100
AcDbBlockReference
  2
block 4
 10
0.0
 20
0.0
 30
0.0
  0
INSERT
  5
9D
330
1F
100
AcDbEntity
  8
_U+30EC_U+30A4_U+30E4_U+30FC 1
100
AcDbBlockReference
  2
block 5
 10
0.0
 20
0.0
 30
0.0
  0
SPLINE
  5
AE
330
1F
100
AcDbEntity
  8
_U+30EC_U+30A4_U+30E4_U+30FC 1
 62
     7
420
 16777215
370
     9
100
AcDbSpline
210
0.0
220
0.0
230
1.0
 70
     8
 71
     3
 72
    17
 73
    13
 74
     0
 42
0.0000000001
 43
0.0000000001
 12
1.0
 22
0.0
 32
0.0
 13
1.0
 23
0.0
 33
0.0
 40
0.0
 40
0.0
 40
0.0
 40
0.0
 40
1.0
 40
1.0
 40
1.0
 40
2.0
 40
2.0
 40
2.0
 40
3.0
 40
3.0
 40
3.0
 40
4.0
 40
4.0
 40
4.0
 40
4.0
 10
89.05225661697655
 20
-120.0243838588828
 30
0.0
 10
89.01299245131159
 20
-119.9850844144482
 30
0.0
 10
88.95030384179981
 20
-119.9850844144482
 30
0.0
 10
88.91103967613485
 20
-120.0243838588828
 30
0.0
 10
88.87174023269301
 20
-120.0636480255398
 30
0.0
 10
88.87174023269301
 20
-120.126336636635
 30
0.0
 10
88.91103967613485
 20
-120.1656360810698
 30
0.0
 10
88.95030384179981
 20
-120.2049002477266
 30
0.0
 10
89.01299245131159
 20
-120.2049002477266
 30
0.0
 10
89.05225661697655
 20
-120.1656360810698
 30
0.0
 10
89.07088328316802
 20
-120.1470094144077
 30
0.0
 10
89.08188994955387
 20
-120.1215388588587
 30
0.0
 10
89.08188994955387
 20
-120.0946571921986
 30
0.0
  0
SPLINE
  5
AF
330
1F
100
AcDbEntity
  8
_U+30EC_U+30A4_U+30E4_U+30FC 1
 62
     7
420
 16777215
370
     9
100
AcDbSpline
210
0.0
220
0.0
230
1.0
 70
    11
 71
     3
 72
    17
 73
    13
 74
     0
 42
0.0000000001
 43
0.0000000001
 12
1.0
 22
0.0
 32
0.0
 13
1.0
 23
0.0
 33
0.0
 40
0.0
 40
0.0
 40
0.0
 40
0.0
 40
1.0
 40
1.0
 40
1.0
 40
2.0
 40
2.0
 40
2.0
 40
3.0
 40
3.0
 40
3.0
 40
4.0
 40
4.0
 40
4.0
 40
4.0
 10
86.1818097457633
 20
-120.0946571921986
 30
0.0
 10
86.1818097457633
 20
-120.0395180255458
 30
0.0
 10
86.13704442291007
 20
-119.9947505255569
 30
0.0
 10
86.08190308164546
 20
-119.9947505255569
 30
0.0
 10
86.0267991941624
 20
-119.9947505255569
 30
0.0
 10
85.98199641752764
 20
-120.0395180255458
 30
0.0
 10
85.98199641752764
 20
-120.0946571921986
 30
0.0
 10
85.98199641752764
 20
-120.150466636629
 30
0.0
 10
86.0267991941624
 20
-120.1952341366179
 30
0.0
 10
86.08190308164546
 20
-120.1952341366179
 30
0.0
 10
86.13704442291007
 20
-120.1952341366179
 30
0.0
 10
86.1818097457633
 20
-120.150466636629
 30
0.0
 10
86.1818097457633
 20
-120.0946571921986
 30
0.0
  0
POLYLINE
  5
B0
330
1F
100
AcDbEntity
  8
_U+30EC_U+30A4_U+30E4_U+30FC 1
 62
     7
420
 16777215
370
     9
100
AcDb2dPolyline
 66
     1
 10
0.0
 20
0.0
 30
0.0
  0
VERTEX
  5
B1
330
B0
100
AcDbEntity
  8
_U+30EC_U+30A4_U+30E4_U+30FC 1
 62
     7
420
 16777215
370
     9
100
AcDbVertex
100
AcDb2dVertex
 10
86.08190308164546
 20
-120.0946571921986
 30
0.0
  0
VERTEX
  5
B2
330
B0
100
AcDbEntity
  8
_U+30EC_U+30A4_U+30E4_U+30FC 1
 62
     7
420
 16777215
370
     9
100
AcDbVertex
100
AcDb2dVertex
 10
89.08188994955387
 20
-120.0946571921986
 30
0.0
  0
SEQEND
  5
B3
330
B0
100
AcDbEntity
  8
_U+30EC_U+30A4_U+30E4_U+30FC 1
 62
     7
420
 16777215
370
     9
  0
POLYLINE
  5
B4
330
1F
100
AcDbEntity
  8
_U+30EC_U+30A4_U+30E4_U+30FC 1
 62
     7
420
 16777215
370
     9
100
AcDb2dPolyline
 66
     1
 10
0.0
 20
0.0
 30
0.0
  0
VERTEX
  5
B5
330
B4
100
AcDbEntity
  8
_U+30EC_U+30A4_U+30E4_U+30FC 1
 62
     7
420
 16777215
370
     9
100
AcDbVertex
100
AcDb2dVertex
 10
86.08190308164546
 20
-118.6346158036745
 30
0.0
  0
VERTEX
  5
B6
330
B4
100
AcDbEntity
  8
_U+30EC_U+30A4_U+30E4_U+30FC 1
 62
     7
420
 16777215
370
     9
100
AcDbVertex
100
AcDb2dVertex
 10
86.08190308164546
 20
-121.0950996919485
 30
0.0
  0
SEQEND
  5
B7
330
B4
100
AcDbEntity
  8
_U+30EC_U+30A4_U+30E4_U+30FC 1
 62
     7
420
 16777215
370
     9
  0
POLYLINE
  5
B8
330
1F
100
AcDbEntity
  8
_U+30EC_U+30A4_U+30E4_U+30FC 1
 62
     7
420
 16777215
370
     9
100
AcDb2dPolyline
 66
     1
 10
0.0
 20
0.0
 30
0.0
  0
VERTEX
  5
B9
330
B8
100
AcDbEntity
  8
_U+30EC_U+30A4_U+30E4_U+30FC 1
 62
     7
420
 16777215
370
     9
100
AcDbVertex
100
AcDb2dVertex
 10
88.98131300767535
 20
-118.6346158036745
 30
0.0
  0
VERTEX
  5
BA
330
B8
100
AcDbEntity
  8
_U+30EC_U+30A4_U+30E4_U+30FC 1
 62
     7
420
 16777215
370
     9
100
AcDbVertex
100
AcDb2dVertex
 10
88.98131300767535
 20
-121.0950996919485
 30
0.0
  0
SEQEND
  5
BB
330
B8
100
AcDbEntity
  8
_U+30EC_U+30A4_U+30E4_U+30FC 1
 62
     7
420
 16777215
370
     9
  0
INSERT
  5
BD
330
1F
100
AcDbEntity
  8
_U+30EC_U+30A4_U+30E4_U+30FC 1
100
AcDbBlockReference
  2
block 6
 10
0.0
 20
0.0
 30
0.0
  0
SPLINE
  5
C2
330
1F
100
AcDbEntity
  8
_U+30EC_U+30A4_U+30E4_U+30FC 1
 62
     7
420
 16777215
370
     9
100
AcDbSpline
210
0.0
220
0.0
230
1.0
 70
     8
 71
     3
 72
    17
 73
    13
 74
     0
 42
0.0000000001
 43
0.0000000001
 12
1.0
 22
0.0
 32
0.0
 13
1.0
 23
0.0
 33
0.0
 40
0.0
 40
0.0
 40
0.0
 40
0.0
 40
1.0
 40
1.0
 40
1.0
 40
2.0
 40
2.0
 40
2.0
 40
3.0
 40
3.0
 40
3.0
 40
4.0
 40
4.0
 40
4.0
 40
4.0
 10
99.21634857989118
 20
-138.7450305208692
 30
0.0
 10
99.17704913644936
 20
-138.7057310764347
 30
0.0
 10
99.11436052693756
 20
-138.7057310764347
 30
0.0
 10
99.0750963612726
 20
-138.7450305208692
 30
0.0
 10
99.03579691783077
 20
-138.7842946875262
 30
0.0
 10
99.03579691783077
 20
-138.8469832986217
 30
0.0
 10
99.0750963612726
 20
-138.8862827430563
 30
0.0
 10
99.11436052693756
 20
-138.9255469097133
 30
0.0
 10
99.17704913644936
 20
-138.9255469097133
 30
0.0
 10
99.21634857989118
 20
-138.8862827430563
 30
0.0
 10
99.23493996830577
 20
-138.8676560763944
 30
0.0
 10
99.24594663469162
 20
-138.842185520845
 30
0.0
 10
99.24594663469162
 20
-138.8153038541853
 30
0.0
  0
SPLINE
  5
C3
330
1F
100
AcDbEntity
  8
_U+30EC_U+30A4_U+30E4_U+30FC 1
 62
     7
420
 16777215
370
     9
100
AcDbSpline
210
0.0
220
0.0
230
1.0
 70
    11
 71
     3
 72
    17
 73
    13
 74
     0
 42
0.0000000001
 43
0.0000000001
 12
1.0
 22
0.0
 32
0.0
 13
1.0
 23
0.0
 33
0.0
 40
0.0
 40
0.0
 40
0.0
 40
0.0
 40
1.0
 40
1.0
 40
1.0
 40
2.0
 40
2.0
 40
2.0
 40
3.0
 40
3.0
 40
3.0
 40
4.0
 40
4.0
 40
4.0
 40
4.0
 10
76.34573055225815
 20
-138.8153038541853
 30
0.0
 10
76.34573055225815
 20
-138.7601646875322
 30
0.0
 10
76.30092777562338
 20
-138.7153971875436
 30
0.0
 10
76.24582388814031
 20
-138.7153971875436
 30
0.0
 10
76.19068472288036
 20
-138.7153971875436
 30
0.0
 10
76.14591722402247
 20
-138.7601646875322
 30
0.0
 10
76.14591722402247
 20
-138.8153038541853
 30
0.0
 10
76.14591722402247
 20
-138.8711132986157
 30
0.0
 10
76.19068472288036
 20
-138.9158807986043
 30
0.0
 10
76.24582388814031
 20
-138.9158807986043
 30
0.0
 10
76.30092777562338
 20
-138.9158807986043
 30
0.0
 10
76.34573055225815
 20
-138.8711132986157
 30
0.0
 10
76.34573055225815
 20
-138.8153038541853
 30
0.0
  0
POLYLINE
  5
C4
330
1F
100
AcDbEntity
  8
_U+30EC_U+30A4_U+30E4_U+30FC 1
 62
     7
420
 16777215
370
     9
100
AcDb2dPolyline
 66
     1
 10
0.0
 20
0.0
 30
0.0
  0
VERTEX
  5
C5
330
C4
100
AcDbEntity
  8
_U+30EC_U+30A4_U+30E4_U+30FC 1
 62
     7
420
 16777215
370
     9
100
AcDbVertex
100
AcDb2dVertex
 10
76.24582388814031
 20
-138.8153038541853
 30
0.0
  0
VERTEX
  5
C6
330
C4
100
AcDbEntity
  8
_U+30EC_U+30A4_U+30E4_U+30FC 1
 62
     7
420
 16777215
370
     9
100
AcDbVertex
100
AcDb2dVertex
 10
99.24594663469162
 20
-138.8153038541853
 30
0.0
  0
SEQEND
  5
C7
330
C4
100
AcDbEntity
  8
_U+30EC_U+30A4_U+30E4_U+30FC 1
 62
     7
420
 16777215
370
     9
  0
POLYLINE
  5
C8
330
1F
100
AcDbEntity
  8
_U+30EC_U+30A4_U+30E4_U+30FC 1
 62
     7
420
 16777215
370
     9
100
AcDb2dPolyline
 66
     1
 10
0.0
 20
0.0
 30
0.0
  0
VERTEX
  5
C9
330
C8
100
AcDbEntity
  8
_U+30EC_U+30A4_U+30E4_U+30FC 1
 62
     7
420
 16777215
370
     9
100
AcDbVertex
100
AcDb2dVertex
 10
76.24582388814031
 20
-137.3552624656609
 30
0.0
  0
VERTEX
  5
CA
330
C8
100
AcDbEntity
  8
_U+30EC_U+30A4_U+30E4_U+30FC 1
 62
     7
420
 16777215
370
     9
100
AcDbVertex
100
AcDb2dVertex
 10
76.24582388814031
 20
-139.8157463539352
 30
0.0
  0
SEQEND
  5
CB
330
C8
100
AcDbEntity
  8
_U+30EC_U+30A4_U+30E4_U+30FC 1
 62
     7
420
 16777215
370
     9
  0
POLYLINE
  5
CC
330
1F
100
AcDbEntity
  8
_U+30EC_U+30A4_U+30E4_U+30FC 1
 62
     7
420
 16777215
370
     9
100
AcDb2dPolyline
 66
     1
 10
0.0
 20
0.0
 30
0.0
  0
VERTEX
  5
CD
330
CC
100
AcDbEntity
  8
_U+30EC_U+30A4_U+30E4_U+30FC 1
 62
     7
420
 16777215
370
     9
100
AcDbVertex
100
AcDb2dVertex
 10
99.14537219743569
 20
-137.3552624656609
 30
0.0
  0
VERTEX
  5
CE
330
CC
100
AcDbEntity
  8
_U+30EC_U+30A4_U+30E4_U+30FC 1
 62
     7
420
 16777215
370
     9
100
AcDbVertex
100
AcDb2dVertex
 10
99.14537219743569
 20
-139.8157463539352
 30
0.0
  0
SEQEND
  5
CF
330
CC
100
AcDbEntity
  8
_U+30EC_U+30A4_U+30E4_U+30FC 1
 62
     7
420
 16777215
370
     9
  0
INSERT
  5
D1
330
1F
100
AcDbEntity
  8
_U+30EC_U+30A4_U+30E4_U+30FC 1
100
AcDbBlockReference
  2
block 7
 10
0.0
 20
0.0
 30
0.0
  0
POLYLINE
  5
D8
330
1F
100
AcDbEntity
  8
_U+30EC_U+30A4_U+30E4_U+30FC 1
 62
     7
420
 16777215
370
    25
100
AcDb2dPolyline
 66
     1
 10
0.0
 20
0.0
 30
0.0
  0
VERTEX
  5
D9
330
D8
100
AcDbEntity
  8
_U+30EC_U+30A4_U+30E4_U+30FC 1
 62
     7
420
 16777215
370
    25
100
AcDbVertex
100
AcDb2dVertex
 10
86.96349472582087
 20
-125.0476571909603
 30
0.0
  0
VERTEX
  5
DA
330
D8
100
AcDbEntity
  8
_U+30EC_U+30A4_U+30E4_U+30FC 1
 62
     7
420
 16777215
370
    25
100
AcDbVertex
100
AcDb2dVertex
 10
85.98199641752764
 20
-125.0476571909603
 30
0.0
  0
VERTEX
  5
DB
330
D8
100
AcDbEntity
  8
_U+30EC_U+30A4_U+30E4_U+30FC 1
 62
     7
420
 16777215
370
    25
100
AcDbVertex
100
AcDb2dVertex
 10
85.98199641752764
 20
-122.047670247266
 30
0.0
  0
VERTEX
  5
DC
330
D8
100
AcDbEntity
  8
_U+30EC_U+30A4_U+30E4_U+30FC 1
 62
     7
420
 16777215
370
    25
100
AcDbVertex
100
AcDb2dVertex
 10
88.98198328543603
 20
-122.047670247266
 30
0.0
  0
VERTEX
  5
DD
330
D8
100
AcDbEntity
  8
_U+30EC_U+30A4_U+30E4_U+30FC 1
 62
     7
420
 16777215
370
    25
100
AcDbVertex
100
AcDb2dVertex
 10
88.98198328543603
 20
-125.0476571909603
 30
0.0
  0
VERTEX
  5
DE
330
D8
100
AcDbEntity
  8
_U+30EC_U+30A4_U+30E4_U+30FC 1
 62
     7
420
 16777215
370
    25
100
AcDbVertex
100
AcDb2dVertex
 10
87.98189358872823
 20
-125.0476571909603
 30
0.0
  0
SEQEND
  5
DF
330
D8
100
AcDbEntity
  8
_U+30EC_U+30A4_U+30E4_U+30FC 1
 62
     7
420
 16777215
370
    25
  0
POLYLINE
  5
E0
330
1F
100
AcDbEntity
  8
_U+30EC_U+30A4_U+30E4_U+30FC 1
 62
     7
420
 16777215
370
    25
100
AcDb2dPolyline
 66
     1
 10
0.0
 20
0.0
 30
0.0
  0
VERTEX
  5
E1
330
E0
100
AcDbEntity
  8
_U+30EC_U+30A4_U+30E4_U+30FC 1
 62
     7
420
 16777215
370
    25
100
AcDbVertex
100
AcDb2dVertex
 10
87.98189358872823
 20
-125.0476571909603
 30
0.0
  0
VERTEX
  5
E2
330
E0
100
AcDbEntity
  8
_U+30EC_U+30A4_U+30E4_U+30FC 1
 62
     7
420
 16777215
370
    25
100
AcDbVertex
100
AcDb2dVertex
 10
87.98189358872823
 20
-134.5475041330299
 30
0.0
  0
SEQEND
  5
E3
330
E0
100
AcDbEntity
  8
_U+30EC_U+30A4_U+30E4_U+30FC 1
 62
     7
420
 16777215
370
    25
  0
POLYLINE
  5
E4
330
1F
100
AcDbEntity
  8
_U+30EC_U+30A4_U+30E4_U+30FC 1
 62
     7
420
 16777215
370
    25
100
AcDb2dPolyline
 66
     1
 10
0.0
 20
0.0
 30
0.0
  0
VERTEX
  5
E5
330
E4
100
AcDbEntity
  8
_U+30EC_U+30A4_U+30E4_U+30FC 1
 62
     7
420
 16777215
370
    25
100
AcDbVertex
100
AcDb2dVertex
 10
86.98212139201232
 20
-134.5475041330299
 30
0.0
  0
VERTEX
  5
E6
330
E4
100
AcDbEntity
  8
_U+30EC_U+30A4_U+30E4_U+30FC 1
 62
     7
420
 16777215
370
    25
100
AcDbVertex
100
AcDb2dVertex
 10
86.98212139201232
 20
-125.0476571909603
 30
0.0
  0
SEQEND
  5
E7
330
E4
100
AcDbEntity
  8
_U+30EC_U+30A4_U+30E4_U+30FC 1
 62
     7
420
 16777215
370
    25
  0
POLYLINE
  5
E8
330
1F
100
AcDbEntity
  8
_U+30EC_U+30A4_U+30E4_U+30FC 1
 62
     7
420
 16777215
370
    25
100
AcDb2dPolyline
 66
     1
 10
0.0
 20
0.0
 30
0.0
  0
VERTEX
  5
E9
330
E8
100
AcDbEntity
  8
_U+30EC_U+30A4_U+30E4_U+30FC 1
 62
     7
420
 16777215
370
    25
100
AcDbVertex
100
AcDb2dVertex
 10
87.98189358872823
 20
-134.5475041330299
 30
0.0
  0
VERTEX
  5
EA
330
E8
100
AcDbEntity
  8
_U+30EC_U+30A4_U+30E4_U+30FC 1
 62
     7
420
 16777215
370
    25
100
AcDbVertex
100
AcDb2dVertex
 10
98.98206886364594
 20
-134.5475041330299
 30
0.0
  0
VERTEX
  5
EB
330
E8
100
AcDbEntity
  8
_U+30EC_U+30A4_U+30E4_U+30FC 1
 62
     7
420
 16777215
370
    25
100
AcDbVertex
100
AcDb2dVertex
 10
98.98206886364594
 20
-135.5472763550018
 30
0.0
  0
VERTEX
  5
EC
330
E8
100
AcDbEntity
  8
_U+30EC_U+30A4_U+30E4_U+30FC 1
 62
     7
420
 16777215
370
    25
100
AcDbVertex
100
AcDb2dVertex
 10
75.98191083931773
 20
-135.5472763550018
 30
0.0
  0
VERTEX
  5
ED
330
E8
100
AcDbEntity
  8
_U+30EC_U+30A4_U+30E4_U+30FC 1
 62
     7
420
 16777215
370
    25
100
AcDbVertex
100
AcDb2dVertex
 10
75.98191083931773
 20
-134.5475041330299
 30
0.0
  0
VERTEX
  5
EE
330
E8
100
AcDbEntity
  8
_U+30EC_U+30A4_U+30E4_U+30FC 1
 62
     7
420
 16777215
370
    25
100
AcDbVertex
100
AcDb2dVertex
 10
86.9021819496073
 20
-134.5475041330299
 30
0.0
  0
SEQEND
  5
EF
330
E8
100
AcDbEntity
  8
_U+30EC_U+30A4_U+30E4_U+30FC 1
 62
     7
420
 16777215
370
    25
  0
ENDSEC
  0
SECTION
  2
OBJECTS
  0
DICTIONARY
  5
C
330
0
100
AcDbDictionary
281
     1
  3
ACAD_GROUP
350
D
  3
ACAD_LAYOUT
350
1A
  3
ACAD_MATERIAL
350
3B
  3
ACAD_MLEADERSTYLE
350
F1
  3
ACAD_MLINESTYLE
350
17
  3
ACAD_PLOTSETTINGS
350
19
  3
ACAD_PLOTSTYLENAME
350
E
  3
ACAD_TABLESTYLE
350
F0
  3
ACAD_VISUALSTYLE
350
2A
  0
SUN
  5
3F
330
29
100
AcDbSun
 90
        1
290
     0
 63
     7
421
 16777215
 40
1.0
291
     1
 91
  2455826
 92
 54000000
292
     0
 70
     2
 71
   256
280
     1
  0
DICTIONARY
  5
D
102
{ACAD_REACTORS
330
C
102
}
330
C
100
AcDbDictionary
281
     1
  0
DICTIONARY
  5
1A
102
{ACAD_REACTORS
330
C
102
}
330
C
100
AcDbDictionary
281
     1
  3
Layout1
350
1E
  3
Layout2
350
26
  3
Model
350
22
  0
DICTIONARY
  5
3B
102
{ACAD_REACTORS
330
C
102
}
330
C
100
AcDbDictionary
281
     1
  3
ByBlock
350
3D
  3
ByLayer
350
3C
  3
Global
350
3E
  0
DICTIONARY
  5
F1
102
{ACAD_REACTORS
330
C
102
}
330
C
100
AcDbDictionary
281
     1
  0
DICTIONARY
  5
17
102
{ACAD_REACTORS
330
C
102
}
330
C
100
AcDbDictionary
281
     1
  3
Standard
350
18
  0
DICTIONARY
  5
19
102
{ACAD_REACTORS
330
C
102
}
330
C
100
AcDbDictionary
281
     1
  0
ACDBDICTIONARYWDFLT
  5
E
102
{ACAD_REACTORS
330
C
102
}
330
C
100
AcDbDictionary
281
     1
  3
Normal
350
F
100
AcDbDictionaryWithDefault
340
F
  0
DICTIONARY
  5
F0
102
{ACAD_REACTORS
330
C
102
}
330
C
100
AcDbDictionary
281
     1
  0
DICTIONARY
  5
2A
102
{ACAD_REACTORS
330
C
102
}
330
C
100
AcDbDictionary
281
     1
  3
2dWireframe
350
2F
  3
3D Hidden
350
31
  3
3dWireframe
350
30
  3
Basic
350
32
  3
Brighten
350
36
  3
ColorChange
350
3A
  3
Conceptual
350
34
  3
Dim
350
35
  3
Facepattern
350
39
  3
Flat
350
2B
  3
FlatWithEdges
350
2C
  3
Gouraud
350
2D
  3
GouraudWithEdges
350
2E
  3
Linepattern
350
38
  3
Realistic
350
33
  3
Thicken
350
37
  0
LAYOUT
  5
1E
102
{ACAD_REACTORS
330
1A
102
}
330
1A
100
AcDbPlotSettings
  1

  2
none_device
  4

  6

 40
0.0
 41
0.0
 42
0.0
 43
0.0
 44
0.0
 45
0.0
 46
0.0
 47
0.0
 48
0.0
 49
0.0
140
0.0
141
0.0
142
1.0
143
1.0
 70
   688
 72
     0
 73
     0
 74
     5
  7

 75
    16
 76
     0
 77
     2
 78
   300
147
1.0
148
0.0
149
0.0
100
AcDbLayout
  1
Layout1
 70
     1
 71
     1
 10
0.0
 20
0.0
 11
12.0
 21
9.0
 12
0.0
 22
0.0
 32
0.0
 14
1.000000000000000E+20
 24
1.000000000000000E+20
 34
1.000000000000000E+20
 15
-1.000000000000000E+20
 25
-1.000000000000000E+20
 35
-1.000000000000000E+20
146
0.0
 13
0.0
 23
0.0
 33
0.0
 16
1.0
 26
0.0
 36
0.0
 17
0.0
 27
1.0
 37
0.0
 76
     0
330
1B
  0
LAYOUT
  5
26
102
{ACAD_REACTORS
330
1A
102
}
330
1A
100
AcDbPlotSettings
  1

  2
none_device
  4

  6

 40
0.0
 41
0.0
 42
0.0
 43
0.0
 44
0.0
 45
0.0
 46
0.0
 47
0.0
 48
0.0
 49
0.0
140
0.0
141
0.0
142
1.0
143
1.0
 70
   688
 72
     0
 73
     0
 74
     5
  7

 75
    16
 76
     0
 77
     2
 78
   300
147
1.0
148
0.0
149
0.0
100
AcDbLayout
  1
Layout2
 70
     1
 71
     2
 10
0.0
 20
0.0
 11
0.0
 21
0.0
 12
0.0
 22
0.0
 32
0.0
 14
0.0
 24
0.0
 34
0.0
 15
0.0
 25
0.0
 35
0.0
146
0.0
 13
0.0
 23
0.0
 33
0.0
 16
1.0
 26
0.0
 36
0.0
 17
0.0
 27
1.0
 37
0.0
 76
     0
330
23
  0
LAYOUT
  5
22
102
{ACAD_REACTORS
330
1A
102
}
330
1A
100
AcDbPlotSettings
  1

  2
none_device
  4

  6

 40
0.0
 41
0.0
 42
0.0
 43
0.0
 44
0.0
 45
0.0
 46
0.0
 47
0.0
 48
0.0
 49
0.0
140
0.0
141
0.0
142
1.0
143
1.0
 70
  1712
 72
     0
 73
     0
 74
     0
  7

 75
     0
 76
     0
 77
     2
 78
   300
147
1.0
148
0.0
149
0.0
100
AcDbLayout
  1
Model
 70
     1
 71
     0
 10
0.0
 20
0.0
 11
12.0
 21
9.0
 12
0.0
 22
0.0
 32
0.0
 14
1.000000000000000E+20
 24
1.000000000000000E+20
 34
1.000000000000000E+20
 15
-1.000000000000000E+20
 25
-1.000000000000000E+20
 35
-1.000000000000000E+20
146
0.0
 13
0.0
 23
0.0
 33
0.0
 16
1.0
 26
0.0
 36
0.0
 17
0.0
 27
1.0
 37
0.0
 76
     0
330
1F
331
29
  0
MATERIAL
  5
3D
102
{ACAD_REACTORS
330
3B
102
}
330
3B
100
AcDbMaterial
  1
ByBlock
 72
     1
 94
      127
  0
MATERIAL
  5
3C
102
{ACAD_REACTORS
330
3B
102
}
330
3B
100
AcDbMaterial
  1
ByLayer
 72
     1
 94
      127
  0
MATERIAL
  5
3E
102
{ACAD_REACTORS
330
3B
102
}
330
3B
100
AcDbMaterial
  1
Global
 72
     1
 94
      127
  0
MLINESTYLE
  5
18
102
{ACAD_REACTORS
330
17
102
}
330
17
100
AcDbMlineStyle
  2
Standard
 70
     0
  3

 62
   256
 51
90.0
 52
90.0
 71
     2
 49
0.5
 62
   256
  6
BYLAYER
 49
-0.5
 62
   256
  6
BYLAYER
  0
ACDBPLACEHOLDER
  5
F
102
{ACAD_REACTORS
330
E
102
}
330
E
  0
VISUALSTYLE
  5
2F
102
{ACAD_REACTORS
330
2A
102
}
330
2A
100
AcDbVisualStyle
  2
2dWireframe
 70
     4
177
     2
291
     0
 71
     0
176
     1
 72
     2
176
     1
 73
     0
176
     1
 90
        0
176
     1
 40
-0.6
176
     1
 41
-30.0
176
     1
 62
     5
 63
     7
421
 16777215
176
     1
 74
     1
176
     1
 91
        4
176
     1
 64
     7
176
     1
 65
   257
176
     1
 75
     1
176
     1
175
     1
176
     1
 42
1.0
176
     1
 92
        0
176
     1
 66
   257
176
     1
 43
1.0
176
     1
 76
     1
176
     1
 77
     6
176
     1
 78
     2
176
     1
 67
     7
176
     1
 79
     5
176
     1
170
     0
176
     1
171
     0
176
     1
290
     0
176
     1
 93
        1
176
     1
 44
0.0
176
     1
173
     0
176
     1
  0
VISUALSTYLE
  5
31
102
{ACAD_REACTORS
330
2A
102
}
330
2A
100
AcDbVisualStyle
  2
3D Hidden
 70
     6
177
     2
291
     0
 71
     1
176
     1
 72
     2
176
     1
 73
     2
176
     1
 90
        0
176
     1
 40
-0.6
176
     1
 41
-30.0
176
     1
 62
     5
 63
     7
421
 16777215
176
     1
 74
     2
176
     1
 91
        2
176
     1
 64
     7
176
     1
 65
   257
176
     1
 75
     2
176
     1
175
     1
176
     1
 42
40.0
176
     1
 92
        0
176
     1
 66
   257
176
     1
 43
1.0
176
     1
 76
     1
176
     1
 77
     6
176
     1
 78
     2
176
     1
 67
     7
176
     1
 79
     3
176
     1
170
     0
176
     1
171
     0
176
     1
290
     0
176
     1
 93
        1
176
     1
 44
0.0
176
     1
173
     0
176
     1
  0
VISUALSTYLE
  5
30
102
{ACAD_REACTORS
330
2A
102
}
330
2A
100
AcDbVisualStyle
  2
3dWireframe
 70
     5
177
     2
291
     0
 71
     0
176
     1
 72
     2
176
     1
 73
     0
176
     1
 90
        0
176
     1
 40
-0.6
176
     1
 41
-30.0
176
     1
 62
     5
 63
     7
421
 16777215
176
     1
 74
     1
176
     1
 91
        4
176
     1
 64
     7
176
     1
 65
   257
176
     1
 75
     1
176
     1
175
     1
176
     1
 42
1.0
176
     1
 92
        0
176
     1
 66
   257
176
     1
 43
1.0
176
     1
 76
     1
176
     1
 77
     6
176
     1
 78
     2
176
     1
 67
     7
176
     1
 79
     5
176
     1
170
     0
176
     1
171
     0
176
     1
290
     0
176
     1
 93
        1
176
     1
 44
0.0
176
     1
173
     0
176
     1
  0
VISUALSTYLE
  5
32
102
{ACAD_REACTORS
330
2A
102
}
330
2A
100
AcDbVisualStyle
  2
Basic
 70
     7
177
     2
291
     1
 71
     1
176
     1
 72
     0
176
     1
 73
     1
176
     1
 90
        0
176
     1
 40
-0.6
176
     1
 41
-30.0
176
     1
 62
     5
 63
     7
421
 16777215
176
     1
 74
     0
176
     1
 91
        4
176
     1
 64
     7
176
     1
 65
   257
176
     1
 75
     1
176
     1
175
     1
176
     1
 42
1.0
176
     1
 92
        8
176
     1
 66
     7
176
     1
 43
1.0
176
     1
 76
     1
176
     1
 77
     6
176
     1
 78
     2
176
     1
 67
     7
176
     1
 79
     5
176
     1
170
     0
176
     1
171
     0
176
     1
290
     0
176
     1
 93
        1
176
     1
 44
0.0
176
     1
173
     0
176
     1
  0
VISUALSTYLE
  5
36
102
{ACAD_REACTORS
330
2A
102
}
330
2A
100
AcDbVisualStyle
  2
Brighten
 70
    12
177
     2
291
     1
 71
     2
176
     1
 72
     2
176
     1
 73
     0
176
     1
 90
        0
176
     1
 40
-0.6
176
     1
 41
-30.0
176
     1
 62
     5
 63
     7
421
 16777215
176
     1
 74
     1
176
     1
 91
        4
176
     1
 64
     7
176
     1
 65
   257
176
     1
 75
     1
176
     1
175
     1
176
     1
 42
1.0
176
     1
 92
        8
176
     1
 66
     7
176
     1
 43
1.0
176
     1
 76
     1
176
     1
 77
     6
176
     1
 78
     2
176
     1
 67
     7
176
     1
 79
     5
176
     1
170
     0
176
     1
171
     0
176
     1
290
     0
176
     1
 93
        1
176
     1
 44
50.0
176
     1
173
     0
176
     1
  0
VISUALSTYLE
  5
3A
102
{ACAD_REACTORS
330
2A
102
}
330
2A
100
AcDbVisualStyle
  2
ColorChange
 70
    16
177
     2
291
     1
 71
     2
176
     1
 72
     2
176
     1
 73
     3
176
     1
 90
        0
176
     1
 40
-0.6
176
     1
 41
-30.0
176
     1
 62
     5
 63
     8
421
  8421504
176
     1
 74
     1
176
     1
 91
        4
176
     1
 64
     7
176
     1
 65
   257
176
     1
 75
     1
176
     1
175
     1
176
     1
 42
1.0
176
     1
 92
        8
176
     1
 66
     8
424
  8421504
176
     1
 43
1.0
176
     1
 76
     1
176
     1
 77
     6
176
     1
 78
     2
176
     1
 67
     7
176
     1
 79
     5
176
     1
170
     0
176
     1
171
     0
176
     1
290
     0
176
     1
 93
        1
176
     1
 44
0.0
176
     1
173
     0
176
     1
  0
VISUALSTYLE
  5
34
102
{ACAD_REACTORS
330
2A
102
}
330
2A
100
AcDbVisualStyle
  2
Conceptual
 70
     9
177
     2
291
     0
 71
     3
176
     1
 72
     2
176
     1
 73
     0
176
     1
 90
        0
176
     1
 40
-0.6
176
     1
 41
-30.0
176
     1
 62
     5
 63
     7
421
 16777215
176
     1
 74
     2
176
     1
 91
        2
176
     1
 64
     7
176
     1
 65
   257
176
     1
 75
     1
176
     1
175
     1
176
     1
 42
40.0
176
     1
 92
        8
176
     1
 66
     7
176
     1
 43
1.0
176
     1
 76
     1
176
     1
 77
     6
176
     1
 78
     2
176
     1
 67
     7
176
     1
 79
     3
176
     1
170
     0
176
     1
171
     0
176
     1
290
     0
176
     1
 93
        1
176
     1
 44
0.0
176
     1
173
     0
176
     1
  0
VISUALSTYLE
  5
35
102
{ACAD_REACTORS
330
2A
102
}
330
2A
100
AcDbVisualStyle
  2
Dim
 70
    11
177
     2
291
     1
 71
     2
176
     1
 72
     2
176
     1
 73
     0
176
     1
 90
        0
176
     1
 40
-0.6
176
     1
 41
-30.0
176
     1
 62
     5
 63
     7
421
 16777215
176
     1
 74
     1
176
     1
 91
        4
176
     1
 64
     7
176
     1
 65
   257
176
     1
 75
     1
176
     1
175
     1
176
     1
 42
1.0
176
     1
 92
        8
176
     1
 66
     7
176
     1
 43
1.0
176
     1
 76
     1
176
     1
 77
     6
176
     1
 78
     2
176
     1
 67
     7
176
     1
 79
     5
176
     1
170
     0
176
     1
171
     0
176
     1
290
     0
176
     1
 93
        1
176
     1
 44
-50.0
176
     1
173
     0
176
     1
  0
VISUALSTYLE
  5
39
102
{ACAD_REACTORS
330
2A
102
}
330
2A
100
AcDbVisualStyle
  2
Facepattern
 70
    15
177
     2
291
     1
 71
     2
176
     1
 72
     2
176
     1
 73
     0
176
     1
 90
        0
176
     1
 40
-0.6
176
     1
 41
-30.0
176
     1
 62
     5
 63
     7
421
 16777215
176
     1
 74
     1
176
     1
 91
        4
176
     1
 64
     7
176
     1
 65
   257
176
     1
 75
     1
176
     1
175
     1
176
     1
 42
1.0
176
     1
 92
        8
176
     1
 66
     7
176
     1
 43
1.0
176
     1
 76
     1
176
     1
 77
     6
176
     1
 78
     2
176
     1
 67
     7
176
     1
 79
     5
176
     1
170
     0
176
     1
171
     0
176
     1
290
     0
176
     1
 93
        1
176
     1
 44
0.0
176
     1
173
     0
176
     1
  0
VISUALSTYLE
  5
2B
102
{ACAD_REACTORS
330
2A
102
}
330
2A
100
AcDbVisualStyle
  2
Flat
 70
     0
177
     2
291
     1
 71
     2
176
     1
 72
     1
176
     1
 73
     1
176
     1
 90
        2
176
     1
 40
-0.6
176
     1
 41
30.0
176
     1
 62
     5
 63
     7
421
 16777215
176
     1
 74
     0
176
     1
 91
        4
176
     1
 64
     7
176
     1
 65
   257
176
     1
 75
     1
176
     1
175
     1
176
     1
 42
1.0
176
     1
 92
        8
176
     1
 66
     7
176
     1
 43
1.0
176
     1
 76
     1
176
     1
 77
     6
176
     1
 78
     2
176
     1
 67
     7
176
     1
 79
     5
176
     1
170
     0
176
     1
171
     0
176
     1
290
     0
176
     1
 93
       13
176
     1
 44
0.0
176
     1
173
     0
176
     1
  0
VISUALSTYLE
  5
2C
102
{ACAD_REACTORS
330
2A
102
}
330
2A
100
AcDbVisualStyle
  2
FlatWithEdges
 70
     1
177
     2
291
     1
 71
     2
176
     1
 72
     1
176
     1
 73
     1
176
     1
 90
        2
176
     1
 40
-0.6
176
     1
 41
30.0
176
     1
 62
     5
 63
     7
421
 16777215
176
     1
 74
     1
176
     1
 91
        4
176
     1
 64
     7
176
     1
 65
   257
176
     1
 75
     1
176
     1
175
     1
176
     1
 42
1.0
176
     1
 92
        0
176
     1
 66
   257
176
     1
 43
1.0
176
     1
 76
     1
176
     1
 77
     6
176
     1
 78
     2
176
     1
 67
     7
176
     1
 79
     5
176
     1
170
     0
176
     1
171
     0
176
     1
290
     0
176
     1
 93
       13
176
     1
 44
0.0
176
     1
173
     0
176
     1
  0
VISUALSTYLE
  5
2D
102
{ACAD_REACTORS
330
2A
102
}
330
2A
100
AcDbVisualStyle
  2
Gouraud
 70
     2
177
     2
291
     1
 71
     2
176
     1
 72
     2
176
     1
 73
     1
176
     1
 90
        2
176
     1
 40
-0.6
176
     1
 41
30.0
176
     1
 62
     5
 63
     7
421
 16777215
176
     1
 74
     0
176
     1
 91
        4
176
     1
 64
     7
176
     1
 65
   257
176
     1
 75
     1
176
     1
175
     1
176
     1
 42
1.0
176
     1
 92
        0
176
     1
 66
     7
176
     1
 43
1.0
176
     1
 76
     1
176
     1
 77
     6
176
     1
 78
     2
176
     1
 67
     7
176
     1
 79
     5
176
     1
170
     0
176
     1
171
     0
176
     1
290
     0
176
     1
 93
       13
176
     1
 44
0.0
176
     1
173
     0
176
     1
  0
VISUALSTYLE
  5
2E
102
{ACAD_REACTORS
330
2A
102
}
330
2A
100
AcDbVisualStyle
  2
GouraudWithEdges
 70
     3
177
     2
291
     1
 71
     2
176
     1
 72
     2
176
     1
 73
     1
176
     1
 90
        2
176
     1
 40
-0.6
176
     1
 41
30.0
176
     1
 62
     5
 63
     7
421
 16777215
176
     1
 74
     1
176
     1
 91
        4
176
     1
 64
     7
176
     1
 65
   257
176
     1
 75
     1
176
     1
175
     1
176
     1
 42
1.0
176
     1
 92
        0
176
     1
 66
   257
176
     1
 43
1.0
176
     1
 76
     1
176
     1
 77
     6
176
     1
 78
     2
176
     1
 67
     7
176
     1
 79
     5
176
     1
170
     0
176
     1
171
     0
176
     1
290
     0
176
     1
 93
       13
176
     1
 44
0.0
176
     1
173
     0
176
     1
  0
VISUALSTYLE
  5
38
102
{ACAD_REACTORS
330
2A
102
}
330
2A
100
AcDbVisualStyle
  2
Linepattern
 70
    14
177
     2
291
     1
 71
     2
176
     1
 72
     2
176
     1
 73
     0
176
     1
 90
        0
176
     1
 40
-0.6
176
     1
 41
-30.0
176
     1
 62
     5
 63
     7
421
 16777215
176
     1
 74
     1
176
     1
 91
        4
176
     1
 64
     7
176
     1
 65
   257
176
     1
 75
     7
176
     1
175
     7
176
     1
 42
1.0
176
     1
 92
        8
176
     1
 66
     7
176
     1
 43
1.0
176
     1
 76
     1
176
     1
 77
     6
176
     1
 78
     2
176
     1
 67
     7
176
     1
 79
     5
176
     1
170
     0
176
     1
171
     0
176
     1
290
     0
176
     1
 93
        1
176
     1
 44
0.0
176
     1
173
     0
176
     1
  0
VISUALSTYLE
  5
33
102
{ACAD_REACTORS
330
2A
102
}
330
2A
100
AcDbVisualStyle
  2
Realistic
 70
     8
177
     2
291
     0
 71
     2
176
     1
 72
     2
176
     1
 73
     0
176
     1
 90
        0
176
     1
 40
-0.6
176
     1
 41
-30.0
176
     1
 62
     5
 63
     7
421
 16777215
176
     1
 74
     1
176
     1
 91
        0
176
     1
 64
     7
176
     1
 65
   257
176
     1
 75
     1
176
     1
175
     1
176
     1
 42
1.0
176
     1
 92
        8
176
     1
 66
     8
424
  7895160
176
     1
 43
1.0
176
     1
 76
     1
176
     1
 77
     6
176
     1
 78
     2
176
     1
 67
     7
176
     1
 79
     5
176
     1
170
     0
176
     1
171
     0
176
     1
290
     0
176
     1
 93
       13
176
     1
 44
0.0
176
     1
173
     0
176
     1
  0
VISUALSTYLE
  5
37
102
{ACAD_REACTORS
330
2A
102
}
330
2A
100
AcDbVisualStyle
  2
Thicken
 70
    13
177
     2
291
     1
 71
     2
176
     1
 72
     2
176
     1
 73
     0
176
     1
 90
        0
176
     1
 40
-0.6
176
     1
 41
-30.0
176
     1
 62
     5
 63
     7
421
 16777215
176
     1
 74
     1
176
     1
 91
        4
176
     1
 64
     7
176
     1
 65
   257
176
     1
 75
     1
176
     1
175
     1
176
     1
 42
1.0
176
     1
 92
       12
176
     1
 66
     7
176
     1
 43
1.0
176
     1
 76
     1
176
     1
 77
     6
176
     1
 78
     2
176
     1
 67
     7
176
     1
 79
     5
176
     1
170
     0
176
     1
171
     0
176
     1
290
     0
176
     1
 93
        1
176
     1
 44
0.0
176
     1
173
     0
176
     1
  0
ENDSEC
  0
EOF
