  0
SECTION
  2
HEADER
  9
$ACADVER
  1
AC1024
  9
$ACADMAINTVER
 70
     6
  9
$DWGCODEPAGE
  3
UNDEFINED
  9
$INSBASE
 10
0.0
 20
0.0
 30
0.0
  9
$EXTMIN
 10
1.000000000000000E+20
 20
1.000000000000000E+20
 30
1.000000000000000E+20
  9
$EXTMAX
 10
-1.000000000000000E+20
 20
-1.000000000000000E+20
 30
-1.000000000000000E+20
  9
$LIMMIN
 10
0.0
 20
0.0
  9
$LIMMAX
 10
12.0
 20
9.0
  9
$ORTHOMODE
 70
     0
  9
$REGENMODE
 70
     1
  9
$FILLMODE
 70
     1
  9
$QTEXTMODE
 70
     0
  9
$MIRRTEXT
 70
     1
  9
$LTSCALE
 40
1.0
  9
$ATTMODE
 70
     1
  9
$TEXTSIZE
 40
0.2
  9
$TRACEWID
 40
0.05
  9
$TEXTSTYLE
  7
Standard
  9
$CLAYER
  8
0
  9
$CELTYPE
  6
ByLayer
  9
$CECOLOR
 62
   256
  9
$CELTSCALE
 40
1.0
  9
$DISPSILH
 70
     0
  9
$DIMSCALE
 40
1.0
  9
$DIMASZ
 40
0.18
  9
$DIMEXO
 40
0.0625
  9
$DIMDLI
 40
0.38
  9
$DIMRND
 40
0.0
  9
$DIMDLE
 40
0.0
  9
$DIMEXE
 40
0.18
  9
$DIMTP
 40
0.0
  9
$DIMTM
 40
0.0
  9
$DIMTXT
 40
0.18
  9
$DIMCEN
 40
0.09
  9
$DIMTSZ
 40
0.0
  9
$DIMTOL
 70
     0
  9
$DIMLIM
 70
     0
  9
$DIMTIH
 70
     1
  9
$DIMTOH
 70
     1
  9
$DIMSE1
 70
     0
  9
$DIMSE2
 70
     0
  9
$DIMTAD
 70
     0
  9
$DIMZIN
 70
     0
  9
$DIMBLK
  1

  9
$DIMASO
 70
     1
  9
$DIMSHO
 70
     1
  9
$DIMPOST
  1

  9
$DIMAPOST
  1

  9
$DIMALT
 70
     0
  9
$DIMALTD
 70
     2
  9
$DIMALTF
 40
25.4
  9
$DIMLFAC
 40
1.0
  9
$DIMTOFL
 70
     0
  9
$DIMTVP
 40
0.0
  9
$DIMTIX
 70
     0
  9
$DIMSOXD
 70
     0
  9
$DIMSAH
 70
     0
  9
$DIMBLK1
  1

  9
$DIMBLK2
  1

  9
$DIMSTYLE
  2
Standard
  9
$DIMCLRD
 70
     0
  9
$DIMCLRE
 70
     0
  9
$DIMCLRT
 70
     0
  9
$DIMTFAC
 40
1.0
  9
$DIMGAP
 40
0.09
  9
$DIMJUST
 70
     0
  9
$DIMSD1
 70
     0
  9
$DIMSD2
 70
     0
  9
$DIMTOLJ
 70
     1
  9
$DIMTZIN
 70
     0
  9
$DIMALTZ
 70
     0
  9
$DIMALTTZ
 70
     0
  9
$DIMUPT
 70
     0
  9
$DIMDEC
 70
     4
  9
$DIMTDEC
 70
     4
  9
$DIMALTU
 70
     2
  9
$DIMALTTD
 70
     2
  9
$DIMTXSTY
  7
Standard
  9
$DIMAUNIT
 70
     0
  9
$DIMADEC
 70
     0
  9
$DIMALTRND
 40
0.0
  9
$DIMAZIN
 70
     0
  9
$DIMDSEP
 70
    46
  9
$DIMATFIT
 70
     3
  9
$DIMFRAC
 70
     0
  9
$DIMLDRBLK
  1

  9
$DIMLUNIT
 70
     2
  9
$DIMLWD
 70
    -2
  9
$DIMLWE
 70
    -2
  9
$DIMTMOVE
 70
     0
  9
$DIMFXL
 40
1.0
  9
$DIMFXLON
 70
     0
  9
$DIMJOGANG
 40
0.7853981633974483
  9
$DIMTFILL
 70
     0
  9
$DIMTFILLCLR
 70
     0
  9
$DIMARCSYM
 70
     0
  9
$DIMLTYPE
  6

  9
$DIMLTEX1
  6

  9
$DIMLTEX2
  6

  9
$DIMTXTDIRECTION
 70
     0
  9
$LUNITS
 70
     2
  9
$LUPREC
 70
     4
  9
$SKETCHINC
 40
0.1
  9
$FILLETRAD
 40
0.5
  9
$AUNITS
 70
     0
  9
$AUPREC
 70
     0
  9
$MENU
  1
.
  9
$ELEVATION
 40
0.0
  9
$PELEVATION
 40
0.0
  9
$THICKNESS
 40
0.0
  9
$LIMCHECK
 70
     0
  9
$CHAMFERA
 40
0.5
  9
$CHAMFERB
 40
0.5
  9
$CHAMFERC
 40
1.0
  9
$CHAMFERD
 40
0.0
  9
$SKPOLY
 70
     0
  9
$TDCREATE
 40
2457917.623622685
  9
$TDUCREATE
 40
2457917.248622685
  9
$TDUPDATE
 40
2457917.623622685
  9
$TDUUPDATE
 40
2457917.248622685
  9
$TDINDWG
 40
0.0000000116
  9
$TDUSRTIMER
 40
0.0000000116
  9
$USRTIMER
 70
     1
  9
$ANGBASE
 50
0.0
  9
$ANGDIR
 70
     0
  9
$PDMODE
 70
     0
  9
$PDSIZE
 40
0.0
  9
$PLINEWID
 40
0.0
  9
$SPLFRAME
 70
     0
  9
$SPLINETYPE
 70
     6
  9
$SPLINESEGS
 70
     8
  9
$HANDSEED
  5
F1
  9
$SURFTAB1
 70
     6
  9
$SURFTAB2
 70
     6
  9
$SURFTYPE
 70
     6
  9
$SURFU
 70
     6
  9
$SURFV
 70
     6
  9
$UCSBASE
  2

  9
$UCSNAME
  2

  9
$UCSORG
 10
0.0
 20
0.0
 30
0.0
  9
$UCSXDIR
 10
1.0
 20
0.0
 30
0.0
  9
$UCSYDIR
 10
0.0
 20
1.0
 30
0.0
  9
$UCSORTHOREF
  2

  9
$UCSORTHOVIEW
 70
     0
  9
$UCSORGTOP
 10
0.0
 20
0.0
 30
0.0
  9
$UCSORGBOTTOM
 10
0.0
 20
0.0
 30
0.0
  9
$UCSORGLEFT
 10
0.0
 20
0.0
 30
0.0
  9
$UCSORGRIGHT
 10
0.0
 20
0.0
 30
0.0
  9
$UCSORGFRONT
 10
0.0
 20
0.0
 30
0.0
  9
$UCSORGBACK
 10
0.0
 20
0.0
 30
0.0
  9
$PUCSBASE
  2

  9
$PUCSNAME
  2

  9
$PUCSORG
 10
0.0
 20
0.0
 30
0.0
  9
$PUCSXDIR
 10
1.0
 20
0.0
 30
0.0
  9
$PUCSYDIR
 10
0.0
 20
1.0
 30
0.0
  9
$PUCSORTHOREF
  2

  9
$PUCSORTHOVIEW
 70
     0
  9
$PUCSORGTOP
 10
0.0
 20
0.0
 30
0.0
  9
$PUCSORGBOTTOM
 10
0.0
 20
0.0
 30
0.0
  9
$PUCSORGLEFT
 10
0.0
 20
0.0
 30
0.0
  9
$PUCSORGRIGHT
 10
0.0
 20
0.0
 30
0.0
  9
$PUCSORGFRONT
 10
0.0
 20
0.0
 30
0.0
  9
$PUCSORGBACK
 10
0.0
 20
0.0
 30
0.0
  9
$USERI1
 70
     0
  9
$USERI2
 70
     0
  9
$USERI3
 70
     0
  9
$USERI4
 70
     0
  9
$USERI5
 70
     0
  9
$USERR1
 40
0.0
  9
$USERR2
 40
0.0
  9
$USERR3
 40
0.0
  9
$USERR4
 40
0.0
  9
$USERR5
 40
0.0
  9
$WORLDVIEW
 70
     1
  9
$SHADEDGE
 70
     3
  9
$SHADEDIF
 70
    70
  9
$TILEMODE
 70
     1
  9
$MAXACTVP
 70
    64
  9
$PINSBASE
 10
0.0
 20
0.0
 30
0.0
  9
$PLIMCHECK
 70
     0
  9
$PEXTMIN
 10
1.000000000000000E+20
 20
1.000000000000000E+20
 30
1.000000000000000E+20
  9
$PEXTMAX
 10
-1.000000000000000E+20
 20
-1.000000000000000E+20
 30
-1.000000000000000E+20
  9
$PLIMMIN
 10
0.0
 20
0.0
  9
$PLIMMAX
 10
12.0
 20
9.0
  9
$UNITMODE
 70
     0
  9
$VISRETAIN
 70
     1
  9
$PLINEGEN
 70
     0
  9
$PSLTSCALE
 70
     1
  9
$TREEDEPTH
 70
  3020
  9
$CMLSTYLE
  2
Standard
  9
$CMLJUST
 70
     0
  9
$CMLSCALE
 40
1.0
  9
$PROXYGRAPHICS
 70
     1
  9
$MEASUREMENT
 70
     0
  9
$CELWEIGHT
370
    -1
  9
$ENDCAPS
280
     0
  9
$JOINSTYLE
280
     0
  9
$LWDISPLAY
290
     1
  9
$INSUNITS
 70
     1
  9
$HYPERLINKBASE
  1

  9
$STYLESHEET
  1

  9
$XEDIT
290
     1
  9
$CEPSNTYPE
380
     0
  9
$PSTYLEMODE
290
     1
  9
$FINGERPRINTGUID
  2
{E7AAF270-C8EB-9C4D-EDDD-5CC66DE6F811}
  9
$VERSIONGUID
  2
{FAEB1C32-E019-11D5-929B-00C0DF256EC4}
  9
$EXTNAMES
290
     1
  9
$PSVPSCALE
 40
0.0
  9
$OLESTARTUP
290
     0
  9
$SORTENTS
280
   127
  9
$INDEXCTL
280
     0
  9
$HIDETEXT
280
     1
  9
$XCLIPFRAME
280
     2
  9
$HALOGAP
280
     0
  9
$OBSCOLOR
 70
   257
  9
$OBSLTYPE
280
     0
  9
$INTERSECTIONDISPLAY
280
     0
  9
$INTERSECTIONCOLOR
 70
   257
  9
$DIMASSOC
280
     2
  9
$PROJECTNAME
  1

  9
$CAMERADISPLAY
290
     0
  9
$LENSLENGTH
 40
50.0
  9
$CAMERAHEIGHT
 40
0.0
  9
$STEPSPERSEC
 40
2.0
  9
$STEPSIZE
 40
6.0
  9
$3DDWFPREC
 40
2.0
  9
$PSOLWIDTH
 40
0.25
  9
$PSOLHEIGHT
 40
4.0
  9
$LOFTANG1
 40
1.570796326794897
  9
$LOFTANG2
 40
1.570796326794897
  9
$LOFTMAG1
 40
0.0
  9
$LOFTMAG2
 40
0.0
  9
$LOFTPARAM
 70
     7
  9
$LOFTNORMALS
280
     1
  9
$LATITUDE
 40
37.795
  9
$LONGITUDE
 40
-122.394
  9
$NORTHDIRECTION
 40
0.0
  9
$TIMEZONE
 70
 -8000
  9
$LIGHTGLYPHDISPLAY
280
     1
  9
$TILEMODELIGHTSYNCH
280
     1
  9
$CMATERIAL
347
3C
  9
$SOLIDHIST
280
     1
  9
$SHOWHIST
280
     1
  9
$DWFFRAME
280
     2
  9
$DGNFRAME
280
     2
  9
$REALWORLDSCALE
290
     1
  9
$INTERFERECOLOR
 62
   256
  9
$CSHADOW
280
     0
  9
$SHADOWPLANELOCATION
 40
0.0
  0
ENDSEC
  0
SECTION
  2
CLASSES
  0
CLASS
  1
ACDBDICTIONARYWDFLT
  2
AcDbDictionaryWithDefault
  3
ObjectDBX Classes
 90
        0
 91
        4
280
     0
281
     0
  0
CLASS
  1
VISUALSTYLE
  2
AcDbVisualStyle
  3
ObjectDBX Classes
 90
     4095
 91
        4
280
     0
281
     0
  0
CLASS
  1
MATERIAL
  2
AcDbMaterial
  3
ObjectDBX Classes
 90
     1153
 91
        4
280
     0
281
     0
  0
CLASS
  1
SUN
  2
AcDbSun
  3
SCENEOE
 90
     1024
 91
        4
280
     0
281
     0
  0
ENDSEC
  0
SECTION
  2
TABLES
  0
TABLE
  2
VPORT
  5
8
330
0
100
AcDbSymbolTable
 70
     1
  0
VPORT
  5
29
330
8
100
AcDbSymbolTableRecord
100
AcDbViewportTableRecord
  2
*Active
 70
     0
 10
0.0
 20
0.0
 11
1.0
 21
1.0
 12
0.0
 22
0.0
 13
0.0
 23
0.0
 14
0.5
 24
0.5
 15
0.5
 25
0.5
 16
0.0
 26
0.0
 36
1.0
 17
91.00082462281999
 27
-128.4993055234307
 37
0.0
 40
256.9986110468615
 41
0.7081814508812795
 42
50.0
 43
0.0
 44
0.0
 50
0.0
 51
0.0
 71
     0
 72
   100
 73
     1
 74
     3
 75
     0
 76
     0
 77
     0
 78
     0
281
     0
 65
     1
110
0.0
120
0.0
130
0.0
111
1.0
121
0.0
131
0.0
112
0.0
122
1.0
132
0.0
 79
     0
146
0.0
 60
     3
 61
     5
292
     1
282
     1
141
0.0
142
0.0
 63
   250
361
3F
  0
ENDTAB
  0
TABLE
  2
LTYPE
  5
5
330
0
100
AcDbSymbolTable
 70
     1
  0
LTYPE
  5
14
330
5
100
AcDbSymbolTableRecord
100
AcDbLinetypeTableRecord
  2
ByBlock
 70
     0
  3

 72
    65
 73
     0
 40
0.0
  0
LTYPE
  5
15
330
5
100
AcDbSymbolTableRecord
100
AcDbLinetypeTableRecord
  2
ByLayer
 70
     0
  3

 72
    65
 73
     0
 40
0.0
  0
LTYPE
  5
16
330
5
100
AcDbSymbolTableRecord
100
AcDbLinetypeTableRecord
  2
Continuous
 70
     0
  3
Solid line
 72
    65
 73
     0
 40
0.0
  0
ENDTAB
  0
TABLE
  2
LAYER
  5
2
330
0
100
AcDbSymbolTable
 70
     2
  0
LAYER
  5
10
330
2
100
AcDbSymbolTableRecord
100
AcDbLayerTableRecord
  2
0
 70
     0
 62
     7
  6
Continuous
370
    -3
390
F
347
3E
  0
LAYER
  5
40
330
2
100
AcDbSymbolTableRecord
100
AcDbLayerTableRecord
  2
_U+30EC_U+30A4_U+30E4_U+30FC 1
 70
     0
 62
     7
  6
Continuous
370
    -3
390
F
347
3E
  0
ENDTAB
  0
TABLE
  2
STYLE
  5
3
330
0
100
AcDbSymbolTable
 70
     1
  0
STYLE
  5
11
330
3
100
AcDbSymbolTableRecord
100
AcDbTextStyleTableRecord
  2
Standard
 70
     0
 40
0.0
 41
1.0
 50
0.0
 71
     0
 42
0.2
  3
txt
  4

  0
ENDTAB
  0
TABLE
  2
VIEW
  5
6
330
0
100
AcDbSymbolTable
 70
     0
  0
ENDTAB
  0
TABLE
  2
UCS
  5
7
330
0
100
AcDbSymbolTable
 70
     0
  0
ENDTAB
  0
TABLE
  2
APPID
  5
9
330
0
100
AcDbSymbolTable
 70
     1
  0
APPID
  5
12
330
9
100
AcDbSymbolTableRecord
100
AcDbRegAppTableRecord
  2
ACAD
 70
     0
  0
ENDTAB
  0
TABLE
  2
DIMSTYLE
  5
A
330
0
100
AcDbSymbolTable
 70
     1
100
AcDbDimStyleTable
  0
DIMSTYLE
105
27
330
A
100
AcDbSymbolTableRecord
100
AcDbDimStyleTableRecord
  2
Standard
 70
     0
178
     0
340
11
  0
ENDTAB
  0
TABLE
  2
BLOCK_RECORD
  5
1
330
0
100
AcDbSymbolTable
 70
     7
  0
BLOCK_RECORD
  5
1F
330
1
100
AcDbSymbolTableRecord
100
AcDbBlockTableRecord
  2
*Model_Space
340
22
 70
     0
280
     1
281
     0
  0
BLOCK_RECORD
  5
1B
330
1
100
AcDbSymbolTableRecord
100
AcDbBlockTableRecord
  2
*Paper_Space
340
1E
 70
     0
280
     1
281
     0
  0
BLOCK_RECORD
  5
23
330
1
100
AcDbSymbolTableRecord
100
AcDbBlockTableRecord
  2
*Paper_Space0
340
26
 70
     0
280
     1
281
     0
  0
BLOCK_RECORD
  5
67
330
1
100
AcDbSymbolTableRecord
100
AcDbBlockTableRecord
  2
block 2
340
0
102
{BLKREFS
331
68
102
}
 70
     0
280
     1
281
     0
  0
BLOCK_RECORD
  5
76
330
1
100
AcDbSymbolTableRecord
100
AcDbBlockTableRecord
  2
block 3
340
0
102
{BLKREFS
331
77
102
}
 70
     0
280
     1
281
     0
  0
BLOCK_RECORD
  5
96
330
1
100
AcDbSymbolTableRecord
100
AcDbBlockTableRecord
  2
block 4
340
0
102
{BLKREFS
331
97
102
}
 70
     0
280
     1
281
     0
  0
BLOCK_RECORD
  5
9C
330
1
100
AcDbSymbolTableRecord
100
AcDbBlockTableRecord
  2
block 5
340
0
102
{BLKREFS
331
9D
102
}
 70
     0
280
     1
281
     0
  0
BLOCK_RECORD
  5
BB
330
1
100
AcDbSymbolTableRecord
100
AcDbBlockTableRecord
  2
block 6
340
0
102
{BLKREFS
331
BC
102
}
 70
     0
280
     1
281
     0
  0
BLOCK_RECORD
  5
CF
330
1
100
AcDbSymbolTableRecord
100
AcDbBlockTableRecord
  2
block 7
340
0
102
{BLKREFS
331
D0
102
}
 70
     0
280
     1
281
     0
  0
ENDTAB
  0
ENDSEC
  0
SECTION
  2
BLOCKS
  0
BLOCK
  5
20
330
1F
100
AcDbEntity
  8
0
100
AcDbBlockBegin
  2
*Model_Space
 70
     0
 10
0.0
 20
0.0
 30
0.0
  3
*Model_Space
  1

  0
ENDBLK
  5
21
330
1F
100
AcDbEntity
  8
0
100
AcDbBlockEnd
  0
BLOCK
  5
1C
330
1B
100
AcDbEntity
 67
     1
  8
0
100
AcDbBlockBegin
  2
*Paper_Space
 70
     0
 10
0.0
 20
0.0
 30
0.0
  3
*Paper_Space
  1

  0
ENDBLK
  5
1D
330
1B
100
AcDbEntity
 67
     1
  8
0
100
AcDbBlockEnd
  0
BLOCK
  5
24
330
23
100
AcDbEntity
  8
0
100
AcDbBlockBegin
  2
*Paper_Space0
 70
     0
 10
0.0
 20
0.0
 30
0.0
  3
*Paper_Space0
  1

  0
ENDBLK
  5
25
330
23
100
AcDbEntity
  8
0
100
AcDbBlockEnd
  0
BLOCK
  5
69
330
67
100
AcDbEntity
  8
0
100
AcDbBlockBegin
  2
block 2
 70
     0
 10
0.0
 20
0.0
 30
0.0
  3
block 2
  1

  0
SPLINE
  5
6B
330
67
100
AcDbEntity
  8
_U+30EC_U+30A4_U+30E4_U+30FC 1
370
     0
100
AcDbSpline
210
0.0
220
0.0
230
1.0
 70
    11
 71
     3
 72
    62
 73
    58
 74
     0
 42
0.0000000001
 43
0.0000000001
 12
1.0
 22
0.0
 32
0.0
 13
1.0
 23
0.0
 33
0.0
 40
0.0
 40
0.0
 40
0.0
 40
0.0
 40
1.0
 40
1.0
 40
1.0
 40
2.0
 40
2.0
 40
2.0
 40
3.0
 40
3.0
 40
3.0
 40
4.0
 40
4.0
 40
4.0
 40
5.0
 40
5.0
 40
5.0
 40
6.0
 40
6.0
 40
6.0
 40
7.0
 40
7.0
 40
7.0
 40
8.0
 40
8.0
 40
8.0
 40
9.0
 40
9.0
 40
9.0
 40
10.0
 40
10.0
 40
10.0
 40
11.0
 40
11.0
 40
11.0
 40
12.0
 40
12.0
 40
12.0
 40
13.0
 40
13.0
 40
13.0
 40
14.0
 40
14.0
 40
14.0
 40
15.0
 40
15.0
 40
15.0
 40
16.0
 40
16.0
 40
16.0
 40
17.0
 40
17.0
 40
17.0
 40
18.0
 40
18.0
 40
18.0
 40
19.0
 40
19.0
 40
19.0
 40
19.0
 10
100.8131401657689
 20
-124.6576795478286
 30
0.0
 10
100.8131401657689
 20
-124.7593098646435
 30
0.0
 10
100.7921250833089
 20
-124.9921983194464
 30
0.0
 10
100.6060899271054
 20
-125.1255235147256
 30
0.0
 10
100.4937798142863
 20
-125.2047607108863
 30
0.0
 10
100.3945610643111
 20
-125.2092393350171
 30
0.0
 10
100.3098117153739
 20
-125.213717959148
 30
0.0
 10
100.3098117153739
 20
-125.213717959148
 30
0.0
 10
100.3098117153739
 20
-124.9787624470539
 30
0.0
 10
100.3098117153739
 20
-124.9787624470539
 30
0.0
 10
100.3838812683068
 20
-124.9763508802143
 30
0.0
 10
100.6184922708523
 20
-124.9649820651129
 30
0.0
 10
100.6184922708523
 20
-124.6621581719595
 30
0.0
 10
100.6184922708523
 20
-124.5150525947393
 30
0.0
 10
100.5489013420503
 20
-124.3524440878355
 30
0.0
 10
100.3204915113782
 20
-124.3524440878355
 30
0.0
 10
100.2040472839768
 20
-124.3524440878355
 30
0.0
 10
100.1554714376347
 20
-124.3930962145615
 30
0.0
 10
100.1237765591705
 20
-124.4268581503169
 30
0.0
 10
100.0497070062376
 20
-124.5060953464777
 30
0.0
 10
100.0369601529422
 20
-124.6304632934952
 30
0.0
 10
100.0369601529422
 20
-124.6893744262929
 30
0.0
 10
100.0369601529422
 20
-124.7097004896559
 30
0.0
 10
100.0390272102333
 20
-124.7479410495422
 30
0.0
 10
100.0431613248156
 20
-124.7775688707153
 30
0.0
 10
100.0431613248156
 20
-124.7775688707153
 30
0.0
 10
99.84851342989899
 20
-124.7775688707153
 30
0.0
 10
99.84851342989899
 20
-124.7775688707153
 30
0.0
 10
99.85505911132095
 20
-124.7369167439894
 30
0.0
 10
99.85712616861211
 20
-124.6914414835841
 30
0.0
 10
99.85712616861211
 20
-124.6848958021621
 30
0.0
 10
99.85712616861211
 20
-124.614615854263
 30
0.0
 10
99.83576657660356
 20
-124.4020534628231
 30
0.0
 10
99.5990885167669
 20
-124.4020534628231
 30
0.0
 10
99.42132158972801
 20
-124.4020534628231
 30
0.0
 10
99.36620006196401
 20
-124.5422688490728
 30
0.0
 10
99.36620006196401
 20
-124.6597466051198
 30
0.0
 10
99.36620006196401
 20
-124.9425889444588
 30
0.0
 10
99.5990885167669
 20
-124.9515461927205
 30
0.0
 10
99.6707465028601
 20
-124.9560248168513
 30
0.0
 10
99.6707465028601
 20
-124.9560248168513
 30
0.0
 10
99.6707465028601
 20
-125.173065832422
 30
0.0
 10
99.6707465028601
 20
-125.173065832422
 30
0.0
 10
99.54603404629405
 20
-125.1641085841604
 30
0.0
 10
99.16948510975624
 20
-125.1348252725357
 30
0.0
 10
99.16948510975624
 20
-124.6463107327273
 30
0.0
 10
99.16948510975624
 20
-124.4065320869539
 30
0.0
 10
99.29660913316197
 20
-124.1488389446572
 30
0.0
 10
99.59254283534493
 20
-124.1488389446572
 30
0.0
 10
99.77892250109694
 20
-124.1488389446572
 30
0.0
 10
99.86126028319441
 20
-124.2508137710206
 30
0.0
 10
99.92258298283186
 20
-124.3569227119663
 30
0.0
 10
99.95014374671386
 20
-124.2914658977466
 30
0.0
 10
100.0304144715202
 20
-124.09681800283
 30
0.0
 10
100.3077446580828
 20
-124.09681800283
 30
0.0
 10
100.6460530347343
 20
-124.09681800283
 30
0.0
 10
100.8131401657689
 20
-124.3614013360972
 30
0.0
 10
100.8131401657689
 20
-124.6576795478286
 30
0.0
  0
HATCH
  5
6C
330
67
100
AcDbEntity
  8
_U+30EC_U+30A4_U+30E4_U+30FC 1
 62
     7
420
 16777215
100
AcDbHatch
 10
0.0
 20
0.0
 30
0.0
210
0.0
220
0.0
230
1.0
  2
SOLID
 70
     1
 71
     0
 91
        1
 92
        1
 93
        1
 72
     4
 94
        3
 73
     0
 74
     1
 95
       62
 96
       58
 40
0.0
 40
0.0
 40
0.0
 40
0.0
 40
1.0
 40
1.0
 40
1.0
 40
2.0
 40
2.0
 40
2.0
 40
3.0
 40
3.0
 40
3.0
 40
4.0
 40
4.0
 40
4.0
 40
5.0
 40
5.0
 40
5.0
 40
6.0
 40
6.0
 40
6.0
 40
7.0
 40
7.0
 40
7.0
 40
8.0
 40
8.0
 40
8.0
 40
9.0
 40
9.0
 40
9.0
 40
10.0
 40
10.0
 40
10.0
 40
11.0
 40
11.0
 40
11.0
 40
12.0
 40
12.0
 40
12.0
 40
13.0
 40
13.0
 40
13.0
 40
14.0
 40
14.0
 40
14.0
 40
15.0
 40
15.0
 40
15.0
 40
16.0
 40
16.0
 40
16.0
 40
17.0
 40
17.0
 40
17.0
 40
18.0
 40
18.0
 40
18.0
 40
19.0
 40
19.0
 40
19.0
 40
19.0
 10
100.8131401657689
 20
-124.6576795478286
 10
100.8131401657689
 20
-124.7593098646435
 10
100.7921250833089
 20
-124.9921983194464
 10
100.6060899271054
 20
-125.1255235147256
 10
100.4937798142863
 20
-125.2047607108863
 10
100.3945610643111
 20
-125.2092393350171
 10
100.3098117153739
 20
-125.213717959148
 10
100.3098117153739
 20
-125.213717959148
 10
100.3098117153739
 20
-124.9787624470539
 10
100.3098117153739
 20
-124.9787624470539
 10
100.3838812683068
 20
-124.9763508802143
 10
100.6184922708523
 20
-124.9649820651129
 10
100.6184922708523
 20
-124.6621581719595
 10
100.6184922708523
 20
-124.5150525947393
 10
100.5489013420503
 20
-124.3524440878355
 10
100.3204915113782
 20
-124.3524440878355
 10
100.2040472839768
 20
-124.3524440878355
 10
100.1554714376347
 20
-124.3930962145615
 10
100.1237765591705
 20
-124.4268581503169
 10
100.0497070062376
 20
-124.5060953464777
 10
100.0369601529422
 20
-124.6304632934952
 10
100.0369601529422
 20
-124.6893744262929
 10
100.0369601529422
 20
-124.7097004896559
 10
100.0390272102333
 20
-124.7479410495422
 10
100.0431613248156
 20
-124.7775688707153
 10
100.0431613248156
 20
-124.7775688707153
 10
99.84851342989899
 20
-124.7775688707153
 10
99.84851342989899
 20
-124.7775688707153
 10
99.85505911132095
 20
-124.7369167439894
 10
99.85712616861211
 20
-124.6914414835841
 10
99.85712616861211
 20
-124.6848958021621
 10
99.85712616861211
 20
-124.614615854263
 10
99.83576657660356
 20
-124.4020534628231
 10
99.5990885167669
 20
-124.4020534628231
 10
99.42132158972801
 20
-124.4020534628231
 10
99.36620006196401
 20
-124.5422688490728
 10
99.36620006196401
 20
-124.6597466051198
 10
99.36620006196401
 20
-124.9425889444588
 10
99.5990885167669
 20
-124.9515461927205
 10
99.6707465028601
 20
-124.9560248168513
 10
99.6707465028601
 20
-124.9560248168513
 10
99.6707465028601
 20
-125.173065832422
 10
99.6707465028601
 20
-125.173065832422
 10
99.54603404629405
 20
-125.1641085841604
 10
99.16948510975624
 20
-125.1348252725357
 10
99.16948510975624
 20
-124.6463107327273
 10
99.16948510975624
 20
-124.4065320869539
 10
99.29660913316197
 20
-124.1488389446572
 10
99.59254283534493
 20
-124.1488389446572
 10
99.77892250109694
 20
-124.1488389446572
 10
99.86126028319441
 20
-124.2508137710206
 10
99.92258298283186
 20
-124.3569227119663
 10
99.95014374671386
 20
-124.2914658977466
 10
100.0304144715202
 20
-124.09681800283
 10
100.3077446580828
 20
-124.09681800283
 10
100.6460530347343
 20
-124.09681800283
 10
100.8131401657689
 20
-124.3614013360972
 10
100.8131401657689
 20
-124.6576795478286
 97
        0
 97
        0
 75
     2
 76
     1
 98
        0
  0
ENDBLK
  5
6A
330
67
100
AcDbEntity
  8
0
100
AcDbBlockEnd
  0
BLOCK
  5
78
330
76
100
AcDbEntity
  8
0
100
AcDbBlockBegin
  2
block 3
 70
     0
 10
0.0
 20
0.0
 30
0.0
  3
block 3
  1

  0
SPLINE
  5
7A
330
76
100
AcDbEntity
  8
_U+30EC_U+30A4_U+30E4_U+30FC 1
370
     0
100
AcDbSpline
210
0.0
220
0.0
230
1.0
 70
    11
 71
     3
 72
    32
 73
    28
 74
     0
 42
0.0000000001
 43
0.0000000001
 12
1.0
 22
0.0
 32
0.0
 13
1.0
 23
0.0
 33
0.0
 40
0.0
 40
0.0
 40
0.0
 40
0.0
 40
1.0
 40
1.0
 40
1.0
 40
2.0
 40
2.0
 40
2.0
 40
3.0
 40
3.0
 40
3.0
 40
4.0
 40
4.0
 40
4.0
 40
5.0
 40
5.0
 40
5.0
 40
6.0
 40
6.0
 40
6.0
 40
7.0
 40
7.0
 40
7.0
 40
8.0
 40
8.0
 40
8.0
 40
9.0
 40
9.0
 40
9.0
 40
9.0
 10
100.8131401657689
 20
-130.4506076062762
 30
0.0
 10
100.8131401657689
 20
-131.0025119030133
 30
0.0
 10
100.2591688117408
 20
-131.0114691512749
 30
0.0
 10
100.0452283821068
 20
-131.0114691512749
 30
0.0
 10
99.81475149414354
 20
-131.0114691512749
 30
0.0
 10
99.1674180524651
 20
-130.991143087912
 30
0.0
 10
99.1674180524651
 20
-130.4099554795503
 30
0.0
 10
99.1674180524651
 20
-130.2246093424438
 30
0.0
 10
99.23735349081566
 20
-129.9624375760163
 30
0.0
 10
99.56946069559375
 20
-129.9217854492904
 30
0.0
 10
99.56946069559375
 20
-129.9217854492904
 30
0.0
 10
99.56946069559375
 20
-130.1501952799624
 30
0.0
 10
99.56946069559375
 20
-130.1501952799624
 30
0.0
 10
99.5122721105386
 20
-130.1612195855153
 30
0.0
 10
99.36413300467287
 20
-130.1953260308192
 30
0.0
 10
99.36413300467287
 20
-130.41236704639
 30
0.0
 10
99.36413300467287
 20
-130.7244926973536
 30
0.0
 10
99.69210609486865
 20
-130.7672118813707
 30
0.0
 10
99.897089276241
 20
-130.7809922633117
 30
0.0
 10
99.81888560872584
 20
-130.681429003788
 30
0.0
 10
99.75962996637953
 20
-130.6090819985977
 30
0.0
 10
99.75962996637953
 20
-130.4147786132297
 30
0.0
 10
99.75962996637953
 20
-130.2225422851527
 30
0.0
 10
99.86780596461638
 20
-129.8990478190877
 30
0.0
 10
100.2739827223273
 20
-129.8990478190877
 30
0.0
 10
100.59334307381
 20
-129.8990478190877
 30
0.0
 10
100.8131401657689
 20
-130.1116102105277
 30
0.0
 10
100.8131401657689
 20
-130.4506076062762
 30
0.0
  0
SPLINE
  5
7B
330
76
100
AcDbEntity
  8
_U+30EC_U+30A4_U+30E4_U+30FC 1
370
     0
100
AcDbSpline
210
0.0
220
0.0
230
1.0
 70
    11
 71
     3
 72
    17
 73
    13
 74
     0
 42
0.0000000001
 43
0.0000000001
 12
1.0
 22
0.0
 32
0.0
 13
1.0
 23
0.0
 33
0.0
 40
0.0
 40
0.0
 40
0.0
 40
0.0
 40
1.0
 40
1.0
 40
1.0
 40
2.0
 40
2.0
 40
2.0
 40
3.0
 40
3.0
 40
3.0
 40
4.0
 40
4.0
 40
4.0
 40
4.0
 10
99.95427786129616
 20
-130.4326931097529
 30
0.0
 10
99.95427786129616
 20
-130.7131238822523
 30
0.0
 10
100.1658067240905
 20
-130.7537760089782
 30
0.0
 10
100.2822509514919
 20
-130.7537760089782
 30
0.0
 10
100.4579508212397
 20
-130.7537760089782
 30
0.0
 10
100.620903837692
 20
-130.6521456921633
 30
0.0
 10
100.620903837692
 20
-130.4554307399556
 30
0.0
 10
100.620903837692
 20
-130.3265841688072
 30
0.0
 10
100.5616481953457
 20
-130.1388264648611
 30
0.0
 10
100.2760497796185
 20
-130.1388264648611
 30
0.0
 10
100.0517740635287
 20
-130.1388264648611
 30
0.0
 10
99.95427786129616
 20
-130.2879990993725
 30
0.0
 10
99.95427786129616
 20
-130.4326931097529
 30
0.0
  0
HATCH
  5
7C
330
76
100
AcDbEntity
  8
_U+30EC_U+30A4_U+30E4_U+30FC 1
 62
     7
420
 16777215
100
AcDbHatch
 10
0.0
 20
0.0
 30
0.0
210
0.0
220
0.0
230
1.0
  2
SOLID
 70
     1
 71
     0
 91
        2
 92
        1
 93
        1
 72
     4
 94
        3
 73
     0
 74
     1
 95
       32
 96
       28
 40
0.0
 40
0.0
 40
0.0
 40
0.0
 40
1.0
 40
1.0
 40
1.0
 40
2.0
 40
2.0
 40
2.0
 40
3.0
 40
3.0
 40
3.0
 40
4.0
 40
4.0
 40
4.0
 40
5.0
 40
5.0
 40
5.0
 40
6.0
 40
6.0
 40
6.0
 40
7.0
 40
7.0
 40
7.0
 40
8.0
 40
8.0
 40
8.0
 40
9.0
 40
9.0
 40
9.0
 40
9.0
 10
100.8131401657689
 20
-130.4506076062762
 10
100.8131401657689
 20
-131.0025119030133
 10
100.2591688117408
 20
-131.0114691512749
 10
100.0452283821068
 20
-131.0114691512749
 10
99.81475149414354
 20
-131.0114691512749
 10
99.1674180524651
 20
-130.991143087912
 10
99.1674180524651
 20
-130.4099554795503
 10
99.1674180524651
 20
-130.2246093424438
 10
99.23735349081566
 20
-129.9624375760163
 10
99.56946069559375
 20
-129.9217854492904
 10
99.56946069559375
 20
-129.9217854492904
 10
99.56946069559375
 20
-130.1501952799624
 10
99.56946069559375
 20
-130.1501952799624
 10
99.5122721105386
 20
-130.1612195855153
 10
99.36413300467287
 20
-130.1953260308192
 10
99.36413300467287
 20
-130.41236704639
 10
99.36413300467287
 20
-130.7244926973536
 10
99.69210609486865
 20
-130.7672118813707
 10
99.897089276241
 20
-130.7809922633117
 10
99.81888560872584
 20
-130.681429003788
 10
99.75962996637953
 20
-130.6090819985977
 10
99.75962996637953
 20
-130.4147786132297
 10
99.75962996637953
 20
-130.2225422851527
 10
99.86780596461638
 20
-129.8990478190877
 10
100.2739827223273
 20
-129.8990478190877
 10
100.59334307381
 20
-129.8990478190877
 10
100.8131401657689
 20
-130.1116102105277
 10
100.8131401657689
 20
-130.4506076062762
 97
        0
 97
        0
 92
        1
 93
        1
 72
     4
 94
        3
 73
     0
 74
     1
 95
       17
 96
       13
 40
0.0
 40
0.0
 40
0.0
 40
0.0
 40
1.0
 40
1.0
 40
1.0
 40
2.0
 40
2.0
 40
2.0
 40
3.0
 40
3.0
 40
3.0
 40
4.0
 40
4.0
 40
4.0
 40
4.0
 10
99.95427786129616
 20
-130.4326931097529
 10
99.95427786129616
 20
-130.7131238822523
 10
100.1658067240905
 20
-130.7537760089782
 10
100.2822509514919
 20
-130.7537760089782
 10
100.4579508212397
 20
-130.7537760089782
 10
100.620903837692
 20
-130.6521456921633
 10
100.620903837692
 20
-130.4554307399556
 10
100.620903837692
 20
-130.3265841688072
 10
100.5616481953457
 20
-130.1388264648611
 10
100.2760497796185
 20
-130.1388264648611
 10
100.0517740635287
 20
-130.1388264648611
 10
99.95427786129616
 20
-130.2879990993725
 10
99.95427786129616
 20
-130.4326931097529
 97
        0
 97
        0
 75
     2
 76
     1
 98
        0
  0
POLYLINE
  5
7D
330
76
100
AcDbEntity
  8
_U+30EC_U+30A4_U+30E4_U+30FC 1
370
     0
100
AcDb2dPolyline
 66
     1
 10
0.0
 20
0.0
 30
0.0
  0
VERTEX
  5
7E
330
7D
100
AcDbEntity
  8
_U+30EC_U+30A4_U+30E4_U+30FC 1
370
     0
100
AcDbVertex
100
AcDb2dVertex
 10
100.7624972621358
 20
-129.6678819120275
 30
0.0
  0
VERTEX
  5
7F
330
7D
100
AcDbEntity
  8
_U+30EC_U+30A4_U+30E4_U+30FC 1
370
     0
100
AcDbVertex
100
AcDb2dVertex
 10
100.510660782164
 20
-129.6678819120275
 30
0.0
  0
VERTEX
  5
80
330
7D
100
AcDbEntity
  8
_U+30EC_U+30A4_U+30E4_U+30FC 1
370
     0
100
AcDbVertex
100
AcDb2dVertex
 10
100.510660782164
 20
-129.3988199546295
 30
0.0
  0
VERTEX
  5
81
330
7D
100
AcDbEntity
  8
_U+30EC_U+30A4_U+30E4_U+30FC 1
370
     0
100
AcDbVertex
100
AcDb2dVertex
 10
100.7624972621358
 20
-129.3988199546295
 30
0.0
  0
VERTEX
  5
82
330
7D
100
AcDbEntity
  8
_U+30EC_U+30A4_U+30E4_U+30FC 1
370
     0
100
AcDbVertex
100
AcDb2dVertex
 10
100.7624972621358
 20
-129.6678819120275
 30
0.0
  0
SEQEND
  5
83
330
7D
100
AcDbEntity
  8
_U+30EC_U+30A4_U+30E4_U+30FC 1
370
     0
  0
HATCH
  5
84
330
76
100
AcDbEntity
  8
_U+30EC_U+30A4_U+30E4_U+30FC 1
 62
     7
420
 16777215
100
AcDbHatch
 10
0.0
 20
0.0
 30
0.0
210
0.0
220
0.0
230
1.0
  2
SOLID
 70
     1
 71
     0
 91
        1
 92
        1
 93
        4
 72
     1
 10
100.7624972621358
 20
-129.6678819120275
 11
100.510660782164
 21
-129.6678819120275
 72
     1
 10
100.510660782164
 20
-129.6678819120275
 11
100.510660782164
 21
-129.3988199546295
 72
     1
 10
100.510660782164
 20
-129.3988199546295
 11
100.7624972621358
 21
-129.3988199546295
 72
     1
 10
100.7624972621358
 20
-129.3988199546295
 11
100.7624972621358
 21
-129.6678819120275
 97
        0
 75
     2
 76
     1
 98
        0
  0
SPLINE
  5
85
330
76
100
AcDbEntity
  8
_U+30EC_U+30A4_U+30E4_U+30FC 1
370
     0
100
AcDbSpline
210
0.0
220
0.0
230
1.0
 70
    11
 71
     3
 72
    53
 73
    49
 74
     0
 42
0.0000000001
 43
0.0000000001
 12
1.0
 22
0.0
 32
0.0
 13
1.0
 23
0.0
 33
0.0
 40
0.0
 40
0.0
 40
0.0
 40
0.0
 40
1.0
 40
1.0
 40
1.0
 40
2.0
 40
2.0
 40
2.0
 40
3.0
 40
3.0
 40
3.0
 40
4.0
 40
4.0
 40
4.0
 40
5.0
 40
5.0
 40
5.0
 40
6.0
 40
6.0
 40
6.0
 40
7.0
 40
7.0
 40
7.0
 40
8.0
 40
8.0
 40
8.0
 40
9.0
 40
9.0
 40
9.0
 40
10.0
 40
10.0
 40
10.0
 40
11.0
 40
11.0
 40
11.0
 40
12.0
 40
12.0
 40
12.0
 40
13.0
 40
13.0
 40
13.0
 40
14.0
 40
14.0
 40
14.0
 40
15.0
 40
15.0
 40
15.0
 40
16.0
 40
16.0
 40
16.0
 40
16.0
 10
100.8131401657689
 20
-128.6319416996129
 30
0.0
 10
100.8131401657689
 20
-128.7156575199044
 30
0.0
 10
100.7962591978912
 20
-128.8238335181413
 30
0.0
 10
100.7328694409626
 20
-128.9326985354752
 30
0.0
 10
100.6229708949832
 20
-129.1180446725816
 30
0.0
 10
100.4917127569951
 20
-129.1404377932357
 30
0.0
 10
100.3838812683068
 20
-129.1607638565987
 30
0.0
 10
100.3838812683068
 20
-129.1607638565987
 30
0.0
 10
100.3838812683068
 20
-128.923396777665
 30
0.0
 10
100.3838812683068
 20
-128.923396777665
 30
0.0
 10
100.5826632778057
 20
-128.8648301544158
 30
0.0
 10
100.6122910989789
 20
-128.7290933922969
 30
0.0
 10
100.6122910989789
 20
-128.6295301327732
 30
0.0
 10
100.6122910989789
 20
-128.4803574982619
 30
0.0
 10
100.5127278394552
 20
-128.3174044818095
 30
0.0
 10
100.2801838942008
 20
-128.3174044818095
 30
0.0
 10
100.0242132996467
 20
-128.3174044818095
 30
0.0
 10
99.95427786129616
 20
-128.5096408098865
 30
0.0
 10
99.95427786129616
 20
-128.6384873810348
 30
0.0
 10
99.95427786129616
 20
-128.6725938263388
 30
0.0
 10
99.95427786129616
 20
-128.8238335181413
 30
0.0
 10
100.083468941993
 20
-128.9189181535342
 30
0.0
 10
100.083468941993
 20
-128.9189181535342
 30
0.0
 10
100.0645209168242
 20
-129.1066758574803
 30
0.0
 10
100.0645209168242
 20
-129.1066758574803
 30
0.0
 10
100.0645209168242
 20
-129.1066758574803
 30
0.0
 10
99.21806095609827
 20
-128.9778292863319
 30
0.0
 10
99.21806095609827
 20
-128.9778292863319
 30
0.0
 10
99.21806095609827
 20
-128.9778292863319
 30
0.0
 10
99.21806095609827
 20
-128.1458387266441
 30
0.0
 10
99.21806095609827
 20
-128.1458387266441
 30
0.0
 10
99.21806095609827
 20
-128.1458387266441
 30
0.0
 10
99.41270885101488
 20
-128.1458387266441
 30
0.0
 10
99.41270885101488
 20
-128.1458387266441
 30
0.0
 10
99.41270885101488
 20
-128.1458387266441
 30
0.0
 10
99.41270885101488
 20
-128.8035074547783
 30
0.0
 10
99.41270885101488
 20
-128.8035074547783
 30
0.0
 10
99.41270885101488
 20
-128.8035074547783
 30
0.0
 10
99.83576657660356
 20
-128.8737874026774
 30
0.0
 10
99.83576657660356
 20
-128.8737874026774
 30
0.0
 10
99.80200464084811
 20
-128.8083305884576
 30
0.0
 10
99.76169702367069
 20
-128.7201361440353
 30
0.0
 10
99.76169702367069
 20
-128.5933566301781
 30
0.0
 10
99.76169702367069
 20
-128.3222276154889
 30
0.0
 10
99.9480766894227
 20
-128.069013097323
 30
0.0
 10
100.2612358690319
 20
-128.069013097323
 30
0.0
 10
100.5785291632234
 20
-128.069013097323
 30
0.0
 10
100.8131401657689
 20
-128.3084472335479
 30
0.0
 10
100.8131401657689
 20
-128.6319416996129
 30
0.0
  0
HATCH
  5
86
330
76
100
AcDbEntity
  8
_U+30EC_U+30A4_U+30E4_U+30FC 1
 62
     7
420
 16777215
100
AcDbHatch
 10
0.0
 20
0.0
 30
0.0
210
0.0
220
0.0
230
1.0
  2
SOLID
 70
     1
 71
     0
 91
        1
 92
        1
 93
        1
 72
     4
 94
        3
 73
     0
 74
     1
 95
       53
 96
       49
 40
0.0
 40
0.0
 40
0.0
 40
0.0
 40
1.0
 40
1.0
 40
1.0
 40
2.0
 40
2.0
 40
2.0
 40
3.0
 40
3.0
 40
3.0
 40
4.0
 40
4.0
 40
4.0
 40
5.0
 40
5.0
 40
5.0
 40
6.0
 40
6.0
 40
6.0
 40
7.0
 40
7.0
 40
7.0
 40
8.0
 40
8.0
 40
8.0
 40
9.0
 40
9.0
 40
9.0
 40
10.0
 40
10.0
 40
10.0
 40
11.0
 40
11.0
 40
11.0
 40
12.0
 40
12.0
 40
12.0
 40
13.0
 40
13.0
 40
13.0
 40
14.0
 40
14.0
 40
14.0
 40
15.0
 40
15.0
 40
15.0
 40
16.0
 40
16.0
 40
16.0
 40
16.0
 10
100.8131401657689
 20
-128.6319416996129
 10
100.8131401657689
 20
-128.7156575199044
 10
100.7962591978912
 20
-128.8238335181413
 10
100.7328694409626
 20
-128.9326985354752
 10
100.6229708949832
 20
-129.1180446725816
 10
100.4917127569951
 20
-129.1404377932357
 10
100.3838812683068
 20
-129.1607638565987
 10
100.3838812683068
 20
-129.1607638565987
 10
100.3838812683068
 20
-128.923396777665
 10
100.3838812683068
 20
-128.923396777665
 10
100.5826632778057
 20
-128.8648301544158
 10
100.6122910989789
 20
-128.7290933922969
 10
100.6122910989789
 20
-128.6295301327732
 10
100.6122910989789
 20
-128.4803574982619
 10
100.5127278394552
 20
-128.3174044818095
 10
100.2801838942008
 20
-128.3174044818095
 10
100.0242132996467
 20
-128.3174044818095
 10
99.95427786129616
 20
-128.5096408098865
 10
99.95427786129616
 20
-128.6384873810348
 10
99.95427786129616
 20
-128.6725938263388
 10
99.95427786129616
 20
-128.8238335181413
 10
100.083468941993
 20
-128.9189181535342
 10
100.083468941993
 20
-128.9189181535342
 10
100.0645209168242
 20
-129.1066758574803
 10
100.0645209168242
 20
-129.1066758574803
 10
100.0645209168242
 20
-129.1066758574803
 10
99.21806095609827
 20
-128.9778292863319
 10
99.21806095609827
 20
-128.9778292863319
 10
99.21806095609827
 20
-128.9778292863319
 10
99.21806095609827
 20
-128.1458387266441
 10
99.21806095609827
 20
-128.1458387266441
 10
99.21806095609827
 20
-128.1458387266441
 10
99.41270885101488
 20
-128.1458387266441
 10
99.41270885101488
 20
-128.1458387266441
 10
99.41270885101488
 20
-128.1458387266441
 10
99.41270885101488
 20
-128.8035074547783
 10
99.41270885101488
 20
-128.8035074547783
 10
99.41270885101488
 20
-128.8035074547783
 10
99.83576657660356
 20
-128.8737874026774
 10
99.83576657660356
 20
-128.8737874026774
 10
99.80200464084811
 20
-128.8083305884576
 10
99.76169702367069
 20
-128.7201361440353
 10
99.76169702367069
 20
-128.5933566301781
 10
99.76169702367069
 20
-128.3222276154889
 10
99.9480766894227
 20
-128.069013097323
 10
100.2612358690319
 20
-128.069013097323
 10
100.5785291632234
 20
-128.069013097323
 10
100.8131401657689
 20
-128.3084472335479
 10
100.8131401657689
 20
-128.6319416996129
 97
        0
 97
        0
 75
     2
 76
     1
 98
        0
  0
ENDBLK
  5
79
330
76
100
AcDbEntity
  8
0
100
AcDbBlockEnd
  0
BLOCK
  5
98
330
96
100
AcDbEntity
  8
0
100
AcDbBlockBegin
  2
block 4
 70
     0
 10
0.0
 20
0.0
 30
0.0
  3
block 4
  1

  0
SPLINE
  5
9A
330
96
100
AcDbEntity
  8
_U+30EC_U+30A4_U+30E4_U+30FC 1
370
     0
100
AcDbSpline
210
0.0
220
0.0
230
1.0
 70
    11
 71
     3
 72
    26
 73
    22
 74
     0
 42
0.0000000001
 43
0.0000000001
 12
1.0
 22
0.0
 32
0.0
 13
1.0
 23
0.0
 33
0.0
 40
0.0
 40
0.0
 40
0.0
 40
0.0
 40
1.0
 40
1.0
 40
1.0
 40
2.0
 40
2.0
 40
2.0
 40
3.0
 40
3.0
 40
3.0
 40
4.0
 40
4.0
 40
4.0
 40
5.0
 40
5.0
 40
5.0
 40
6.0
 40
6.0
 40
6.0
 40
7.0
 40
7.0
 40
7.0
 40
7.0
 10
104.1411024045203
 20
-133.5949462556638
 30
0.0
 10
104.1411024045203
 20
-133.5949462556638
 30
0.0
 10
103.0369493014977
 20
-133.5949462556638
 30
0.0
 10
103.0369493014977
 20
-133.5949462556638
 30
0.0
 10
103.0369493014977
 20
-133.5949462556638
 30
0.0
 10
103.0369493014977
 20
-133.9473795238048
 30
0.0
 10
103.0369493014977
 20
-133.9473795238048
 30
0.0
 10
103.0369493014977
 20
-133.9473795238048
 30
0.0
 10
102.888810195632
 20
-133.9473795238048
 30
0.0
 10
102.888810195632
 20
-133.9473795238048
 30
0.0
 10
102.8739962850454
 20
-133.5925346888241
 30
0.0
 10
102.7110432685931
 20
-133.5429253138365
 30
0.0
 10
102.5966660984828
 20
-133.5112304353722
 30
0.0
 10
102.5966660984828
 20
-133.5112304353722
 30
0.0
 10
102.5966660984828
 20
-133.3551676098904
 30
0.0
 10
102.5966660984828
 20
-133.3551676098904
 30
0.0
 10
102.5966660984828
 20
-133.3551676098904
 30
0.0
 10
104.1411024045203
 20
-133.3551676098904
 30
0.0
 10
104.1411024045203
 20
-133.3551676098904
 30
0.0
 10
104.1411024045203
 20
-133.3551676098904
 30
0.0
 10
104.1411024045203
 20
-133.5949462556638
 30
0.0
 10
104.1411024045203
 20
-133.5949462556638
 30
0.0
  0
HATCH
  5
9B
330
96
100
AcDbEntity
  8
_U+30EC_U+30A4_U+30E4_U+30FC 1
 62
     7
420
 16777215
100
AcDbHatch
 10
0.0
 20
0.0
 30
0.0
210
0.0
220
0.0
230
1.0
  2
SOLID
 70
     1
 71
     0
 91
        1
 92
        1
 93
        1
 72
     4
 94
        3
 73
     0
 74
     1
 95
       26
 96
       22
 40
0.0
 40
0.0
 40
0.0
 40
0.0
 40
1.0
 40
1.0
 40
1.0
 40
2.0
 40
2.0
 40
2.0
 40
3.0
 40
3.0
 40
3.0
 40
4.0
 40
4.0
 40
4.0
 40
5.0
 40
5.0
 40
5.0
 40
6.0
 40
6.0
 40
6.0
 40
7.0
 40
7.0
 40
7.0
 40
7.0
 10
104.1411024045203
 20
-133.5949462556638
 10
104.1411024045203
 20
-133.5949462556638
 10
103.0369493014977
 20
-133.5949462556638
 10
103.0369493014977
 20
-133.5949462556638
 10
103.0369493014977
 20
-133.5949462556638
 10
103.0369493014977
 20
-133.9473795238048
 10
103.0369493014977
 20
-133.9473795238048
 10
103.0369493014977
 20
-133.9473795238048
 10
102.888810195632
 20
-133.9473795238048
 10
102.888810195632
 20
-133.9473795238048
 10
102.8739962850454
 20
-133.5925346888241
 10
102.7110432685931
 20
-133.5429253138365
 10
102.5966660984828
 20
-133.5112304353722
 10
102.5966660984828
 20
-133.5112304353722
 10
102.5966660984828
 20
-133.3551676098904
 10
102.5966660984828
 20
-133.3551676098904
 10
102.5966660984828
 20
-133.3551676098904
 10
104.1411024045203
 20
-133.3551676098904
 10
104.1411024045203
 20
-133.3551676098904
 10
104.1411024045203
 20
-133.3551676098904
 10
104.1411024045203
 20
-133.5949462556638
 10
104.1411024045203
 20
-133.5949462556638
 97
        0
 97
        0
 75
     2
 76
     1
 98
        0
  0
ENDBLK
  5
99
330
96
100
AcDbEntity
  8
0
100
AcDbBlockEnd
  0
BLOCK
  5
9E
330
9C
100
AcDbEntity
  8
0
100
AcDbBlockBegin
  2
block 5
 70
     0
 10
0.0
 20
0.0
 30
0.0
  3
block 5
  1

  0
SPLINE
  5
A0
330
9C
100
AcDbEntity
  8
_U+30EC_U+30A4_U+30E4_U+30FC 1
370
     0
100
AcDbSpline
210
0.0
220
0.0
230
1.0
 70
    11
 71
     3
 72
    32
 73
    28
 74
     0
 42
0.0000000001
 43
0.0000000001
 12
1.0
 22
0.0
 32
0.0
 13
1.0
 23
0.0
 33
0.0
 40
0.0
 40
0.0
 40
0.0
 40
0.0
 40
1.0
 40
1.0
 40
1.0
 40
2.0
 40
2.0
 40
2.0
 40
3.0
 40
3.0
 40
3.0
 40
4.0
 40
4.0
 40
4.0
 40
5.0
 40
5.0
 40
5.0
 40
6.0
 40
6.0
 40
6.0
 40
7.0
 40
7.0
 40
7.0
 40
8.0
 40
8.0
 40
8.0
 40
9.0
 40
9.0
 40
9.0
 40
9.0
 10
104.1917453081535
 20
-129.1001301760583
 30
0.0
 10
104.1917453081535
 20
-129.2854763131647
 30
0.0
 10
104.1221543793514
 20
-129.5476480795922
 30
0.0
 10
103.7900471745733
 20
-129.5883002063182
 30
0.0
 10
103.7900471745733
 20
-129.5883002063182
 30
0.0
 10
103.7900471745733
 20
-129.3602348851947
 30
0.0
 10
103.7900471745733
 20
-129.3602348851947
 30
0.0
 10
103.8493028169196
 20
-129.3488660700934
 30
0.0
 10
103.9970974132368
 20
-129.3147596247894
 30
0.0
 10
103.9970974132368
 20
-129.0977186092186
 30
0.0
 10
103.9970974132368
 20
-128.7859374678035
 30
0.0
 10
103.6670572657499
 20
-128.7452853410776
 30
0.0
 10
103.4620740843775
 20
-128.7315049591366
 30
0.0
 10
103.5423448091839
 20
-128.8286566518206
 30
0.0
 10
103.599533394239
 20
-128.9010036570109
 30
0.0
 10
103.599533394239
 20
-129.0956515519275
 30
0.0
 10
103.599533394239
 20
-129.2878878800044
 30
0.0
 10
103.4937689628418
 20
-129.6110378365209
 30
0.0
 10
103.0875922051309
 20
-129.6110378365209
 30
0.0
 10
102.7682318536482
 20
-129.6110378365209
 30
0.0
 10
102.5480902521408
 20
-129.3984754450809
 30
0.0
 10
102.5480902521408
 20
-129.0594780493324
 30
0.0
 10
102.5480902521408
 20
-128.509985319435
 30
0.0
 10
103.1024061157175
 20
-128.4986165043337
 30
0.0
 10
103.316002035803
 20
-128.4986165043337
 30
0.0
 10
103.5464789237662
 20
-128.4986165043337
 30
0.0
 10
104.1917453081535
 20
-128.5189425676967
 30
0.0
 10
104.1917453081535
 20
-129.1001301760583
 30
0.0
  0
SPLINE
  5
A1
330
9C
100
AcDbEntity
  8
_U+30EC_U+30A4_U+30E4_U+30FC 1
370
     0
100
AcDbSpline
210
0.0
220
0.0
230
1.0
 70
    11
 71
     3
 72
    17
 73
    13
 74
     0
 42
0.0000000001
 43
0.0000000001
 12
1.0
 22
0.0
 32
0.0
 13
1.0
 23
0.0
 33
0.0
 40
0.0
 40
0.0
 40
0.0
 40
0.0
 40
1.0
 40
1.0
 40
1.0
 40
2.0
 40
2.0
 40
2.0
 40
3.0
 40
3.0
 40
3.0
 40
4.0
 40
4.0
 40
4.0
 40
4.0
 10
102.7406710897662
 20
-129.0570664824927
 30
0.0
 10
102.7406710897662
 20
-129.1838459963499
 30
0.0
 10
102.7978596748214
 20
-129.3712591907475
 30
0.0
 10
103.0834580905486
 20
-129.3712591907475
 30
0.0
 10
103.3098008639295
 20
-129.3712591907475
 30
0.0
 10
103.4048854993224
 20
-129.2220865562361
 30
0.0
 10
103.4048854993224
 20
-129.0773925458556
 30
0.0
 10
103.4048854993224
 20
-128.7973062829049
 30
0.0
 10
103.1954236938192
 20
-128.7563096466304
 30
0.0
 10
103.0789794664178
 20
-128.7563096466304
 30
0.0
 10
102.9036241062185
 20
-128.7563096466304
 30
0.0
 10
102.7406710897662
 20
-128.8582844729938
 30
0.0
 10
102.7406710897662
 20
-129.0570664824927
 30
0.0
  0
HATCH
  5
A2
330
9C
100
AcDbEntity
  8
_U+30EC_U+30A4_U+30E4_U+30FC 1
 62
     7
420
 16777215
100
AcDbHatch
 10
0.0
 20
0.0
 30
0.0
210
0.0
220
0.0
230
1.0
  2
SOLID
 70
     1
 71
     0
 91
        2
 92
        1
 93
        1
 72
     4
 94
        3
 73
     0
 74
     1
 95
       32
 96
       28
 40
0.0
 40
0.0
 40
0.0
 40
0.0
 40
1.0
 40
1.0
 40
1.0
 40
2.0
 40
2.0
 40
2.0
 40
3.0
 40
3.0
 40
3.0
 40
4.0
 40
4.0
 40
4.0
 40
5.0
 40
5.0
 40
5.0
 40
6.0
 40
6.0
 40
6.0
 40
7.0
 40
7.0
 40
7.0
 40
8.0
 40
8.0
 40
8.0
 40
9.0
 40
9.0
 40
9.0
 40
9.0
 10
104.1917453081535
 20
-129.1001301760583
 10
104.1917453081535
 20
-129.2854763131647
 10
104.1221543793514
 20
-129.5476480795922
 10
103.7900471745733
 20
-129.5883002063182
 10
103.7900471745733
 20
-129.5883002063182
 10
103.7900471745733
 20
-129.3602348851947
 10
103.7900471745733
 20
-129.3602348851947
 10
103.8493028169196
 20
-129.3488660700934
 10
103.9970974132368
 20
-129.3147596247894
 10
103.9970974132368
 20
-129.0977186092186
 10
103.9970974132368
 20
-128.7859374678035
 10
103.6670572657499
 20
-128.7452853410776
 10
103.4620740843775
 20
-128.7315049591366
 10
103.5423448091839
 20
-128.8286566518206
 10
103.599533394239
 20
-128.9010036570109
 10
103.599533394239
 20
-129.0956515519275
 10
103.599533394239
 20
-129.2878878800044
 10
103.4937689628418
 20
-129.6110378365209
 10
103.0875922051309
 20
-129.6110378365209
 10
102.7682318536482
 20
-129.6110378365209
 10
102.5480902521408
 20
-129.3984754450809
 10
102.5480902521408
 20
-129.0594780493324
 10
102.5480902521408
 20
-128.509985319435
 10
103.1024061157175
 20
-128.4986165043337
 10
103.316002035803
 20
-128.4986165043337
 10
103.5464789237662
 20
-128.4986165043337
 10
104.1917453081535
 20
-128.5189425676967
 10
104.1917453081535
 20
-129.1001301760583
 97
        0
 97
        0
 92
        1
 93
        1
 72
     4
 94
        3
 73
     0
 74
     1
 95
       17
 96
       13
 40
0.0
 40
0.0
 40
0.0
 40
0.0
 40
1.0
 40
1.0
 40
1.0
 40
2.0
 40
2.0
 40
2.0
 40
3.0
 40
3.0
 40
3.0
 40
4.0
 40
4.0
 40
4.0
 40
4.0
 10
102.7406710897662
 20
-129.0570664824927
 10
102.7406710897662
 20
-129.1838459963499
 10
102.7978596748214
 20
-129.3712591907475
 10
103.0834580905486
 20
-129.3712591907475
 10
103.3098008639295
 20
-129.3712591907475
 10
103.4048854993224
 20
-129.2220865562361
 10
103.4048854993224
 20
-129.0773925458556
 10
103.4048854993224
 20
-128.7973062829049
 10
103.1954236938192
 20
-128.7563096466304
 10
103.0789794664178
 20
-128.7563096466304
 10
102.9036241062185
 20
-128.7563096466304
 10
102.7406710897662
 20
-128.8582844729938
 10
102.7406710897662
 20
-129.0570664824927
 97
        0
 97
        0
 75
     2
 76
     1
 98
        0
  0
POLYLINE
  5
A3
330
9C
100
AcDbEntity
  8
_U+30EC_U+30A4_U+30E4_U+30FC 1
370
     0
100
AcDb2dPolyline
 66
     1
 10
0.0
 20
0.0
 30
0.0
  0
VERTEX
  5
A4
330
A3
100
AcDbEntity
  8
_U+30EC_U+30A4_U+30E4_U+30FC 1
370
     0
100
AcDbVertex
100
AcDb2dVertex
 10
104.1411024045203
 20
-128.2674505972734
 30
0.0
  0
VERTEX
  5
A5
330
A3
100
AcDbEntity
  8
_U+30EC_U+30A4_U+30E4_U+30FC 1
370
     0
100
AcDbVertex
100
AcDb2dVertex
 10
103.8892659245485
 20
-128.2674505972734
 30
0.0
  0
VERTEX
  5
A6
330
A3
100
AcDbEntity
  8
_U+30EC_U+30A4_U+30E4_U+30FC 1
370
     0
100
AcDbVertex
100
AcDb2dVertex
 10
103.8892659245485
 20
-127.9983886398754
 30
0.0
  0
VERTEX
  5
A7
330
A3
100
AcDbEntity
  8
_U+30EC_U+30A4_U+30E4_U+30FC 1
370
     0
100
AcDbVertex
100
AcDb2dVertex
 10
104.1411024045203
 20
-127.9983886398754
 30
0.0
  0
VERTEX
  5
A8
330
A3
100
AcDbEntity
  8
_U+30EC_U+30A4_U+30E4_U+30FC 1
370
     0
100
AcDbVertex
100
AcDb2dVertex
 10
104.1411024045203
 20
-128.2674505972734
 30
0.0
  0
SEQEND
  5
A9
330
A3
100
AcDbEntity
  8
_U+30EC_U+30A4_U+30E4_U+30FC 1
370
     0
  0
HATCH
  5
AA
330
9C
100
AcDbEntity
  8
_U+30EC_U+30A4_U+30E4_U+30FC 1
 62
     7
420
 16777215
100
AcDbHatch
 10
0.0
 20
0.0
 30
0.0
210
0.0
220
0.0
230
1.0
  2
SOLID
 70
     1
 71
     0
 91
        1
 92
        1
 93
        4
 72
     1
 10
104.1411024045203
 20
-128.2674505972734
 11
103.8892659245485
 21
-128.2674505972734
 72
     1
 10
103.8892659245485
 20
-128.2674505972734
 11
103.8892659245485
 21
-127.9983886398754
 72
     1
 10
103.8892659245485
 20
-127.9983886398754
 11
104.1411024045203
 21
-127.9983886398754
 72
     1
 10
104.1411024045203
 20
-127.9983886398754
 11
104.1411024045203
 21
-128.2674505972734
 97
        0
 75
     2
 76
     1
 98
        0
  0
SPLINE
  5
AB
330
9C
100
AcDbEntity
  8
_U+30EC_U+30A4_U+30E4_U+30FC 1
370
     0
100
AcDbSpline
210
0.0
220
0.0
230
1.0
 70
    11
 71
     3
 72
    53
 73
    49
 74
     0
 42
0.0000000001
 43
0.0000000001
 12
1.0
 22
0.0
 32
0.0
 13
1.0
 23
0.0
 33
0.0
 40
0.0
 40
0.0
 40
0.0
 40
0.0
 40
1.0
 40
1.0
 40
1.0
 40
2.0
 40
2.0
 40
2.0
 40
3.0
 40
3.0
 40
3.0
 40
4.0
 40
4.0
 40
4.0
 40
5.0
 40
5.0
 40
5.0
 40
6.0
 40
6.0
 40
6.0
 40
7.0
 40
7.0
 40
7.0
 40
8.0
 40
8.0
 40
8.0
 40
9.0
 40
9.0
 40
9.0
 40
10.0
 40
10.0
 40
10.0
 40
11.0
 40
11.0
 40
11.0
 40
12.0
 40
12.0
 40
12.0
 40
13.0
 40
13.0
 40
13.0
 40
14.0
 40
14.0
 40
14.0
 40
15.0
 40
15.0
 40
15.0
 40
16.0
 40
16.0
 40
16.0
 40
16.0
 10
104.1917453081535
 20
-127.2315103848588
 30
0.0
 10
104.1917453081535
 20
-127.3152262051504
 30
0.0
 10
104.1748643402757
 20
-127.4234022033872
 30
0.0
 10
104.1114745833471
 20
-127.5322672207211
 30
0.0
 10
104.0015760373677
 20
-127.7176133578275
 30
0.0
 10
103.8703178993796
 20
-127.7400064784817
 30
0.0
 10
103.7624864106913
 20
-127.7603325418446
 30
0.0
 10
103.7624864106913
 20
-127.7603325418446
 30
0.0
 10
103.7624864106913
 20
-127.5229654629109
 30
0.0
 10
103.7624864106913
 20
-127.5229654629109
 30
0.0
 10
103.9612684201902
 20
-127.4643988396617
 30
0.0
 10
103.9908962413634
 20
-127.3286620775428
 30
0.0
 10
103.9908962413634
 20
-127.2290988180191
 30
0.0
 10
103.9908962413634
 20
-127.0799261835078
 30
0.0
 10
103.8913329818397
 20
-126.9169731670555
 30
0.0
 10
103.6587890365853
 20
-126.9169731670555
 30
0.0
 10
103.4028184420312
 20
-126.9169731670555
 30
0.0
 10
103.3328830036807
 20
-127.1092094951324
 30
0.0
 10
103.3328830036807
 20
-127.2380560662808
 30
0.0
 10
103.3328830036807
 20
-127.2721625115847
 30
0.0
 10
103.3328830036807
 20
-127.4234022033872
 30
0.0
 10
103.4620740843775
 20
-127.5184868387801
 30
0.0
 10
103.4620740843775
 20
-127.5184868387801
 30
0.0
 10
103.4431260592087
 20
-127.7062445427262
 30
0.0
 10
103.4431260592087
 20
-127.7062445427262
 30
0.0
 10
103.4431260592087
 20
-127.7062445427262
 30
0.0
 10
102.5966660984828
 20
-127.5773979715779
 30
0.0
 10
102.5966660984828
 20
-127.5773979715779
 30
0.0
 10
102.5966660984828
 20
-127.5773979715779
 30
0.0
 10
102.5966660984828
 20
-126.74540741189
 30
0.0
 10
102.5966660984828
 20
-126.74540741189
 30
0.0
 10
102.5966660984828
 20
-126.74540741189
 30
0.0
 10
102.7913139933994
 20
-126.74540741189
 30
0.0
 10
102.7913139933994
 20
-126.74540741189
 30
0.0
 10
102.7913139933994
 20
-126.74540741189
 30
0.0
 10
102.7913139933994
 20
-127.4030761400242
 30
0.0
 10
102.7913139933994
 20
-127.4030761400242
 30
0.0
 10
102.7913139933994
 20
-127.4030761400242
 30
0.0
 10
103.2143717189881
 20
-127.4733560879233
 30
0.0
 10
103.2143717189881
 20
-127.4733560879233
 30
0.0
 10
103.1806097832326
 20
-127.4078992737036
 30
0.0
 10
103.1403021660552
 20
-127.3197048292812
 30
0.0
 10
103.1403021660552
 20
-127.192925315424
 30
0.0
 10
103.1403021660552
 20
-126.9217963007348
 30
0.0
 10
103.3266818318072
 20
-126.668581782569
 30
0.0
 10
103.6398410114164
 20
-126.668581782569
 30
0.0
 10
103.9571343056079
 20
-126.668581782569
 30
0.0
 10
104.1917453081535
 20
-126.9080159187938
 30
0.0
 10
104.1917453081535
 20
-127.2315103848588
 30
0.0
  0
HATCH
  5
AC
330
9C
100
AcDbEntity
  8
_U+30EC_U+30A4_U+30E4_U+30FC 1
 62
     7
420
 16777215
100
AcDbHatch
 10
0.0
 20
0.0
 30
0.0
210
0.0
220
0.0
230
1.0
  2
SOLID
 70
     1
 71
     0
 91
        1
 92
        1
 93
        1
 72
     4
 94
        3
 73
     0
 74
     1
 95
       53
 96
       49
 40
0.0
 40
0.0
 40
0.0
 40
0.0
 40
1.0
 40
1.0
 40
1.0
 40
2.0
 40
2.0
 40
2.0
 40
3.0
 40
3.0
 40
3.0
 40
4.0
 40
4.0
 40
4.0
 40
5.0
 40
5.0
 40
5.0
 40
6.0
 40
6.0
 40
6.0
 40
7.0
 40
7.0
 40
7.0
 40
8.0
 40
8.0
 40
8.0
 40
9.0
 40
9.0
 40
9.0
 40
10.0
 40
10.0
 40
10.0
 40
11.0
 40
11.0
 40
11.0
 40
12.0
 40
12.0
 40
12.0
 40
13.0
 40
13.0
 40
13.0
 40
14.0
 40
14.0
 40
14.0
 40
15.0
 40
15.0
 40
15.0
 40
16.0
 40
16.0
 40
16.0
 40
16.0
 10
104.1917453081535
 20
-127.2315103848588
 10
104.1917453081535
 20
-127.3152262051504
 10
104.1748643402757
 20
-127.4234022033872
 10
104.1114745833471
 20
-127.5322672207211
 10
104.0015760373677
 20
-127.7176133578275
 10
103.8703178993796
 20
-127.7400064784817
 10
103.7624864106913
 20
-127.7603325418446
 10
103.7624864106913
 20
-127.7603325418446
 10
103.7624864106913
 20
-127.5229654629109
 10
103.7624864106913
 20
-127.5229654629109
 10
103.9612684201902
 20
-127.4643988396617
 10
103.9908962413634
 20
-127.3286620775428
 10
103.9908962413634
 20
-127.2290988180191
 10
103.9908962413634
 20
-127.0799261835078
 10
103.8913329818397
 20
-126.9169731670555
 10
103.6587890365853
 20
-126.9169731670555
 10
103.4028184420312
 20
-126.9169731670555
 10
103.3328830036807
 20
-127.1092094951324
 10
103.3328830036807
 20
-127.2380560662808
 10
103.3328830036807
 20
-127.2721625115847
 10
103.3328830036807
 20
-127.4234022033872
 10
103.4620740843775
 20
-127.5184868387801
 10
103.4620740843775
 20
-127.5184868387801
 10
103.4431260592087
 20
-127.7062445427262
 10
103.4431260592087
 20
-127.7062445427262
 10
103.4431260592087
 20
-127.7062445427262
 10
102.5966660984828
 20
-127.5773979715779
 10
102.5966660984828
 20
-127.5773979715779
 10
102.5966660984828
 20
-127.5773979715779
 10
102.5966660984828
 20
-126.74540741189
 10
102.5966660984828
 20
-126.74540741189
 10
102.5966660984828
 20
-126.74540741189
 10
102.7913139933994
 20
-126.74540741189
 10
102.7913139933994
 20
-126.74540741189
 10
102.7913139933994
 20
-126.74540741189
 10
102.7913139933994
 20
-127.4030761400242
 10
102.7913139933994
 20
-127.4030761400242
 10
102.7913139933994
 20
-127.4030761400242
 10
103.2143717189881
 20
-127.4733560879233
 10
103.2143717189881
 20
-127.4733560879233
 10
103.1806097832326
 20
-127.4078992737036
 10
103.1403021660552
 20
-127.3197048292812
 10
103.1403021660552
 20
-127.192925315424
 10
103.1403021660552
 20
-126.9217963007348
 10
103.3266818318072
 20
-126.668581782569
 10
103.6398410114164
 20
-126.668581782569
 10
103.9571343056079
 20
-126.668581782569
 10
104.1917453081535
 20
-126.9080159187938
 10
104.1917453081535
 20
-127.2315103848588
 97
        0
 97
        0
 75
     2
 76
     1
 98
        0
  0
ENDBLK
  5
9F
330
9C
100
AcDbEntity
  8
0
100
AcDbBlockEnd
  0
BLOCK
  5
BD
330
BB
100
AcDbEntity
  8
0
100
AcDbBlockBegin
  2
block 6
 70
     0
 10
0.0
 20
0.0
 30
0.0
  3
block 6
  1

  0
SPLINE
  5
BF
330
BB
100
AcDbEntity
  8
_U+30EC_U+30A4_U+30E4_U+30FC 1
370
     0
100
AcDbSpline
210
0.0
220
0.0
230
1.0
 70
    11
 71
     3
 72
    62
 73
    58
 74
     0
 42
0.0000000001
 43
0.0000000001
 12
1.0
 22
0.0
 32
0.0
 13
1.0
 23
0.0
 33
0.0
 40
0.0
 40
0.0
 40
0.0
 40
0.0
 40
1.0
 40
1.0
 40
1.0
 40
2.0
 40
2.0
 40
2.0
 40
3.0
 40
3.0
 40
3.0
 40
4.0
 40
4.0
 40
4.0
 40
5.0
 40
5.0
 40
5.0
 40
6.0
 40
6.0
 40
6.0
 40
7.0
 40
7.0
 40
7.0
 40
8.0
 40
8.0
 40
8.0
 40
9.0
 40
9.0
 40
9.0
 40
10.0
 40
10.0
 40
10.0
 40
11.0
 40
11.0
 40
11.0
 40
12.0
 40
12.0
 40
12.0
 40
13.0
 40
13.0
 40
13.0
 40
14.0
 40
14.0
 40
14.0
 40
15.0
 40
15.0
 40
15.0
 40
16.0
 40
16.0
 40
16.0
 40
17.0
 40
17.0
 40
17.0
 40
18.0
 40
18.0
 40
18.0
 40
19.0
 40
19.0
 40
19.0
 40
19.0
 10
87.28252764745021
 20
-120.9190619272355
 30
0.0
 10
87.18089733063533
 20
-120.9190619272355
 30
0.0
 10
86.94800887583244
 20
-120.8980468447755
 30
0.0
 10
86.81468368055327
 20
-120.712011688572
 30
0.0
 10
86.73544648439253
 20
-120.5997015757529
 30
0.0
 10
86.7309678602617
 20
-120.5004828257777
 30
0.0
 10
86.72648923613089
 20
-120.4157334768405
 30
0.0
 10
86.72648923613089
 20
-120.4157334768405
 30
0.0
 10
86.96144474822492
 20
-120.4157334768405
 30
0.0
 10
86.96144474822492
 20
-120.4157334768405
 30
0.0
 10
86.96385631506459
 20
-120.4898030297734
 30
0.0
 10
86.97522513016592
 20
-120.7244140323189
 30
0.0
 10
87.27804902331938
 20
-120.7244140323189
 30
0.0
 10
87.42515460053954
 20
-120.7244140323189
 30
0.0
 10
87.58776310744334
 20
-120.6548231035169
 30
0.0
 10
87.58776310744334
 20
-120.4264132728448
 30
0.0
 10
87.58776310744334
 20
-120.3099690454434
 30
0.0
 10
87.54711098071739
 20
-120.2613931991013
 30
0.0
 10
87.51334904496194
 20
-120.229698320637
 30
0.0
 10
87.4341118488012
 20
-120.1556287677042
 30
0.0
 10
87.30974390178368
 20
-120.1428819144087
 30
0.0
 10
87.2508327689859
 20
-120.1428819144087
 30
0.0
 10
87.23050670562293
 20
-120.1428819144087
 30
0.0
 10
87.19226614573665
 20
-120.1449489716999
 30
0.0
 10
87.16263832456352
 20
-120.1490830862822
 30
0.0
 10
87.16263832456352
 20
-120.1490830862822
 30
0.0
 10
87.16263832456352
 20
-119.9544351913656
 30
0.0
 10
87.16263832456352
 20
-119.9544351913656
 30
0.0
 10
87.20329045128946
 20
-119.9609808727875
 30
0.0
 10
87.24876571169476
 20
-119.9630479300787
 30
0.0
 10
87.25531139311673
 20
-119.9630479300787
 30
0.0
 10
87.32559134101582
 20
-119.9630479300787
 30
0.0
 10
87.53815373245574
 20
-119.9416883380701
 30
0.0
 10
87.53815373245574
 20
-119.7050102782335
 30
0.0
 10
87.53815373245574
 20
-119.5272433511946
 30
0.0
 10
87.39793834620608
 20
-119.4721218234306
 30
0.0
 10
87.28046059015905
 20
-119.4721218234306
 30
0.0
 10
86.99761825082004
 20
-119.4721218234306
 30
0.0
 10
86.98866100255839
 20
-119.7050102782335
 30
0.0
 10
86.98418237842758
 20
-119.7766682643267
 30
0.0
 10
86.98418237842758
 20
-119.7766682643267
 30
0.0
 10
86.76714136285683
 20
-119.7766682643267
 30
0.0
 10
86.76714136285683
 20
-119.7766682643267
 30
0.0
 10
86.77609861111848
 20
-119.6519558077606
 30
0.0
 10
86.80538192274311
 20
-119.2754068712228
 30
0.0
 10
87.29389646255153
 20
-119.2754068712228
 30
0.0
 10
87.53367510832491
 20
-119.2754068712228
 30
0.0
 10
87.7913682506216
 20
-119.4025308946285
 30
0.0
 10
87.7913682506216
 20
-119.6984645968115
 30
0.0
 10
87.7913682506216
 20
-119.8848442625635
 30
0.0
 10
87.68939342425821
 20
-119.967182044661
 30
0.0
 10
87.58328448331251
 20
-120.0285047442984
 30
0.0
 10
87.64874129753227
 20
-120.0560655081804
 30
0.0
 10
87.84338919244888
 20
-120.1363362329867
 30
0.0
 10
87.84338919244888
 20
-120.4136664195494
 30
0.0
 10
87.84338919244888
 20
-120.7519747962009
 30
0.0
 10
87.57880585918168
 20
-120.9190619272355
 30
0.0
 10
87.28252764745021
 20
-120.9190619272355
 30
0.0
  0
HATCH
  5
C0
330
BB
100
AcDbEntity
  8
_U+30EC_U+30A4_U+30E4_U+30FC 1
 62
     7
420
 16777215
100
AcDbHatch
 10
0.0
 20
0.0
 30
0.0
210
0.0
220
0.0
230
1.0
  2
SOLID
 70
     1
 71
     0
 91
        1
 92
        1
 93
        1
 72
     4
 94
        3
 73
     0
 74
     1
 95
       62
 96
       58
 40
0.0
 40
0.0
 40
0.0
 40
0.0
 40
1.0
 40
1.0
 40
1.0
 40
2.0
 40
2.0
 40
2.0
 40
3.0
 40
3.0
 40
3.0
 40
4.0
 40
4.0
 40
4.0
 40
5.0
 40
5.0
 40
5.0
 40
6.0
 40
6.0
 40
6.0
 40
7.0
 40
7.0
 40
7.0
 40
8.0
 40
8.0
 40
8.0
 40
9.0
 40
9.0
 40
9.0
 40
10.0
 40
10.0
 40
10.0
 40
11.0
 40
11.0
 40
11.0
 40
12.0
 40
12.0
 40
12.0
 40
13.0
 40
13.0
 40
13.0
 40
14.0
 40
14.0
 40
14.0
 40
15.0
 40
15.0
 40
15.0
 40
16.0
 40
16.0
 40
16.0
 40
17.0
 40
17.0
 40
17.0
 40
18.0
 40
18.0
 40
18.0
 40
19.0
 40
19.0
 40
19.0
 40
19.0
 10
87.28252764745021
 20
-120.9190619272355
 10
87.18089733063533
 20
-120.9190619272355
 10
86.94800887583244
 20
-120.8980468447755
 10
86.81468368055327
 20
-120.712011688572
 10
86.73544648439253
 20
-120.5997015757529
 10
86.7309678602617
 20
-120.5004828257777
 10
86.72648923613089
 20
-120.4157334768405
 10
86.72648923613089
 20
-120.4157334768405
 10
86.96144474822492
 20
-120.4157334768405
 10
86.96144474822492
 20
-120.4157334768405
 10
86.96385631506459
 20
-120.4898030297734
 10
86.97522513016592
 20
-120.7244140323189
 10
87.27804902331938
 20
-120.7244140323189
 10
87.42515460053954
 20
-120.7244140323189
 10
87.58776310744334
 20
-120.6548231035169
 10
87.58776310744334
 20
-120.4264132728448
 10
87.58776310744334
 20
-120.3099690454434
 10
87.54711098071739
 20
-120.2613931991013
 10
87.51334904496194
 20
-120.229698320637
 10
87.4341118488012
 20
-120.1556287677042
 10
87.30974390178368
 20
-120.1428819144087
 10
87.2508327689859
 20
-120.1428819144087
 10
87.23050670562293
 20
-120.1428819144087
 10
87.19226614573665
 20
-120.1449489716999
 10
87.16263832456352
 20
-120.1490830862822
 10
87.16263832456352
 20
-120.1490830862822
 10
87.16263832456352
 20
-119.9544351913656
 10
87.16263832456352
 20
-119.9544351913656
 10
87.20329045128946
 20
-119.9609808727875
 10
87.24876571169476
 20
-119.9630479300787
 10
87.25531139311673
 20
-119.9630479300787
 10
87.32559134101582
 20
-119.9630479300787
 10
87.53815373245574
 20
-119.9416883380701
 10
87.53815373245574
 20
-119.7050102782335
 10
87.53815373245574
 20
-119.5272433511946
 10
87.39793834620608
 20
-119.4721218234306
 10
87.28046059015905
 20
-119.4721218234306
 10
86.99761825082004
 20
-119.4721218234306
 10
86.98866100255839
 20
-119.7050102782335
 10
86.98418237842758
 20
-119.7766682643267
 10
86.98418237842758
 20
-119.7766682643267
 10
86.76714136285683
 20
-119.7766682643267
 10
86.76714136285683
 20
-119.7766682643267
 10
86.77609861111848
 20
-119.6519558077606
 10
86.80538192274311
 20
-119.2754068712228
 10
87.29389646255153
 20
-119.2754068712228
 10
87.53367510832491
 20
-119.2754068712228
 10
87.7913682506216
 20
-119.4025308946285
 10
87.7913682506216
 20
-119.6984645968115
 10
87.7913682506216
 20
-119.8848442625635
 10
87.68939342425821
 20
-119.967182044661
 10
87.58328448331251
 20
-120.0285047442984
 10
87.64874129753227
 20
-120.0560655081804
 10
87.84338919244888
 20
-120.1363362329867
 10
87.84338919244888
 20
-120.4136664195494
 10
87.84338919244888
 20
-120.7519747962009
 10
87.57880585918168
 20
-120.9190619272355
 10
87.28252764745021
 20
-120.9190619272355
 97
        0
 97
        0
 75
     2
 76
     1
 98
        0
  0
ENDBLK
  5
BE
330
BB
100
AcDbEntity
  8
0
100
AcDbBlockEnd
  0
BLOCK
  5
D1
330
CF
100
AcDbEntity
  8
0
100
AcDbBlockBegin
  2
block 7
 70
     0
 10
0.0
 20
0.0
 30
0.0
  3
block 7
  1

  0
SPLINE
  5
D3
330
CF
100
AcDbEntity
  8
_U+30EC_U+30A4_U+30E4_U+30FC 1
370
     0
100
AcDbSpline
210
0.0
220
0.0
230
1.0
 70
    11
 71
     3
 72
    44
 73
    40
 74
     0
 42
0.0000000001
 43
0.0000000001
 12
1.0
 22
0.0
 32
0.0
 13
1.0
 23
0.0
 33
0.0
 40
0.0
 40
0.0
 40
0.0
 40
0.0
 40
1.0
 40
1.0
 40
1.0
 40
2.0
 40
2.0
 40
2.0
 40
3.0
 40
3.0
 40
3.0
 40
4.0
 40
4.0
 40
4.0
 40
5.0
 40
5.0
 40
5.0
 40
6.0
 40
6.0
 40
6.0
 40
7.0
 40
7.0
 40
7.0
 40
8.0
 40
8.0
 40
8.0
 40
9.0
 40
9.0
 40
9.0
 40
10.0
 40
10.0
 40
10.0
 40
11.0
 40
11.0
 40
11.0
 40
12.0
 40
12.0
 40
12.0
 40
13.0
 40
13.0
 40
13.0
 40
13.0
 10
86.92613251950111
 20
-136.0078911335328
 30
0.0
 10
86.69324406469822
 20
-136.1667100354028
 30
0.0
 10
86.5936808051745
 20
-136.2407795883356
 30
0.0
 10
86.54200437289575
 20
-136.3844400700706
 30
0.0
 10
86.54200437289575
 20
-136.3844400700706
 30
0.0
 10
87.37365042303506
 20
-136.3844400700706
 30
0.0
 10
87.37365042303506
 20
-136.3844400700706
 30
0.0
 10
87.37365042303506
 20
-136.3844400700706
 30
0.0
 10
87.37365042303506
 20
-136.5897677609915
 30
0.0
 10
87.37365042303506
 20
-136.5897677609915
 30
0.0
 10
87.37365042303506
 20
-136.5897677609915
 30
0.0
 10
86.2750094727889
 20
-136.5897677609915
 30
0.0
 10
86.2750094727889
 20
-136.5897677609915
 30
0.0
 10
86.30911591809286
 20
-136.2321668496225
 30
0.0
 10
86.37905135644344
 20
-136.1539631821074
 30
0.0
 10
86.79039575738227
 20
-135.8556179130847
 30
0.0
 10
87.0639363389111
 20
-135.6568359035858
 30
0.0
 10
87.1342162868102
 20
-135.5889675225264
 30
0.0
 10
87.1342162868102
 20
-135.4515082126649
 30
0.0
 10
87.1342162868102
 20
-135.3329969279723
 30
0.0
 10
87.05739065748912
 20
-135.2020832995328
 30
0.0
 10
86.84689532334036
 20
-135.2020832995328
 30
0.0
 10
86.5688761176807
 20
-135.2020832995328
 30
0.0
 10
86.55991886941905
 20
-135.432560187496
 30
0.0
 10
86.55544024528822
 20
-135.5490044148975
 30
0.0
 10
86.55544024528822
 20
-135.5490044148975
 30
0.0
 10
86.31566159951484
 20
-135.5490044148975
 30
0.0
 10
86.31566159951484
 20
-135.5490044148975
 30
0.0
 10
86.32496335732502
 20
-135.4218803914918
 30
0.0
 10
86.33598766287781
 20
-135.3099147882211
 30
0.0
 10
86.42211505000905
 20
-135.1914035035285
 30
0.0
 10
86.53959280605608
 20
-135.0305175443674
 30
0.0
 10
86.73837481555499
 20
-134.9967556086119
 30
0.0
 10
86.86274276257251
 20
-134.9967556086119
 30
0.0
 10
87.159020974304
 20
-134.9967556086119
 30
0.0
 10
87.38054061400557
 20
-135.1807237075243
 30
0.0
 10
87.38054061400557
 20
-135.453575269956
 30
0.0
 10
87.38054061400557
 20
-135.6823296101767
 30
0.0
 10
87.25617266698805
 20
-135.7815483601518
 30
0.0
 10
86.92613251950111
 20
-136.0078911335328
 30
0.0
  0
HATCH
  5
D4
330
CF
100
AcDbEntity
  8
_U+30EC_U+30A4_U+30E4_U+30FC 1
 62
     7
420
 16777215
100
AcDbHatch
 10
0.0
 20
0.0
 30
0.0
210
0.0
220
0.0
230
1.0
  2
SOLID
 70
     1
 71
     0
 91
        1
 92
        1
 93
        1
 72
     4
 94
        3
 73
     0
 74
     1
 95
       44
 96
       40
 40
0.0
 40
0.0
 40
0.0
 40
0.0
 40
1.0
 40
1.0
 40
1.0
 40
2.0
 40
2.0
 40
2.0
 40
3.0
 40
3.0
 40
3.0
 40
4.0
 40
4.0
 40
4.0
 40
5.0
 40
5.0
 40
5.0
 40
6.0
 40
6.0
 40
6.0
 40
7.0
 40
7.0
 40
7.0
 40
8.0
 40
8.0
 40
8.0
 40
9.0
 40
9.0
 40
9.0
 40
10.0
 40
10.0
 40
10.0
 40
11.0
 40
11.0
 40
11.0
 40
12.0
 40
12.0
 40
12.0
 40
13.0
 40
13.0
 40
13.0
 40
13.0
 10
86.92613251950111
 20
-136.0078911335328
 10
86.69324406469822
 20
-136.1667100354028
 10
86.5936808051745
 20
-136.2407795883356
 10
86.54200437289575
 20
-136.3844400700706
 10
86.54200437289575
 20
-136.3844400700706
 10
87.37365042303506
 20
-136.3844400700706
 10
87.37365042303506
 20
-136.3844400700706
 10
87.37365042303506
 20
-136.3844400700706
 10
87.37365042303506
 20
-136.5897677609915
 10
87.37365042303506
 20
-136.5897677609915
 10
87.37365042303506
 20
-136.5897677609915
 10
86.2750094727889
 20
-136.5897677609915
 10
86.2750094727889
 20
-136.5897677609915
 10
86.30911591809286
 20
-136.2321668496225
 10
86.37905135644344
 20
-136.1539631821074
 10
86.79039575738227
 20
-135.8556179130847
 10
87.0639363389111
 20
-135.6568359035858
 10
87.1342162868102
 20
-135.5889675225264
 10
87.1342162868102
 20
-135.4515082126649
 10
87.1342162868102
 20
-135.3329969279723
 10
87.05739065748912
 20
-135.2020832995328
 10
86.84689532334036
 20
-135.2020832995328
 10
86.5688761176807
 20
-135.2020832995328
 10
86.55991886941905
 20
-135.432560187496
 10
86.55544024528822
 20
-135.5490044148975
 10
86.55544024528822
 20
-135.5490044148975
 10
86.31566159951484
 20
-135.5490044148975
 10
86.31566159951484
 20
-135.5490044148975
 10
86.32496335732502
 20
-135.4218803914918
 10
86.33598766287781
 20
-135.3099147882211
 10
86.42211505000905
 20
-135.1914035035285
 10
86.53959280605608
 20
-135.0305175443674
 10
86.73837481555499
 20
-134.9967556086119
 10
86.86274276257251
 20
-134.9967556086119
 10
87.159020974304
 20
-134.9967556086119
 10
87.38054061400557
 20
-135.1807237075243
 10
87.38054061400557
 20
-135.453575269956
 10
87.38054061400557
 20
-135.6823296101767
 10
87.25617266698805
 20
-135.7815483601518
 10
86.92613251950111
 20
-136.0078911335328
 97
        0
 97
        0
 75
     2
 76
     1
 98
        0
  0
SPLINE
  5
D5
330
CF
100
AcDbEntity
  8
_U+30EC_U+30A4_U+30E4_U+30FC 1
370
     0
100
AcDbSpline
210
0.0
220
0.0
230
1.0
 70
    11
 71
     3
 72
    62
 73
    58
 74
     0
 42
0.0000000001
 43
0.0000000001
 12
1.0
 22
0.0
 32
0.0
 13
1.0
 23
0.0
 33
0.0
 40
0.0
 40
0.0
 40
0.0
 40
0.0
 40
1.0
 40
1.0
 40
1.0
 40
2.0
 40
2.0
 40
2.0
 40
3.0
 40
3.0
 40
3.0
 40
4.0
 40
4.0
 40
4.0
 40
5.0
 40
5.0
 40
5.0
 40
6.0
 40
6.0
 40
6.0
 40
7.0
 40
7.0
 40
7.0
 40
8.0
 40
8.0
 40
8.0
 40
9.0
 40
9.0
 40
9.0
 40
10.0
 40
10.0
 40
10.0
 40
11.0
 40
11.0
 40
11.0
 40
12.0
 40
12.0
 40
12.0
 40
13.0
 40
13.0
 40
13.0
 40
14.0
 40
14.0
 40
14.0
 40
15.0
 40
15.0
 40
15.0
 40
16.0
 40
16.0
 40
16.0
 40
17.0
 40
17.0
 40
17.0
 40
18.0
 40
18.0
 40
18.0
 40
19.0
 40
19.0
 40
19.0
 40
19.0
 10
88.07541637338045
 20
-136.6404106646246
 30
0.0
 10
87.97378605656559
 20
-136.6404106646246
 30
0.0
 10
87.7408976017627
 20
-136.6193955821646
 30
0.0
 10
87.60757240648353
 20
-136.4333604259611
 30
0.0
 10
87.52833521032278
 20
-136.321050313142
 30
0.0
 10
87.52385658619195
 20
-136.2218315631668
 30
0.0
 10
87.51937796206113
 20
-136.1370822142296
 30
0.0
 10
87.51937796206113
 20
-136.1370822142296
 30
0.0
 10
87.75433347415517
 20
-136.1370822142296
 30
0.0
 10
87.75433347415517
 20
-136.1370822142296
 30
0.0
 10
87.75674504099484
 20
-136.2111517671625
 30
0.0
 10
87.76811385609616
 20
-136.445762769708
 30
0.0
 10
88.07093774924964
 20
-136.445762769708
 30
0.0
 10
88.2180433264698
 20
-136.445762769708
 30
0.0
 10
88.38065183337359
 20
-136.376171840906
 30
0.0
 10
88.38065183337359
 20
-136.1477620102339
 30
0.0
 10
88.38065183337359
 20
-136.0313177828324
 30
0.0
 10
88.33999970664765
 20
-135.9827419364904
 30
0.0
 10
88.30589326134367
 20
-135.9510470580261
 30
0.0
 10
88.22700057473145
 20
-135.8769775050933
 30
0.0
 10
88.10263262771393
 20
-135.8642306517978
 30
0.0
 10
88.04372149491616
 20
-135.8642306517978
 30
0.0
 10
88.02339543155318
 20
-135.8642306517978
 30
0.0
 10
87.98515487166691
 20
-135.866297709089
 30
0.0
 10
87.95552705049376
 20
-135.8704318236713
 30
0.0
 10
87.95552705049376
 20
-135.8704318236713
 30
0.0
 10
87.95552705049376
 20
-135.6757839287547
 30
0.0
 10
87.95552705049376
 20
-135.6757839287547
 30
0.0
 10
87.99617917721972
 20
-135.6823296101767
 30
0.0
 10
88.04165443762501
 20
-135.6843966674678
 30
0.0
 10
88.04820011904698
 20
-135.6843966674678
 30
0.0
 10
88.11848006694608
 20
-135.6843966674678
 30
0.0
 10
88.331042458386
 20
-135.6630370754592
 30
0.0
 10
88.331042458386
 20
-135.4263590156226
 30
0.0
 10
88.331042458386
 20
-135.2485920885837
 30
0.0
 10
88.19082707213633
 20
-135.1934705608197
 30
0.0
 10
88.0733493160893
 20
-135.1934705608197
 30
0.0
 10
87.7905069767503
 20
-135.1934705608197
 30
0.0
 10
87.78154972848864
 20
-135.4263590156226
 30
0.0
 10
87.77707110435782
 20
-135.4980170017158
 30
0.0
 10
87.77707110435782
 20
-135.4980170017158
 30
0.0
 10
87.56003008878707
 20
-135.4980170017158
 30
0.0
 10
87.56003008878707
 20
-135.4980170017158
 30
0.0
 10
87.56898733704872
 20
-135.3733045451497
 30
0.0
 10
87.59827064867335
 20
-134.9967556086119
 30
0.0
 10
88.08678518848178
 20
-134.9967556086119
 30
0.0
 10
88.32656383425517
 20
-134.9967556086119
 30
0.0
 10
88.58425697655186
 20
-135.1238796320176
 30
0.0
 10
88.58425697655186
 20
-135.4198133342006
 30
0.0
 10
88.58425697655186
 20
-135.6061929999526
 30
0.0
 10
88.48228215018847
 20
-135.6885307820501
 30
0.0
 10
88.37617320924276
 20
-135.7498534816876
 30
0.0
 10
88.44163002346251
 20
-135.7774142455695
 30
0.0
 10
88.63627791837914
 20
-135.8576849703759
 30
0.0
 10
88.63627791837914
 20
-136.1350151569385
 30
0.0
 10
88.63627791837914
 20
-136.47332353359
 30
0.0
 10
88.37169458511194
 20
-136.6404106646246
 30
0.0
 10
88.07541637338045
 20
-136.6404106646246
 30
0.0
  0
HATCH
  5
D6
330
CF
100
AcDbEntity
  8
_U+30EC_U+30A4_U+30E4_U+30FC 1
 62
     7
420
 16777215
100
AcDbHatch
 10
0.0
 20
0.0
 30
0.0
210
0.0
220
0.0
230
1.0
  2
SOLID
 70
     1
 71
     0
 91
        1
 92
        1
 93
        1
 72
     4
 94
        3
 73
     0
 74
     1
 95
       62
 96
       58
 40
0.0
 40
0.0
 40
0.0
 40
0.0
 40
1.0
 40
1.0
 40
1.0
 40
2.0
 40
2.0
 40
2.0
 40
3.0
 40
3.0
 40
3.0
 40
4.0
 40
4.0
 40
4.0
 40
5.0
 40
5.0
 40
5.0
 40
6.0
 40
6.0
 40
6.0
 40
7.0
 40
7.0
 40
7.0
 40
8.0
 40
8.0
 40
8.0
 40
9.0
 40
9.0
 40
9.0
 40
10.0
 40
10.0
 40
10.0
 40
11.0
 40
11.0
 40
11.0
 40
12.0
 40
12.0
 40
12.0
 40
13.0
 40
13.0
 40
13.0
 40
14.0
 40
14.0
 40
14.0
 40
15.0
 40
15.0
 40
15.0
 40
16.0
 40
16.0
 40
16.0
 40
17.0
 40
17.0
 40
17.0
 40
18.0
 40
18.0
 40
18.0
 40
19.0
 40
19.0
 40
19.0
 40
19.0
 10
88.07541637338045
 20
-136.6404106646246
 10
87.97378605656559
 20
-136.6404106646246
 10
87.7408976017627
 20
-136.6193955821646
 10
87.60757240648353
 20
-136.4333604259611
 10
87.52833521032278
 20
-136.321050313142
 10
87.52385658619195
 20
-136.2218315631668
 10
87.51937796206113
 20
-136.1370822142296
 10
87.51937796206113
 20
-136.1370822142296
 10
87.75433347415517
 20
-136.1370822142296
 10
87.75433347415517
 20
-136.1370822142296
 10
87.75674504099484
 20
-136.2111517671625
 10
87.76811385609616
 20
-136.445762769708
 10
88.07093774924964
 20
-136.445762769708
 10
88.2180433264698
 20
-136.445762769708
 10
88.38065183337359
 20
-136.376171840906
 10
88.38065183337359
 20
-136.1477620102339
 10
88.38065183337359
 20
-136.0313177828324
 10
88.33999970664765
 20
-135.9827419364904
 10
88.30589326134367
 20
-135.9510470580261
 10
88.22700057473145
 20
-135.8769775050933
 10
88.10263262771393
 20
-135.8642306517978
 10
88.04372149491616
 20
-135.8642306517978
 10
88.02339543155318
 20
-135.8642306517978
 10
87.98515487166691
 20
-135.866297709089
 10
87.95552705049376
 20
-135.8704318236713
 10
87.95552705049376
 20
-135.8704318236713
 10
87.95552705049376
 20
-135.6757839287547
 10
87.95552705049376
 20
-135.6757839287547
 10
87.99617917721972
 20
-135.6823296101767
 10
88.04165443762501
 20
-135.6843966674678
 10
88.04820011904698
 20
-135.6843966674678
 10
88.11848006694608
 20
-135.6843966674678
 10
88.331042458386
 20
-135.6630370754592
 10
88.331042458386
 20
-135.4263590156226
 10
88.331042458386
 20
-135.2485920885837
 10
88.19082707213633
 20
-135.1934705608197
 10
88.0733493160893
 20
-135.1934705608197
 10
87.7905069767503
 20
-135.1934705608197
 10
87.78154972848864
 20
-135.4263590156226
 10
87.77707110435782
 20
-135.4980170017158
 10
87.77707110435782
 20
-135.4980170017158
 10
87.56003008878707
 20
-135.4980170017158
 10
87.56003008878707
 20
-135.4980170017158
 10
87.56898733704872
 20
-135.3733045451497
 10
87.59827064867335
 20
-134.9967556086119
 10
88.08678518848178
 20
-134.9967556086119
 10
88.32656383425517
 20
-134.9967556086119
 10
88.58425697655186
 20
-135.1238796320176
 10
88.58425697655186
 20
-135.4198133342006
 10
88.58425697655186
 20
-135.6061929999526
 10
88.48228215018847
 20
-135.6885307820501
 10
88.37617320924276
 20
-135.7498534816876
 10
88.44163002346251
 20
-135.7774142455695
 10
88.63627791837914
 20
-135.8576849703759
 10
88.63627791837914
 20
-136.1350151569385
 10
88.63627791837914
 20
-136.47332353359
 10
88.37169458511194
 20
-136.6404106646246
 10
88.07541637338045
 20
-136.6404106646246
 97
        0
 97
        0
 75
     2
 76
     1
 98
        0
  0
ENDBLK
  5
D2
330
CF
100
AcDbEntity
  8
0
100
AcDbBlockEnd
  0
ENDSEC
  0
SECTION
  2
ENTITIES
  0
POLYLINE
  5
41
330
1F
100
AcDbEntity
  8
_U+30EC_U+30A4_U+30E4_U+30FC 1
370
     0
100
AcDb2dPolyline
 66
     1
 10
0.0
 20
0.0
 30
0.0
  0
VERTEX
  5
42
330
41
100
AcDbEntity
  8
_U+30EC_U+30A4_U+30E4_U+30FC 1
370
     0
100
AcDbVertex
100
AcDb2dVertex
 10
88.71447190337193
 20
-126.3516296906342
 30
0.0
  0
VERTEX
  5
43
330
41
100
AcDbEntity
  8
_U+30EC_U+30A4_U+30E4_U+30FC 1
370
     0
100
AcDbVertex
100
AcDb2dVertex
 10
85.7034805341298
 20
-126.3516296906342
 30
0.0
  0
VERTEX
  5
44
330
41
100
AcDbEntity
  8
_U+30EC_U+30A4_U+30E4_U+30FC 1
370
     0
100
AcDbVertex
100
AcDb2dVertex
 10
85.7034805341298
 20
-123.340953580276
 30
0.0
  0
VERTEX
  5
45
330
41
100
AcDbEntity
  8
_U+30EC_U+30A4_U+30E4_U+30FC 1
370
     0
100
AcDbVertex
100
AcDb2dVertex
 10
88.71447190337193
 20
-123.340953580276
 30
0.0
  0
VERTEX
  5
46
330
41
100
AcDbEntity
  8
_U+30EC_U+30A4_U+30E4_U+30FC 1
370
     0
100
AcDbVertex
100
AcDb2dVertex
 10
88.71447190337193
 20
-126.3516296906342
 30
0.0
  0
SEQEND
  5
48
330
41
100
AcDbEntity
  8
_U+30EC_U+30A4_U+30E4_U+30FC 1
370
     0
  0
HATCH
  5
47
330
1F
100
AcDbEntity
  8
_U+30EC_U+30A4_U+30E4_U+30FC 1
 62
   253
420
 11711154
100
AcDbHatch
 10
0.0
 20
0.0
 30
0.0
210
0.0
220
0.0
230
1.0
  2
SOLID
 70
     1
 71
     0
 91
        1
 92
        1
 93
        4
 72
     1
 10
88.71447190337193
 20
-126.3516296906342
 11
85.7034805341298
 21
-126.3516296906342
 72
     1
 10
85.7034805341298
 20
-126.3516296906342
 11
85.7034805341298
 21
-123.340953580276
 72
     1
 10
85.7034805341298
 20
-123.340953580276
 11
88.71447190337193
 21
-123.340953580276
 72
     1
 10
88.71447190337193
 20
-123.340953580276
 11
88.71447190337193
 21
-126.3516296906342
 97
        0
 75
     2
 76
     1
 98
        0
  0
POLYLINE
  5
49
330
1F
100
AcDbEntity
  8
_U+30EC_U+30A4_U+30E4_U+30FC 1
370
     0
100
AcDb2dPolyline
 66
     1
 10
0.0
 20
0.0
 30
0.0
  0
VERTEX
  5
4A
330
49
100
AcDbEntity
  8
_U+30EC_U+30A4_U+30E4_U+30FC 1
370
     0
100
AcDbVertex
100
AcDb2dVertex
 10
87.58515970996086
 20
-133.8254385776548
 30
0.0
  0
VERTEX
  5
4B
330
49
100
AcDbEntity
  8
_U+30EC_U+30A4_U+30E4_U+30FC 1
370
     0
100
AcDbVertex
100
AcDb2dVertex
 10
86.7249463985734
 20
-133.8254385776548
 30
0.0
  0
VERTEX
  5
4C
330
49
100
AcDbEntity
  8
_U+30EC_U+30A4_U+30E4_U+30FC 1
370
     0
100
AcDbVertex
100
AcDb2dVertex
 10
86.7249463985734
 20
-125.9750746907283
 30
0.0
  0
VERTEX
  5
4D
330
49
100
AcDbEntity
  8
_U+30EC_U+30A4_U+30E4_U+30FC 1
370
     0
100
AcDbVertex
100
AcDb2dVertex
 10
87.58515970996086
 20
-125.9750746907283
 30
0.0
  0
VERTEX
  5
4E
330
49
100
AcDbEntity
  8
_U+30EC_U+30A4_U+30E4_U+30FC 1
370
     0
100
AcDbVertex
100
AcDb2dVertex
 10
87.58515970996086
 20
-133.8254385776548
 30
0.0
  0
SEQEND
  5
50
330
49
100
AcDbEntity
  8
_U+30EC_U+30A4_U+30E4_U+30FC 1
370
     0
  0
HATCH
  5
4F
330
1F
100
AcDbEntity
  8
_U+30EC_U+30A4_U+30E4_U+30FC 1
 62
   253
420
 11711154
100
AcDbHatch
 10
0.0
 20
0.0
 30
0.0
210
0.0
220
0.0
230
1.0
  2
SOLID
 70
     1
 71
     0
 91
        1
 92
        1
 93
        4
 72
     1
 10
87.58515970996086
 20
-133.8254385776548
 11
86.7249463985734
 21
-133.8254385776548
 72
     1
 10
86.7249463985734
 20
-133.8254385776548
 11
86.7249463985734
 21
-125.9750746907283
 72
     1
 10
86.7249463985734
 20
-125.9750746907283
 11
87.58515970996086
 21
-125.9750746907283
 72
     1
 10
87.58515970996086
 20
-125.9750746907283
 11
87.58515970996086
 21
-133.8254385776548
 97
        0
 75
     2
 76
     1
 98
        0
  0
POLYLINE
  5
51
330
1F
100
AcDbEntity
  8
_U+30EC_U+30A4_U+30E4_U+30FC 1
370
     0
100
AcDb2dPolyline
 66
     1
 10
0.0
 20
0.0
 30
0.0
  0
VERTEX
  5
52
330
51
100
AcDbEntity
  8
_U+30EC_U+30A4_U+30E4_U+30FC 1
370
     0
100
AcDbVertex
100
AcDb2dVertex
 10
98.66132331627328
 20
-133.8791666331969
 30
0.0
  0
VERTEX
  5
53
330
51
100
AcDbEntity
  8
_U+30EC_U+30A4_U+30E4_U+30FC 1
370
     0
100
AcDbVertex
100
AcDb2dVertex
 10
75.7028636242146
 20
-133.8791666331969
 30
0.0
  0
VERTEX
  5
54
330
51
100
AcDbEntity
  8
_U+30EC_U+30A4_U+30E4_U+30FC 1
370
     0
100
AcDbVertex
100
AcDb2dVertex
 10
75.7028636242146
 20
-132.964837188981
 30
0.0
  0
VERTEX
  5
55
330
51
100
AcDbEntity
  8
_U+30EC_U+30A4_U+30E4_U+30FC 1
370
     0
100
AcDbVertex
100
AcDb2dVertex
 10
98.66132331627328
 20
-132.964837188981
 30
0.0
  0
VERTEX
  5
56
330
51
100
AcDbEntity
  8
_U+30EC_U+30A4_U+30E4_U+30FC 1
370
     0
100
AcDbVertex
100
AcDb2dVertex
 10
98.66132331627328
 20
-133.8791666331969
 30
0.0
  0
SEQEND
  5
58
330
51
100
AcDbEntity
  8
_U+30EC_U+30A4_U+30E4_U+30FC 1
370
     0
  0
HATCH
  5
57
330
1F
100
AcDbEntity
  8
_U+30EC_U+30A4_U+30E4_U+30FC 1
 62
   253
420
 11711154
100
AcDbHatch
 10
0.0
 20
0.0
 30
0.0
210
0.0
220
0.0
230
1.0
  2
SOLID
 70
     1
 71
     0
 91
        1
 92
        1
 93
        4
 72
     1
 10
98.66132331627328
 20
-133.8791666331969
 11
75.7028636242146
 21
-133.8791666331969
 72
     1
 10
75.7028636242146
 20
-133.8791666331969
 11
75.7028636242146
 21
-132.964837188981
 72
     1
 10
75.7028636242146
 20
-132.964837188981
 11
98.66132331627328
 21
-132.964837188981
 72
     1
 10
98.66132331627328
 20
-132.964837188981
 11
98.66132331627328
 21
-133.8791666331969
 97
        0
 75
     2
 76
     1
 98
        0
  0
SPLINE
  5
59
330
1F
100
AcDbEntity
  8
_U+30EC_U+30A4_U+30E4_U+30FC 1
 62
     7
420
 16777215
370
     9
100
AcDbSpline
210
0.0
220
0.0
230
1.0
 70
    11
 71
     3
 72
    17
 73
    13
 74
     0
 42
0.0000000001
 43
0.0000000001
 12
1.0
 22
0.0
 32
0.0
 13
1.0
 23
0.0
 33
0.0
 40
0.0
 40
0.0
 40
0.0
 40
0.0
 40
1.0
 40
1.0
 40
1.0
 40
2.0
 40
2.0
 40
2.0
 40
3.0
 40
3.0
 40
3.0
 40
4.0
 40
4.0
 40
4.0
 40
4.0
 10
101.4587451893495
 20
-126.248618579549
 30
0.0
 10
101.4587451893495
 20
-126.1935146906738
 30
0.0
 10
101.4139776904917
 20
-126.1487119129074
 30
0.0
 10
101.3588385252317
 20
-126.1487119129074
 30
0.0
 10
101.3037346377486
 20
-126.1487119129074
 30
0.0
 10
101.2589318611139
 20
-126.1935146906738
 30
0.0
 10
101.2589318611139
 20
-126.248618579549
 30
0.0
 10
101.2589318611139
 20
-126.3044280239794
 30
0.0
 10
101.3037346377486
 20
-126.3488780239684
 30
0.0
 10
101.3588385252317
 20
-126.3488780239684
 30
0.0
 10
101.4139776904917
 20
-126.3488780239684
 30
0.0
 10
101.4587451893495
 20
-126.3044280239794
 30
0.0
 10
101.4587451893495
 20
-126.248618579549
 30
0.0
  0
POLYLINE
  5
5A
330
1F
100
AcDbEntity
  8
_U+30EC_U+30A4_U+30E4_U+30FC 1
 62
     7
420
 16777215
370
     9
100
AcDb2dPolyline
 66
     1
 10
0.0
 20
0.0
 30
0.0
  0
VERTEX
  5
5B
330
5A
100
AcDbEntity
  8
_U+30EC_U+30A4_U+30E4_U+30FC 1
 62
     7
420
 16777215
370
     9
100
AcDbVertex
100
AcDb2dVertex
 10
101.3588385252317
 20
-126.1487119129074
 30
0.0
  0
VERTEX
  5
5C
330
5A
100
AcDbEntity
  8
_U+30EC_U+30A4_U+30E4_U+30FC 1
 62
     7
420
 16777215
370
     9
100
AcDbVertex
100
AcDb2dVertex
 10
101.3588385252317
 20
-123.1487249692127
 30
0.0
  0
SEQEND
  5
5D
330
5A
100
AcDbEntity
  8
_U+30EC_U+30A4_U+30E4_U+30FC 1
 62
     7
420
 16777215
370
     9
  0
POLYLINE
  5
5E
330
1F
100
AcDbEntity
  8
_U+30EC_U+30A4_U+30E4_U+30FC 1
 62
     7
420
 16777215
370
     9
100
AcDb2dPolyline
 66
     1
 10
0.0
 20
0.0
 30
0.0
  0
VERTEX
  5
5F
330
5E
100
AcDbEntity
  8
_U+30EC_U+30A4_U+30E4_U+30FC 1
 62
     7
420
 16777215
370
     9
100
AcDbVertex
100
AcDb2dVertex
 10
90.1758890883103
 20
-126.248618579549
 30
0.0
  0
VERTEX
  5
60
330
5E
100
AcDbEntity
  8
_U+30EC_U+30A4_U+30E4_U+30FC 1
 62
     7
420
 16777215
370
     9
100
AcDbVertex
100
AcDb2dVertex
 10
102.0719787848158
 20
-126.248618579549
 30
0.0
  0
SEQEND
  5
61
330
5E
100
AcDbEntity
  8
_U+30EC_U+30A4_U+30E4_U+30FC 1
 62
     7
420
 16777215
370
     9
  0
SPLINE
  5
62
330
1F
100
AcDbEntity
  8
_U+30EC_U+30A4_U+30E4_U+30FC 1
 62
     7
420
 16777215
370
     9
100
AcDbSpline
210
0.0
220
0.0
230
1.0
 70
    11
 71
     3
 72
    17
 73
    13
 74
     0
 42
0.0000000001
 43
0.0000000001
 12
1.0
 22
0.0
 32
0.0
 13
1.0
 23
0.0
 33
0.0
 40
0.0
 40
0.0
 40
0.0
 40
0.0
 40
1.0
 40
1.0
 40
1.0
 40
2.0
 40
2.0
 40
2.0
 40
3.0
 40
3.0
 40
3.0
 40
4.0
 40
4.0
 40
4.0
 40
4.0
 10
101.4587451893495
 20
-123.2486316358547
 30
0.0
 10
101.4587451893495
 20
-123.1935277469794
 30
0.0
 10
101.4139776904917
 20
-123.1487249692127
 30
0.0
 10
101.3588385252317
 20
-123.1487249692127
 30
0.0
 10
101.3037346377486
 20
-123.1487249692127
 30
0.0
 10
101.2589318611139
 20
-123.1935277469794
 30
0.0
 10
101.2589318611139
 20
-123.2486316358547
 30
0.0
 10
101.2589318611139
 20
-123.3044410802851
 30
0.0
 10
101.3037346377486
 20
-123.3492438580515
 30
0.0
 10
101.3588385252317
 20
-123.3492438580515
 30
0.0
 10
101.4139776904917
 20
-123.3492438580515
 30
0.0
 10
101.4587451893495
 20
-123.3044410802851
 30
0.0
 10
101.4587451893495
 20
-123.2486316358547
 30
0.0
  0
POLYLINE
  5
63
330
1F
100
AcDbEntity
  8
_U+30EC_U+30A4_U+30E4_U+30FC 1
 62
     7
420
 16777215
370
     9
100
AcDb2dPolyline
 66
     1
 10
0.0
 20
0.0
 30
0.0
  0
VERTEX
  5
64
330
63
100
AcDbEntity
  8
_U+30EC_U+30A4_U+30E4_U+30FC 1
 62
     7
420
 16777215
370
     9
100
AcDbVertex
100
AcDb2dVertex
 10
90.1758890883103
 20
-123.2486316358547
 30
0.0
  0
VERTEX
  5
65
330
63
100
AcDbEntity
  8
_U+30EC_U+30A4_U+30E4_U+30FC 1
 62
     7
420
 16777215
370
     9
100
AcDbVertex
100
AcDb2dVertex
 10
105.7740666402233
 20
-123.2486316358547
 30
0.0
  0
SEQEND
  5
66
330
63
100
AcDbEntity
  8
_U+30EC_U+30A4_U+30E4_U+30FC 1
 62
     7
420
 16777215
370
     9
  0
INSERT
  5
68
330
1F
100
AcDbEntity
  8
_U+30EC_U+30A4_U+30E4_U+30FC 1
100
AcDbBlockReference
  2
block 2
 10
0.0
 20
0.0
 30
0.0
  0
SPLINE
  5
6D
330
1F
100
AcDbEntity
  8
_U+30EC_U+30A4_U+30E4_U+30FC 1
 62
     7
420
 16777215
370
     9
100
AcDbSpline
210
0.0
220
0.0
230
1.0
 70
    11
 71
     3
 72
    17
 73
    13
 74
     0
 42
0.0000000001
 43
0.0000000001
 12
1.0
 22
0.0
 32
0.0
 13
1.0
 23
0.0
 33
0.0
 40
0.0
 40
0.0
 40
0.0
 40
0.0
 40
1.0
 40
1.0
 40
1.0
 40
2.0
 40
2.0
 40
2.0
 40
3.0
 40
3.0
 40
3.0
 40
4.0
 40
4.0
 40
4.0
 40
4.0
 10
101.4587451893495
 20
-132.8828516334463
 30
0.0
 10
101.4587451893495
 20
-132.8277124667932
 30
0.0
 10
101.4139776904917
 20
-132.782944966804
 30
0.0
 10
101.3588385252317
 20
-132.782944966804
 30
0.0
 10
101.3037346377486
 20
-132.782944966804
 30
0.0
 10
101.2589318611139
 20
-132.8277124667932
 30
0.0
 10
101.2589318611139
 20
-132.8828516334463
 30
0.0
 10
101.2589318611139
 20
-132.9386610778767
 30
0.0
 10
101.3037346377486
 20
-132.9834285778653
 30
0.0
 10
101.3588385252317
 20
-132.9834285778653
 30
0.0
 10
101.4139776904917
 20
-132.9834285778653
 30
0.0
 10
101.4587451893495
 20
-132.9386610778767
 30
0.0
 10
101.4587451893495
 20
-132.8828516334463
 30
0.0
  0
POLYLINE
  5
6E
330
1F
100
AcDbEntity
  8
_U+30EC_U+30A4_U+30E4_U+30FC 1
 62
     7
420
 16777215
370
     9
100
AcDb2dPolyline
 66
     1
 10
0.0
 20
0.0
 30
0.0
  0
VERTEX
  5
6F
330
6E
100
AcDbEntity
  8
_U+30EC_U+30A4_U+30E4_U+30FC 1
 62
     7
420
 16777215
370
     9
100
AcDbVertex
100
AcDb2dVertex
 10
101.3588385252317
 20
-132.782944966804
 30
0.0
  0
VERTEX
  5
70
330
6E
100
AcDbEntity
  8
_U+30EC_U+30A4_U+30E4_U+30FC 1
 62
     7
420
 16777215
370
     9
100
AcDbVertex
100
AcDb2dVertex
 10
101.3588385252317
 20
-126.2830849684294
 30
0.0
  0
SEQEND
  5
71
330
6E
100
AcDbEntity
  8
_U+30EC_U+30A4_U+30E4_U+30FC 1
 62
     7
420
 16777215
370
     9
  0
POLYLINE
  5
72
330
1F
100
AcDbEntity
  8
_U+30EC_U+30A4_U+30E4_U+30FC 1
 62
     7
420
 16777215
370
     9
100
AcDb2dPolyline
 66
     1
 10
0.0
 20
0.0
 30
0.0
  0
VERTEX
  5
73
330
72
100
AcDbEntity
  8
_U+30EC_U+30A4_U+30E4_U+30FC 1
 62
     7
420
 16777215
370
     9
100
AcDbVertex
100
AcDb2dVertex
 10
99.89879717359157
 20
-132.8828516334463
 30
0.0
  0
VERTEX
  5
74
330
72
100
AcDbEntity
  8
_U+30EC_U+30A4_U+30E4_U+30FC 1
 62
     7
420
 16777215
370
     9
100
AcDbVertex
100
AcDb2dVertex
 10
105.6851992481904
 20
-132.8828516334463
 30
0.0
  0
SEQEND
  5
75
330
72
100
AcDbEntity
  8
_U+30EC_U+30A4_U+30E4_U+30FC 1
 62
     7
420
 16777215
370
     9
  0
INSERT
  5
77
330
1F
100
AcDbEntity
  8
_U+30EC_U+30A4_U+30E4_U+30FC 1
100
AcDbBlockReference
  2
block 3
 10
0.0
 20
0.0
 30
0.0
  0
SPLINE
  5
87
330
1F
100
AcDbEntity
  8
_U+30EC_U+30A4_U+30E4_U+30FC 1
 62
     7
420
 16777215
370
     9
100
AcDbSpline
210
0.0
220
0.0
230
1.0
 70
    11
 71
     3
 72
    17
 73
    13
 74
     0
 42
0.0000000001
 43
0.0000000001
 12
1.0
 22
0.0
 32
0.0
 13
1.0
 23
0.0
 33
0.0
 40
0.0
 40
0.0
 40
0.0
 40
0.0
 40
1.0
 40
1.0
 40
1.0
 40
2.0
 40
2.0
 40
2.0
 40
3.0
 40
3.0
 40
3.0
 40
4.0
 40
4.0
 40
4.0
 40
4.0
 10
104.7040184398891
 20
-132.8532183001201
 30
0.0
 10
104.7040184398891
 20
-132.798079133467
 30
0.0
 10
104.6592509410312
 20
-132.7533116334785
 30
0.0
 10
104.6041117757712
 20
-132.7533116334785
 30
0.0
 10
104.5490078882882
 20
-132.7533116334785
 30
0.0
 10
104.5042051116534
 20
-132.798079133467
 30
0.0
 10
104.5042051116534
 20
-132.8532183001201
 30
0.0
 10
104.5042051116534
 20
-132.9090277445505
 30
0.0
 10
104.5490078882882
 20
-132.9538305223172
 30
0.0
 10
104.6041117757712
 20
-132.9538305223172
 30
0.0
 10
104.6592509410312
 20
-132.9538305223172
 30
0.0
 10
104.7040184398891
 20
-132.9090277445505
 30
0.0
 10
104.7040184398891
 20
-132.8532183001201
 30
0.0
  0
POLYLINE
  5
88
330
1F
100
AcDbEntity
  8
_U+30EC_U+30A4_U+30E4_U+30FC 1
 62
     7
420
 16777215
370
     9
100
AcDb2dPolyline
 66
     1
 10
0.0
 20
0.0
 30
0.0
  0
VERTEX
  5
89
330
88
100
AcDbEntity
  8
_U+30EC_U+30A4_U+30E4_U+30FC 1
 62
     7
420
 16777215
370
     9
100
AcDbVertex
100
AcDb2dVertex
 10
104.6041117757712
 20
-132.8828516334463
 30
0.0
  0
VERTEX
  5
8A
330
88
100
AcDbEntity
  8
_U+30EC_U+30A4_U+30E4_U+30FC 1
 62
     7
420
 16777215
370
     9
100
AcDbVertex
100
AcDb2dVertex
 10
104.6041117757712
 20
-123.3830046913763
 30
0.0
  0
SEQEND
  5
8B
330
88
100
AcDbEntity
  8
_U+30EC_U+30A4_U+30E4_U+30FC 1
 62
     7
420
 16777215
370
     9
  0
SPLINE
  5
8C
330
1F
100
AcDbEntity
  8
_U+30EC_U+30A4_U+30E4_U+30FC 1
 62
     7
420
 16777215
370
     9
100
AcDbSpline
210
0.0
220
0.0
230
1.0
 70
    11
 71
     3
 72
    17
 73
    13
 74
     0
 42
0.0000000001
 43
0.0000000001
 12
1.0
 22
0.0
 32
0.0
 13
1.0
 23
0.0
 33
0.0
 40
0.0
 40
0.0
 40
0.0
 40
0.0
 40
1.0
 40
1.0
 40
1.0
 40
2.0
 40
2.0
 40
2.0
 40
3.0
 40
3.0
 40
3.0
 40
4.0
 40
4.0
 40
4.0
 40
4.0
 10
104.7040184398891
 20
-123.247961358077
 30
0.0
 10
104.7040184398891
 20
-123.1928221914239
 30
0.0
 10
104.6592509410312
 20
-123.1480546914353
 30
0.0
 10
104.6041117757712
 20
-123.1480546914353
 30
0.0
 10
104.5490078882882
 20
-123.1480546914353
 30
0.0
 10
104.5042051116534
 20
-123.1928221914239
 30
0.0
 10
104.5042051116534
 20
-123.247961358077
 30
0.0
 10
104.5042051116534
 20
-123.3037708025074
 30
0.0
 10
104.5490078882882
 20
-123.3485383024963
 30
0.0
 10
104.6041117757712
 20
-123.3485383024963
 30
0.0
 10
104.6592509410312
 20
-123.3485383024963
 30
0.0
 10
104.7040184398891
 20
-123.3037708025074
 30
0.0
 10
104.7040184398891
 20
-123.247961358077
 30
0.0
  0
SPLINE
  5
8D
330
1F
100
AcDbEntity
  8
_U+30EC_U+30A4_U+30E4_U+30FC 1
 62
     7
420
 16777215
370
     9
100
AcDbSpline
210
0.0
220
0.0
230
1.0
 70
    11
 71
     3
 72
    17
 73
    13
 74
     0
 42
0.0000000001
 43
0.0000000001
 12
1.0
 22
0.0
 32
0.0
 13
1.0
 23
0.0
 33
0.0
 40
0.0
 40
0.0
 40
0.0
 40
0.0
 40
1.0
 40
1.0
 40
1.0
 40
2.0
 40
2.0
 40
2.0
 40
3.0
 40
3.0
 40
3.0
 40
4.0
 40
4.0
 40
4.0
 40
4.0
 10
104.7040184398891
 20
-134.1168682998043
 30
0.0
 10
104.7040184398891
 20
-134.0617644109287
 30
0.0
 10
104.6592509410312
 20
-134.0169616331627
 30
0.0
 10
104.6041117757712
 20
-134.0169616331627
 30
0.0
 10
104.5490078882882
 20
-134.0169616331627
 30
0.0
 10
104.5042051116534
 20
-134.0617644109287
 30
0.0
 10
104.5042051116534
 20
-134.1168682998043
 30
0.0
 10
104.5042051116534
 20
-134.1726777442347
 30
0.0
 10
104.5490078882882
 20
-134.2174805220015
 30
0.0
 10
104.6041117757712
 20
-134.2174805220015
 30
0.0
 10
104.6592509410312
 20
-134.2174805220015
 30
0.0
 10
104.7040184398891
 20
-134.1726777442347
 30
0.0
 10
104.7040184398891
 20
-134.1168682998043
 30
0.0
  0
POLYLINE
  5
8E
330
1F
100
AcDbEntity
  8
_U+30EC_U+30A4_U+30E4_U+30FC 1
 62
     7
420
 16777215
370
     9
100
AcDb2dPolyline
 66
     1
 10
0.0
 20
0.0
 30
0.0
  0
VERTEX
  5
8F
330
8E
100
AcDbEntity
  8
_U+30EC_U+30A4_U+30E4_U+30FC 1
 62
     7
420
 16777215
370
     9
100
AcDbVertex
100
AcDb2dVertex
 10
104.6041117757712
 20
-134.0169616331627
 30
0.0
  0
VERTEX
  5
90
330
8E
100
AcDbEntity
  8
_U+30EC_U+30A4_U+30E4_U+30FC 1
 62
     7
420
 16777215
370
     9
100
AcDbVertex
100
AcDb2dVertex
 10
104.6041117757712
 20
-133.0168719111905
 30
0.0
  0
SEQEND
  5
91
330
8E
100
AcDbEntity
  8
_U+30EC_U+30A4_U+30E4_U+30FC 1
 62
     7
420
 16777215
370
     9
  0
POLYLINE
  5
92
330
1F
100
AcDbEntity
  8
_U+30EC_U+30A4_U+30E4_U+30FC 1
 62
     7
420
 16777215
370
     9
100
AcDb2dPolyline
 66
     1
 10
0.0
 20
0.0
 30
0.0
  0
VERTEX
  5
93
330
92
100
AcDbEntity
  8
_U+30EC_U+30A4_U+30E4_U+30FC 1
 62
     7
420
 16777215
370
     9
100
AcDbVertex
100
AcDb2dVertex
 10
103.1441083075475
 20
-134.1168682998043
 30
0.0
  0
VERTEX
  5
94
330
92
100
AcDbEntity
  8
_U+30EC_U+30A4_U+30E4_U+30FC 1
 62
     7
420
 16777215
370
     9
100
AcDbVertex
100
AcDb2dVertex
 10
105.6038839724871
 20
-134.1168682998043
 30
0.0
  0
SEQEND
  5
95
330
92
100
AcDbEntity
  8
_U+30EC_U+30A4_U+30E4_U+30FC 1
 62
     7
420
 16777215
370
     9
  0
INSERT
  5
97
330
1F
100
AcDbEntity
  8
_U+30EC_U+30A4_U+30E4_U+30FC 1
100
AcDbBlockReference
  2
block 4
 10
0.0
 20
0.0
 30
0.0
  0
INSERT
  5
9D
330
1F
100
AcDbEntity
  8
_U+30EC_U+30A4_U+30E4_U+30FC 1
100
AcDbBlockReference
  2
block 5
 10
0.0
 20
0.0
 30
0.0
  0
SPLINE
  5
AD
330
1F
100
AcDbEntity
  8
_U+30EC_U+30A4_U+30E4_U+30FC 1
 62
     7
420
 16777215
370
     9
100
AcDbSpline
210
0.0
220
0.0
230
1.0
 70
     8
 71
     3
 72
    17
 73
    13
 74
     0
 42
0.0000000001
 43
0.0000000001
 12
1.0
 22
0.0
 32
0.0
 13
1.0
 23
0.0
 33
0.0
 40
0.0
 40
0.0
 40
0.0
 40
0.0
 40
1.0
 40
1.0
 40
1.0
 40
2.0
 40
2.0
 40
2.0
 40
3.0
 40
3.0
 40
3.0
 40
4.0
 40
4.0
 40
4.0
 40
4.0
 10
88.76237912437193
 20
-121.3945021918735
 30
0.0
 10
88.72307968093011
 20
-121.3552027474389
 30
0.0
 10
88.66039107141832
 20
-121.3552027474389
 30
0.0
 10
88.62112690575336
 20
-121.3945021918735
 30
0.0
 10
88.58182746231152
 20
-121.4337663585305
 30
0.0
 10
88.58182746231152
 20
-121.496454969626
 30
0.0
 10
88.62112690575336
 20
-121.5357191362827
 30
0.0
 10
88.66039107141832
 20
-121.5750185807172
 30
0.0
 10
88.72307968093011
 20
-121.5750185807172
 30
0.0
 10
88.76237912437193
 20
-121.5357191362827
 30
0.0
 10
88.78097051278652
 20
-121.5171277473984
 30
0.0
 10
88.79197717917239
 20
-121.4916219140715
 30
0.0
 10
88.79197717917239
 20
-121.4647755251892
 30
0.0
  0
SPLINE
  5
AE
330
1F
100
AcDbEntity
  8
_U+30EC_U+30A4_U+30E4_U+30FC 1
 62
     7
420
 16777215
370
     9
100
AcDbSpline
210
0.0
220
0.0
230
1.0
 70
    11
 71
     3
 72
    17
 73
    13
 74
     0
 42
0.0000000001
 43
0.0000000001
 12
1.0
 22
0.0
 32
0.0
 13
1.0
 23
0.0
 33
0.0
 40
0.0
 40
0.0
 40
0.0
 40
0.0
 40
1.0
 40
1.0
 40
1.0
 40
2.0
 40
2.0
 40
2.0
 40
3.0
 40
3.0
 40
3.0
 40
4.0
 40
4.0
 40
4.0
 40
4.0
 10
85.89189697538181
 20
-121.4647755251892
 30
0.0
 10
85.89189697538181
 20
-121.4096363585365
 30
0.0
 10
85.84712947652393
 20
-121.3648688585476
 30
0.0
 10
85.79199031126399
 20
-121.3648688585476
 30
0.0
 10
85.73688642378092
 20
-121.3648688585476
 30
0.0
 10
85.69208364714615
 20
-121.4096363585365
 30
0.0
 10
85.69208364714615
 20
-121.4647755251892
 30
0.0
 10
85.69208364714615
 20
-121.52058496962
 30
0.0
 10
85.73688642378092
 20
-121.5653524696085
 30
0.0
 10
85.79199031126399
 20
-121.5653524696085
 30
0.0
 10
85.84712947652393
 20
-121.5653524696085
 30
0.0
 10
85.89189697538181
 20
-121.52058496962
 30
0.0
 10
85.89189697538181
 20
-121.4647755251892
 30
0.0
  0
POLYLINE
  5
AF
330
1F
100
AcDbEntity
  8
_U+30EC_U+30A4_U+30E4_U+30FC 1
 62
     7
420
 16777215
370
     9
100
AcDb2dPolyline
 66
     1
 10
0.0
 20
0.0
 30
0.0
  0
VERTEX
  5
B0
330
AF
100
AcDbEntity
  8
_U+30EC_U+30A4_U+30E4_U+30FC 1
 62
     7
420
 16777215
370
     9
100
AcDbVertex
100
AcDb2dVertex
 10
85.79199031126399
 20
-121.4647755251892
 30
0.0
  0
VERTEX
  5
B1
330
AF
100
AcDbEntity
  8
_U+30EC_U+30A4_U+30E4_U+30FC 1
 62
     7
420
 16777215
370
     9
100
AcDbVertex
100
AcDb2dVertex
 10
88.79197717917239
 20
-121.4647755251892
 30
0.0
  0
SEQEND
  5
B2
330
AF
100
AcDbEntity
  8
_U+30EC_U+30A4_U+30E4_U+30FC 1
 62
     7
420
 16777215
370
     9
  0
POLYLINE
  5
B3
330
1F
100
AcDbEntity
  8
_U+30EC_U+30A4_U+30E4_U+30FC 1
 62
     7
420
 16777215
370
     9
100
AcDb2dPolyline
 66
     1
 10
0.0
 20
0.0
 30
0.0
  0
VERTEX
  5
B4
330
B3
100
AcDbEntity
  8
_U+30EC_U+30A4_U+30E4_U+30FC 1
 62
     7
420
 16777215
370
     9
100
AcDbVertex
100
AcDb2dVertex
 10
85.79199031126399
 20
-120.0047341366655
 30
0.0
  0
VERTEX
  5
B5
330
B3
100
AcDbEntity
  8
_U+30EC_U+30A4_U+30E4_U+30FC 1
 62
     7
420
 16777215
370
     9
100
AcDbVertex
100
AcDb2dVertex
 10
85.79199031126399
 20
-122.4652180249391
 30
0.0
  0
SEQEND
  5
B6
330
B3
100
AcDbEntity
  8
_U+30EC_U+30A4_U+30E4_U+30FC 1
 62
     7
420
 16777215
370
     9
  0
POLYLINE
  5
B7
330
1F
100
AcDbEntity
  8
_U+30EC_U+30A4_U+30E4_U+30FC 1
 62
     7
420
 16777215
370
     9
100
AcDb2dPolyline
 66
     1
 10
0.0
 20
0.0
 30
0.0
  0
VERTEX
  5
B8
330
B7
100
AcDbEntity
  8
_U+30EC_U+30A4_U+30E4_U+30FC 1
 62
     7
420
 16777215
370
     9
100
AcDbVertex
100
AcDb2dVertex
 10
88.69140023729388
 20
-120.0047341366655
 30
0.0
  0
VERTEX
  5
B9
330
B7
100
AcDbEntity
  8
_U+30EC_U+30A4_U+30E4_U+30FC 1
 62
     7
420
 16777215
370
     9
100
AcDbVertex
100
AcDb2dVertex
 10
88.69140023729388
 20
-122.4652180249391
 30
0.0
  0
SEQEND
  5
BA
330
B7
100
AcDbEntity
  8
_U+30EC_U+30A4_U+30E4_U+30FC 1
 62
     7
420
 16777215
370
     9
  0
INSERT
  5
BC
330
1F
100
AcDbEntity
  8
_U+30EC_U+30A4_U+30E4_U+30FC 1
100
AcDbBlockReference
  2
block 6
 10
0.0
 20
0.0
 30
0.0
  0
SPLINE
  5
C1
330
1F
100
AcDbEntity
  8
_U+30EC_U+30A4_U+30E4_U+30FC 1
 62
     7
420
 16777215
370
     9
100
AcDbSpline
210
0.0
220
0.0
230
1.0
 70
     8
 71
     3
 72
    17
 73
    13
 74
     0
 42
0.0000000001
 43
0.0000000001
 12
1.0
 22
0.0
 32
0.0
 13
1.0
 23
0.0
 33
0.0
 40
0.0
 40
0.0
 40
0.0
 40
0.0
 40
1.0
 40
1.0
 40
1.0
 40
2.0
 40
2.0
 40
2.0
 40
3.0
 40
3.0
 40
3.0
 40
4.0
 40
4.0
 40
4.0
 40
4.0
 10
98.92661219839408
 20
-137.1154794101658
 30
0.0
 10
98.88731275495225
 20
-137.0762152435087
 30
0.0
 10
98.82462414544045
 20
-137.0762152435087
 30
0.0
 10
98.7853599797755
 20
-137.1154794101658
 30
0.0
 10
98.74609581411055
 20
-137.1547788546003
 30
0.0
 10
98.74609581411055
 20
-137.2174674656958
 30
0.0
 10
98.7853599797755
 20
-137.2567316323522
 30
0.0
 10
98.82462414544045
 20
-137.2959957990092
 30
0.0
 10
98.88731275495225
 20
-137.2959957990092
 30
0.0
 10
98.92661219839408
 20
-137.2567316323522
 30
0.0
 10
98.94520358680866
 20
-137.2381402434685
 30
0.0
 10
98.9562455309714
 20
-137.212634410141
 30
0.0
 10
98.9562455309714
 20
-137.1857527434812
 30
0.0
  0
SPLINE
  5
C2
330
1F
100
AcDbEntity
  8
_U+30EC_U+30A4_U+30E4_U+30FC 1
 62
     7
420
 16777215
370
     9
100
AcDbSpline
210
0.0
220
0.0
230
1.0
 70
    11
 71
     3
 72
    17
 73
    13
 74
     0
 42
0.0000000001
 43
0.0000000001
 12
1.0
 22
0.0
 32
0.0
 13
1.0
 23
0.0
 33
0.0
 40
0.0
 40
0.0
 40
0.0
 40
0.0
 40
1.0
 40
1.0
 40
1.0
 40
2.0
 40
2.0
 40
2.0
 40
3.0
 40
3.0
 40
3.0
 40
4.0
 40
4.0
 40
4.0
 40
4.0
 10
76.05599417076105
 20
-137.1857527434812
 30
0.0
 10
76.05599417076105
 20
-137.1306488546063
 30
0.0
 10
76.01119139412629
 20
-137.0858460768396
 30
0.0
 10
75.95608750664321
 20
-137.0858460768396
 30
0.0
 10
75.90094834138327
 20
-137.0858460768396
 30
0.0
 10
75.85618084252538
 20
-137.1306488546063
 30
0.0
 10
75.85618084252538
 20
-137.1857527434812
 30
0.0
 10
75.85618084252538
 20
-137.2415974656898
 30
0.0
 10
75.90094834138327
 20
-137.2863649656784
 30
0.0
 10
75.95608750664321
 20
-137.2863649656784
 30
0.0
 10
76.01119139412629
 20
-137.2863649656784
 30
0.0
 10
76.05599417076105
 20
-137.2415974656898
 30
0.0
 10
76.05599417076105
 20
-137.1857527434812
 30
0.0
  0
POLYLINE
  5
C3
330
1F
100
AcDbEntity
  8
_U+30EC_U+30A4_U+30E4_U+30FC 1
 62
     7
420
 16777215
370
     9
100
AcDb2dPolyline
 66
     1
 10
0.0
 20
0.0
 30
0.0
  0
VERTEX
  5
C4
330
C3
100
AcDbEntity
  8
_U+30EC_U+30A4_U+30E4_U+30FC 1
 62
     7
420
 16777215
370
     9
100
AcDbVertex
100
AcDb2dVertex
 10
75.95608750664321
 20
-137.1857527434812
 30
0.0
  0
VERTEX
  5
C5
330
C3
100
AcDbEntity
  8
_U+30EC_U+30A4_U+30E4_U+30FC 1
 62
     7
420
 16777215
370
     9
100
AcDbVertex
100
AcDb2dVertex
 10
98.9562455309714
 20
-137.1857527434812
 30
0.0
  0
SEQEND
  5
C6
330
C3
100
AcDbEntity
  8
_U+30EC_U+30A4_U+30E4_U+30FC 1
 62
     7
420
 16777215
370
     9
  0
POLYLINE
  5
C7
330
1F
100
AcDbEntity
  8
_U+30EC_U+30A4_U+30E4_U+30FC 1
 62
     7
420
 16777215
370
     9
100
AcDb2dPolyline
 66
     1
 10
0.0
 20
0.0
 30
0.0
  0
VERTEX
  5
C8
330
C7
100
AcDbEntity
  8
_U+30EC_U+30A4_U+30E4_U+30FC 1
 62
     7
420
 16777215
370
     9
100
AcDbVertex
100
AcDb2dVertex
 10
75.95608750664321
 20
-135.725746632735
 30
0.0
  0
VERTEX
  5
C9
330
C7
100
AcDbEntity
  8
_U+30EC_U+30A4_U+30E4_U+30FC 1
 62
     7
420
 16777215
370
     9
100
AcDbVertex
100
AcDb2dVertex
 10
75.95608750664321
 20
-138.1862305210093
 30
0.0
  0
SEQEND
  5
CA
330
C7
100
AcDbEntity
  8
_U+30EC_U+30A4_U+30E4_U+30FC 1
 62
     7
420
 16777215
370
     9
  0
POLYLINE
  5
CB
330
1F
100
AcDbEntity
  8
_U+30EC_U+30A4_U+30E4_U+30FC 1
 62
     7
420
 16777215
370
     9
100
AcDb2dPolyline
 66
     1
 10
0.0
 20
0.0
 30
0.0
  0
VERTEX
  5
CC
330
CB
100
AcDbEntity
  8
_U+30EC_U+30A4_U+30E4_U+30FC 1
 62
     7
420
 16777215
370
     9
100
AcDbVertex
100
AcDb2dVertex
 10
98.85563331131601
 20
-135.725746632735
 30
0.0
  0
VERTEX
  5
CD
330
CB
100
AcDbEntity
  8
_U+30EC_U+30A4_U+30E4_U+30FC 1
 62
     7
420
 16777215
370
     9
100
AcDbVertex
100
AcDb2dVertex
 10
98.85563331131601
 20
-138.1862305210093
 30
0.0
  0
SEQEND
  5
CE
330
CB
100
AcDbEntity
  8
_U+30EC_U+30A4_U+30E4_U+30FC 1
 62
     7
420
 16777215
370
     9
  0
INSERT
  5
D0
330
1F
100
AcDbEntity
  8
_U+30EC_U+30A4_U+30E4_U+30FC 1
100
AcDbBlockReference
  2
block 7
 10
0.0
 20
0.0
 30
0.0
  0
POLYLINE
  5
D7
330
1F
100
AcDbEntity
  8
_U+30EC_U+30A4_U+30E4_U+30FC 1
 62
     7
420
 16777215
370
    25
100
AcDb2dPolyline
 66
     1
 10
0.0
 20
0.0
 30
0.0
  0
VERTEX
  5
D8
330
D7
100
AcDbEntity
  8
_U+30EC_U+30A4_U+30E4_U+30FC 1
 62
     7
420
 16777215
370
    25
100
AcDbVertex
100
AcDb2dVertex
 10
86.67361942277616
 20
-126.4174227461735
 30
0.0
  0
VERTEX
  5
D9
330
D7
100
AcDbEntity
  8
_U+30EC_U+30A4_U+30E4_U+30FC 1
 62
     7
420
 16777215
370
    25
100
AcDbVertex
100
AcDb2dVertex
 10
85.69208364714615
 20
-126.4174227461735
 30
0.0
  0
VERTEX
  5
DA
330
D7
100
AcDbEntity
  8
_U+30EC_U+30A4_U+30E4_U+30FC 1
 62
     7
420
 16777215
370
    25
100
AcDbVertex
100
AcDb2dVertex
 10
85.69208364714615
 20
-123.4174358024788
 30
0.0
  0
VERTEX
  5
DB
330
D7
100
AcDbEntity
  8
_U+30EC_U+30A4_U+30E4_U+30FC 1
 62
     7
420
 16777215
370
    25
100
AcDbVertex
100
AcDb2dVertex
 10
88.69207051505455
 20
-123.4174358024788
 30
0.0
  0
VERTEX
  5
DC
330
D7
100
AcDbEntity
  8
_U+30EC_U+30A4_U+30E4_U+30FC 1
 62
     7
420
 16777215
370
    25
100
AcDbVertex
100
AcDb2dVertex
 10
88.69207051505455
 20
-126.4174227461735
 30
0.0
  0
VERTEX
  5
DD
330
D7
100
AcDbEntity
  8
_U+30EC_U+30A4_U+30E4_U+30FC 1
 62
     7
420
 16777215
370
    25
100
AcDbVertex
100
AcDb2dVertex
 10
87.69198081834674
 20
-126.4174227461735
 30
0.0
  0
SEQEND
  5
DE
330
D7
100
AcDbEntity
  8
_U+30EC_U+30A4_U+30E4_U+30FC 1
 62
     7
420
 16777215
370
    25
  0
POLYLINE
  5
DF
330
1F
100
AcDbEntity
  8
_U+30EC_U+30A4_U+30E4_U+30FC 1
 62
     7
420
 16777215
370
    25
100
AcDb2dPolyline
 66
     1
 10
0.0
 20
0.0
 30
0.0
  0
VERTEX
  5
E0
330
DF
100
AcDbEntity
  8
_U+30EC_U+30A4_U+30E4_U+30FC 1
 62
     7
420
 16777215
370
    25
100
AcDbVertex
100
AcDb2dVertex
 10
87.69198081834674
 20
-126.4174227461735
 30
0.0
  0
VERTEX
  5
E1
330
DF
100
AcDbEntity
  8
_U+30EC_U+30A4_U+30E4_U+30FC 1
 62
     7
420
 16777215
370
    25
100
AcDbVertex
100
AcDb2dVertex
 10
87.69198081834674
 20
-132.9172827445485
 30
0.0
  0
SEQEND
  5
E2
330
DF
100
AcDbEntity
  8
_U+30EC_U+30A4_U+30E4_U+30FC 1
 62
     7
420
 16777215
370
    25
  0
POLYLINE
  5
E3
330
1F
100
AcDbEntity
  8
_U+30EC_U+30A4_U+30E4_U+30FC 1
 62
     7
420
 16777215
370
    25
100
AcDb2dPolyline
 66
     1
 10
0.0
 20
0.0
 30
0.0
  0
VERTEX
  5
E4
330
E3
100
AcDbEntity
  8
_U+30EC_U+30A4_U+30E4_U+30FC 1
 62
     7
420
 16777215
370
    25
100
AcDbVertex
100
AcDb2dVertex
 10
86.69220862163083
 20
-132.9172827445485
 30
0.0
  0
VERTEX
  5
E5
330
E3
100
AcDbEntity
  8
_U+30EC_U+30A4_U+30E4_U+30FC 1
 62
     7
420
 16777215
370
    25
100
AcDbVertex
100
AcDb2dVertex
 10
86.69220862163083
 20
-126.4174227461735
 30
0.0
  0
SEQEND
  5
E6
330
E3
100
AcDbEntity
  8
_U+30EC_U+30A4_U+30E4_U+30FC 1
 62
     7
420
 16777215
370
    25
  0
POLYLINE
  5
E7
330
1F
100
AcDbEntity
  8
_U+30EC_U+30A4_U+30E4_U+30FC 1
 62
     7
420
 16777215
370
    25
100
AcDb2dPolyline
 66
     1
 10
0.0
 20
0.0
 30
0.0
  0
VERTEX
  5
E8
330
E7
100
AcDbEntity
  8
_U+30EC_U+30A4_U+30E4_U+30FC 1
 62
     7
420
 16777215
370
    25
100
AcDbVertex
100
AcDb2dVertex
 10
87.69198081834674
 20
-132.9172827445485
 30
0.0
  0
VERTEX
  5
E9
330
E7
100
AcDbEntity
  8
_U+30EC_U+30A4_U+30E4_U+30FC 1
 62
     7
420
 16777215
370
    25
100
AcDbVertex
100
AcDb2dVertex
 10
98.69233248214883
 20
-132.9172827445485
 30
0.0
  0
VERTEX
  5
EA
330
E7
100
AcDbEntity
  8
_U+30EC_U+30A4_U+30E4_U+30FC 1
 62
     7
420
 16777215
370
    25
100
AcDbVertex
100
AcDb2dVertex
 10
98.69233248214883
 20
-133.9174077442981
 30
0.0
  0
VERTEX
  5
EB
330
E7
100
AcDbEntity
  8
_U+30EC_U+30A4_U+30E4_U+30FC 1
 62
     7
420
 16777215
370
    25
100
AcDbVertex
100
AcDb2dVertex
 10
75.69217445782064
 20
-133.9174077442981
 30
0.0
  0
VERTEX
  5
EC
330
E7
100
AcDbEntity
  8
_U+30EC_U+30A4_U+30E4_U+30FC 1
 62
     7
420
 16777215
370
    25
100
AcDbVertex
100
AcDb2dVertex
 10
75.69217445782064
 20
-132.9172827445485
 30
0.0
  0
VERTEX
  5
ED
330
E7
100
AcDbEntity
  8
_U+30EC_U+30A4_U+30E4_U+30FC 1
 62
     7
420
 16777215
370
    25
100
AcDbVertex
100
AcDb2dVertex
 10
86.61226917922582
 20
-132.9172827445485
 30
0.0
  0
SEQEND
  5
EE
330
E7
100
AcDbEntity
  8
_U+30EC_U+30A4_U+30E4_U+30FC 1
 62
     7
420
 16777215
370
    25
  0
ENDSEC
  0
SECTION
  2
OBJECTS
  0
DICTIONARY
  5
C
330
0
100
AcDbDictionary
281
     1
  3
ACAD_GROUP
350
D
  3
ACAD_LAYOUT
350
1A
  3
ACAD_MATERIAL
350
3B
  3
ACAD_MLEADERSTYLE
350
F0
  3
ACAD_MLINESTYLE
350
17
  3
ACAD_PLOTSETTINGS
350
19
  3
ACAD_PLOTSTYLENAME
350
E
  3
ACAD_TABLESTYLE
350
EF
  3
ACAD_VISUALSTYLE
350
2A
  0
SUN
  5
3F
330
29
100
AcDbSun
 90
        1
290
     0
 63
     7
421
 16777215
 40
1.0
291
     1
 91
  2455826
 92
 54000000
292
     0
 70
     2
 71
   256
280
     1
  0
DICTIONARY
  5
D
102
{ACAD_REACTORS
330
C
102
}
330
C
100
AcDbDictionary
281
     1
  0
DICTIONARY
  5
1A
102
{ACAD_REACTORS
330
C
102
}
330
C
100
AcDbDictionary
281
     1
  3
Layout1
350
1E
  3
Layout2
350
26
  3
Model
350
22
  0
DICTIONARY
  5
3B
102
{ACAD_REACTORS
330
C
102
}
330
C
100
AcDbDictionary
281
     1
  3
ByBlock
350
3D
  3
ByLayer
350
3C
  3
Global
350
3E
  0
DICTIONARY
  5
F0
102
{ACAD_REACTORS
330
C
102
}
330
C
100
AcDbDictionary
281
     1
  0
DICTIONARY
  5
17
102
{ACAD_REACTORS
330
C
102
}
330
C
100
AcDbDictionary
281
     1
  3
Standard
350
18
  0
DICTIONARY
  5
19
102
{ACAD_REACTORS
330
C
102
}
330
C
100
AcDbDictionary
281
     1
  0
ACDBDICTIONARYWDFLT
  5
E
102
{ACAD_REACTORS
330
C
102
}
330
C
100
AcDbDictionary
281
     1
  3
Normal
350
F
100
AcDbDictionaryWithDefault
340
F
  0
DICTIONARY
  5
EF
102
{ACAD_REACTORS
330
C
102
}
330
C
100
AcDbDictionary
281
     1
  0
DICTIONARY
  5
2A
102
{ACAD_REACTORS
330
C
102
}
330
C
100
AcDbDictionary
281
     1
  3
2dWireframe
350
2F
  3
3D Hidden
350
31
  3
3dWireframe
350
30
  3
Basic
350
32
  3
Brighten
350
36
  3
ColorChange
350
3A
  3
Conceptual
350
34
  3
Dim
350
35
  3
Facepattern
350
39
  3
Flat
350
2B
  3
FlatWithEdges
350
2C
  3
Gouraud
350
2D
  3
GouraudWithEdges
350
2E
  3
Linepattern
350
38
  3
Realistic
350
33
  3
Thicken
350
37
  0
LAYOUT
  5
1E
102
{ACAD_REACTORS
330
1A
102
}
330
1A
100
AcDbPlotSettings
  1

  2
none_device
  4

  6

 40
0.0
 41
0.0
 42
0.0
 43
0.0
 44
0.0
 45
0.0
 46
0.0
 47
0.0
 48
0.0
 49
0.0
140
0.0
141
0.0
142
1.0
143
1.0
 70
   688
 72
     0
 73
     0
 74
     5
  7

 75
    16
 76
     0
 77
     2
 78
   300
147
1.0
148
0.0
149
0.0
100
AcDbLayout
  1
Layout1
 70
     1
 71
     1
 10
0.0
 20
0.0
 11
12.0
 21
9.0
 12
0.0
 22
0.0
 32
0.0
 14
1.000000000000000E+20
 24
1.000000000000000E+20
 34
1.000000000000000E+20
 15
-1.000000000000000E+20
 25
-1.000000000000000E+20
 35
-1.000000000000000E+20
146
0.0
 13
0.0
 23
0.0
 33
0.0
 16
1.0
 26
0.0
 36
0.0
 17
0.0
 27
1.0
 37
0.0
 76
     0
330
1B
  0
LAYOUT
  5
26
102
{ACAD_REACTORS
330
1A
102
}
330
1A
100
AcDbPlotSettings
  1

  2
none_device
  4

  6

 40
0.0
 41
0.0
 42
0.0
 43
0.0
 44
0.0
 45
0.0
 46
0.0
 47
0.0
 48
0.0
 49
0.0
140
0.0
141
0.0
142
1.0
143
1.0
 70
   688
 72
     0
 73
     0
 74
     5
  7

 75
    16
 76
     0
 77
     2
 78
   300
147
1.0
148
0.0
149
0.0
100
AcDbLayout
  1
Layout2
 70
     1
 71
     2
 10
0.0
 20
0.0
 11
0.0
 21
0.0
 12
0.0
 22
0.0
 32
0.0
 14
0.0
 24
0.0
 34
0.0
 15
0.0
 25
0.0
 35
0.0
146
0.0
 13
0.0
 23
0.0
 33
0.0
 16
1.0
 26
0.0
 36
0.0
 17
0.0
 27
1.0
 37
0.0
 76
     0
330
23
  0
LAYOUT
  5
22
102
{ACAD_REACTORS
330
1A
102
}
330
1A
100
AcDbPlotSettings
  1

  2
none_device
  4

  6

 40
0.0
 41
0.0
 42
0.0
 43
0.0
 44
0.0
 45
0.0
 46
0.0
 47
0.0
 48
0.0
 49
0.0
140
0.0
141
0.0
142
1.0
143
1.0
 70
  1712
 72
     0
 73
     0
 74
     0
  7

 75
     0
 76
     0
 77
     2
 78
   300
147
1.0
148
0.0
149
0.0
100
AcDbLayout
  1
Model
 70
     1
 71
     0
 10
0.0
 20
0.0
 11
12.0
 21
9.0
 12
0.0
 22
0.0
 32
0.0
 14
1.000000000000000E+20
 24
1.000000000000000E+20
 34
1.000000000000000E+20
 15
-1.000000000000000E+20
 25
-1.000000000000000E+20
 35
-1.000000000000000E+20
146
0.0
 13
0.0
 23
0.0
 33
0.0
 16
1.0
 26
0.0
 36
0.0
 17
0.0
 27
1.0
 37
0.0
 76
     0
330
1F
331
29
  0
MATERIAL
  5
3D
102
{ACAD_REACTORS
330
3B
102
}
330
3B
100
AcDbMaterial
  1
ByBlock
 72
     1
 94
      127
  0
MATERIAL
  5
3C
102
{ACAD_REACTORS
330
3B
102
}
330
3B
100
AcDbMaterial
  1
ByLayer
 72
     1
 94
      127
  0
MATERIAL
  5
3E
102
{ACAD_REACTORS
330
3B
102
}
330
3B
100
AcDbMaterial
  1
Global
 72
     1
 94
      127
  0
MLINESTYLE
  5
18
102
{ACAD_REACTORS
330
17
102
}
330
17
100
AcDbMlineStyle
  2
Standard
 70
     0
  3

 62
   256
 51
90.0
 52
90.0
 71
     2
 49
0.5
 62
   256
  6
BYLAYER
 49
-0.5
 62
   256
  6
BYLAYER
  0
ACDBPLACEHOLDER
  5
F
102
{ACAD_REACTORS
330
E
102
}
330
E
  0
VISUALSTYLE
  5
2F
102
{ACAD_REACTORS
330
2A
102
}
330
2A
100
AcDbVisualStyle
  2
2dWireframe
 70
     4
177
     2
291
     0
 71
     0
176
     1
 72
     2
176
     1
 73
     0
176
     1
 90
        0
176
     1
 40
-0.6
176
     1
 41
-30.0
176
     1
 62
     5
 63
     7
421
 16777215
176
     1
 74
     1
176
     1
 91
        4
176
     1
 64
     7
176
     1
 65
   257
176
     1
 75
     1
176
     1
175
     1
176
     1
 42
1.0
176
     1
 92
        0
176
     1
 66
   257
176
     1
 43
1.0
176
     1
 76
     1
176
     1
 77
     6
176
     1
 78
     2
176
     1
 67
     7
176
     1
 79
     5
176
     1
170
     0
176
     1
171
     0
176
     1
290
     0
176
     1
 93
        1
176
     1
 44
0.0
176
     1
173
     0
176
     1
  0
VISUALSTYLE
  5
31
102
{ACAD_REACTORS
330
2A
102
}
330
2A
100
AcDbVisualStyle
  2
3D Hidden
 70
     6
177
     2
291
     0
 71
     1
176
     1
 72
     2
176
     1
 73
     2
176
     1
 90
        0
176
     1
 40
-0.6
176
     1
 41
-30.0
176
     1
 62
     5
 63
     7
421
 16777215
176
     1
 74
     2
176
     1
 91
        2
176
     1
 64
     7
176
     1
 65
   257
176
     1
 75
     2
176
     1
175
     1
176
     1
 42
40.0
176
     1
 92
        0
176
     1
 66
   257
176
     1
 43
1.0
176
     1
 76
     1
176
     1
 77
     6
176
     1
 78
     2
176
     1
 67
     7
176
     1
 79
     3
176
     1
170
     0
176
     1
171
     0
176
     1
290
     0
176
     1
 93
        1
176
     1
 44
0.0
176
     1
173
     0
176
     1
  0
VISUALSTYLE
  5
30
102
{ACAD_REACTORS
330
2A
102
}
330
2A
100
AcDbVisualStyle
  2
3dWireframe
 70
     5
177
     2
291
     0
 71
     0
176
     1
 72
     2
176
     1
 73
     0
176
     1
 90
        0
176
     1
 40
-0.6
176
     1
 41
-30.0
176
     1
 62
     5
 63
     7
421
 16777215
176
     1
 74
     1
176
     1
 91
        4
176
     1
 64
     7
176
     1
 65
   257
176
     1
 75
     1
176
     1
175
     1
176
     1
 42
1.0
176
     1
 92
        0
176
     1
 66
   257
176
     1
 43
1.0
176
     1
 76
     1
176
     1
 77
     6
176
     1
 78
     2
176
     1
 67
     7
176
     1
 79
     5
176
     1
170
     0
176
     1
171
     0
176
     1
290
     0
176
     1
 93
        1
176
     1
 44
0.0
176
     1
173
     0
176
     1
  0
VISUALSTYLE
  5
32
102
{ACAD_REACTORS
330
2A
102
}
330
2A
100
AcDbVisualStyle
  2
Basic
 70
     7
177
     2
291
     1
 71
     1
176
     1
 72
     0
176
     1
 73
     1
176
     1
 90
        0
176
     1
 40
-0.6
176
     1
 41
-30.0
176
     1
 62
     5
 63
     7
421
 16777215
176
     1
 74
     0
176
     1
 91
        4
176
     1
 64
     7
176
     1
 65
   257
176
     1
 75
     1
176
     1
175
     1
176
     1
 42
1.0
176
     1
 92
        8
176
     1
 66
     7
176
     1
 43
1.0
176
     1
 76
     1
176
     1
 77
     6
176
     1
 78
     2
176
     1
 67
     7
176
     1
 79
     5
176
     1
170
     0
176
     1
171
     0
176
     1
290
     0
176
     1
 93
        1
176
     1
 44
0.0
176
     1
173
     0
176
     1
  0
VISUALSTYLE
  5
36
102
{ACAD_REACTORS
330
2A
102
}
330
2A
100
AcDbVisualStyle
  2
Brighten
 70
    12
177
     2
291
     1
 71
     2
176
     1
 72
     2
176
     1
 73
     0
176
     1
 90
        0
176
     1
 40
-0.6
176
     1
 41
-30.0
176
     1
 62
     5
 63
     7
421
 16777215
176
     1
 74
     1
176
     1
 91
        4
176
     1
 64
     7
176
     1
 65
   257
176
     1
 75
     1
176
     1
175
     1
176
     1
 42
1.0
176
     1
 92
        8
176
     1
 66
     7
176
     1
 43
1.0
176
     1
 76
     1
176
     1
 77
     6
176
     1
 78
     2
176
     1
 67
     7
176
     1
 79
     5
176
     1
170
     0
176
     1
171
     0
176
     1
290
     0
176
     1
 93
        1
176
     1
 44
50.0
176
     1
173
     0
176
     1
  0
VISUALSTYLE
  5
3A
102
{ACAD_REACTORS
330
2A
102
}
330
2A
100
AcDbVisualStyle
  2
ColorChange
 70
    16
177
     2
291
     1
 71
     2
176
     1
 72
     2
176
     1
 73
     3
176
     1
 90
        0
176
     1
 40
-0.6
176
     1
 41
-30.0
176
     1
 62
     5
 63
     8
421
  8421504
176
     1
 74
     1
176
     1
 91
        4
176
     1
 64
     7
176
     1
 65
   257
176
     1
 75
     1
176
     1
175
     1
176
     1
 42
1.0
176
     1
 92
        8
176
     1
 66
     8
424
  8421504
176
     1
 43
1.0
176
     1
 76
     1
176
     1
 77
     6
176
     1
 78
     2
176
     1
 67
     7
176
     1
 79
     5
176
     1
170
     0
176
     1
171
     0
176
     1
290
     0
176
     1
 93
        1
176
     1
 44
0.0
176
     1
173
     0
176
     1
  0
VISUALSTYLE
  5
34
102
{ACAD_REACTORS
330
2A
102
}
330
2A
100
AcDbVisualStyle
  2
Conceptual
 70
     9
177
     2
291
     0
 71
     3
176
     1
 72
     2
176
     1
 73
     0
176
     1
 90
        0
176
     1
 40
-0.6
176
     1
 41
-30.0
176
     1
 62
     5
 63
     7
421
 16777215
176
     1
 74
     2
176
     1
 91
        2
176
     1
 64
     7
176
     1
 65
   257
176
     1
 75
     1
176
     1
175
     1
176
     1
 42
40.0
176
     1
 92
        8
176
     1
 66
     7
176
     1
 43
1.0
176
     1
 76
     1
176
     1
 77
     6
176
     1
 78
     2
176
     1
 67
     7
176
     1
 79
     3
176
     1
170
     0
176
     1
171
     0
176
     1
290
     0
176
     1
 93
        1
176
     1
 44
0.0
176
     1
173
     0
176
     1
  0
VISUALSTYLE
  5
35
102
{ACAD_REACTORS
330
2A
102
}
330
2A
100
AcDbVisualStyle
  2
Dim
 70
    11
177
     2
291
     1
 71
     2
176
     1
 72
     2
176
     1
 73
     0
176
     1
 90
        0
176
     1
 40
-0.6
176
     1
 41
-30.0
176
     1
 62
     5
 63
     7
421
 16777215
176
     1
 74
     1
176
     1
 91
        4
176
     1
 64
     7
176
     1
 65
   257
176
     1
 75
     1
176
     1
175
     1
176
     1
 42
1.0
176
     1
 92
        8
176
     1
 66
     7
176
     1
 43
1.0
176
     1
 76
     1
176
     1
 77
     6
176
     1
 78
     2
176
     1
 67
     7
176
     1
 79
     5
176
     1
170
     0
176
     1
171
     0
176
     1
290
     0
176
     1
 93
        1
176
     1
 44
-50.0
176
     1
173
     0
176
     1
  0
VISUALSTYLE
  5
39
102
{ACAD_REACTORS
330
2A
102
}
330
2A
100
AcDbVisualStyle
  2
Facepattern
 70
    15
177
     2
291
     1
 71
     2
176
     1
 72
     2
176
     1
 73
     0
176
     1
 90
        0
176
     1
 40
-0.6
176
     1
 41
-30.0
176
     1
 62
     5
 63
     7
421
 16777215
176
     1
 74
     1
176
     1
 91
        4
176
     1
 64
     7
176
     1
 65
   257
176
     1
 75
     1
176
     1
175
     1
176
     1
 42
1.0
176
     1
 92
        8
176
     1
 66
     7
176
     1
 43
1.0
176
     1
 76
     1
176
     1
 77
     6
176
     1
 78
     2
176
     1
 67
     7
176
     1
 79
     5
176
     1
170
     0
176
     1
171
     0
176
     1
290
     0
176
     1
 93
        1
176
     1
 44
0.0
176
     1
173
     0
176
     1
  0
VISUALSTYLE
  5
2B
102
{ACAD_REACTORS
330
2A
102
}
330
2A
100
AcDbVisualStyle
  2
Flat
 70
     0
177
     2
291
     1
 71
     2
176
     1
 72
     1
176
     1
 73
     1
176
     1
 90
        2
176
     1
 40
-0.6
176
     1
 41
30.0
176
     1
 62
     5
 63
     7
421
 16777215
176
     1
 74
     0
176
     1
 91
        4
176
     1
 64
     7
176
     1
 65
   257
176
     1
 75
     1
176
     1
175
     1
176
     1
 42
1.0
176
     1
 92
        8
176
     1
 66
     7
176
     1
 43
1.0
176
     1
 76
     1
176
     1
 77
     6
176
     1
 78
     2
176
     1
 67
     7
176
     1
 79
     5
176
     1
170
     0
176
     1
171
     0
176
     1
290
     0
176
     1
 93
       13
176
     1
 44
0.0
176
     1
173
     0
176
     1
  0
VISUALSTYLE
  5
2C
102
{ACAD_REACTORS
330
2A
102
}
330
2A
100
AcDbVisualStyle
  2
FlatWithEdges
 70
     1
177
     2
291
     1
 71
     2
176
     1
 72
     1
176
     1
 73
     1
176
     1
 90
        2
176
     1
 40
-0.6
176
     1
 41
30.0
176
     1
 62
     5
 63
     7
421
 16777215
176
     1
 74
     1
176
     1
 91
        4
176
     1
 64
     7
176
     1
 65
   257
176
     1
 75
     1
176
     1
175
     1
176
     1
 42
1.0
176
     1
 92
        0
176
     1
 66
   257
176
     1
 43
1.0
176
     1
 76
     1
176
     1
 77
     6
176
     1
 78
     2
176
     1
 67
     7
176
     1
 79
     5
176
     1
170
     0
176
     1
171
     0
176
     1
290
     0
176
     1
 93
       13
176
     1
 44
0.0
176
     1
173
     0
176
     1
  0
VISUALSTYLE
  5
2D
102
{ACAD_REACTORS
330
2A
102
}
330
2A
100
AcDbVisualStyle
  2
Gouraud
 70
     2
177
     2
291
     1
 71
     2
176
     1
 72
     2
176
     1
 73
     1
176
     1
 90
        2
176
     1
 40
-0.6
176
     1
 41
30.0
176
     1
 62
     5
 63
     7
421
 16777215
176
     1
 74
     0
176
     1
 91
        4
176
     1
 64
     7
176
     1
 65
   257
176
     1
 75
     1
176
     1
175
     1
176
     1
 42
1.0
176
     1
 92
        0
176
     1
 66
     7
176
     1
 43
1.0
176
     1
 76
     1
176
     1
 77
     6
176
     1
 78
     2
176
     1
 67
     7
176
     1
 79
     5
176
     1
170
     0
176
     1
171
     0
176
     1
290
     0
176
     1
 93
       13
176
     1
 44
0.0
176
     1
173
     0
176
     1
  0
VISUALSTYLE
  5
2E
102
{ACAD_REACTORS
330
2A
102
}
330
2A
100
AcDbVisualStyle
  2
GouraudWithEdges
 70
     3
177
     2
291
     1
 71
     2
176
     1
 72
     2
176
     1
 73
     1
176
     1
 90
        2
176
     1
 40
-0.6
176
     1
 41
30.0
176
     1
 62
     5
 63
     7
421
 16777215
176
     1
 74
     1
176
     1
 91
        4
176
     1
 64
     7
176
     1
 65
   257
176
     1
 75
     1
176
     1
175
     1
176
     1
 42
1.0
176
     1
 92
        0
176
     1
 66
   257
176
     1
 43
1.0
176
     1
 76
     1
176
     1
 77
     6
176
     1
 78
     2
176
     1
 67
     7
176
     1
 79
     5
176
     1
170
     0
176
     1
171
     0
176
     1
290
     0
176
     1
 93
       13
176
     1
 44
0.0
176
     1
173
     0
176
     1
  0
VISUALSTYLE
  5
38
102
{ACAD_REACTORS
330
2A
102
}
330
2A
100
AcDbVisualStyle
  2
Linepattern
 70
    14
177
     2
291
     1
 71
     2
176
     1
 72
     2
176
     1
 73
     0
176
     1
 90
        0
176
     1
 40
-0.6
176
     1
 41
-30.0
176
     1
 62
     5
 63
     7
421
 16777215
176
     1
 74
     1
176
     1
 91
        4
176
     1
 64
     7
176
     1
 65
   257
176
     1
 75
     7
176
     1
175
     7
176
     1
 42
1.0
176
     1
 92
        8
176
     1
 66
     7
176
     1
 43
1.0
176
     1
 76
     1
176
     1
 77
     6
176
     1
 78
     2
176
     1
 67
     7
176
     1
 79
     5
176
     1
170
     0
176
     1
171
     0
176
     1
290
     0
176
     1
 93
        1
176
     1
 44
0.0
176
     1
173
     0
176
     1
  0
VISUALSTYLE
  5
33
102
{ACAD_REACTORS
330
2A
102
}
330
2A
100
AcDbVisualStyle
  2
Realistic
 70
     8
177
     2
291
     0
 71
     2
176
     1
 72
     2
176
     1
 73
     0
176
     1
 90
        0
176
     1
 40
-0.6
176
     1
 41
-30.0
176
     1
 62
     5
 63
     7
421
 16777215
176
     1
 74
     1
176
     1
 91
        0
176
     1
 64
     7
176
     1
 65
   257
176
     1
 75
     1
176
     1
175
     1
176
     1
 42
1.0
176
     1
 92
        8
176
     1
 66
     8
424
  7895160
176
     1
 43
1.0
176
     1
 76
     1
176
     1
 77
     6
176
     1
 78
     2
176
     1
 67
     7
176
     1
 79
     5
176
     1
170
     0
176
     1
171
     0
176
     1
290
     0
176
     1
 93
       13
176
     1
 44
0.0
176
     1
173
     0
176
     1
  0
VISUALSTYLE
  5
37
102
{ACAD_REACTORS
330
2A
102
}
330
2A
100
AcDbVisualStyle
  2
Thicken
 70
    13
177
     2
291
     1
 71
     2
176
     1
 72
     2
176
     1
 73
     0
176
     1
 90
        0
176
     1
 40
-0.6
176
     1
 41
-30.0
176
     1
 62
     5
 63
     7
421
 16777215
176
     1
 74
     1
176
     1
 91
        4
176
     1
 64
     7
176
     1
 65
   257
176
     1
 75
     1
176
     1
175
     1
176
     1
 42
1.0
176
     1
 92
       12
176
     1
 66
     7
176
     1
 43
1.0
176
     1
 76
     1
176
     1
 77
     6
176
     1
 78
     2
176
     1
 67
     7
176
     1
 79
     5
176
     1
170
     0
176
     1
171
     0
176
     1
290
     0
176
     1
 93
        1
176
     1
 44
0.0
176
     1
173
     0
176
     1
  0
ENDSEC
  0
EOF
