  0
SECTION
  2
HEADER
  9
$ACADVER
  1
AC1024
  9
$ACADMAINTVER
 70
     6
  9
$DWGCODEPAGE
  3
UNDEFINED
  9
$INSBASE
 10
0.0
 20
0.0
 30
0.0
  9
$EXTMIN
 10
1.000000000000000E+20
 20
1.000000000000000E+20
 30
1.000000000000000E+20
  9
$EXTMAX
 10
-1.000000000000000E+20
 20
-1.000000000000000E+20
 30
-1.000000000000000E+20
  9
$LIMMIN
 10
0.0
 20
0.0
  9
$LIMMAX
 10
12.0
 20
9.0
  9
$ORTHOMODE
 70
     0
  9
$REGENMODE
 70
     1
  9
$FILLMODE
 70
     1
  9
$QTEXTMODE
 70
     0
  9
$MIRRTEXT
 70
     1
  9
$LTSCALE
 40
1.0
  9
$ATTMODE
 70
     1
  9
$TEXTSIZE
 40
0.2
  9
$TRACEWID
 40
0.05
  9
$TEXTSTYLE
  7
Standard
  9
$CLAYER
  8
0
  9
$CELTYPE
  6
ByLayer
  9
$CECOLOR
 62
   256
  9
$CELTSCALE
 40
1.0
  9
$DISPSILH
 70
     0
  9
$DIMSCALE
 40
1.0
  9
$DIMASZ
 40
0.18
  9
$DIMEXO
 40
0.0625
  9
$DIMDLI
 40
0.38
  9
$DIMRND
 40
0.0
  9
$DIMDLE
 40
0.0
  9
$DIMEXE
 40
0.18
  9
$DIMTP
 40
0.0
  9
$DIMTM
 40
0.0
  9
$DIMTXT
 40
0.18
  9
$DIMCEN
 40
0.09
  9
$DIMTSZ
 40
0.0
  9
$DIMTOL
 70
     0
  9
$DIMLIM
 70
     0
  9
$DIMTIH
 70
     1
  9
$DIMTOH
 70
     1
  9
$DIMSE1
 70
     0
  9
$DIMSE2
 70
     0
  9
$DIMTAD
 70
     0
  9
$DIMZIN
 70
     0
  9
$DIMBLK
  1

  9
$DIMASO
 70
     1
  9
$DIMSHO
 70
     1
  9
$DIMPOST
  1

  9
$DIMAPOST
  1

  9
$DIMALT
 70
     0
  9
$DIMALTD
 70
     2
  9
$DIMALTF
 40
25.4
  9
$DIMLFAC
 40
1.0
  9
$DIMTOFL
 70
     0
  9
$DIMTVP
 40
0.0
  9
$DIMTIX
 70
     0
  9
$DIMSOXD
 70
     0
  9
$DIMSAH
 70
     0
  9
$DIMBLK1
  1

  9
$DIMBLK2
  1

  9
$DIMSTYLE
  2
Standard
  9
$DIMCLRD
 70
     0
  9
$DIMCLRE
 70
     0
  9
$DIMCLRT
 70
     0
  9
$DIMTFAC
 40
1.0
  9
$DIMGAP
 40
0.09
  9
$DIMJUST
 70
     0
  9
$DIMSD1
 70
     0
  9
$DIMSD2
 70
     0
  9
$DIMTOLJ
 70
     1
  9
$DIMTZIN
 70
     0
  9
$DIMALTZ
 70
     0
  9
$DIMALTTZ
 70
     0
  9
$DIMUPT
 70
     0
  9
$DIMDEC
 70
     4
  9
$DIMTDEC
 70
     4
  9
$DIMALTU
 70
     2
  9
$DIMALTTD
 70
     2
  9
$DIMTXSTY
  7
Standard
  9
$DIMAUNIT
 70
     0
  9
$DIMADEC
 70
     0
  9
$DIMALTRND
 40
0.0
  9
$DIMAZIN
 70
     0
  9
$DIMDSEP
 70
    46
  9
$DIMATFIT
 70
     3
  9
$DIMFRAC
 70
     0
  9
$DIMLDRBLK
  1

  9
$DIMLUNIT
 70
     2
  9
$DIMLWD
 70
    -2
  9
$DIMLWE
 70
    -2
  9
$DIMTMOVE
 70
     0
  9
$DIMFXL
 40
1.0
  9
$DIMFXLON
 70
     0
  9
$DIMJOGANG
 40
0.7853981633974483
  9
$DIMTFILL
 70
     0
  9
$DIMTFILLCLR
 70
     0
  9
$DIMARCSYM
 70
     0
  9
$DIMLTYPE
  6

  9
$DIMLTEX1
  6

  9
$DIMLTEX2
  6

  9
$DIMTXTDIRECTION
 70
     0
  9
$LUNITS
 70
     2
  9
$LUPREC
 70
     4
  9
$SKETCHINC
 40
0.1
  9
$FILLETRAD
 40
0.5
  9
$AUNITS
 70
     0
  9
$AUPREC
 70
     0
  9
$MENU
  1
.
  9
$ELEVATION
 40
0.0
  9
$PELEVATION
 40
0.0
  9
$THICKNESS
 40
0.0
  9
$LIMCHECK
 70
     0
  9
$CHAMFERA
 40
0.5
  9
$CHAMFERB
 40
0.5
  9
$CHAMFERC
 40
1.0
  9
$CHAMFERD
 40
0.0
  9
$SKPOLY
 70
     0
  9
$TDCREATE
 40
2457917.623599537
  9
$TDUCREATE
 40
2457917.248599537
  9
$TDUPDATE
 40
2457917.623599537
  9
$TDUUPDATE
 40
2457917.248599537
  9
$TDINDWG
 40
0.0000000116
  9
$TDUSRTIMER
 40
0.0000000116
  9
$USRTIMER
 70
     1
  9
$ANGBASE
 50
0.0
  9
$ANGDIR
 70
     0
  9
$PDMODE
 70
     0
  9
$PDSIZE
 40
0.0
  9
$PLINEWID
 40
0.0
  9
$SPLFRAME
 70
     0
  9
$SPLINETYPE
 70
     6
  9
$SPLINESEGS
 70
     8
  9
$HANDSEED
  5
DC
  9
$SURFTAB1
 70
     6
  9
$SURFTAB2
 70
     6
  9
$SURFTYPE
 70
     6
  9
$SURFU
 70
     6
  9
$SURFV
 70
     6
  9
$UCSBASE
  2

  9
$UCSNAME
  2

  9
$UCSORG
 10
0.0
 20
0.0
 30
0.0
  9
$UCSXDIR
 10
1.0
 20
0.0
 30
0.0
  9
$UCSYDIR
 10
0.0
 20
1.0
 30
0.0
  9
$UCSORTHOREF
  2

  9
$UCSORTHOVIEW
 70
     0
  9
$UCSORGTOP
 10
0.0
 20
0.0
 30
0.0
  9
$UCSORGBOTTOM
 10
0.0
 20
0.0
 30
0.0
  9
$UCSORGLEFT
 10
0.0
 20
0.0
 30
0.0
  9
$UCSORGRIGHT
 10
0.0
 20
0.0
 30
0.0
  9
$UCSORGFRONT
 10
0.0
 20
0.0
 30
0.0
  9
$UCSORGBACK
 10
0.0
 20
0.0
 30
0.0
  9
$PUCSBASE
  2

  9
$PUCSNAME
  2

  9
$PUCSORG
 10
0.0
 20
0.0
 30
0.0
  9
$PUCSXDIR
 10
1.0
 20
0.0
 30
0.0
  9
$PUCSYDIR
 10
0.0
 20
1.0
 30
0.0
  9
$PUCSORTHOREF
  2

  9
$PUCSORTHOVIEW
 70
     0
  9
$PUCSORGTOP
 10
0.0
 20
0.0
 30
0.0
  9
$PUCSORGBOTTOM
 10
0.0
 20
0.0
 30
0.0
  9
$PUCSORGLEFT
 10
0.0
 20
0.0
 30
0.0
  9
$PUCSORGRIGHT
 10
0.0
 20
0.0
 30
0.0
  9
$PUCSORGFRONT
 10
0.0
 20
0.0
 30
0.0
  9
$PUCSORGBACK
 10
0.0
 20
0.0
 30
0.0
  9
$USERI1
 70
     0
  9
$USERI2
 70
     0
  9
$USERI3
 70
     0
  9
$USERI4
 70
     0
  9
$USERI5
 70
     0
  9
$USERR1
 40
0.0
  9
$USERR2
 40
0.0
  9
$USERR3
 40
0.0
  9
$USERR4
 40
0.0
  9
$USERR5
 40
0.0
  9
$WORLDVIEW
 70
     1
  9
$SHADEDGE
 70
     3
  9
$SHADEDIF
 70
    70
  9
$TILEMODE
 70
     1
  9
$MAXACTVP
 70
    64
  9
$PINSBASE
 10
0.0
 20
0.0
 30
0.0
  9
$PLIMCHECK
 70
     0
  9
$PEXTMIN
 10
1.000000000000000E+20
 20
1.000000000000000E+20
 30
1.000000000000000E+20
  9
$PEXTMAX
 10
-1.000000000000000E+20
 20
-1.000000000000000E+20
 30
-1.000000000000000E+20
  9
$PLIMMIN
 10
0.0
 20
0.0
  9
$PLIMMAX
 10
12.0
 20
9.0
  9
$UNITMODE
 70
     0
  9
$VISRETAIN
 70
     1
  9
$PLINEGEN
 70
     0
  9
$PSLTSCALE
 70
     1
  9
$TREEDEPTH
 70
  3020
  9
$CMLSTYLE
  2
Standard
  9
$CMLJUST
 70
     0
  9
$CMLSCALE
 40
1.0
  9
$PROXYGRAPHICS
 70
     1
  9
$MEASUREMENT
 70
     0
  9
$CELWEIGHT
370
    -1
  9
$ENDCAPS
280
     0
  9
$JOINSTYLE
280
     0
  9
$LWDISPLAY
290
     1
  9
$INSUNITS
 70
     1
  9
$HYPERLINKBASE
  1

  9
$STYLESHEET
  1

  9
$XEDIT
290
     1
  9
$CEPSNTYPE
380
     0
  9
$PSTYLEMODE
290
     1
  9
$FINGERPRINTGUID
  2
{20B43932-3F32-D7D5-83C0-15BA0E2ECF4D}
  9
$VERSIONGUID
  2
{FAEB1C32-E019-11D5-929B-00C0DF256EC4}
  9
$EXTNAMES
290
     1
  9
$PSVPSCALE
 40
0.0
  9
$OLESTARTUP
290
     0
  9
$SORTENTS
280
   127
  9
$INDEXCTL
280
     0
  9
$HIDETEXT
280
     1
  9
$XCLIPFRAME
280
     2
  9
$HALOGAP
280
     0
  9
$OBSCOLOR
 70
   257
  9
$OBSLTYPE
280
     0
  9
$INTERSECTIONDISPLAY
280
     0
  9
$INTERSECTIONCOLOR
 70
   257
  9
$DIMASSOC
280
     2
  9
$PROJECTNAME
  1

  9
$CAMERADISPLAY
290
     0
  9
$LENSLENGTH
 40
50.0
  9
$CAMERAHEIGHT
 40
0.0
  9
$STEPSPERSEC
 40
2.0
  9
$STEPSIZE
 40
6.0
  9
$3DDWFPREC
 40
2.0
  9
$PSOLWIDTH
 40
0.25
  9
$PSOLHEIGHT
 40
4.0
  9
$LOFTANG1
 40
1.570796326794897
  9
$LOFTANG2
 40
1.570796326794897
  9
$LOFTMAG1
 40
0.0
  9
$LOFTMAG2
 40
0.0
  9
$LOFTPARAM
 70
     7
  9
$LOFTNORMALS
280
     1
  9
$LATITUDE
 40
37.795
  9
$LONGITUDE
 40
-122.394
  9
$NORTHDIRECTION
 40
0.0
  9
$TIMEZONE
 70
 -8000
  9
$LIGHTGLYPHDISPLAY
280
     1
  9
$TILEMODELIGHTSYNCH
280
     1
  9
$CMATERIAL
347
3C
  9
$SOLIDHIST
280
     1
  9
$SHOWHIST
280
     1
  9
$DWFFRAME
280
     2
  9
$DGNFRAME
280
     2
  9
$REALWORLDSCALE
290
     1
  9
$INTERFERECOLOR
 62
   256
  9
$CSHADOW
280
     0
  9
$SHADOWPLANELOCATION
 40
0.0
  0
ENDSEC
  0
SECTION
  2
CLASSES
  0
CLASS
  1
ACDBDICTIONARYWDFLT
  2
AcDbDictionaryWithDefault
  3
ObjectDBX Classes
 90
        0
 91
        4
280
     0
281
     0
  0
CLASS
  1
VISUALSTYLE
  2
AcDbVisualStyle
  3
ObjectDBX Classes
 90
     4095
 91
        4
280
     0
281
     0
  0
CLASS
  1
MATERIAL
  2
AcDbMaterial
  3
ObjectDBX Classes
 90
     1153
 91
        4
280
     0
281
     0
  0
CLASS
  1
SUN
  2
AcDbSun
  3
SCENEOE
 90
     1024
 91
        4
280
     0
281
     0
  0
ENDSEC
  0
SECTION
  2
TABLES
  0
TABLE
  2
VPORT
  5
8
330
0
100
AcDbSymbolTable
 70
     1
  0
VPORT
  5
29
330
8
100
AcDbSymbolTableRecord
100
AcDbViewportTableRecord
  2
*Active
 70
     0
 10
0.0
 20
0.0
 11
1.0
 21
1.0
 12
0.0
 22
0.0
 13
0.0
 23
0.0
 14
0.5
 24
0.5
 15
0.5
 25
0.5
 16
0.0
 26
0.0
 36
1.0
 17
91.00082462281999
 27
-128.4993055234307
 37
0.0
 40
256.9986110468615
 41
0.7081814508812795
 42
50.0
 43
0.0
 44
0.0
 50
0.0
 51
0.0
 71
     0
 72
   100
 73
     1
 74
     3
 75
     0
 76
     0
 77
     0
 78
     0
281
     0
 65
     1
110
0.0
120
0.0
130
0.0
111
1.0
121
0.0
131
0.0
112
0.0
122
1.0
132
0.0
 79
     0
146
0.0
 60
     3
 61
     5
292
     1
282
     1
141
0.0
142
0.0
 63
   250
361
3F
  0
ENDTAB
  0
TABLE
  2
LTYPE
  5
5
330
0
100
AcDbSymbolTable
 70
     1
  0
LTYPE
  5
14
330
5
100
AcDbSymbolTableRecord
100
AcDbLinetypeTableRecord
  2
ByBlock
 70
     0
  3

 72
    65
 73
     0
 40
0.0
  0
LTYPE
  5
15
330
5
100
AcDbSymbolTableRecord
100
AcDbLinetypeTableRecord
  2
ByLayer
 70
     0
  3

 72
    65
 73
     0
 40
0.0
  0
LTYPE
  5
16
330
5
100
AcDbSymbolTableRecord
100
AcDbLinetypeTableRecord
  2
Continuous
 70
     0
  3
Solid line
 72
    65
 73
     0
 40
0.0
  0
ENDTAB
  0
TABLE
  2
LAYER
  5
2
330
0
100
AcDbSymbolTable
 70
     2
  0
LAYER
  5
10
330
2
100
AcDbSymbolTableRecord
100
AcDbLayerTableRecord
  2
0
 70
     0
 62
     7
  6
Continuous
370
    -3
390
F
347
3E
  0
LAYER
  5
40
330
2
100
AcDbSymbolTableRecord
100
AcDbLayerTableRecord
  2
_U+30EC_U+30A4_U+30E4_U+30FC 1
 70
     0
 62
     7
  6
Continuous
370
    -3
390
F
347
3E
  0
ENDTAB
  0
TABLE
  2
STYLE
  5
3
330
0
100
AcDbSymbolTable
 70
     1
  0
STYLE
  5
11
330
3
100
AcDbSymbolTableRecord
100
AcDbTextStyleTableRecord
  2
Standard
 70
     0
 40
0.0
 41
1.0
 50
0.0
 71
     0
 42
0.2
  3
txt
  4

  0
ENDTAB
  0
TABLE
  2
VIEW
  5
6
330
0
100
AcDbSymbolTable
 70
     0
  0
ENDTAB
  0
TABLE
  2
UCS
  5
7
330
0
100
AcDbSymbolTable
 70
     0
  0
ENDTAB
  0
TABLE
  2
APPID
  5
9
330
0
100
AcDbSymbolTable
 70
     1
  0
APPID
  5
12
330
9
100
AcDbSymbolTableRecord
100
AcDbRegAppTableRecord
  2
ACAD
 70
     0
  0
ENDTAB
  0
TABLE
  2
DIMSTYLE
  5
A
330
0
100
AcDbSymbolTable
 70
     1
100
AcDbDimStyleTable
  0
DIMSTYLE
105
27
330
A
100
AcDbSymbolTableRecord
100
AcDbDimStyleTableRecord
  2
Standard
 70
     0
178
     0
340
11
  0
ENDTAB
  0
TABLE
  2
BLOCK_RECORD
  5
1
330
0
100
AcDbSymbolTable
 70
     7
  0
BLOCK_RECORD
  5
1F
330
1
100
AcDbSymbolTableRecord
100
AcDbBlockTableRecord
  2
*Model_Space
340
22
 70
     0
280
     1
281
     0
  0
BLOCK_RECORD
  5
1B
330
1
100
AcDbSymbolTableRecord
100
AcDbBlockTableRecord
  2
*Paper_Space
340
1E
 70
     0
280
     1
281
     0
  0
BLOCK_RECORD
  5
23
330
1
100
AcDbSymbolTableRecord
100
AcDbBlockTableRecord
  2
*Paper_Space0
340
26
 70
     0
280
     1
281
     0
  0
BLOCK_RECORD
  5
67
330
1
100
AcDbSymbolTableRecord
100
AcDbBlockTableRecord
  2
block 2
340
0
102
{BLKREFS
331
68
102
}
 70
     0
280
     1
281
     0
  0
BLOCK_RECORD
  5
76
330
1
100
AcDbSymbolTableRecord
100
AcDbBlockTableRecord
  2
block 3
340
0
102
{BLKREFS
331
77
102
}
 70
     0
280
     1
281
     0
  0
BLOCK_RECORD
  5
8B
330
1
100
AcDbSymbolTableRecord
100
AcDbBlockTableRecord
  2
block 4
340
0
102
{BLKREFS
331
8C
102
}
 70
     0
280
     1
281
     0
  0
BLOCK_RECORD
  5
91
330
1
100
AcDbSymbolTableRecord
100
AcDbBlockTableRecord
  2
block 5
340
0
102
{BLKREFS
331
92
102
}
 70
     0
280
     1
281
     0
  0
BLOCK_RECORD
  5
A6
330
1
100
AcDbSymbolTableRecord
100
AcDbBlockTableRecord
  2
block 6
340
0
102
{BLKREFS
331
A7
102
}
 70
     0
280
     1
281
     0
  0
BLOCK_RECORD
  5
BA
330
1
100
AcDbSymbolTableRecord
100
AcDbBlockTableRecord
  2
block 7
340
0
102
{BLKREFS
331
BB
102
}
 70
     0
280
     1
281
     0
  0
ENDTAB
  0
ENDSEC
  0
SECTION
  2
BLOCKS
  0
BLOCK
  5
20
330
1F
100
AcDbEntity
  8
0
100
AcDbBlockBegin
  2
*Model_Space
 70
     0
 10
0.0
 20
0.0
 30
0.0
  3
*Model_Space
  1

  0
ENDBLK
  5
21
330
1F
100
AcDbEntity
  8
0
100
AcDbBlockEnd
  0
BLOCK
  5
1C
330
1B
100
AcDbEntity
 67
     1
  8
0
100
AcDbBlockBegin
  2
*Paper_Space
 70
     0
 10
0.0
 20
0.0
 30
0.0
  3
*Paper_Space
  1

  0
ENDBLK
  5
1D
330
1B
100
AcDbEntity
 67
     1
  8
0
100
AcDbBlockEnd
  0
BLOCK
  5
24
330
23
100
AcDbEntity
  8
0
100
AcDbBlockBegin
  2
*Paper_Space0
 70
     0
 10
0.0
 20
0.0
 30
0.0
  3
*Paper_Space0
  1

  0
ENDBLK
  5
25
330
23
100
AcDbEntity
  8
0
100
AcDbBlockEnd
  0
BLOCK
  5
69
330
67
100
AcDbEntity
  8
0
100
AcDbBlockBegin
  2
block 2
 70
     0
 10
0.0
 20
0.0
 30
0.0
  3
block 2
  1

  0
SPLINE
  5
6B
330
67
100
AcDbEntity
  8
_U+30EC_U+30A4_U+30E4_U+30FC 1
370
     0
100
AcDbSpline
210
0.0
220
0.0
230
1.0
 70
    11
 71
     3
 72
    62
 73
    58
 74
     0
 42
0.0000000001
 43
0.0000000001
 12
1.0
 22
0.0
 32
0.0
 13
1.0
 23
0.0
 33
0.0
 40
0.0
 40
0.0
 40
0.0
 40
0.0
 40
1.0
 40
1.0
 40
1.0
 40
2.0
 40
2.0
 40
2.0
 40
3.0
 40
3.0
 40
3.0
 40
4.0
 40
4.0
 40
4.0
 40
5.0
 40
5.0
 40
5.0
 40
6.0
 40
6.0
 40
6.0
 40
7.0
 40
7.0
 40
7.0
 40
8.0
 40
8.0
 40
8.0
 40
9.0
 40
9.0
 40
9.0
 40
10.0
 40
10.0
 40
10.0
 40
11.0
 40
11.0
 40
11.0
 40
12.0
 40
12.0
 40
12.0
 40
13.0
 40
13.0
 40
13.0
 40
14.0
 40
14.0
 40
14.0
 40
15.0
 40
15.0
 40
15.0
 40
16.0
 40
16.0
 40
16.0
 40
17.0
 40
17.0
 40
17.0
 40
18.0
 40
18.0
 40
18.0
 40
19.0
 40
19.0
 40
19.0
 40
19.0
 10
100.9244167499425
 20
-126.2386338660098
 30
0.0
 10
100.9244167499425
 20
-126.3402641828247
 30
0.0
 10
100.9034016674825
 20
-126.5731526376275
 30
0.0
 10
100.717366511279
 20
-126.7064778329067
 30
0.0
 10
100.6050563984599
 20
-126.7857150290675
 30
0.0
 10
100.5058376484847
 20
-126.7901936531983
 30
0.0
 10
100.4210882995475
 20
-126.7946722773291
 30
0.0
 10
100.4210882995475
 20
-126.7946722773291
 30
0.0
 10
100.4210882995475
 20
-126.5597167652351
 30
0.0
 10
100.4210882995475
 20
-126.5597167652351
 30
0.0
 10
100.4951578524804
 20
-126.5573051983954
 30
0.0
 10
100.7297688550259
 20
-126.5459363832941
 30
0.0
 10
100.7297688550259
 20
-126.2431124901406
 30
0.0
 10
100.7297688550259
 20
-126.0960069129204
 30
0.0
 10
100.6601779262239
 20
-125.9333984060167
 30
0.0
 10
100.4317680955518
 20
-125.9333984060167
 30
0.0
 10
100.3153238681503
 20
-125.9333984060167
 30
0.0
 10
100.2667480218083
 20
-125.9740505327426
 30
0.0
 10
100.235053143344
 20
-126.0078124684981
 30
0.0
 10
100.1609835904111
 20
-126.0870496646588
 30
0.0
 10
100.1482367371157
 20
-126.2114176116763
 30
0.0
 10
100.1482367371157
 20
-126.2703287444741
 30
0.0
 10
100.1482367371157
 20
-126.2906548078371
 30
0.0
 10
100.1503037944069
 20
-126.3288953677233
 30
0.0
 10
100.1544379089892
 20
-126.3585231888965
 30
0.0
 10
100.1544379089892
 20
-126.3585231888965
 30
0.0
 10
99.95979001407255
 20
-126.3585231888965
 30
0.0
 10
99.95979001407255
 20
-126.3585231888965
 30
0.0
 10
99.96633569549454
 20
-126.3178710621705
 30
0.0
 10
99.96840275278568
 20
-126.2723958017652
 30
0.0
 10
99.96840275278568
 20
-126.2658501203433
 30
0.0
 10
99.96840275278568
 20
-126.1955701724442
 30
0.0
 10
99.94704316077713
 20
-125.9830077810042
 30
0.0
 10
99.71036510094046
 20
-125.9830077810042
 30
0.0
 10
99.53259817390158
 20
-125.9830077810042
 30
0.0
 10
99.47747664613757
 20
-126.1232231672539
 30
0.0
 10
99.47747664613757
 20
-126.2407009233009
 30
0.0
 10
99.47747664613757
 20
-126.5235432626399
 30
0.0
 10
99.71036510094046
 20
-126.5325005109016
 30
0.0
 10
99.78202308703366
 20
-126.5369791350324
 30
0.0
 10
99.78202308703366
 20
-126.5369791350324
 30
0.0
 10
99.78202308703366
 20
-126.7540201506032
 30
0.0
 10
99.78202308703366
 20
-126.7540201506032
 30
0.0
 10
99.65731063046762
 20
-126.7450629023415
 30
0.0
 10
99.28076169392982
 20
-126.7157795907169
 30
0.0
 10
99.28076169392982
 20
-126.2272650509085
 30
0.0
 10
99.28076169392982
 20
-125.9874864051351
 30
0.0
 10
99.40788571733553
 20
-125.7297932628384
 30
0.0
 10
99.7038194195185
 20
-125.7297932628384
 30
0.0
 10
99.89019908527051
 20
-125.7297932628384
 30
0.0
 10
99.97253686736798
 20
-125.8317680892018
 30
0.0
 10
100.0338595670054
 20
-125.9378770301475
 30
0.0
 10
100.0614203308874
 20
-125.8724202159277
 30
0.0
 10
100.1416910556938
 20
-125.6777723210111
 30
0.0
 10
100.4190212422564
 20
-125.6777723210111
 30
0.0
 10
100.7573296189079
 20
-125.6777723210111
 30
0.0
 10
100.9244167499425
 20
-125.9423556542783
 30
0.0
 10
100.9244167499425
 20
-126.2386338660098
 30
0.0
  0
HATCH
  5
6C
330
67
100
AcDbEntity
  8
_U+30EC_U+30A4_U+30E4_U+30FC 1
 62
     7
420
 16777215
100
AcDbHatch
 10
0.0
 20
0.0
 30
0.0
210
0.0
220
0.0
230
1.0
  2
SOLID
 70
     1
 71
     0
 91
        1
 92
        1
 93
        1
 72
     4
 94
        3
 73
     0
 74
     1
 95
       62
 96
       58
 40
0.0
 40
0.0
 40
0.0
 40
0.0
 40
1.0
 40
1.0
 40
1.0
 40
2.0
 40
2.0
 40
2.0
 40
3.0
 40
3.0
 40
3.0
 40
4.0
 40
4.0
 40
4.0
 40
5.0
 40
5.0
 40
5.0
 40
6.0
 40
6.0
 40
6.0
 40
7.0
 40
7.0
 40
7.0
 40
8.0
 40
8.0
 40
8.0
 40
9.0
 40
9.0
 40
9.0
 40
10.0
 40
10.0
 40
10.0
 40
11.0
 40
11.0
 40
11.0
 40
12.0
 40
12.0
 40
12.0
 40
13.0
 40
13.0
 40
13.0
 40
14.0
 40
14.0
 40
14.0
 40
15.0
 40
15.0
 40
15.0
 40
16.0
 40
16.0
 40
16.0
 40
17.0
 40
17.0
 40
17.0
 40
18.0
 40
18.0
 40
18.0
 40
19.0
 40
19.0
 40
19.0
 40
19.0
 10
100.9244167499425
 20
-126.2386338660098
 10
100.9244167499425
 20
-126.3402641828247
 10
100.9034016674825
 20
-126.5731526376275
 10
100.717366511279
 20
-126.7064778329067
 10
100.6050563984599
 20
-126.7857150290675
 10
100.5058376484847
 20
-126.7901936531983
 10
100.4210882995475
 20
-126.7946722773291
 10
100.4210882995475
 20
-126.7946722773291
 10
100.4210882995475
 20
-126.5597167652351
 10
100.4210882995475
 20
-126.5597167652351
 10
100.4951578524804
 20
-126.5573051983954
 10
100.7297688550259
 20
-126.5459363832941
 10
100.7297688550259
 20
-126.2431124901406
 10
100.7297688550259
 20
-126.0960069129204
 10
100.6601779262239
 20
-125.9333984060167
 10
100.4317680955518
 20
-125.9333984060167
 10
100.3153238681503
 20
-125.9333984060167
 10
100.2667480218083
 20
-125.9740505327426
 10
100.235053143344
 20
-126.0078124684981
 10
100.1609835904111
 20
-126.0870496646588
 10
100.1482367371157
 20
-126.2114176116763
 10
100.1482367371157
 20
-126.2703287444741
 10
100.1482367371157
 20
-126.2906548078371
 10
100.1503037944069
 20
-126.3288953677233
 10
100.1544379089892
 20
-126.3585231888965
 10
100.1544379089892
 20
-126.3585231888965
 10
99.95979001407255
 20
-126.3585231888965
 10
99.95979001407255
 20
-126.3585231888965
 10
99.96633569549454
 20
-126.3178710621705
 10
99.96840275278568
 20
-126.2723958017652
 10
99.96840275278568
 20
-126.2658501203433
 10
99.96840275278568
 20
-126.1955701724442
 10
99.94704316077713
 20
-125.9830077810042
 10
99.71036510094046
 20
-125.9830077810042
 10
99.53259817390158
 20
-125.9830077810042
 10
99.47747664613757
 20
-126.1232231672539
 10
99.47747664613757
 20
-126.2407009233009
 10
99.47747664613757
 20
-126.5235432626399
 10
99.71036510094046
 20
-126.5325005109016
 10
99.78202308703366
 20
-126.5369791350324
 10
99.78202308703366
 20
-126.5369791350324
 10
99.78202308703366
 20
-126.7540201506032
 10
99.78202308703366
 20
-126.7540201506032
 10
99.65731063046762
 20
-126.7450629023415
 10
99.28076169392982
 20
-126.7157795907169
 10
99.28076169392982
 20
-126.2272650509085
 10
99.28076169392982
 20
-125.9874864051351
 10
99.40788571733553
 20
-125.7297932628384
 10
99.7038194195185
 20
-125.7297932628384
 10
99.89019908527051
 20
-125.7297932628384
 10
99.97253686736798
 20
-125.8317680892018
 10
100.0338595670054
 20
-125.9378770301475
 10
100.0614203308874
 20
-125.8724202159277
 10
100.1416910556938
 20
-125.6777723210111
 10
100.4190212422564
 20
-125.6777723210111
 10
100.7573296189079
 20
-125.6777723210111
 10
100.9244167499425
 20
-125.9423556542783
 10
100.9244167499425
 20
-126.2386338660098
 97
        0
 97
        0
 75
     2
 76
     1
 98
        0
  0
ENDBLK
  5
6A
330
67
100
AcDbEntity
  8
0
100
AcDbBlockEnd
  0
BLOCK
  5
78
330
76
100
AcDbEntity
  8
0
100
AcDbBlockBegin
  2
block 3
 70
     0
 10
0.0
 20
0.0
 30
0.0
  3
block 3
  1

  0
SPLINE
  5
7A
330
76
100
AcDbEntity
  8
_U+30EC_U+30A4_U+30E4_U+30FC 1
370
     0
100
AcDbSpline
210
0.0
220
0.0
230
1.0
 70
    11
 71
     3
 72
    62
 73
    58
 74
     0
 42
0.0000000001
 43
0.0000000001
 12
1.0
 22
0.0
 32
0.0
 13
1.0
 23
0.0
 33
0.0
 40
0.0
 40
0.0
 40
0.0
 40
0.0
 40
1.0
 40
1.0
 40
1.0
 40
2.0
 40
2.0
 40
2.0
 40
3.0
 40
3.0
 40
3.0
 40
4.0
 40
4.0
 40
4.0
 40
5.0
 40
5.0
 40
5.0
 40
6.0
 40
6.0
 40
6.0
 40
7.0
 40
7.0
 40
7.0
 40
8.0
 40
8.0
 40
8.0
 40
9.0
 40
9.0
 40
9.0
 40
10.0
 40
10.0
 40
10.0
 40
11.0
 40
11.0
 40
11.0
 40
12.0
 40
12.0
 40
12.0
 40
13.0
 40
13.0
 40
13.0
 40
14.0
 40
14.0
 40
14.0
 40
15.0
 40
15.0
 40
15.0
 40
16.0
 40
16.0
 40
16.0
 40
17.0
 40
17.0
 40
17.0
 40
18.0
 40
18.0
 40
18.0
 40
19.0
 40
19.0
 40
19.0
 40
19.0
 10
100.9244167499425
 20
-129.502861838284
 30
0.0
 10
100.9244167499425
 20
-129.6044921550989
 30
0.0
 10
100.9034016674825
 20
-129.8373806099018
 30
0.0
 10
100.717366511279
 20
-129.9707058051809
 30
0.0
 10
100.6050563984599
 20
-130.0499430013417
 30
0.0
 10
100.5058376484847
 20
-130.0544216254725
 30
0.0
 10
100.4210882995475
 20
-130.0589002496033
 30
0.0
 10
100.4210882995475
 20
-130.0589002496033
 30
0.0
 10
100.4210882995475
 20
-129.8239447375093
 30
0.0
 10
100.4210882995475
 20
-129.8239447375093
 30
0.0
 10
100.4951578524804
 20
-129.8215331706696
 30
0.0
 10
100.7297688550259
 20
-129.8101643555683
 30
0.0
 10
100.7297688550259
 20
-129.5073404624148
 30
0.0
 10
100.7297688550259
 20
-129.3602348851947
 30
0.0
 10
100.6601779262239
 20
-129.1976263782909
 30
0.0
 10
100.4317680955518
 20
-129.1976263782909
 30
0.0
 10
100.3153238681503
 20
-129.1976263782909
 30
0.0
 10
100.2667480218083
 20
-129.2382785050168
 30
0.0
 10
100.235053143344
 20
-129.2720404407723
 30
0.0
 10
100.1609835904111
 20
-129.351277636933
 30
0.0
 10
100.1482367371157
 20
-129.4756455839506
 30
0.0
 10
100.1482367371157
 20
-129.5345567167483
 30
0.0
 10
100.1482367371157
 20
-129.5548827801113
 30
0.0
 10
100.1503037944069
 20
-129.5931233399976
 30
0.0
 10
100.1544379089892
 20
-129.6227511611707
 30
0.0
 10
100.1544379089892
 20
-129.6227511611707
 30
0.0
 10
99.95979001407255
 20
-129.6227511611707
 30
0.0
 10
99.95979001407255
 20
-129.6227511611707
 30
0.0
 10
99.96633569549454
 20
-129.5820990344448
 30
0.0
 10
99.96840275278568
 20
-129.5366237740395
 30
0.0
 10
99.96840275278568
 20
-129.5300780926175
 30
0.0
 10
99.96840275278568
 20
-129.4597981447184
 30
0.0
 10
99.94704316077713
 20
-129.2472357532785
 30
0.0
 10
99.71036510094046
 20
-129.2472357532785
 30
0.0
 10
99.53259817390158
 20
-129.2472357532785
 30
0.0
 10
99.47747664613757
 20
-129.3874511395281
 30
0.0
 10
99.47747664613757
 20
-129.5049288955752
 30
0.0
 10
99.47747664613757
 20
-129.7877712349142
 30
0.0
 10
99.71036510094046
 20
-129.7967284831758
 30
0.0
 10
99.78202308703366
 20
-129.8012071073067
 30
0.0
 10
99.78202308703366
 20
-129.8012071073067
 30
0.0
 10
99.78202308703366
 20
-130.0182481228774
 30
0.0
 10
99.78202308703366
 20
-130.0182481228774
 30
0.0
 10
99.65731063046762
 20
-130.0092908746157
 30
0.0
 10
99.28076169392982
 20
-129.9800075629911
 30
0.0
 10
99.28076169392982
 20
-129.4914930231827
 30
0.0
 10
99.28076169392982
 20
-129.2517143774093
 30
0.0
 10
99.40788571733553
 20
-128.9940212351126
 30
0.0
 10
99.7038194195185
 20
-128.9940212351126
 30
0.0
 10
99.89019908527051
 20
-128.9940212351126
 30
0.0
 10
99.97253686736798
 20
-129.095996061476
 30
0.0
 10
100.0338595670054
 20
-129.2021050024217
 30
0.0
 10
100.0614203308874
 20
-129.1366481882019
 30
0.0
 10
100.1416910556938
 20
-128.9420002932853
 30
0.0
 10
100.4190212422564
 20
-128.9420002932853
 30
0.0
 10
100.7573296189079
 20
-128.9420002932853
 30
0.0
 10
100.9244167499425
 20
-129.2065836265525
 30
0.0
 10
100.9244167499425
 20
-129.502861838284
 30
0.0
  0
HATCH
  5
7B
330
76
100
AcDbEntity
  8
_U+30EC_U+30A4_U+30E4_U+30FC 1
 62
     7
420
 16777215
100
AcDbHatch
 10
0.0
 20
0.0
 30
0.0
210
0.0
220
0.0
230
1.0
  2
SOLID
 70
     1
 71
     0
 91
        1
 92
        1
 93
        1
 72
     4
 94
        3
 73
     0
 74
     1
 95
       62
 96
       58
 40
0.0
 40
0.0
 40
0.0
 40
0.0
 40
1.0
 40
1.0
 40
1.0
 40
2.0
 40
2.0
 40
2.0
 40
3.0
 40
3.0
 40
3.0
 40
4.0
 40
4.0
 40
4.0
 40
5.0
 40
5.0
 40
5.0
 40
6.0
 40
6.0
 40
6.0
 40
7.0
 40
7.0
 40
7.0
 40
8.0
 40
8.0
 40
8.0
 40
9.0
 40
9.0
 40
9.0
 40
10.0
 40
10.0
 40
10.0
 40
11.0
 40
11.0
 40
11.0
 40
12.0
 40
12.0
 40
12.0
 40
13.0
 40
13.0
 40
13.0
 40
14.0
 40
14.0
 40
14.0
 40
15.0
 40
15.0
 40
15.0
 40
16.0
 40
16.0
 40
16.0
 40
17.0
 40
17.0
 40
17.0
 40
18.0
 40
18.0
 40
18.0
 40
19.0
 40
19.0
 40
19.0
 40
19.0
 10
100.9244167499425
 20
-129.502861838284
 10
100.9244167499425
 20
-129.6044921550989
 10
100.9034016674825
 20
-129.8373806099018
 10
100.717366511279
 20
-129.9707058051809
 10
100.6050563984599
 20
-130.0499430013417
 10
100.5058376484847
 20
-130.0544216254725
 10
100.4210882995475
 20
-130.0589002496033
 10
100.4210882995475
 20
-130.0589002496033
 10
100.4210882995475
 20
-129.8239447375093
 10
100.4210882995475
 20
-129.8239447375093
 10
100.4951578524804
 20
-129.8215331706696
 10
100.7297688550259
 20
-129.8101643555683
 10
100.7297688550259
 20
-129.5073404624148
 10
100.7297688550259
 20
-129.3602348851947
 10
100.6601779262239
 20
-129.1976263782909
 10
100.4317680955518
 20
-129.1976263782909
 10
100.3153238681503
 20
-129.1976263782909
 10
100.2667480218083
 20
-129.2382785050168
 10
100.235053143344
 20
-129.2720404407723
 10
100.1609835904111
 20
-129.351277636933
 10
100.1482367371157
 20
-129.4756455839506
 10
100.1482367371157
 20
-129.5345567167483
 10
100.1482367371157
 20
-129.5548827801113
 10
100.1503037944069
 20
-129.5931233399976
 10
100.1544379089892
 20
-129.6227511611707
 10
100.1544379089892
 20
-129.6227511611707
 10
99.95979001407255
 20
-129.6227511611707
 10
99.95979001407255
 20
-129.6227511611707
 10
99.96633569549454
 20
-129.5820990344448
 10
99.96840275278568
 20
-129.5366237740395
 10
99.96840275278568
 20
-129.5300780926175
 10
99.96840275278568
 20
-129.4597981447184
 10
99.94704316077713
 20
-129.2472357532785
 10
99.71036510094046
 20
-129.2472357532785
 10
99.53259817390158
 20
-129.2472357532785
 10
99.47747664613757
 20
-129.3874511395281
 10
99.47747664613757
 20
-129.5049288955752
 10
99.47747664613757
 20
-129.7877712349142
 10
99.71036510094046
 20
-129.7967284831758
 10
99.78202308703366
 20
-129.8012071073067
 10
99.78202308703366
 20
-129.8012071073067
 10
99.78202308703366
 20
-130.0182481228774
 10
99.78202308703366
 20
-130.0182481228774
 10
99.65731063046762
 20
-130.0092908746157
 10
99.28076169392982
 20
-129.9800075629911
 10
99.28076169392982
 20
-129.4914930231827
 10
99.28076169392982
 20
-129.2517143774093
 10
99.40788571733553
 20
-128.9940212351126
 10
99.7038194195185
 20
-128.9940212351126
 10
99.89019908527051
 20
-128.9940212351126
 10
99.97253686736798
 20
-129.095996061476
 10
100.0338595670054
 20
-129.2021050024217
 10
100.0614203308874
 20
-129.1366481882019
 10
100.1416910556938
 20
-128.9420002932853
 10
100.4190212422564
 20
-128.9420002932853
 10
100.7573296189079
 20
-128.9420002932853
 10
100.9244167499425
 20
-129.2065836265525
 10
100.9244167499425
 20
-129.502861838284
 97
        0
 97
        0
 75
     2
 76
     1
 98
        0
  0
ENDBLK
  5
79
330
76
100
AcDbEntity
  8
0
100
AcDbBlockEnd
  0
BLOCK
  5
8D
330
8B
100
AcDbEntity
  8
0
100
AcDbBlockBegin
  2
block 4
 70
     0
 10
0.0
 20
0.0
 30
0.0
  3
block 4
  1

  0
SPLINE
  5
8F
330
8B
100
AcDbEntity
  8
_U+30EC_U+30A4_U+30E4_U+30FC 1
370
     0
100
AcDbSpline
210
0.0
220
0.0
230
1.0
 70
    11
 71
     3
 72
    26
 73
    22
 74
     0
 42
0.0000000001
 43
0.0000000001
 12
1.0
 22
0.0
 32
0.0
 13
1.0
 23
0.0
 33
0.0
 40
0.0
 40
0.0
 40
0.0
 40
0.0
 40
1.0
 40
1.0
 40
1.0
 40
2.0
 40
2.0
 40
2.0
 40
3.0
 40
3.0
 40
3.0
 40
4.0
 40
4.0
 40
4.0
 40
5.0
 40
5.0
 40
5.0
 40
6.0
 40
6.0
 40
6.0
 40
7.0
 40
7.0
 40
7.0
 40
7.0
 10
104.2523789886938
 20
-131.805563660625
 30
0.0
 10
104.2523789886938
 20
-131.805563660625
 30
0.0
 10
103.1482258856713
 20
-131.805563660625
 30
0.0
 10
103.1482258856713
 20
-131.805563660625
 30
0.0
 10
103.1482258856713
 20
-131.805563660625
 30
0.0
 10
103.1482258856713
 20
-132.1579969287661
 30
0.0
 10
103.1482258856713
 20
-132.1579969287661
 30
0.0
 10
103.1482258856713
 20
-132.1579969287661
 30
0.0
 10
103.0000867798055
 20
-132.1579969287661
 30
0.0
 10
103.0000867798055
 20
-132.1579969287661
 30
0.0
 10
102.985272869219
 20
-131.8031520937853
 30
0.0
 10
102.8223198527667
 20
-131.7535427187977
 30
0.0
 10
102.7079426826564
 20
-131.7218478403334
 30
0.0
 10
102.7079426826564
 20
-131.7218478403334
 30
0.0
 10
102.7079426826564
 20
-131.5657850148516
 30
0.0
 10
102.7079426826564
 20
-131.5657850148516
 30
0.0
 10
102.7079426826564
 20
-131.5657850148516
 30
0.0
 10
104.2523789886938
 20
-131.5657850148516
 30
0.0
 10
104.2523789886938
 20
-131.5657850148516
 30
0.0
 10
104.2523789886938
 20
-131.5657850148516
 30
0.0
 10
104.2523789886938
 20
-131.805563660625
 30
0.0
 10
104.2523789886938
 20
-131.805563660625
 30
0.0
  0
HATCH
  5
90
330
8B
100
AcDbEntity
  8
_U+30EC_U+30A4_U+30E4_U+30FC 1
 62
     7
420
 16777215
100
AcDbHatch
 10
0.0
 20
0.0
 30
0.0
210
0.0
220
0.0
230
1.0
  2
SOLID
 70
     1
 71
     0
 91
        1
 92
        1
 93
        1
 72
     4
 94
        3
 73
     0
 74
     1
 95
       26
 96
       22
 40
0.0
 40
0.0
 40
0.0
 40
0.0
 40
1.0
 40
1.0
 40
1.0
 40
2.0
 40
2.0
 40
2.0
 40
3.0
 40
3.0
 40
3.0
 40
4.0
 40
4.0
 40
4.0
 40
5.0
 40
5.0
 40
5.0
 40
6.0
 40
6.0
 40
6.0
 40
7.0
 40
7.0
 40
7.0
 40
7.0
 10
104.2523789886938
 20
-131.805563660625
 10
104.2523789886938
 20
-131.805563660625
 10
103.1482258856713
 20
-131.805563660625
 10
103.1482258856713
 20
-131.805563660625
 10
103.1482258856713
 20
-131.805563660625
 10
103.1482258856713
 20
-132.1579969287661
 10
103.1482258856713
 20
-132.1579969287661
 10
103.1482258856713
 20
-132.1579969287661
 10
103.0000867798055
 20
-132.1579969287661
 10
103.0000867798055
 20
-132.1579969287661
 10
102.985272869219
 20
-131.8031520937853
 10
102.8223198527667
 20
-131.7535427187977
 10
102.7079426826564
 20
-131.7218478403334
 10
102.7079426826564
 20
-131.7218478403334
 10
102.7079426826564
 20
-131.5657850148516
 10
102.7079426826564
 20
-131.5657850148516
 10
102.7079426826564
 20
-131.5657850148516
 10
104.2523789886938
 20
-131.5657850148516
 10
104.2523789886938
 20
-131.5657850148516
 10
104.2523789886938
 20
-131.5657850148516
 10
104.2523789886938
 20
-131.805563660625
 10
104.2523789886938
 20
-131.805563660625
 97
        0
 97
        0
 75
     2
 76
     1
 98
        0
  0
ENDBLK
  5
8E
330
8B
100
AcDbEntity
  8
0
100
AcDbBlockEnd
  0
BLOCK
  5
93
330
91
100
AcDbEntity
  8
0
100
AcDbBlockBegin
  2
block 5
 70
     0
 10
0.0
 20
0.0
 30
0.0
  3
block 5
  1

  0
SPLINE
  5
95
330
91
100
AcDbEntity
  8
_U+30EC_U+30A4_U+30E4_U+30FC 1
370
     0
100
AcDbSpline
210
0.0
220
0.0
230
1.0
 70
    11
 71
     3
 72
    32
 73
    28
 74
     0
 42
0.0000000001
 43
0.0000000001
 12
1.0
 22
0.0
 32
0.0
 13
1.0
 23
0.0
 33
0.0
 40
0.0
 40
0.0
 40
0.0
 40
0.0
 40
1.0
 40
1.0
 40
1.0
 40
2.0
 40
2.0
 40
2.0
 40
3.0
 40
3.0
 40
3.0
 40
4.0
 40
4.0
 40
4.0
 40
5.0
 40
5.0
 40
5.0
 40
6.0
 40
6.0
 40
6.0
 40
7.0
 40
7.0
 40
7.0
 40
8.0
 40
8.0
 40
8.0
 40
9.0
 40
9.0
 40
9.0
 40
9.0
 10
104.303021892327
 20
-127.9594590608921
 30
0.0
 10
104.303021892327
 20
-128.5113633576291
 30
0.0
 10
103.7490505382989
 20
-128.5203206058908
 30
0.0
 10
103.5351101086648
 20
-128.5203206058908
 30
0.0
 10
103.3046332207016
 20
-128.5203206058908
 30
0.0
 10
102.6572997790232
 20
-128.4999945425278
 30
0.0
 10
102.6572997790232
 20
-127.9188069341661
 30
0.0
 10
102.6572997790232
 20
-127.7334607970597
 30
0.0
 10
102.7272352173737
 20
-127.4712890306322
 30
0.0
 10
103.0593424221518
 20
-127.4306369039062
 30
0.0
 10
103.0593424221518
 20
-127.4306369039062
 30
0.0
 10
103.0593424221518
 20
-127.6590467345783
 30
0.0
 10
103.0593424221518
 20
-127.6590467345783
 30
0.0
 10
103.0021538370967
 20
-127.6700710401311
 30
0.0
 10
102.8540147312309
 20
-127.7041774854351
 30
0.0
 10
102.8540147312309
 20
-127.9212185010058
 30
0.0
 10
102.8540147312309
 20
-128.2333441519694
 30
0.0
 10
103.1819878214267
 20
-128.2760633359865
 30
0.0
 10
103.3869710027991
 20
-128.2898437179275
 30
0.0
 10
103.3087673352839
 20
-128.1902804584038
 30
0.0
 10
103.2495116929376
 20
-128.1179334532136
 30
0.0
 10
103.2495116929376
 20
-127.9236300678455
 30
0.0
 10
103.2495116929376
 20
-127.7313937397685
 30
0.0
 10
103.3576876911745
 20
-127.4078992737036
 30
0.0
 10
103.7638644488854
 20
-127.4078992737036
 30
0.0
 10
104.0832248003681
 20
-127.4078992737036
 30
0.0
 10
104.303021892327
 20
-127.6204616651435
 30
0.0
 10
104.303021892327
 20
-127.9594590608921
 30
0.0
  0
SPLINE
  5
96
330
91
100
AcDbEntity
  8
_U+30EC_U+30A4_U+30E4_U+30FC 1
370
     0
100
AcDbSpline
210
0.0
220
0.0
230
1.0
 70
    11
 71
     3
 72
    17
 73
    13
 74
     0
 42
0.0000000001
 43
0.0000000001
 12
1.0
 22
0.0
 32
0.0
 13
1.0
 23
0.0
 33
0.0
 40
0.0
 40
0.0
 40
0.0
 40
0.0
 40
1.0
 40
1.0
 40
1.0
 40
2.0
 40
2.0
 40
2.0
 40
3.0
 40
3.0
 40
3.0
 40
4.0
 40
4.0
 40
4.0
 40
4.0
 10
103.4441595878542
 20
-127.9415445643688
 30
0.0
 10
103.4441595878542
 20
-128.2219753368681
 30
0.0
 10
103.6556884506486
 20
-128.2626274635941
 30
0.0
 10
103.77213267805
 20
-128.2626274635941
 30
0.0
 10
103.9478325477978
 20
-128.2626274635941
 30
0.0
 10
104.1107855642501
 20
-128.1609971467792
 30
0.0
 10
104.1107855642501
 20
-127.9642821945714
 30
0.0
 10
104.1107855642501
 20
-127.8354356234231
 30
0.0
 10
104.0515299219038
 20
-127.647677919477
 30
0.0
 10
103.7659315061766
 20
-127.647677919477
 30
0.0
 10
103.5416557900868
 20
-127.647677919477
 30
0.0
 10
103.4441595878542
 20
-127.7968505539883
 30
0.0
 10
103.4441595878542
 20
-127.9415445643688
 30
0.0
  0
HATCH
  5
97
330
91
100
AcDbEntity
  8
_U+30EC_U+30A4_U+30E4_U+30FC 1
 62
     7
420
 16777215
100
AcDbHatch
 10
0.0
 20
0.0
 30
0.0
210
0.0
220
0.0
230
1.0
  2
SOLID
 70
     1
 71
     0
 91
        2
 92
        1
 93
        1
 72
     4
 94
        3
 73
     0
 74
     1
 95
       32
 96
       28
 40
0.0
 40
0.0
 40
0.0
 40
0.0
 40
1.0
 40
1.0
 40
1.0
 40
2.0
 40
2.0
 40
2.0
 40
3.0
 40
3.0
 40
3.0
 40
4.0
 40
4.0
 40
4.0
 40
5.0
 40
5.0
 40
5.0
 40
6.0
 40
6.0
 40
6.0
 40
7.0
 40
7.0
 40
7.0
 40
8.0
 40
8.0
 40
8.0
 40
9.0
 40
9.0
 40
9.0
 40
9.0
 10
104.303021892327
 20
-127.9594590608921
 10
104.303021892327
 20
-128.5113633576291
 10
103.7490505382989
 20
-128.5203206058908
 10
103.5351101086648
 20
-128.5203206058908
 10
103.3046332207016
 20
-128.5203206058908
 10
102.6572997790232
 20
-128.4999945425278
 10
102.6572997790232
 20
-127.9188069341661
 10
102.6572997790232
 20
-127.7334607970597
 10
102.7272352173737
 20
-127.4712890306322
 10
103.0593424221518
 20
-127.4306369039062
 10
103.0593424221518
 20
-127.4306369039062
 10
103.0593424221518
 20
-127.6590467345783
 10
103.0593424221518
 20
-127.6590467345783
 10
103.0021538370967
 20
-127.6700710401311
 10
102.8540147312309
 20
-127.7041774854351
 10
102.8540147312309
 20
-127.9212185010058
 10
102.8540147312309
 20
-128.2333441519694
 10
103.1819878214267
 20
-128.2760633359865
 10
103.3869710027991
 20
-128.2898437179275
 10
103.3087673352839
 20
-128.1902804584038
 10
103.2495116929376
 20
-128.1179334532136
 10
103.2495116929376
 20
-127.9236300678455
 10
103.2495116929376
 20
-127.7313937397685
 10
103.3576876911745
 20
-127.4078992737036
 10
103.7638644488854
 20
-127.4078992737036
 10
104.0832248003681
 20
-127.4078992737036
 10
104.303021892327
 20
-127.6204616651435
 10
104.303021892327
 20
-127.9594590608921
 97
        0
 97
        0
 92
        1
 93
        1
 72
     4
 94
        3
 73
     0
 74
     1
 95
       17
 96
       13
 40
0.0
 40
0.0
 40
0.0
 40
0.0
 40
1.0
 40
1.0
 40
1.0
 40
2.0
 40
2.0
 40
2.0
 40
3.0
 40
3.0
 40
3.0
 40
4.0
 40
4.0
 40
4.0
 40
4.0
 10
103.4441595878542
 20
-127.9415445643688
 10
103.4441595878542
 20
-128.2219753368681
 10
103.6556884506486
 20
-128.2626274635941
 10
103.77213267805
 20
-128.2626274635941
 10
103.9478325477978
 20
-128.2626274635941
 10
104.1107855642501
 20
-128.1609971467792
 10
104.1107855642501
 20
-127.9642821945714
 10
104.1107855642501
 20
-127.8354356234231
 10
104.0515299219038
 20
-127.647677919477
 10
103.7659315061766
 20
-127.647677919477
 10
103.5416557900868
 20
-127.647677919477
 10
103.4441595878542
 20
-127.7968505539883
 10
103.4441595878542
 20
-127.9415445643688
 97
        0
 97
        0
 75
     2
 76
     1
 98
        0
  0
ENDBLK
  5
94
330
91
100
AcDbEntity
  8
0
100
AcDbBlockEnd
  0
BLOCK
  5
A8
330
A6
100
AcDbEntity
  8
0
100
AcDbBlockBegin
  2
block 6
 70
     0
 10
0.0
 20
0.0
 30
0.0
  3
block 6
  1

  0
SPLINE
  5
AA
330
A6
100
AcDbEntity
  8
_U+30EC_U+30A4_U+30E4_U+30FC 1
370
     0
100
AcDbSpline
210
0.0
220
0.0
230
1.0
 70
    11
 71
     3
 72
    62
 73
    58
 74
     0
 42
0.0000000001
 43
0.0000000001
 12
1.0
 22
0.0
 32
0.0
 13
1.0
 23
0.0
 33
0.0
 40
0.0
 40
0.0
 40
0.0
 40
0.0
 40
1.0
 40
1.0
 40
1.0
 40
2.0
 40
2.0
 40
2.0
 40
3.0
 40
3.0
 40
3.0
 40
4.0
 40
4.0
 40
4.0
 40
5.0
 40
5.0
 40
5.0
 40
6.0
 40
6.0
 40
6.0
 40
7.0
 40
7.0
 40
7.0
 40
8.0
 40
8.0
 40
8.0
 40
9.0
 40
9.0
 40
9.0
 40
10.0
 40
10.0
 40
10.0
 40
11.0
 40
11.0
 40
11.0
 40
12.0
 40
12.0
 40
12.0
 40
13.0
 40
13.0
 40
13.0
 40
14.0
 40
14.0
 40
14.0
 40
15.0
 40
15.0
 40
15.0
 40
16.0
 40
16.0
 40
16.0
 40
17.0
 40
17.0
 40
17.0
 40
18.0
 40
18.0
 40
18.0
 40
19.0
 40
19.0
 40
19.0
 40
19.0
 10
87.39380423162378
 20
-122.6364420266326
 30
0.0
 10
87.2921739148089
 20
-122.6364420266326
 30
0.0
 10
87.05928546000601
 20
-122.6154269441725
 30
0.0
 10
86.92596026472685
 20
-122.4293917879691
 30
0.0
 10
86.8467230685661
 20
-122.3170816751499
 30
0.0
 10
86.84224444443528
 20
-122.2178629251747
 30
0.0
 10
86.83776582030445
 20
-122.1331135762376
 30
0.0
 10
86.83776582030445
 20
-122.1331135762376
 30
0.0
 10
87.07272133239849
 20
-122.1331135762376
 30
0.0
 10
87.07272133239849
 20
-122.1331135762376
 30
0.0
 10
87.07513289923817
 20
-122.2071831291704
 30
0.0
 10
87.08650171433949
 20
-122.441794131716
 30
0.0
 10
87.38932560749295
 20
-122.441794131716
 30
0.0
 10
87.53643118471312
 20
-122.441794131716
 30
0.0
 10
87.69903969161692
 20
-122.3722032029139
 30
0.0
 10
87.69903969161692
 20
-122.1437933722418
 30
0.0
 10
87.69903969161692
 20
-122.0273491448404
 30
0.0
 10
87.65838756489096
 20
-121.9787732984984
 30
0.0
 10
87.62462562913551
 20
-121.9470784200341
 30
0.0
 10
87.54538843297476
 20
-121.8730088671012
 30
0.0
 10
87.42102048595724
 20
-121.8602620138058
 30
0.0
 10
87.36210935315948
 20
-121.8602620138058
 30
0.0
 10
87.3417832897965
 20
-121.8602620138058
 30
0.0
 10
87.30354272991023
 20
-121.8623290710969
 30
0.0
 10
87.27391490873708
 20
-121.8664631856792
 30
0.0
 10
87.27391490873708
 20
-121.8664631856792
 30
0.0
 10
87.27391490873708
 20
-121.6718152907626
 30
0.0
 10
87.27391490873708
 20
-121.6718152907626
 30
0.0
 10
87.31456703546303
 20
-121.6783609721846
 30
0.0
 10
87.36004229586833
 20
-121.6804280294757
 30
0.0
 10
87.36658797729031
 20
-121.6804280294757
 30
0.0
 10
87.4368679251894
 20
-121.6804280294757
 30
0.0
 10
87.6494303166293
 20
-121.6590684374672
 30
0.0
 10
87.6494303166293
 20
-121.4223903776305
 30
0.0
 10
87.6494303166293
 20
-121.2446234505916
 30
0.0
 10
87.50921493037964
 20
-121.1895019228276
 30
0.0
 10
87.39173717433262
 20
-121.1895019228276
 30
0.0
 10
87.10889483499362
 20
-121.1895019228276
 30
0.0
 10
87.09993758673197
 20
-121.4223903776305
 30
0.0
 10
87.09545896260114
 20
-121.4940483637237
 30
0.0
 10
87.09545896260114
 20
-121.4940483637237
 30
0.0
 10
86.8784179470304
 20
-121.4940483637237
 30
0.0
 10
86.8784179470304
 20
-121.4940483637237
 30
0.0
 10
86.88737519529205
 20
-121.3693359071577
 30
0.0
 10
86.91665850691668
 20
-120.9927869706199
 30
0.0
 10
87.4051730467251
 20
-120.9927869706199
 30
0.0
 10
87.6449516924985
 20
-120.9927869706199
 30
0.0
 10
87.90264483479518
 20
-121.1199109940256
 30
0.0
 10
87.90264483479518
 20
-121.4158446962085
 30
0.0
 10
87.90264483479518
 20
-121.6022243619606
 30
0.0
 10
87.80067000843178
 20
-121.684562144058
 30
0.0
 10
87.69456106748609
 20
-121.7458848436955
 30
0.0
 10
87.76001788170583
 20
-121.7734456075775
 30
0.0
 10
87.95466577662245
 20
-121.8537163323838
 30
0.0
 10
87.95466577662245
 20
-122.1310465189464
 30
0.0
 10
87.95466577662245
 20
-122.4693548955979
 30
0.0
 10
87.69008244335527
 20
-122.6364420266326
 30
0.0
 10
87.39380423162378
 20
-122.6364420266326
 30
0.0
  0
HATCH
  5
AB
330
A6
100
AcDbEntity
  8
_U+30EC_U+30A4_U+30E4_U+30FC 1
 62
     7
420
 16777215
100
AcDbHatch
 10
0.0
 20
0.0
 30
0.0
210
0.0
220
0.0
230
1.0
  2
SOLID
 70
     1
 71
     0
 91
        1
 92
        1
 93
        1
 72
     4
 94
        3
 73
     0
 74
     1
 95
       62
 96
       58
 40
0.0
 40
0.0
 40
0.0
 40
0.0
 40
1.0
 40
1.0
 40
1.0
 40
2.0
 40
2.0
 40
2.0
 40
3.0
 40
3.0
 40
3.0
 40
4.0
 40
4.0
 40
4.0
 40
5.0
 40
5.0
 40
5.0
 40
6.0
 40
6.0
 40
6.0
 40
7.0
 40
7.0
 40
7.0
 40
8.0
 40
8.0
 40
8.0
 40
9.0
 40
9.0
 40
9.0
 40
10.0
 40
10.0
 40
10.0
 40
11.0
 40
11.0
 40
11.0
 40
12.0
 40
12.0
 40
12.0
 40
13.0
 40
13.0
 40
13.0
 40
14.0
 40
14.0
 40
14.0
 40
15.0
 40
15.0
 40
15.0
 40
16.0
 40
16.0
 40
16.0
 40
17.0
 40
17.0
 40
17.0
 40
18.0
 40
18.0
 40
18.0
 40
19.0
 40
19.0
 40
19.0
 40
19.0
 10
87.39380423162378
 20
-122.6364420266326
 10
87.2921739148089
 20
-122.6364420266326
 10
87.05928546000601
 20
-122.6154269441725
 10
86.92596026472685
 20
-122.4293917879691
 10
86.8467230685661
 20
-122.3170816751499
 10
86.84224444443528
 20
-122.2178629251747
 10
86.83776582030445
 20
-122.1331135762376
 10
86.83776582030445
 20
-122.1331135762376
 10
87.07272133239849
 20
-122.1331135762376
 10
87.07272133239849
 20
-122.1331135762376
 10
87.07513289923817
 20
-122.2071831291704
 10
87.08650171433949
 20
-122.441794131716
 10
87.38932560749295
 20
-122.441794131716
 10
87.53643118471312
 20
-122.441794131716
 10
87.69903969161692
 20
-122.3722032029139
 10
87.69903969161692
 20
-122.1437933722418
 10
87.69903969161692
 20
-122.0273491448404
 10
87.65838756489096
 20
-121.9787732984984
 10
87.62462562913551
 20
-121.9470784200341
 10
87.54538843297476
 20
-121.8730088671012
 10
87.42102048595724
 20
-121.8602620138058
 10
87.36210935315948
 20
-121.8602620138058
 10
87.3417832897965
 20
-121.8602620138058
 10
87.30354272991023
 20
-121.8623290710969
 10
87.27391490873708
 20
-121.8664631856792
 10
87.27391490873708
 20
-121.8664631856792
 10
87.27391490873708
 20
-121.6718152907626
 10
87.27391490873708
 20
-121.6718152907626
 10
87.31456703546303
 20
-121.6783609721846
 10
87.36004229586833
 20
-121.6804280294757
 10
87.36658797729031
 20
-121.6804280294757
 10
87.4368679251894
 20
-121.6804280294757
 10
87.6494303166293
 20
-121.6590684374672
 10
87.6494303166293
 20
-121.4223903776305
 10
87.6494303166293
 20
-121.2446234505916
 10
87.50921493037964
 20
-121.1895019228276
 10
87.39173717433262
 20
-121.1895019228276
 10
87.10889483499362
 20
-121.1895019228276
 10
87.09993758673197
 20
-121.4223903776305
 10
87.09545896260114
 20
-121.4940483637237
 10
87.09545896260114
 20
-121.4940483637237
 10
86.8784179470304
 20
-121.4940483637237
 10
86.8784179470304
 20
-121.4940483637237
 10
86.88737519529205
 20
-121.3693359071577
 10
86.91665850691668
 20
-120.9927869706199
 10
87.4051730467251
 20
-120.9927869706199
 10
87.6449516924985
 20
-120.9927869706199
 10
87.90264483479518
 20
-121.1199109940256
 10
87.90264483479518
 20
-121.4158446962085
 10
87.90264483479518
 20
-121.6022243619606
 10
87.80067000843178
 20
-121.684562144058
 10
87.69456106748609
 20
-121.7458848436955
 10
87.76001788170583
 20
-121.7734456075775
 10
87.95466577662245
 20
-121.8537163323838
 10
87.95466577662245
 20
-122.1310465189464
 10
87.95466577662245
 20
-122.4693548955979
 10
87.69008244335527
 20
-122.6364420266326
 10
87.39380423162378
 20
-122.6364420266326
 97
        0
 97
        0
 75
     2
 76
     1
 98
        0
  0
ENDBLK
  5
A9
330
A6
100
AcDbEntity
  8
0
100
AcDbBlockEnd
  0
BLOCK
  5
BC
330
BA
100
AcDbEntity
  8
0
100
AcDbBlockBegin
  2
block 7
 70
     0
 10
0.0
 20
0.0
 30
0.0
  3
block 7
  1

  0
SPLINE
  5
BE
330
BA
100
AcDbEntity
  8
_U+30EC_U+30A4_U+30E4_U+30FC 1
370
     0
100
AcDbSpline
210
0.0
220
0.0
230
1.0
 70
    11
 71
     3
 72
    44
 73
    40
 74
     0
 42
0.0000000001
 43
0.0000000001
 12
1.0
 22
0.0
 32
0.0
 13
1.0
 23
0.0
 33
0.0
 40
0.0
 40
0.0
 40
0.0
 40
0.0
 40
1.0
 40
1.0
 40
1.0
 40
2.0
 40
2.0
 40
2.0
 40
3.0
 40
3.0
 40
3.0
 40
4.0
 40
4.0
 40
4.0
 40
5.0
 40
5.0
 40
5.0
 40
6.0
 40
6.0
 40
6.0
 40
7.0
 40
7.0
 40
7.0
 40
8.0
 40
8.0
 40
8.0
 40
9.0
 40
9.0
 40
9.0
 40
10.0
 40
10.0
 40
10.0
 40
11.0
 40
11.0
 40
11.0
 40
12.0
 40
12.0
 40
12.0
 40
13.0
 40
13.0
 40
13.0
 40
13.0
 10
87.03740910367468
 20
-134.2247097103674
 30
0.0
 10
86.80452064887179
 20
-134.3835286122375
 30
0.0
 10
86.70495738934807
 20
-134.4575981651703
 30
0.0
 10
86.65328095706933
 20
-134.6012586469053
 30
0.0
 10
86.65328095706933
 20
-134.6012586469053
 30
0.0
 10
87.48492700720864
 20
-134.6012586469053
 30
0.0
 10
87.48492700720864
 20
-134.6012586469053
 30
0.0
 10
87.48492700720864
 20
-134.6012586469053
 30
0.0
 10
87.48492700720864
 20
-134.8065863378261
 30
0.0
 10
87.48492700720864
 20
-134.8065863378261
 30
0.0
 10
87.48492700720864
 20
-134.8065863378261
 30
0.0
 10
86.38628605696246
 20
-134.8065863378261
 30
0.0
 10
86.38628605696246
 20
-134.8065863378261
 30
0.0
 10
86.42039250226644
 20
-134.4489854264572
 30
0.0
 10
86.49032794061701
 20
-134.370781758942
 30
0.0
 10
86.90167234155584
 20
-134.0724364899194
 30
0.0
 10
87.17521292308467
 20
-133.8736544804205
 30
0.0
 10
87.24549287098377
 20
-133.8057860993611
 30
0.0
 10
87.24549287098377
 20
-133.6683267894996
 30
0.0
 10
87.24549287098377
 20
-133.549815504807
 30
0.0
 10
87.1686672416627
 20
-133.4189018763675
 30
0.0
 10
86.95817190751393
 20
-133.4189018763675
 30
0.0
 10
86.68015270185427
 20
-133.4189018763675
 30
0.0
 10
86.67119545359262
 20
-133.6493787643307
 30
0.0
 10
86.66671682946179
 20
-133.7658229917322
 30
0.0
 10
86.66671682946179
 20
-133.7658229917322
 30
0.0
 10
86.4269381836884
 20
-133.7658229917322
 30
0.0
 10
86.4269381836884
 20
-133.7658229917322
 30
0.0
 10
86.43623994149858
 20
-133.6386989683265
 30
0.0
 10
86.44726424705138
 20
-133.5267333650558
 30
0.0
 10
86.53339163418264
 20
-133.4082220803632
 30
0.0
 10
86.65086939022964
 20
-133.2473361212021
 30
0.0
 10
86.84965139972856
 20
-133.2135741854466
 30
0.0
 10
86.97401934674608
 20
-133.2135741854466
 30
0.0
 10
87.27029755847757
 20
-133.2135741854466
 30
0.0
 10
87.49181719817913
 20
-133.397542284359
 30
0.0
 10
87.49181719817913
 20
-133.6703938467907
 30
0.0
 10
87.49181719817913
 20
-133.8991481870113
 30
0.0
 10
87.36744925116162
 20
-133.9983669369865
 30
0.0
 10
87.03740910367468
 20
-134.2247097103674
 30
0.0
  0
HATCH
  5
BF
330
BA
100
AcDbEntity
  8
_U+30EC_U+30A4_U+30E4_U+30FC 1
 62
     7
420
 16777215
100
AcDbHatch
 10
0.0
 20
0.0
 30
0.0
210
0.0
220
0.0
230
1.0
  2
SOLID
 70
     1
 71
     0
 91
        1
 92
        1
 93
        1
 72
     4
 94
        3
 73
     0
 74
     1
 95
       44
 96
       40
 40
0.0
 40
0.0
 40
0.0
 40
0.0
 40
1.0
 40
1.0
 40
1.0
 40
2.0
 40
2.0
 40
2.0
 40
3.0
 40
3.0
 40
3.0
 40
4.0
 40
4.0
 40
4.0
 40
5.0
 40
5.0
 40
5.0
 40
6.0
 40
6.0
 40
6.0
 40
7.0
 40
7.0
 40
7.0
 40
8.0
 40
8.0
 40
8.0
 40
9.0
 40
9.0
 40
9.0
 40
10.0
 40
10.0
 40
10.0
 40
11.0
 40
11.0
 40
11.0
 40
12.0
 40
12.0
 40
12.0
 40
13.0
 40
13.0
 40
13.0
 40
13.0
 10
87.03740910367468
 20
-134.2247097103674
 10
86.80452064887179
 20
-134.3835286122375
 10
86.70495738934807
 20
-134.4575981651703
 10
86.65328095706933
 20
-134.6012586469053
 10
86.65328095706933
 20
-134.6012586469053
 10
87.48492700720864
 20
-134.6012586469053
 10
87.48492700720864
 20
-134.6012586469053
 10
87.48492700720864
 20
-134.6012586469053
 10
87.48492700720864
 20
-134.8065863378261
 10
87.48492700720864
 20
-134.8065863378261
 10
87.48492700720864
 20
-134.8065863378261
 10
86.38628605696246
 20
-134.8065863378261
 10
86.38628605696246
 20
-134.8065863378261
 10
86.42039250226644
 20
-134.4489854264572
 10
86.49032794061701
 20
-134.370781758942
 10
86.90167234155584
 20
-134.0724364899194
 10
87.17521292308467
 20
-133.8736544804205
 10
87.24549287098377
 20
-133.8057860993611
 10
87.24549287098377
 20
-133.6683267894996
 10
87.24549287098377
 20
-133.549815504807
 10
87.1686672416627
 20
-133.4189018763675
 10
86.95817190751393
 20
-133.4189018763675
 10
86.68015270185427
 20
-133.4189018763675
 10
86.67119545359262
 20
-133.6493787643307
 10
86.66671682946179
 20
-133.7658229917322
 10
86.66671682946179
 20
-133.7658229917322
 10
86.4269381836884
 20
-133.7658229917322
 10
86.4269381836884
 20
-133.7658229917322
 10
86.43623994149858
 20
-133.6386989683265
 10
86.44726424705138
 20
-133.5267333650558
 10
86.53339163418264
 20
-133.4082220803632
 10
86.65086939022964
 20
-133.2473361212021
 10
86.84965139972856
 20
-133.2135741854466
 10
86.97401934674608
 20
-133.2135741854466
 10
87.27029755847757
 20
-133.2135741854466
 10
87.49181719817913
 20
-133.397542284359
 10
87.49181719817913
 20
-133.6703938467907
 10
87.49181719817913
 20
-133.8991481870113
 10
87.36744925116162
 20
-133.9983669369865
 10
87.03740910367468
 20
-134.2247097103674
 97
        0
 97
        0
 75
     2
 76
     1
 98
        0
  0
SPLINE
  5
C0
330
BA
100
AcDbEntity
  8
_U+30EC_U+30A4_U+30E4_U+30FC 1
370
     0
100
AcDbSpline
210
0.0
220
0.0
230
1.0
 70
    11
 71
     3
 72
    62
 73
    58
 74
     0
 42
0.0000000001
 43
0.0000000001
 12
1.0
 22
0.0
 32
0.0
 13
1.0
 23
0.0
 33
0.0
 40
0.0
 40
0.0
 40
0.0
 40
0.0
 40
1.0
 40
1.0
 40
1.0
 40
2.0
 40
2.0
 40
2.0
 40
3.0
 40
3.0
 40
3.0
 40
4.0
 40
4.0
 40
4.0
 40
5.0
 40
5.0
 40
5.0
 40
6.0
 40
6.0
 40
6.0
 40
7.0
 40
7.0
 40
7.0
 40
8.0
 40
8.0
 40
8.0
 40
9.0
 40
9.0
 40
9.0
 40
10.0
 40
10.0
 40
10.0
 40
11.0
 40
11.0
 40
11.0
 40
12.0
 40
12.0
 40
12.0
 40
13.0
 40
13.0
 40
13.0
 40
14.0
 40
14.0
 40
14.0
 40
15.0
 40
15.0
 40
15.0
 40
16.0
 40
16.0
 40
16.0
 40
17.0
 40
17.0
 40
17.0
 40
18.0
 40
18.0
 40
18.0
 40
19.0
 40
19.0
 40
19.0
 40
19.0
 10
88.18669295755403
 20
-134.8572292414593
 30
0.0
 10
88.08506264073915
 20
-134.8572292414593
 30
0.0
 10
87.85217418593626
 20
-134.8362141589993
 30
0.0
 10
87.7188489906571
 20
-134.6501790027958
 30
0.0
 10
87.63961179449635
 20
-134.5378688899766
 30
0.0
 10
87.63513317036552
 20
-134.4386501400014
 30
0.0
 10
87.6306545462347
 20
-134.3539007910643
 30
0.0
 10
87.6306545462347
 20
-134.3539007910643
 30
0.0
 10
87.86561005832874
 20
-134.3539007910643
 30
0.0
 10
87.86561005832874
 20
-134.3539007910643
 30
0.0
 10
87.86802162516841
 20
-134.4279703439972
 30
0.0
 10
87.87939044026974
 20
-134.6625813465427
 30
0.0
 10
88.1822143334232
 20
-134.6625813465427
 30
0.0
 10
88.32931991064336
 20
-134.6625813465427
 30
0.0
 10
88.49192841754716
 20
-134.5929904177407
 30
0.0
 10
88.49192841754716
 20
-134.3645805870686
 30
0.0
 10
88.49192841754716
 20
-134.2481363596671
 30
0.0
 10
88.45127629082121
 20
-134.1995605133251
 30
0.0
 10
88.41716984551724
 20
-134.1678656348608
 30
0.0
 10
88.33827715890502
 20
-134.0937960819279
 30
0.0
 10
88.2139092118875
 20
-134.0810492286325
 30
0.0
 10
88.15499807908972
 20
-134.0810492286325
 30
0.0
 10
88.13467201572675
 20
-134.0810492286325
 30
0.0
 10
88.09643145584047
 20
-134.0831162859237
 30
0.0
 10
88.06680363466734
 20
-134.087250400506
 30
0.0
 10
88.06680363466734
 20
-134.087250400506
 30
0.0
 10
88.06680363466734
 20
-133.8926025055894
 30
0.0
 10
88.06680363466734
 20
-133.8926025055894
 30
0.0
 10
88.10745576139328
 20
-133.8991481870113
 30
0.0
 10
88.15293102179858
 20
-133.9012152443025
 30
0.0
 10
88.15947670322055
 20
-133.9012152443025
 30
0.0
 10
88.22975665111964
 20
-133.9012152443025
 30
0.0
 10
88.44231904255956
 20
-133.8798556522939
 30
0.0
 10
88.44231904255956
 20
-133.6431775924573
 30
0.0
 10
88.44231904255956
 20
-133.4654106654184
 30
0.0
 10
88.3021036563099
 20
-133.4102891376544
 30
0.0
 10
88.18462590026287
 20
-133.4102891376544
 30
0.0
 10
87.90178356092386
 20
-133.4102891376544
 30
0.0
 10
87.89282631266221
 20
-133.6431775924573
 30
0.0
 10
87.88834768853138
 20
-133.7148355785505
 30
0.0
 10
87.88834768853138
 20
-133.7148355785505
 30
0.0
 10
87.67130667296065
 20
-133.7148355785505
 30
0.0
 10
87.67130667296065
 20
-133.7148355785505
 30
0.0
 10
87.6802639212223
 20
-133.5901231219844
 30
0.0
 10
87.70954723284692
 20
-133.2135741854466
 30
0.0
 10
88.19806177265535
 20
-133.2135741854466
 30
0.0
 10
88.43784041842873
 20
-133.2135741854466
 30
0.0
 10
88.69553356072542
 20
-133.3406982088523
 30
0.0
 10
88.69553356072542
 20
-133.6366319110353
 30
0.0
 10
88.69553356072542
 20
-133.8230115767873
 30
0.0
 10
88.59355873436203
 20
-133.9053493588848
 30
0.0
 10
88.48744979341633
 20
-133.9666720585222
 30
0.0
 10
88.55290660763609
 20
-133.9942328224042
 30
0.0
 10
88.7475545025527
 20
-134.0745035472106
 30
0.0
 10
88.7475545025527
 20
-134.3518337337732
 30
0.0
 10
88.7475545025527
 20
-134.6901421104247
 30
0.0
 10
88.4829711692855
 20
-134.8572292414593
 30
0.0
 10
88.18669295755403
 20
-134.8572292414593
 30
0.0
  0
HATCH
  5
C1
330
BA
100
AcDbEntity
  8
_U+30EC_U+30A4_U+30E4_U+30FC 1
 62
     7
420
 16777215
100
AcDbHatch
 10
0.0
 20
0.0
 30
0.0
210
0.0
220
0.0
230
1.0
  2
SOLID
 70
     1
 71
     0
 91
        1
 92
        1
 93
        1
 72
     4
 94
        3
 73
     0
 74
     1
 95
       62
 96
       58
 40
0.0
 40
0.0
 40
0.0
 40
0.0
 40
1.0
 40
1.0
 40
1.0
 40
2.0
 40
2.0
 40
2.0
 40
3.0
 40
3.0
 40
3.0
 40
4.0
 40
4.0
 40
4.0
 40
5.0
 40
5.0
 40
5.0
 40
6.0
 40
6.0
 40
6.0
 40
7.0
 40
7.0
 40
7.0
 40
8.0
 40
8.0
 40
8.0
 40
9.0
 40
9.0
 40
9.0
 40
10.0
 40
10.0
 40
10.0
 40
11.0
 40
11.0
 40
11.0
 40
12.0
 40
12.0
 40
12.0
 40
13.0
 40
13.0
 40
13.0
 40
14.0
 40
14.0
 40
14.0
 40
15.0
 40
15.0
 40
15.0
 40
16.0
 40
16.0
 40
16.0
 40
17.0
 40
17.0
 40
17.0
 40
18.0
 40
18.0
 40
18.0
 40
19.0
 40
19.0
 40
19.0
 40
19.0
 10
88.18669295755403
 20
-134.8572292414593
 10
88.08506264073915
 20
-134.8572292414593
 10
87.85217418593626
 20
-134.8362141589993
 10
87.7188489906571
 20
-134.6501790027958
 10
87.63961179449635
 20
-134.5378688899766
 10
87.63513317036552
 20
-134.4386501400014
 10
87.6306545462347
 20
-134.3539007910643
 10
87.6306545462347
 20
-134.3539007910643
 10
87.86561005832874
 20
-134.3539007910643
 10
87.86561005832874
 20
-134.3539007910643
 10
87.86802162516841
 20
-134.4279703439972
 10
87.87939044026974
 20
-134.6625813465427
 10
88.1822143334232
 20
-134.6625813465427
 10
88.32931991064336
 20
-134.6625813465427
 10
88.49192841754716
 20
-134.5929904177407
 10
88.49192841754716
 20
-134.3645805870686
 10
88.49192841754716
 20
-134.2481363596671
 10
88.45127629082121
 20
-134.1995605133251
 10
88.41716984551724
 20
-134.1678656348608
 10
88.33827715890502
 20
-134.0937960819279
 10
88.2139092118875
 20
-134.0810492286325
 10
88.15499807908972
 20
-134.0810492286325
 10
88.13467201572675
 20
-134.0810492286325
 10
88.09643145584047
 20
-134.0831162859237
 10
88.06680363466734
 20
-134.087250400506
 10
88.06680363466734
 20
-134.087250400506
 10
88.06680363466734
 20
-133.8926025055894
 10
88.06680363466734
 20
-133.8926025055894
 10
88.10745576139328
 20
-133.8991481870113
 10
88.15293102179858
 20
-133.9012152443025
 10
88.15947670322055
 20
-133.9012152443025
 10
88.22975665111964
 20
-133.9012152443025
 10
88.44231904255956
 20
-133.8798556522939
 10
88.44231904255956
 20
-133.6431775924573
 10
88.44231904255956
 20
-133.4654106654184
 10
88.3021036563099
 20
-133.4102891376544
 10
88.18462590026287
 20
-133.4102891376544
 10
87.90178356092386
 20
-133.4102891376544
 10
87.89282631266221
 20
-133.6431775924573
 10
87.88834768853138
 20
-133.7148355785505
 10
87.88834768853138
 20
-133.7148355785505
 10
87.67130667296065
 20
-133.7148355785505
 10
87.67130667296065
 20
-133.7148355785505
 10
87.6802639212223
 20
-133.5901231219844
 10
87.70954723284692
 20
-133.2135741854466
 10
88.19806177265535
 20
-133.2135741854466
 10
88.43784041842873
 20
-133.2135741854466
 10
88.69553356072542
 20
-133.3406982088523
 10
88.69553356072542
 20
-133.6366319110353
 10
88.69553356072542
 20
-133.8230115767873
 10
88.59355873436203
 20
-133.9053493588848
 10
88.48744979341633
 20
-133.9666720585222
 10
88.55290660763609
 20
-133.9942328224042
 10
88.7475545025527
 20
-134.0745035472106
 10
88.7475545025527
 20
-134.3518337337732
 10
88.7475545025527
 20
-134.6901421104247
 10
88.4829711692855
 20
-134.8572292414593
 10
88.18669295755403
 20
-134.8572292414593
 97
        0
 97
        0
 75
     2
 76
     1
 98
        0
  0
ENDBLK
  5
BD
330
BA
100
AcDbEntity
  8
0
100
AcDbBlockEnd
  0
ENDSEC
  0
SECTION
  2
ENTITIES
  0
POLYLINE
  5
41
330
1F
100
AcDbEntity
  8
_U+30EC_U+30A4_U+30E4_U+30FC 1
 62
   253
420
 11711154
370
     9
100
AcDb2dPolyline
 66
     1
 10
0.0
 20
0.0
 30
0.0
  0
VERTEX
  5
42
330
41
100
AcDbEntity
  8
_U+30EC_U+30A4_U+30E4_U+30FC 1
 62
   253
420
 11711154
370
     9
100
AcDbVertex
100
AcDb2dVertex
 10
88.75807523559286
 20
-128.0159646902182
 30
0.0
  0
VERTEX
  5
43
330
41
100
AcDbEntity
  8
_U+30EC_U+30A4_U+30E4_U+30FC 1
 62
   253
420
 11711154
370
     9
100
AcDbVertex
100
AcDb2dVertex
 10
85.76980275633548
 20
-128.0159646902182
 30
0.0
  0
VERTEX
  5
44
330
41
100
AcDbEntity
  8
_U+30EC_U+30A4_U+30E4_U+30FC 1
 62
   253
420
 11711154
370
     9
100
AcDbVertex
100
AcDb2dVertex
 10
85.76980275633548
 20
-125.1169074687206
 30
0.0
  0
VERTEX
  5
45
330
41
100
AcDbEntity
  8
_U+30EC_U+30A4_U+30E4_U+30FC 1
 62
   253
420
 11711154
370
     9
100
AcDbVertex
100
AcDb2dVertex
 10
88.75807523559286
 20
-125.1169074687206
 30
0.0
  0
VERTEX
  5
46
330
41
100
AcDbEntity
  8
_U+30EC_U+30A4_U+30E4_U+30FC 1
 62
   253
420
 11711154
370
     9
100
AcDbVertex
100
AcDb2dVertex
 10
88.75807523559286
 20
-128.0159646902182
 30
0.0
  0
SEQEND
  5
48
330
41
100
AcDbEntity
  8
_U+30EC_U+30A4_U+30E4_U+30FC 1
 62
   253
420
 11711154
370
     9
  0
HATCH
  5
47
330
1F
100
AcDbEntity
  8
_U+30EC_U+30A4_U+30E4_U+30FC 1
 62
   253
420
 11711154
100
AcDbHatch
 10
0.0
 20
0.0
 30
0.0
210
0.0
220
0.0
230
1.0
  2
SOLID
 70
     1
 71
     0
 91
        1
 92
        1
 93
        4
 72
     1
 10
88.75807523559286
 20
-128.0159646902182
 11
85.76980275633548
 21
-128.0159646902182
 72
     1
 10
85.76980275633548
 20
-128.0159646902182
 11
85.76980275633548
 21
-125.1169074687206
 72
     1
 10
85.76980275633548
 20
-125.1169074687206
 11
88.75807523559286
 21
-125.1169074687206
 72
     1
 10
88.75807523559286
 20
-125.1169074687206
 11
88.75807523559286
 21
-128.0159646902182
 97
        0
 75
     2
 76
     1
 98
        0
  0
POLYLINE
  5
49
330
1F
100
AcDbEntity
  8
_U+30EC_U+30A4_U+30E4_U+30FC 1
 62
   253
420
 11711154
370
     9
100
AcDb2dPolyline
 66
     1
 10
0.0
 20
0.0
 30
0.0
  0
VERTEX
  5
4A
330
49
100
AcDbEntity
  8
_U+30EC_U+30A4_U+30E4_U+30FC 1
 62
   253
420
 11711154
370
     9
100
AcDbVertex
100
AcDb2dVertex
 10
87.68767692956766
 20
-132.1194052447476
 30
0.0
  0
VERTEX
  5
4B
330
49
100
AcDbEntity
  8
_U+30EC_U+30A4_U+30E4_U+30FC 1
 62
   253
420
 11711154
370
     9
100
AcDbVertex
100
AcDb2dVertex
 10
86.88479000560656
 20
-132.1194052447476
 30
0.0
  0
VERTEX
  5
4C
330
49
100
AcDbEntity
  8
_U+30EC_U+30A4_U+30E4_U+30FC 1
 62
   253
420
 11711154
370
     9
100
AcDbVertex
100
AcDb2dVertex
 10
86.88479000560656
 20
-127.837494412485
 30
0.0
  0
VERTEX
  5
4D
330
49
100
AcDbEntity
  8
_U+30EC_U+30A4_U+30E4_U+30FC 1
 62
   253
420
 11711154
370
     9
100
AcDbVertex
100
AcDb2dVertex
 10
87.68767692956766
 20
-127.837494412485
 30
0.0
  0
VERTEX
  5
4E
330
49
100
AcDbEntity
  8
_U+30EC_U+30A4_U+30E4_U+30FC 1
 62
   253
420
 11711154
370
     9
100
AcDbVertex
100
AcDb2dVertex
 10
87.68767692956766
 20
-132.1194052447476
 30
0.0
  0
SEQEND
  5
50
330
49
100
AcDbEntity
  8
_U+30EC_U+30A4_U+30E4_U+30FC 1
 62
   253
420
 11711154
370
     9
  0
HATCH
  5
4F
330
1F
100
AcDbEntity
  8
_U+30EC_U+30A4_U+30E4_U+30FC 1
 62
   253
420
 11711154
100
AcDbHatch
 10
0.0
 20
0.0
 30
0.0
210
0.0
220
0.0
230
1.0
  2
SOLID
 70
     1
 71
     0
 91
        1
 92
        1
 93
        4
 72
     1
 10
87.68767692956766
 20
-132.1194052447476
 11
86.88479000560656
 21
-132.1194052447476
 72
     1
 10
86.88479000560656
 20
-132.1194052447476
 11
86.88479000560656
 21
-127.837494412485
 72
     1
 10
86.88479000560656
 20
-127.837494412485
 11
87.68767692956766
 21
-127.837494412485
 72
     1
 10
87.68767692956766
 20
-127.837494412485
 11
87.68767692956766
 21
-132.1194052447476
 97
        0
 75
     2
 76
     1
 98
        0
  0
POLYLINE
  5
51
330
1F
100
AcDbEntity
  8
_U+30EC_U+30A4_U+30E4_U+30FC 1
 62
   253
420
 11711154
370
     9
100
AcDb2dPolyline
 66
     1
 10
0.0
 20
0.0
 30
0.0
  0
VERTEX
  5
52
330
51
100
AcDbEntity
  8
_U+30EC_U+30A4_U+30E4_U+30FC 1
 62
   253
420
 11711154
370
     9
100
AcDbVertex
100
AcDb2dVertex
 10
98.83771220066211
 20
-132.0746377447591
 30
0.0
  0
VERTEX
  5
53
330
51
100
AcDbEntity
  8
_U+30EC_U+30A4_U+30E4_U+30FC 1
 62
   253
420
 11711154
370
     9
100
AcDbVertex
100
AcDb2dVertex
 10
75.82344306558281
 20
-132.0746377447591
 30
0.0
  0
VERTEX
  5
54
330
51
100
AcDbEntity
  8
_U+30EC_U+30A4_U+30E4_U+30FC 1
 62
   253
420
 11711154
370
     9
100
AcDbVertex
100
AcDb2dVertex
 10
75.82344306558281
 20
-131.0934569116708
 30
0.0
  0
VERTEX
  5
55
330
51
100
AcDbEntity
  8
_U+30EC_U+30A4_U+30E4_U+30FC 1
 62
   253
420
 11711154
370
     9
100
AcDbVertex
100
AcDb2dVertex
 10
98.83771220066211
 20
-131.0934569116708
 30
0.0
  0
VERTEX
  5
56
330
51
100
AcDbEntity
  8
_U+30EC_U+30A4_U+30E4_U+30FC 1
 62
   253
420
 11711154
370
     9
100
AcDbVertex
100
AcDb2dVertex
 10
98.83771220066211
 20
-132.0746377447591
 30
0.0
  0
SEQEND
  5
58
330
51
100
AcDbEntity
  8
_U+30EC_U+30A4_U+30E4_U+30FC 1
 62
   253
420
 11711154
370
     9
  0
HATCH
  5
57
330
1F
100
AcDbEntity
  8
_U+30EC_U+30A4_U+30E4_U+30FC 1
 62
   253
420
 11711154
100
AcDbHatch
 10
0.0
 20
0.0
 30
0.0
210
0.0
220
0.0
230
1.0
  2
SOLID
 70
     1
 71
     0
 91
        1
 92
        1
 93
        4
 72
     1
 10
98.83771220066211
 20
-132.0746377447591
 11
75.82344306558281
 21
-132.0746377447591
 72
     1
 10
75.82344306558281
 20
-132.0746377447591
 11
75.82344306558281
 21
-131.0934569116708
 72
     1
 10
75.82344306558281
 20
-131.0934569116708
 11
98.83771220066211
 21
-131.0934569116708
 72
     1
 10
98.83771220066211
 20
-131.0934569116708
 11
98.83771220066211
 21
-132.0746377447591
 97
        0
 75
     2
 76
     1
 98
        0
  0
SPLINE
  5
59
330
1F
100
AcDbEntity
  8
_U+30EC_U+30A4_U+30E4_U+30FC 1
 62
     7
420
 16777215
370
     9
100
AcDbSpline
210
0.0
220
0.0
230
1.0
 70
    11
 71
     3
 72
    17
 73
    13
 74
     0
 42
0.0000000001
 43
0.0000000001
 12
1.0
 22
0.0
 32
0.0
 13
1.0
 23
0.0
 33
0.0
 40
0.0
 40
0.0
 40
0.0
 40
0.0
 40
1.0
 40
1.0
 40
1.0
 40
2.0
 40
2.0
 40
2.0
 40
3.0
 40
3.0
 40
3.0
 40
4.0
 40
4.0
 40
4.0
 40
4.0
 10
101.5696937976301
 20
-127.8295921902648
 30
0.0
 10
101.5696937976301
 20
-127.7744530236121
 30
0.0
 10
101.5248910209954
 20
-127.7296855236232
 30
0.0
 10
101.4697871335123
 20
-127.7296855236232
 30
0.0
 10
101.4146479682523
 20
-127.7296855236232
 30
0.0
 10
101.3698804693944
 20
-127.7744530236121
 30
0.0
 10
101.3698804693944
 20
-127.8295921902648
 30
0.0
 10
101.3698804693944
 20
-127.8854016346953
 30
0.0
 10
101.4146479682523
 20
-127.9301691346841
 30
0.0
 10
101.4697871335123
 20
-127.9301691346841
 30
0.0
 10
101.5248910209954
 20
-127.9301691346841
 30
0.0
 10
101.5696937976301
 20
-127.8854016346953
 30
0.0
 10
101.5696937976301
 20
-127.8295921902648
 30
0.0
  0
POLYLINE
  5
5A
330
1F
100
AcDbEntity
  8
_U+30EC_U+30A4_U+30E4_U+30FC 1
 62
     7
420
 16777215
370
     9
100
AcDb2dPolyline
 66
     1
 10
0.0
 20
0.0
 30
0.0
  0
VERTEX
  5
5B
330
5A
100
AcDbEntity
  8
_U+30EC_U+30A4_U+30E4_U+30FC 1
 62
     7
420
 16777215
370
     9
100
AcDbVertex
100
AcDb2dVertex
 10
101.4697871335123
 20
-127.7296855236232
 30
0.0
  0
VERTEX
  5
5C
330
5A
100
AcDbEntity
  8
_U+30EC_U+30A4_U+30E4_U+30FC 1
 62
     7
420
 16777215
370
     9
100
AcDbVertex
100
AcDb2dVertex
 10
101.4697871335123
 20
-124.7296985799288
 30
0.0
  0
SEQEND
  5
5D
330
5A
100
AcDbEntity
  8
_U+30EC_U+30A4_U+30E4_U+30FC 1
 62
     7
420
 16777215
370
     9
  0
POLYLINE
  5
5E
330
1F
100
AcDbEntity
  8
_U+30EC_U+30A4_U+30E4_U+30FC 1
 62
     7
420
 16777215
370
     9
100
AcDb2dPolyline
 66
     1
 10
0.0
 20
0.0
 30
0.0
  0
VERTEX
  5
5F
330
5E
100
AcDbEntity
  8
_U+30EC_U+30A4_U+30E4_U+30FC 1
 62
     7
420
 16777215
370
     9
100
AcDbVertex
100
AcDb2dVertex
 10
90.28697880769839
 20
-127.8295921902648
 30
0.0
  0
VERTEX
  5
60
330
5E
100
AcDbEntity
  8
_U+30EC_U+30A4_U+30E4_U+30FC 1
 62
     7
420
 16777215
370
     9
100
AcDbVertex
100
AcDb2dVertex
 10
102.183597670857
 20
-127.8295921902648
 30
0.0
  0
SEQEND
  5
61
330
5E
100
AcDbEntity
  8
_U+30EC_U+30A4_U+30E4_U+30FC 1
 62
     7
420
 16777215
370
     9
  0
SPLINE
  5
62
330
1F
100
AcDbEntity
  8
_U+30EC_U+30A4_U+30E4_U+30FC 1
 62
     7
420
 16777215
370
     9
100
AcDbSpline
210
0.0
220
0.0
230
1.0
 70
    11
 71
     3
 72
    17
 73
    13
 74
     0
 42
0.0000000001
 43
0.0000000001
 12
1.0
 22
0.0
 32
0.0
 13
1.0
 23
0.0
 33
0.0
 40
0.0
 40
0.0
 40
0.0
 40
0.0
 40
1.0
 40
1.0
 40
1.0
 40
2.0
 40
2.0
 40
2.0
 40
3.0
 40
3.0
 40
3.0
 40
4.0
 40
4.0
 40
4.0
 40
4.0
 10
101.5696937976301
 20
-124.8296052465705
 30
0.0
 10
101.5696937976301
 20
-124.7744660799174
 30
0.0
 10
101.5248910209954
 20
-124.7296985799288
 30
0.0
 10
101.4697871335123
 20
-124.7296985799288
 30
0.0
 10
101.4146479682523
 20
-124.7296985799288
 30
0.0
 10
101.3698804693944
 20
-124.7744660799174
 30
0.0
 10
101.3698804693944
 20
-124.8296052465705
 30
0.0
 10
101.3698804693944
 20
-124.8854146910009
 30
0.0
 10
101.4146479682523
 20
-124.9301821909898
 30
0.0
 10
101.4697871335123
 20
-124.9301821909898
 30
0.0
 10
101.5248910209954
 20
-124.9301821909898
 30
0.0
 10
101.5696937976301
 20
-124.8854146910009
 30
0.0
 10
101.5696937976301
 20
-124.8296052465705
 30
0.0
  0
POLYLINE
  5
63
330
1F
100
AcDbEntity
  8
_U+30EC_U+30A4_U+30E4_U+30FC 1
 62
     7
420
 16777215
370
     9
100
AcDb2dPolyline
 66
     1
 10
0.0
 20
0.0
 30
0.0
  0
VERTEX
  5
64
330
63
100
AcDbEntity
  8
_U+30EC_U+30A4_U+30E4_U+30FC 1
 62
     7
420
 16777215
370
     9
100
AcDbVertex
100
AcDb2dVertex
 10
90.28697880769839
 20
-124.8296052465705
 30
0.0
  0
VERTEX
  5
65
330
63
100
AcDbEntity
  8
_U+30EC_U+30A4_U+30E4_U+30FC 1
 62
     7
420
 16777215
370
     9
100
AcDbVertex
100
AcDb2dVertex
 10
105.885012576426
 20
-124.8296052465705
 30
0.0
  0
SEQEND
  5
66
330
63
100
AcDbEntity
  8
_U+30EC_U+30A4_U+30E4_U+30FC 1
 62
     7
420
 16777215
370
     9
  0
INSERT
  5
68
330
1F
100
AcDbEntity
  8
_U+30EC_U+30A4_U+30E4_U+30FC 1
100
AcDbBlockReference
  2
block 2
 10
0.0
 20
0.0
 30
0.0
  0
SPLINE
  5
6D
330
1F
100
AcDbEntity
  8
_U+30EC_U+30A4_U+30E4_U+30FC 1
 62
     7
420
 16777215
370
     9
100
AcDbSpline
210
0.0
220
0.0
230
1.0
 70
    11
 71
     3
 72
    17
 73
    13
 74
     0
 42
0.0000000001
 43
0.0000000001
 12
1.0
 22
0.0
 32
0.0
 13
1.0
 23
0.0
 33
0.0
 40
0.0
 40
0.0
 40
0.0
 40
0.0
 40
1.0
 40
1.0
 40
1.0
 40
2.0
 40
2.0
 40
2.0
 40
3.0
 40
3.0
 40
3.0
 40
4.0
 40
4.0
 40
4.0
 40
4.0
 10
101.5696937976301
 20
-131.0934569116708
 30
0.0
 10
101.5696937976301
 20
-131.0383530227959
 30
0.0
 10
101.5248910209954
 20
-130.9935502450292
 30
0.0
 10
101.4697871335123
 20
-130.9935502450292
 30
0.0
 10
101.4146479682523
 20
-130.9935502450292
 30
0.0
 10
101.3698804693944
 20
-131.0383530227959
 30
0.0
 10
101.3698804693944
 20
-131.0934569116708
 30
0.0
 10
101.3698804693944
 20
-131.1492663561013
 30
0.0
 10
101.4146479682523
 20
-131.194069133868
 30
0.0
 10
101.4697871335123
 20
-131.194069133868
 30
0.0
 10
101.5248910209954
 20
-131.194069133868
 30
0.0
 10
101.5696937976301
 20
-131.1492663561013
 30
0.0
 10
101.5696937976301
 20
-131.0934569116708
 30
0.0
  0
POLYLINE
  5
6E
330
1F
100
AcDbEntity
  8
_U+30EC_U+30A4_U+30E4_U+30FC 1
 62
     7
420
 16777215
370
     9
100
AcDb2dPolyline
 66
     1
 10
0.0
 20
0.0
 30
0.0
  0
VERTEX
  5
6F
330
6E
100
AcDbEntity
  8
_U+30EC_U+30A4_U+30E4_U+30FC 1
 62
     7
420
 16777215
370
     9
100
AcDbVertex
100
AcDb2dVertex
 10
101.4697871335123
 20
-130.9935502450292
 30
0.0
  0
VERTEX
  5
70
330
6E
100
AcDbEntity
  8
_U+30EC_U+30A4_U+30E4_U+30FC 1
 62
     7
420
 16777215
370
     9
100
AcDbVertex
100
AcDb2dVertex
 10
101.4697871335123
 20
-127.9935633013348
 30
0.0
  0
SEQEND
  5
71
330
6E
100
AcDbEntity
  8
_U+30EC_U+30A4_U+30E4_U+30FC 1
 62
     7
420
 16777215
370
     9
  0
POLYLINE
  5
72
330
1F
100
AcDbEntity
  8
_U+30EC_U+30A4_U+30E4_U+30FC 1
 62
     7
420
 16777215
370
     9
100
AcDb2dPolyline
 66
     1
 10
0.0
 20
0.0
 30
0.0
  0
VERTEX
  5
73
330
72
100
AcDbEntity
  8
_U+30EC_U+30A4_U+30E4_U+30FC 1
 62
     7
420
 16777215
370
     9
100
AcDbVertex
100
AcDb2dVertex
 10
100.0097457818722
 20
-131.0934569116708
 30
0.0
  0
VERTEX
  5
74
330
72
100
AcDbEntity
  8
_U+30EC_U+30A4_U+30E4_U+30FC 1
 62
     7
420
 16777215
370
     9
100
AcDbVertex
100
AcDb2dVertex
 10
105.7961125786941
 20
-131.0934569116708
 30
0.0
  0
SEQEND
  5
75
330
72
100
AcDbEntity
  8
_U+30EC_U+30A4_U+30E4_U+30FC 1
 62
     7
420
 16777215
370
     9
  0
INSERT
  5
77
330
1F
100
AcDbEntity
  8
_U+30EC_U+30A4_U+30E4_U+30FC 1
100
AcDbBlockReference
  2
block 3
 10
0.0
 20
0.0
 30
0.0
  0
SPLINE
  5
7C
330
1F
100
AcDbEntity
  8
_U+30EC_U+30A4_U+30E4_U+30FC 1
 62
     7
420
 16777215
370
     9
100
AcDbSpline
210
0.0
220
0.0
230
1.0
 70
    11
 71
     3
 72
    17
 73
    13
 74
     0
 42
0.0000000001
 43
0.0000000001
 12
1.0
 22
0.0
 32
0.0
 13
1.0
 23
0.0
 33
0.0
 40
0.0
 40
0.0
 40
0.0
 40
0.0
 40
1.0
 40
1.0
 40
1.0
 40
2.0
 40
2.0
 40
2.0
 40
3.0
 40
3.0
 40
3.0
 40
4.0
 40
4.0
 40
4.0
 40
4.0
 10
104.8149670481696
 20
-131.0638235783453
 30
0.0
 10
104.8149670481696
 20
-131.0087196894704
 30
0.0
 10
104.7701642715349
 20
-130.9639169117036
 30
0.0
 10
104.7150603840518
 20
-130.9639169117036
 30
0.0
 10
104.6599212187919
 20
-130.9639169117036
 30
0.0
 10
104.615153719934
 20
-131.0087196894704
 30
0.0
 10
104.615153719934
 20
-131.0638235783453
 30
0.0
 10
104.615153719934
 20
-131.1196330227757
 30
0.0
 10
104.6599212187919
 20
-131.1644358005424
 30
0.0
 10
104.7150603840518
 20
-131.1644358005424
 30
0.0
 10
104.7701642715349
 20
-131.1644358005424
 30
0.0
 10
104.8149670481696
 20
-131.1196330227757
 30
0.0
 10
104.8149670481696
 20
-131.0638235783453
 30
0.0
  0
POLYLINE
  5
7D
330
1F
100
AcDbEntity
  8
_U+30EC_U+30A4_U+30E4_U+30FC 1
 62
     7
420
 16777215
370
     9
100
AcDb2dPolyline
 66
     1
 10
0.0
 20
0.0
 30
0.0
  0
VERTEX
  5
7E
330
7D
100
AcDbEntity
  8
_U+30EC_U+30A4_U+30E4_U+30FC 1
 62
     7
420
 16777215
370
     9
100
AcDbVertex
100
AcDb2dVertex
 10
104.7150603840518
 20
-130.9639169117036
 30
0.0
  0
VERTEX
  5
7F
330
7D
100
AcDbEntity
  8
_U+30EC_U+30A4_U+30E4_U+30FC 1
 62
     7
420
 16777215
370
     9
100
AcDbVertex
100
AcDb2dVertex
 10
104.7150603840518
 20
-124.9639430243146
 30
0.0
  0
SEQEND
  5
80
330
7D
100
AcDbEntity
  8
_U+30EC_U+30A4_U+30E4_U+30FC 1
 62
     7
420
 16777215
370
     9
  0
SPLINE
  5
81
330
1F
100
AcDbEntity
  8
_U+30EC_U+30A4_U+30E4_U+30FC 1
 62
     7
420
 16777215
370
     9
100
AcDbSpline
210
0.0
220
0.0
230
1.0
 70
    11
 71
     3
 72
    17
 73
    13
 74
     0
 42
0.0000000001
 43
0.0000000001
 12
1.0
 22
0.0
 32
0.0
 13
1.0
 23
0.0
 33
0.0
 40
0.0
 40
0.0
 40
0.0
 40
0.0
 40
1.0
 40
1.0
 40
1.0
 40
2.0
 40
2.0
 40
2.0
 40
3.0
 40
3.0
 40
3.0
 40
4.0
 40
4.0
 40
4.0
 40
4.0
 10
104.8149670481696
 20
-124.828899691015
 30
0.0
 10
104.8149670481696
 20
-124.77379580214
 30
0.0
 10
104.7701642715349
 20
-124.7289930243733
 30
0.0
 10
104.7150603840518
 20
-124.7289930243733
 30
0.0
 10
104.6599212187919
 20
-124.7289930243733
 30
0.0
 10
104.615153719934
 20
-124.77379580214
 30
0.0
 10
104.615153719934
 20
-124.828899691015
 30
0.0
 10
104.615153719934
 20
-124.8847091354454
 30
0.0
 10
104.6599212187919
 20
-124.9295119132121
 30
0.0
 10
104.7150603840518
 20
-124.9295119132121
 30
0.0
 10
104.7701642715349
 20
-124.9295119132121
 30
0.0
 10
104.8149670481696
 20
-124.8847091354454
 30
0.0
 10
104.8149670481696
 20
-124.828899691015
 30
0.0
  0
SPLINE
  5
82
330
1F
100
AcDbEntity
  8
_U+30EC_U+30A4_U+30E4_U+30FC 1
 62
     7
420
 16777215
370
     9
100
AcDbSpline
210
0.0
220
0.0
230
1.0
 70
    11
 71
     3
 72
    17
 73
    13
 74
     0
 42
0.0000000001
 43
0.0000000001
 12
1.0
 22
0.0
 32
0.0
 13
1.0
 23
0.0
 33
0.0
 40
0.0
 40
0.0
 40
0.0
 40
0.0
 40
1.0
 40
1.0
 40
1.0
 40
2.0
 40
2.0
 40
2.0
 40
3.0
 40
3.0
 40
3.0
 40
4.0
 40
4.0
 40
4.0
 40
4.0
 10
104.8149670481696
 20
-132.327508855807
 30
0.0
 10
104.8149670481696
 20
-132.2723696891539
 30
0.0
 10
104.7701642715349
 20
-132.2276021891654
 30
0.0
 10
104.7150603840518
 20
-132.2276021891654
 30
0.0
 10
104.6599212187919
 20
-132.2276021891654
 30
0.0
 10
104.615153719934
 20
-132.2723696891539
 30
0.0
 10
104.615153719934
 20
-132.327508855807
 30
0.0
 10
104.615153719934
 20
-132.3833183002374
 30
0.0
 10
104.6599212187919
 20
-132.428085800226
 30
0.0
 10
104.7150603840518
 20
-132.428085800226
 30
0.0
 10
104.7701642715349
 20
-132.428085800226
 30
0.0
 10
104.8149670481696
 20
-132.3833183002374
 30
0.0
 10
104.8149670481696
 20
-132.327508855807
 30
0.0
  0
POLYLINE
  5
83
330
1F
100
AcDbEntity
  8
_U+30EC_U+30A4_U+30E4_U+30FC 1
 62
     7
420
 16777215
370
     9
100
AcDb2dPolyline
 66
     1
 10
0.0
 20
0.0
 30
0.0
  0
VERTEX
  5
84
330
83
100
AcDbEntity
  8
_U+30EC_U+30A4_U+30E4_U+30FC 1
 62
     7
420
 16777215
370
     9
100
AcDbVertex
100
AcDb2dVertex
 10
104.7150603840518
 20
-132.2276021891654
 30
0.0
  0
VERTEX
  5
85
330
83
100
AcDbEntity
  8
_U+30EC_U+30A4_U+30E4_U+30FC 1
 62
     7
420
 16777215
370
     9
100
AcDbVertex
100
AcDb2dVertex
 10
104.7150603840518
 20
-131.2274771894151
 30
0.0
  0
SEQEND
  5
86
330
83
100
AcDbEntity
  8
_U+30EC_U+30A4_U+30E4_U+30FC 1
 62
     7
420
 16777215
370
     9
  0
POLYLINE
  5
87
330
1F
100
AcDbEntity
  8
_U+30EC_U+30A4_U+30E4_U+30FC 1
 62
     7
420
 16777215
370
     9
100
AcDb2dPolyline
 66
     1
 10
0.0
 20
0.0
 30
0.0
  0
VERTEX
  5
88
330
87
100
AcDbEntity
  8
_U+30EC_U+30A4_U+30E4_U+30FC 1
 62
     7
420
 16777215
370
     9
100
AcDbVertex
100
AcDb2dVertex
 10
103.2550190324117
 20
-132.327508855807
 30
0.0
  0
VERTEX
  5
89
330
87
100
AcDbEntity
  8
_U+30EC_U+30A4_U+30E4_U+30FC 1
 62
     7
420
 16777215
370
     9
100
AcDbVertex
100
AcDb2dVertex
 10
105.7148325807677
 20
-132.327508855807
 30
0.0
  0
SEQEND
  5
8A
330
87
100
AcDbEntity
  8
_U+30EC_U+30A4_U+30E4_U+30FC 1
 62
     7
420
 16777215
370
     9
  0
INSERT
  5
8C
330
1F
100
AcDbEntity
  8
_U+30EC_U+30A4_U+30E4_U+30FC 1
100
AcDbBlockReference
  2
block 4
 10
0.0
 20
0.0
 30
0.0
  0
INSERT
  5
92
330
1F
100
AcDbEntity
  8
_U+30EC_U+30A4_U+30E4_U+30FC 1
100
AcDbBlockReference
  2
block 5
 10
0.0
 20
0.0
 30
0.0
  0
SPLINE
  5
98
330
1F
100
AcDbEntity
  8
_U+30EC_U+30A4_U+30E4_U+30FC 1
 62
     7
420
 16777215
370
     9
100
AcDbSpline
210
0.0
220
0.0
230
1.0
 70
     8
 71
     3
 72
    17
 73
    13
 74
     0
 42
0.0000000001
 43
0.0000000001
 12
1.0
 22
0.0
 32
0.0
 13
1.0
 23
0.0
 33
0.0
 40
0.0
 40
0.0
 40
0.0
 40
0.0
 40
1.0
 40
1.0
 40
1.0
 40
2.0
 40
2.0
 40
2.0
 40
3.0
 40
3.0
 40
3.0
 40
4.0
 40
4.0
 40
4.0
 40
4.0
 10
88.87364523264442
 20
-123.1115069136666
 30
0.0
 10
88.83438331112485
 20
-123.0722427470099
 30
0.0
 10
88.77165717969079
 20
-123.0722427470099
 30
0.0
 10
88.73239301402583
 20
-123.1115069136666
 30
0.0
 10
88.69312884836089
 20
-123.1508063581011
 30
0.0
 10
88.69312884836089
 20
-123.2134949691966
 30
0.0
 10
88.73239301402583
 20
-123.2527591358536
 30
0.0
 10
88.77165717969079
 20
-123.2920585802882
 30
0.0
 10
88.83438331112485
 20
-123.2920585802882
 30
0.0
 10
88.87364523264442
 20
-123.2527591358536
 30
0.0
 10
88.89223886666586
 20
-123.2341677469693
 30
0.0
 10
88.90327856522174
 20
-123.2086619136424
 30
0.0
 10
88.90327856522174
 20
-123.1818155247602
 30
0.0
  0
SPLINE
  5
99
330
1F
100
AcDbEntity
  8
_U+30EC_U+30A4_U+30E4_U+30FC 1
 62
     7
420
 16777215
370
     9
100
AcDbSpline
210
0.0
220
0.0
230
1.0
 70
    11
 71
     3
 72
    17
 73
    13
 74
     0
 42
0.0000000001
 43
0.0000000001
 12
1.0
 22
0.0
 32
0.0
 13
1.0
 23
0.0
 33
0.0
 40
0.0
 40
0.0
 40
0.0
 40
0.0
 40
1.0
 40
1.0
 40
1.0
 40
2.0
 40
2.0
 40
2.0
 40
3.0
 40
3.0
 40
3.0
 40
4.0
 40
4.0
 40
4.0
 40
4.0
 10
86.00319836143117
 20
-123.1818155247602
 30
0.0
 10
86.00319836143117
 20
-123.1266763581071
 30
0.0
 10
85.9583955847964
 20
-123.0819088581185
 30
0.0
 10
85.90329169731334
 20
-123.0819088581185
 30
0.0
 10
85.84815253205339
 20
-123.0819088581185
 30
0.0
 10
85.8033850331955
 20
-123.1266763581071
 30
0.0
 10
85.8033850331955
 20
-123.1818155247602
 30
0.0
 10
85.8033850331955
 20
-123.2376249691906
 30
0.0
 10
85.84815253205339
 20
-123.2823924691795
 30
0.0
 10
85.90329169731334
 20
-123.2823924691795
 30
0.0
 10
85.9583955847964
 20
-123.2823924691795
 30
0.0
 10
86.00319836143117
 20
-123.2376249691906
 30
0.0
 10
86.00319836143117
 20
-123.1818155247602
 30
0.0
  0
POLYLINE
  5
9A
330
1F
100
AcDbEntity
  8
_U+30EC_U+30A4_U+30E4_U+30FC 1
 62
     7
420
 16777215
370
     9
100
AcDb2dPolyline
 66
     1
 10
0.0
 20
0.0
 30
0.0
  0
VERTEX
  5
9B
330
9A
100
AcDbEntity
  8
_U+30EC_U+30A4_U+30E4_U+30FC 1
 62
     7
420
 16777215
370
     9
100
AcDbVertex
100
AcDb2dVertex
 10
85.90329169731334
 20
-123.1818155247602
 30
0.0
  0
VERTEX
  5
9C
330
9A
100
AcDbEntity
  8
_U+30EC_U+30A4_U+30E4_U+30FC 1
 62
     7
420
 16777215
370
     9
100
AcDbVertex
100
AcDb2dVertex
 10
88.90327856522174
 20
-123.1818155247602
 30
0.0
  0
SEQEND
  5
9D
330
9A
100
AcDbEntity
  8
_U+30EC_U+30A4_U+30E4_U+30FC 1
 62
     7
420
 16777215
370
     9
  0
POLYLINE
  5
9E
330
1F
100
AcDbEntity
  8
_U+30EC_U+30A4_U+30E4_U+30FC 1
 62
     7
420
 16777215
370
     9
100
AcDb2dPolyline
 66
     1
 10
0.0
 20
0.0
 30
0.0
  0
VERTEX
  5
9F
330
9E
100
AcDbEntity
  8
_U+30EC_U+30A4_U+30E4_U+30FC 1
 62
     7
420
 16777215
370
     9
100
AcDbVertex
100
AcDb2dVertex
 10
85.90329169731334
 20
-121.7217741362361
 30
0.0
  0
VERTEX
  5
A0
330
9E
100
AcDbEntity
  8
_U+30EC_U+30A4_U+30E4_U+30FC 1
 62
     7
420
 16777215
370
     9
100
AcDbVertex
100
AcDb2dVertex
 10
85.90329169731334
 20
-124.1822580245101
 30
0.0
  0
SEQEND
  5
A1
330
9E
100
AcDbEntity
  8
_U+30EC_U+30A4_U+30E4_U+30FC 1
 62
     7
420
 16777215
370
     9
  0
POLYLINE
  5
A2
330
1F
100
AcDbEntity
  8
_U+30EC_U+30A4_U+30E4_U+30FC 1
 62
     7
420
 16777215
370
     9
100
AcDb2dPolyline
 66
     1
 10
0.0
 20
0.0
 30
0.0
  0
VERTEX
  5
A3
330
A2
100
AcDbEntity
  8
_U+30EC_U+30A4_U+30E4_U+30FC 1
 62
     7
420
 16777215
370
     9
100
AcDbVertex
100
AcDb2dVertex
 10
88.80266634556635
 20
-121.7217741362361
 30
0.0
  0
VERTEX
  5
A4
330
A2
100
AcDbEntity
  8
_U+30EC_U+30A4_U+30E4_U+30FC 1
 62
     7
420
 16777215
370
     9
100
AcDbVertex
100
AcDb2dVertex
 10
88.80266634556635
 20
-124.1822580245101
 30
0.0
  0
SEQEND
  5
A5
330
A2
100
AcDbEntity
  8
_U+30EC_U+30A4_U+30E4_U+30FC 1
 62
     7
420
 16777215
370
     9
  0
INSERT
  5
A7
330
1F
100
AcDbEntity
  8
_U+30EC_U+30A4_U+30E4_U+30FC 1
100
AcDbBlockReference
  2
block 6
 10
0.0
 20
0.0
 30
0.0
  0
SPLINE
  5
AC
330
1F
100
AcDbEntity
  8
_U+30EC_U+30A4_U+30E4_U+30FC 1
 62
     7
420
 16777215
370
     9
100
AcDbSpline
210
0.0
220
0.0
230
1.0
 70
     8
 71
     3
 72
    17
 73
    13
 74
     0
 42
0.0000000001
 43
0.0000000001
 12
1.0
 22
0.0
 32
0.0
 13
1.0
 23
0.0
 33
0.0
 40
0.0
 40
0.0
 40
0.0
 40
0.0
 40
1.0
 40
1.0
 40
1.0
 40
2.0
 40
2.0
 40
2.0
 40
3.0
 40
3.0
 40
3.0
 40
4.0
 40
4.0
 40
4.0
 40
4.0
 10
99.03752552889779
 20
-135.332293577278
 30
0.0
 10
98.99826386413933
 20
-135.293029410621
 30
0.0
 10
98.93557275372103
 20
-135.293029410621
 30
0.0
 10
98.8962733102792
 20
-135.332293577278
 30
0.0
 10
98.85700914461425
 20
-135.3715930217126
 30
0.0
 10
98.85700914461425
 20
-135.4342816328081
 30
0.0
 10
98.8962733102792
 20
-135.4735457994651
 30
0.0
 10
98.93557275372103
 20
-135.5128452438996
 30
0.0
 10
98.99826386413933
 20
-135.5128452438996
 30
0.0
 10
99.03752552889779
 20
-135.4735457994651
 30
0.0
 10
99.05615219508924
 20
-135.4549544105808
 30
0.0
 10
99.06715886147511
 20
-135.4294485772539
 30
0.0
 10
99.06715886147511
 20
-135.4026021883716
 30
0.0
  0
SPLINE
  5
AD
330
1F
100
AcDbEntity
  8
_U+30EC_U+30A4_U+30E4_U+30FC 1
 62
     7
420
 16777215
370
     9
100
AcDbSpline
210
0.0
220
0.0
230
1.0
 70
    11
 71
     3
 72
    17
 73
    13
 74
     0
 42
0.0000000001
 43
0.0000000001
 12
1.0
 22
0.0
 32
0.0
 13
1.0
 23
0.0
 33
0.0
 40
0.0
 40
0.0
 40
0.0
 40
0.0
 40
1.0
 40
1.0
 40
1.0
 40
2.0
 40
2.0
 40
2.0
 40
3.0
 40
3.0
 40
3.0
 40
4.0
 40
4.0
 40
4.0
 40
4.0
 10
76.16726027903353
 20
-135.4026021883716
 30
0.0
 10
76.16726027903353
 20
-135.3474630217185
 30
0.0
 10
76.12249278017563
 20
-135.30269552173
 30
0.0
 10
76.06735553653864
 20
-135.30269552173
 30
0.0
 10
76.01224972743262
 20
-135.30269552173
 30
0.0
 10
75.96744695079785
 20
-135.3474630217185
 30
0.0
 10
75.96744695079785
 20
-135.4026021883716
 30
0.0
 10
75.96744695079785
 20
-135.4584116328021
 30
0.0
 10
76.01224972743262
 20
-135.5031791327906
 30
0.0
 10
76.06735553653864
 20
-135.5031791327906
 30
0.0
 10
76.12249278017563
 20
-135.5031791327906
 30
0.0
 10
76.16726027903353
 20
-135.4584116328021
 30
0.0
 10
76.16726027903353
 20
-135.4026021883716
 30
0.0
  0
POLYLINE
  5
AE
330
1F
100
AcDbEntity
  8
_U+30EC_U+30A4_U+30E4_U+30FC 1
 62
     7
420
 16777215
370
     9
100
AcDb2dPolyline
 66
     1
 10
0.0
 20
0.0
 30
0.0
  0
VERTEX
  5
AF
330
AE
100
AcDbEntity
  8
_U+30EC_U+30A4_U+30E4_U+30FC 1
 62
     7
420
 16777215
370
     9
100
AcDbVertex
100
AcDb2dVertex
 10
76.06735553653864
 20
-135.4026021883716
 30
0.0
  0
VERTEX
  5
B0
330
AE
100
AcDbEntity
  8
_U+30EC_U+30A4_U+30E4_U+30FC 1
 62
     7
420
 16777215
370
     9
100
AcDbVertex
100
AcDb2dVertex
 10
99.06715886147511
 20
-135.4026021883716
 30
0.0
  0
SEQEND
  5
B1
330
AE
100
AcDbEntity
  8
_U+30EC_U+30A4_U+30E4_U+30FC 1
 62
     7
420
 16777215
370
     9
  0
POLYLINE
  5
B2
330
1F
100
AcDbEntity
  8
_U+30EC_U+30A4_U+30E4_U+30FC 1
 62
     7
420
 16777215
370
     9
100
AcDb2dPolyline
 66
     1
 10
0.0
 20
0.0
 30
0.0
  0
VERTEX
  5
B3
330
B2
100
AcDbEntity
  8
_U+30EC_U+30A4_U+30E4_U+30FC 1
 62
     7
420
 16777215
370
     9
100
AcDbVertex
100
AcDb2dVertex
 10
76.06735553653864
 20
-133.9425607998479
 30
0.0
  0
VERTEX
  5
B4
330
B2
100
AcDbEntity
  8
_U+30EC_U+30A4_U+30E4_U+30FC 1
 62
     7
420
 16777215
370
     9
100
AcDbVertex
100
AcDb2dVertex
 10
76.06735553653864
 20
-136.4030446881215
 30
0.0
  0
SEQEND
  5
B5
330
B2
100
AcDbEntity
  8
_U+30EC_U+30A4_U+30E4_U+30FC 1
 62
     7
420
 16777215
370
     9
  0
POLYLINE
  5
B6
330
1F
100
AcDbEntity
  8
_U+30EC_U+30A4_U+30E4_U+30FC 1
 62
     7
420
 16777215
370
     9
100
AcDb2dPolyline
 66
     1
 10
0.0
 20
0.0
 30
0.0
  0
VERTEX
  5
B7
330
B6
100
AcDbEntity
  8
_U+30EC_U+30A4_U+30E4_U+30FC 1
 62
     7
420
 16777215
370
     9
100
AcDbVertex
100
AcDb2dVertex
 10
98.96658191959659
 20
-133.9425607998479
 30
0.0
  0
VERTEX
  5
B8
330
B6
100
AcDbEntity
  8
_U+30EC_U+30A4_U+30E4_U+30FC 1
 62
     7
420
 16777215
370
     9
100
AcDbVertex
100
AcDb2dVertex
 10
98.96658191959659
 20
-136.4030446881215
 30
0.0
  0
SEQEND
  5
B9
330
B6
100
AcDbEntity
  8
_U+30EC_U+30A4_U+30E4_U+30FC 1
 62
     7
420
 16777215
370
     9
  0
INSERT
  5
BB
330
1F
100
AcDbEntity
  8
_U+30EC_U+30A4_U+30E4_U+30FC 1
100
AcDbBlockReference
  2
block 7
 10
0.0
 20
0.0
 30
0.0
  0
POLYLINE
  5
C2
330
1F
100
AcDbEntity
  8
_U+30EC_U+30A4_U+30E4_U+30FC 1
 62
     7
420
 16777215
370
    25
100
AcDb2dPolyline
 66
     1
 10
0.0
 20
0.0
 30
0.0
  0
VERTEX
  5
C3
330
C2
100
AcDbEntity
  8
_U+30EC_U+30A4_U+30E4_U+30FC 1
 62
     7
420
 16777215
370
    25
100
AcDbVertex
100
AcDb2dVertex
 10
86.78488334148872
 20
-128.1344627457441
 30
0.0
  0
VERTEX
  5
C4
330
C2
100
AcDbEntity
  8
_U+30EC_U+30A4_U+30E4_U+30FC 1
 62
     7
420
 16777215
370
    25
100
AcDbVertex
100
AcDb2dVertex
 10
85.8033850331955
 20
-128.1344627457441
 30
0.0
  0
VERTEX
  5
C5
330
C2
100
AcDbEntity
  8
_U+30EC_U+30A4_U+30E4_U+30FC 1
 62
     7
420
 16777215
370
    25
100
AcDbVertex
100
AcDb2dVertex
 10
85.8033850331955
 20
-125.1344758020498
 30
0.0
  0
VERTEX
  5
C6
330
C2
100
AcDbEntity
  8
_U+30EC_U+30A4_U+30E4_U+30FC 1
 62
     7
420
 16777215
370
    25
100
AcDbVertex
100
AcDb2dVertex
 10
88.8033719011039
 20
-125.1344758020498
 30
0.0
  0
VERTEX
  5
C7
330
C2
100
AcDbEntity
  8
_U+30EC_U+30A4_U+30E4_U+30FC 1
 62
     7
420
 16777215
370
    25
100
AcDbVertex
100
AcDb2dVertex
 10
88.8033719011039
 20
-128.1344627457441
 30
0.0
  0
VERTEX
  5
C8
330
C2
100
AcDbEntity
  8
_U+30EC_U+30A4_U+30E4_U+30FC 1
 62
     7
420
 16777215
370
    25
100
AcDbVertex
100
AcDb2dVertex
 10
87.80324692661922
 20
-128.1344627457441
 30
0.0
  0
SEQEND
  5
C9
330
C2
100
AcDbEntity
  8
_U+30EC_U+30A4_U+30E4_U+30FC 1
 62
     7
420
 16777215
370
    25
  0
POLYLINE
  5
CA
330
1F
100
AcDbEntity
  8
_U+30EC_U+30A4_U+30E4_U+30FC 1
 62
     7
420
 16777215
370
    25
100
AcDb2dPolyline
 66
     1
 10
0.0
 20
0.0
 30
0.0
  0
VERTEX
  5
CB
330
CA
100
AcDbEntity
  8
_U+30EC_U+30A4_U+30E4_U+30FC 1
 62
     7
420
 16777215
370
    25
100
AcDbVertex
100
AcDb2dVertex
 10
87.80342331550361
 20
-128.1344627457441
 30
0.0
  0
VERTEX
  5
CC
330
CA
100
AcDbEntity
  8
_U+30EC_U+30A4_U+30E4_U+30FC 1
 62
     7
420
 16777215
370
    25
100
AcDbVertex
100
AcDb2dVertex
 10
87.80342331550361
 20
-131.1344496894385
 30
0.0
  0
SEQEND
  5
CD
330
CA
100
AcDbEntity
  8
_U+30EC_U+30A4_U+30E4_U+30FC 1
 62
     7
420
 16777215
370
    25
  0
POLYLINE
  5
CE
330
1F
100
AcDbEntity
  8
_U+30EC_U+30A4_U+30E4_U+30FC 1
 62
     7
420
 16777215
370
    25
100
AcDb2dPolyline
 66
     1
 10
0.0
 20
0.0
 30
0.0
  0
VERTEX
  5
CF
330
CE
100
AcDbEntity
  8
_U+30EC_U+30A4_U+30E4_U+30FC 1
 62
     7
420
 16777215
370
    25
100
AcDbVertex
100
AcDb2dVertex
 10
86.80347472990331
 20
-131.1344496894385
 30
0.0
  0
VERTEX
  5
D0
330
CE
100
AcDbEntity
  8
_U+30EC_U+30A4_U+30E4_U+30FC 1
 62
     7
420
 16777215
370
    25
100
AcDbVertex
100
AcDb2dVertex
 10
86.80347472990331
 20
-128.1344627457441
 30
0.0
  0
SEQEND
  5
D1
330
CE
100
AcDbEntity
  8
_U+30EC_U+30A4_U+30E4_U+30FC 1
 62
     7
420
 16777215
370
    25
  0
POLYLINE
  5
D2
330
1F
100
AcDbEntity
  8
_U+30EC_U+30A4_U+30E4_U+30FC 1
 62
     7
420
 16777215
370
    25
100
AcDb2dPolyline
 66
     1
 10
0.0
 20
0.0
 30
0.0
  0
VERTEX
  5
D3
330
D2
100
AcDbEntity
  8
_U+30EC_U+30A4_U+30E4_U+30FC 1
 62
     7
420
 16777215
370
    25
100
AcDbVertex
100
AcDb2dVertex
 10
87.80324692661922
 20
-131.1344496894385
 30
0.0
  0
VERTEX
  5
D4
330
D2
100
AcDbEntity
  8
_U+30EC_U+30A4_U+30E4_U+30FC 1
 62
     7
420
 16777215
370
    25
100
AcDbVertex
100
AcDb2dVertex
 10
98.80328109042941
 20
-131.1344496894385
 30
0.0
  0
VERTEX
  5
D5
330
D2
100
AcDbEntity
  8
_U+30EC_U+30A4_U+30E4_U+30FC 1
 62
     7
420
 16777215
370
    25
100
AcDbVertex
100
AcDb2dVertex
 10
98.80328109042941
 20
-132.1345746891888
 30
0.0
  0
VERTEX
  5
D6
330
D2
100
AcDbEntity
  8
_U+30EC_U+30A4_U+30E4_U+30FC 1
 62
     7
420
 16777215
370
    25
100
AcDbVertex
100
AcDb2dVertex
 10
75.80347775882699
 20
-132.1345746891888
 30
0.0
  0
VERTEX
  5
D7
330
D2
100
AcDbEntity
  8
_U+30EC_U+30A4_U+30E4_U+30FC 1
 62
     7
420
 16777215
370
    25
100
AcDbVertex
100
AcDb2dVertex
 10
75.80347775882699
 20
-131.1344496894385
 30
0.0
  0
VERTEX
  5
D8
330
D2
100
AcDbEntity
  8
_U+30EC_U+30A4_U+30E4_U+30FC 1
 62
     7
420
 16777215
370
    25
100
AcDbVertex
100
AcDb2dVertex
 10
86.72357056527517
 20
-131.1344496894385
 30
0.0
  0
SEQEND
  5
D9
330
D2
100
AcDbEntity
  8
_U+30EC_U+30A4_U+30E4_U+30FC 1
 62
     7
420
 16777215
370
    25
  0
ENDSEC
  0
SECTION
  2
OBJECTS
  0
DICTIONARY
  5
C
330
0
100
AcDbDictionary
281
     1
  3
ACAD_GROUP
350
D
  3
ACAD_LAYOUT
350
1A
  3
ACAD_MATERIAL
350
3B
  3
ACAD_MLEADERSTYLE
350
DB
  3
ACAD_MLINESTYLE
350
17
  3
ACAD_PLOTSETTINGS
350
19
  3
ACAD_PLOTSTYLENAME
350
E
  3
ACAD_TABLESTYLE
350
DA
  3
ACAD_VISUALSTYLE
350
2A
  0
SUN
  5
3F
330
29
100
AcDbSun
 90
        1
290
     0
 63
     7
421
 16777215
 40
1.0
291
     1
 91
  2455826
 92
 54000000
292
     0
 70
     2
 71
   256
280
     1
  0
DICTIONARY
  5
D
102
{ACAD_REACTORS
330
C
102
}
330
C
100
AcDbDictionary
281
     1
  0
DICTIONARY
  5
1A
102
{ACAD_REACTORS
330
C
102
}
330
C
100
AcDbDictionary
281
     1
  3
Layout1
350
1E
  3
Layout2
350
26
  3
Model
350
22
  0
DICTIONARY
  5
3B
102
{ACAD_REACTORS
330
C
102
}
330
C
100
AcDbDictionary
281
     1
  3
ByBlock
350
3D
  3
ByLayer
350
3C
  3
Global
350
3E
  0
DICTIONARY
  5
DB
102
{ACAD_REACTORS
330
C
102
}
330
C
100
AcDbDictionary
281
     1
  0
DICTIONARY
  5
17
102
{ACAD_REACTORS
330
C
102
}
330
C
100
AcDbDictionary
281
     1
  3
Standard
350
18
  0
DICTIONARY
  5
19
102
{ACAD_REACTORS
330
C
102
}
330
C
100
AcDbDictionary
281
     1
  0
ACDBDICTIONARYWDFLT
  5
E
102
{ACAD_REACTORS
330
C
102
}
330
C
100
AcDbDictionary
281
     1
  3
Normal
350
F
100
AcDbDictionaryWithDefault
340
F
  0
DICTIONARY
  5
DA
102
{ACAD_REACTORS
330
C
102
}
330
C
100
AcDbDictionary
281
     1
  0
DICTIONARY
  5
2A
102
{ACAD_REACTORS
330
C
102
}
330
C
100
AcDbDictionary
281
     1
  3
2dWireframe
350
2F
  3
3D Hidden
350
31
  3
3dWireframe
350
30
  3
Basic
350
32
  3
Brighten
350
36
  3
ColorChange
350
3A
  3
Conceptual
350
34
  3
Dim
350
35
  3
Facepattern
350
39
  3
Flat
350
2B
  3
FlatWithEdges
350
2C
  3
Gouraud
350
2D
  3
GouraudWithEdges
350
2E
  3
Linepattern
350
38
  3
Realistic
350
33
  3
Thicken
350
37
  0
LAYOUT
  5
1E
102
{ACAD_REACTORS
330
1A
102
}
330
1A
100
AcDbPlotSettings
  1

  2
none_device
  4

  6

 40
0.0
 41
0.0
 42
0.0
 43
0.0
 44
0.0
 45
0.0
 46
0.0
 47
0.0
 48
0.0
 49
0.0
140
0.0
141
0.0
142
1.0
143
1.0
 70
   688
 72
     0
 73
     0
 74
     5
  7

 75
    16
 76
     0
 77
     2
 78
   300
147
1.0
148
0.0
149
0.0
100
AcDbLayout
  1
Layout1
 70
     1
 71
     1
 10
0.0
 20
0.0
 11
12.0
 21
9.0
 12
0.0
 22
0.0
 32
0.0
 14
1.000000000000000E+20
 24
1.000000000000000E+20
 34
1.000000000000000E+20
 15
-1.000000000000000E+20
 25
-1.000000000000000E+20
 35
-1.000000000000000E+20
146
0.0
 13
0.0
 23
0.0
 33
0.0
 16
1.0
 26
0.0
 36
0.0
 17
0.0
 27
1.0
 37
0.0
 76
     0
330
1B
  0
LAYOUT
  5
26
102
{ACAD_REACTORS
330
1A
102
}
330
1A
100
AcDbPlotSettings
  1

  2
none_device
  4

  6

 40
0.0
 41
0.0
 42
0.0
 43
0.0
 44
0.0
 45
0.0
 46
0.0
 47
0.0
 48
0.0
 49
0.0
140
0.0
141
0.0
142
1.0
143
1.0
 70
   688
 72
     0
 73
     0
 74
     5
  7

 75
    16
 76
     0
 77
     2
 78
   300
147
1.0
148
0.0
149
0.0
100
AcDbLayout
  1
Layout2
 70
     1
 71
     2
 10
0.0
 20
0.0
 11
0.0
 21
0.0
 12
0.0
 22
0.0
 32
0.0
 14
0.0
 24
0.0
 34
0.0
 15
0.0
 25
0.0
 35
0.0
146
0.0
 13
0.0
 23
0.0
 33
0.0
 16
1.0
 26
0.0
 36
0.0
 17
0.0
 27
1.0
 37
0.0
 76
     0
330
23
  0
LAYOUT
  5
22
102
{ACAD_REACTORS
330
1A
102
}
330
1A
100
AcDbPlotSettings
  1

  2
none_device
  4

  6

 40
0.0
 41
0.0
 42
0.0
 43
0.0
 44
0.0
 45
0.0
 46
0.0
 47
0.0
 48
0.0
 49
0.0
140
0.0
141
0.0
142
1.0
143
1.0
 70
  1712
 72
     0
 73
     0
 74
     0
  7

 75
     0
 76
     0
 77
     2
 78
   300
147
1.0
148
0.0
149
0.0
100
AcDbLayout
  1
Model
 70
     1
 71
     0
 10
0.0
 20
0.0
 11
12.0
 21
9.0
 12
0.0
 22
0.0
 32
0.0
 14
1.000000000000000E+20
 24
1.000000000000000E+20
 34
1.000000000000000E+20
 15
-1.000000000000000E+20
 25
-1.000000000000000E+20
 35
-1.000000000000000E+20
146
0.0
 13
0.0
 23
0.0
 33
0.0
 16
1.0
 26
0.0
 36
0.0
 17
0.0
 27
1.0
 37
0.0
 76
     0
330
1F
331
29
  0
MATERIAL
  5
3D
102
{ACAD_REACTORS
330
3B
102
}
330
3B
100
AcDbMaterial
  1
ByBlock
 72
     1
 94
      127
  0
MATERIAL
  5
3C
102
{ACAD_REACTORS
330
3B
102
}
330
3B
100
AcDbMaterial
  1
ByLayer
 72
     1
 94
      127
  0
MATERIAL
  5
3E
102
{ACAD_REACTORS
330
3B
102
}
330
3B
100
AcDbMaterial
  1
Global
 72
     1
 94
      127
  0
MLINESTYLE
  5
18
102
{ACAD_REACTORS
330
17
102
}
330
17
100
AcDbMlineStyle
  2
Standard
 70
     0
  3

 62
   256
 51
90.0
 52
90.0
 71
     2
 49
0.5
 62
   256
  6
BYLAYER
 49
-0.5
 62
   256
  6
BYLAYER
  0
ACDBPLACEHOLDER
  5
F
102
{ACAD_REACTORS
330
E
102
}
330
E
  0
VISUALSTYLE
  5
2F
102
{ACAD_REACTORS
330
2A
102
}
330
2A
100
AcDbVisualStyle
  2
2dWireframe
 70
     4
177
     2
291
     0
 71
     0
176
     1
 72
     2
176
     1
 73
     0
176
     1
 90
        0
176
     1
 40
-0.6
176
     1
 41
-30.0
176
     1
 62
     5
 63
     7
421
 16777215
176
     1
 74
     1
176
     1
 91
        4
176
     1
 64
     7
176
     1
 65
   257
176
     1
 75
     1
176
     1
175
     1
176
     1
 42
1.0
176
     1
 92
        0
176
     1
 66
   257
176
     1
 43
1.0
176
     1
 76
     1
176
     1
 77
     6
176
     1
 78
     2
176
     1
 67
     7
176
     1
 79
     5
176
     1
170
     0
176
     1
171
     0
176
     1
290
     0
176
     1
 93
        1
176
     1
 44
0.0
176
     1
173
     0
176
     1
  0
VISUALSTYLE
  5
31
102
{ACAD_REACTORS
330
2A
102
}
330
2A
100
AcDbVisualStyle
  2
3D Hidden
 70
     6
177
     2
291
     0
 71
     1
176
     1
 72
     2
176
     1
 73
     2
176
     1
 90
        0
176
     1
 40
-0.6
176
     1
 41
-30.0
176
     1
 62
     5
 63
     7
421
 16777215
176
     1
 74
     2
176
     1
 91
        2
176
     1
 64
     7
176
     1
 65
   257
176
     1
 75
     2
176
     1
175
     1
176
     1
 42
40.0
176
     1
 92
        0
176
     1
 66
   257
176
     1
 43
1.0
176
     1
 76
     1
176
     1
 77
     6
176
     1
 78
     2
176
     1
 67
     7
176
     1
 79
     3
176
     1
170
     0
176
     1
171
     0
176
     1
290
     0
176
     1
 93
        1
176
     1
 44
0.0
176
     1
173
     0
176
     1
  0
VISUALSTYLE
  5
30
102
{ACAD_REACTORS
330
2A
102
}
330
2A
100
AcDbVisualStyle
  2
3dWireframe
 70
     5
177
     2
291
     0
 71
     0
176
     1
 72
     2
176
     1
 73
     0
176
     1
 90
        0
176
     1
 40
-0.6
176
     1
 41
-30.0
176
     1
 62
     5
 63
     7
421
 16777215
176
     1
 74
     1
176
     1
 91
        4
176
     1
 64
     7
176
     1
 65
   257
176
     1
 75
     1
176
     1
175
     1
176
     1
 42
1.0
176
     1
 92
        0
176
     1
 66
   257
176
     1
 43
1.0
176
     1
 76
     1
176
     1
 77
     6
176
     1
 78
     2
176
     1
 67
     7
176
     1
 79
     5
176
     1
170
     0
176
     1
171
     0
176
     1
290
     0
176
     1
 93
        1
176
     1
 44
0.0
176
     1
173
     0
176
     1
  0
VISUALSTYLE
  5
32
102
{ACAD_REACTORS
330
2A
102
}
330
2A
100
AcDbVisualStyle
  2
Basic
 70
     7
177
     2
291
     1
 71
     1
176
     1
 72
     0
176
     1
 73
     1
176
     1
 90
        0
176
     1
 40
-0.6
176
     1
 41
-30.0
176
     1
 62
     5
 63
     7
421
 16777215
176
     1
 74
     0
176
     1
 91
        4
176
     1
 64
     7
176
     1
 65
   257
176
     1
 75
     1
176
     1
175
     1
176
     1
 42
1.0
176
     1
 92
        8
176
     1
 66
     7
176
     1
 43
1.0
176
     1
 76
     1
176
     1
 77
     6
176
     1
 78
     2
176
     1
 67
     7
176
     1
 79
     5
176
     1
170
     0
176
     1
171
     0
176
     1
290
     0
176
     1
 93
        1
176
     1
 44
0.0
176
     1
173
     0
176
     1
  0
VISUALSTYLE
  5
36
102
{ACAD_REACTORS
330
2A
102
}
330
2A
100
AcDbVisualStyle
  2
Brighten
 70
    12
177
     2
291
     1
 71
     2
176
     1
 72
     2
176
     1
 73
     0
176
     1
 90
        0
176
     1
 40
-0.6
176
     1
 41
-30.0
176
     1
 62
     5
 63
     7
421
 16777215
176
     1
 74
     1
176
     1
 91
        4
176
     1
 64
     7
176
     1
 65
   257
176
     1
 75
     1
176
     1
175
     1
176
     1
 42
1.0
176
     1
 92
        8
176
     1
 66
     7
176
     1
 43
1.0
176
     1
 76
     1
176
     1
 77
     6
176
     1
 78
     2
176
     1
 67
     7
176
     1
 79
     5
176
     1
170
     0
176
     1
171
     0
176
     1
290
     0
176
     1
 93
        1
176
     1
 44
50.0
176
     1
173
     0
176
     1
  0
VISUALSTYLE
  5
3A
102
{ACAD_REACTORS
330
2A
102
}
330
2A
100
AcDbVisualStyle
  2
ColorChange
 70
    16
177
     2
291
     1
 71
     2
176
     1
 72
     2
176
     1
 73
     3
176
     1
 90
        0
176
     1
 40
-0.6
176
     1
 41
-30.0
176
     1
 62
     5
 63
     8
421
  8421504
176
     1
 74
     1
176
     1
 91
        4
176
     1
 64
     7
176
     1
 65
   257
176
     1
 75
     1
176
     1
175
     1
176
     1
 42
1.0
176
     1
 92
        8
176
     1
 66
     8
424
  8421504
176
     1
 43
1.0
176
     1
 76
     1
176
     1
 77
     6
176
     1
 78
     2
176
     1
 67
     7
176
     1
 79
     5
176
     1
170
     0
176
     1
171
     0
176
     1
290
     0
176
     1
 93
        1
176
     1
 44
0.0
176
     1
173
     0
176
     1
  0
VISUALSTYLE
  5
34
102
{ACAD_REACTORS
330
2A
102
}
330
2A
100
AcDbVisualStyle
  2
Conceptual
 70
     9
177
     2
291
     0
 71
     3
176
     1
 72
     2
176
     1
 73
     0
176
     1
 90
        0
176
     1
 40
-0.6
176
     1
 41
-30.0
176
     1
 62
     5
 63
     7
421
 16777215
176
     1
 74
     2
176
     1
 91
        2
176
     1
 64
     7
176
     1
 65
   257
176
     1
 75
     1
176
     1
175
     1
176
     1
 42
40.0
176
     1
 92
        8
176
     1
 66
     7
176
     1
 43
1.0
176
     1
 76
     1
176
     1
 77
     6
176
     1
 78
     2
176
     1
 67
     7
176
     1
 79
     3
176
     1
170
     0
176
     1
171
     0
176
     1
290
     0
176
     1
 93
        1
176
     1
 44
0.0
176
     1
173
     0
176
     1
  0
VISUALSTYLE
  5
35
102
{ACAD_REACTORS
330
2A
102
}
330
2A
100
AcDbVisualStyle
  2
Dim
 70
    11
177
     2
291
     1
 71
     2
176
     1
 72
     2
176
     1
 73
     0
176
     1
 90
        0
176
     1
 40
-0.6
176
     1
 41
-30.0
176
     1
 62
     5
 63
     7
421
 16777215
176
     1
 74
     1
176
     1
 91
        4
176
     1
 64
     7
176
     1
 65
   257
176
     1
 75
     1
176
     1
175
     1
176
     1
 42
1.0
176
     1
 92
        8
176
     1
 66
     7
176
     1
 43
1.0
176
     1
 76
     1
176
     1
 77
     6
176
     1
 78
     2
176
     1
 67
     7
176
     1
 79
     5
176
     1
170
     0
176
     1
171
     0
176
     1
290
     0
176
     1
 93
        1
176
     1
 44
-50.0
176
     1
173
     0
176
     1
  0
VISUALSTYLE
  5
39
102
{ACAD_REACTORS
330
2A
102
}
330
2A
100
AcDbVisualStyle
  2
Facepattern
 70
    15
177
     2
291
     1
 71
     2
176
     1
 72
     2
176
     1
 73
     0
176
     1
 90
        0
176
     1
 40
-0.6
176
     1
 41
-30.0
176
     1
 62
     5
 63
     7
421
 16777215
176
     1
 74
     1
176
     1
 91
        4
176
     1
 64
     7
176
     1
 65
   257
176
     1
 75
     1
176
     1
175
     1
176
     1
 42
1.0
176
     1
 92
        8
176
     1
 66
     7
176
     1
 43
1.0
176
     1
 76
     1
176
     1
 77
     6
176
     1
 78
     2
176
     1
 67
     7
176
     1
 79
     5
176
     1
170
     0
176
     1
171
     0
176
     1
290
     0
176
     1
 93
        1
176
     1
 44
0.0
176
     1
173
     0
176
     1
  0
VISUALSTYLE
  5
2B
102
{ACAD_REACTORS
330
2A
102
}
330
2A
100
AcDbVisualStyle
  2
Flat
 70
     0
177
     2
291
     1
 71
     2
176
     1
 72
     1
176
     1
 73
     1
176
     1
 90
        2
176
     1
 40
-0.6
176
     1
 41
30.0
176
     1
 62
     5
 63
     7
421
 16777215
176
     1
 74
     0
176
     1
 91
        4
176
     1
 64
     7
176
     1
 65
   257
176
     1
 75
     1
176
     1
175
     1
176
     1
 42
1.0
176
     1
 92
        8
176
     1
 66
     7
176
     1
 43
1.0
176
     1
 76
     1
176
     1
 77
     6
176
     1
 78
     2
176
     1
 67
     7
176
     1
 79
     5
176
     1
170
     0
176
     1
171
     0
176
     1
290
     0
176
     1
 93
       13
176
     1
 44
0.0
176
     1
173
     0
176
     1
  0
VISUALSTYLE
  5
2C
102
{ACAD_REACTORS
330
2A
102
}
330
2A
100
AcDbVisualStyle
  2
FlatWithEdges
 70
     1
177
     2
291
     1
 71
     2
176
     1
 72
     1
176
     1
 73
     1
176
     1
 90
        2
176
     1
 40
-0.6
176
     1
 41
30.0
176
     1
 62
     5
 63
     7
421
 16777215
176
     1
 74
     1
176
     1
 91
        4
176
     1
 64
     7
176
     1
 65
   257
176
     1
 75
     1
176
     1
175
     1
176
     1
 42
1.0
176
     1
 92
        0
176
     1
 66
   257
176
     1
 43
1.0
176
     1
 76
     1
176
     1
 77
     6
176
     1
 78
     2
176
     1
 67
     7
176
     1
 79
     5
176
     1
170
     0
176
     1
171
     0
176
     1
290
     0
176
     1
 93
       13
176
     1
 44
0.0
176
     1
173
     0
176
     1
  0
VISUALSTYLE
  5
2D
102
{ACAD_REACTORS
330
2A
102
}
330
2A
100
AcDbVisualStyle
  2
Gouraud
 70
     2
177
     2
291
     1
 71
     2
176
     1
 72
     2
176
     1
 73
     1
176
     1
 90
        2
176
     1
 40
-0.6
176
     1
 41
30.0
176
     1
 62
     5
 63
     7
421
 16777215
176
     1
 74
     0
176
     1
 91
        4
176
     1
 64
     7
176
     1
 65
   257
176
     1
 75
     1
176
     1
175
     1
176
     1
 42
1.0
176
     1
 92
        0
176
     1
 66
     7
176
     1
 43
1.0
176
     1
 76
     1
176
     1
 77
     6
176
     1
 78
     2
176
     1
 67
     7
176
     1
 79
     5
176
     1
170
     0
176
     1
171
     0
176
     1
290
     0
176
     1
 93
       13
176
     1
 44
0.0
176
     1
173
     0
176
     1
  0
VISUALSTYLE
  5
2E
102
{ACAD_REACTORS
330
2A
102
}
330
2A
100
AcDbVisualStyle
  2
GouraudWithEdges
 70
     3
177
     2
291
     1
 71
     2
176
     1
 72
     2
176
     1
 73
     1
176
     1
 90
        2
176
     1
 40
-0.6
176
     1
 41
30.0
176
     1
 62
     5
 63
     7
421
 16777215
176
     1
 74
     1
176
     1
 91
        4
176
     1
 64
     7
176
     1
 65
   257
176
     1
 75
     1
176
     1
175
     1
176
     1
 42
1.0
176
     1
 92
        0
176
     1
 66
   257
176
     1
 43
1.0
176
     1
 76
     1
176
     1
 77
     6
176
     1
 78
     2
176
     1
 67
     7
176
     1
 79
     5
176
     1
170
     0
176
     1
171
     0
176
     1
290
     0
176
     1
 93
       13
176
     1
 44
0.0
176
     1
173
     0
176
     1
  0
VISUALSTYLE
  5
38
102
{ACAD_REACTORS
330
2A
102
}
330
2A
100
AcDbVisualStyle
  2
Linepattern
 70
    14
177
     2
291
     1
 71
     2
176
     1
 72
     2
176
     1
 73
     0
176
     1
 90
        0
176
     1
 40
-0.6
176
     1
 41
-30.0
176
     1
 62
     5
 63
     7
421
 16777215
176
     1
 74
     1
176
     1
 91
        4
176
     1
 64
     7
176
     1
 65
   257
176
     1
 75
     7
176
     1
175
     7
176
     1
 42
1.0
176
     1
 92
        8
176
     1
 66
     7
176
     1
 43
1.0
176
     1
 76
     1
176
     1
 77
     6
176
     1
 78
     2
176
     1
 67
     7
176
     1
 79
     5
176
     1
170
     0
176
     1
171
     0
176
     1
290
     0
176
     1
 93
        1
176
     1
 44
0.0
176
     1
173
     0
176
     1
  0
VISUALSTYLE
  5
33
102
{ACAD_REACTORS
330
2A
102
}
330
2A
100
AcDbVisualStyle
  2
Realistic
 70
     8
177
     2
291
     0
 71
     2
176
     1
 72
     2
176
     1
 73
     0
176
     1
 90
        0
176
     1
 40
-0.6
176
     1
 41
-30.0
176
     1
 62
     5
 63
     7
421
 16777215
176
     1
 74
     1
176
     1
 91
        0
176
     1
 64
     7
176
     1
 65
   257
176
     1
 75
     1
176
     1
175
     1
176
     1
 42
1.0
176
     1
 92
        8
176
     1
 66
     8
424
  7895160
176
     1
 43
1.0
176
     1
 76
     1
176
     1
 77
     6
176
     1
 78
     2
176
     1
 67
     7
176
     1
 79
     5
176
     1
170
     0
176
     1
171
     0
176
     1
290
     0
176
     1
 93
       13
176
     1
 44
0.0
176
     1
173
     0
176
     1
  0
VISUALSTYLE
  5
37
102
{ACAD_REACTORS
330
2A
102
}
330
2A
100
AcDbVisualStyle
  2
Thicken
 70
    13
177
     2
291
     1
 71
     2
176
     1
 72
     2
176
     1
 73
     0
176
     1
 90
        0
176
     1
 40
-0.6
176
     1
 41
-30.0
176
     1
 62
     5
 63
     7
421
 16777215
176
     1
 74
     1
176
     1
 91
        4
176
     1
 64
     7
176
     1
 65
   257
176
     1
 75
     1
176
     1
175
     1
176
     1
 42
1.0
176
     1
 92
       12
176
     1
 66
     7
176
     1
 43
1.0
176
     1
 76
     1
176
     1
 77
     6
176
     1
 78
     2
176
     1
 67
     7
176
     1
 79
     5
176
     1
170
     0
176
     1
171
     0
176
     1
290
     0
176
     1
 93
        1
176
     1
 44
0.0
176
     1
173
     0
176
     1
  0
ENDSEC
  0
EOF
