  0
SECTION
  2
HEADER
  9
$ACADVER
  1
AC1024
  9
$ACADMAINTVER
 70
     6
  9
$DWGCODEPAGE
  3
UNDEFINED
  9
$INSBASE
 10
0.0
 20
0.0
 30
0.0
  9
$EXTMIN
 10
1.000000000000000E+20
 20
1.000000000000000E+20
 30
1.000000000000000E+20
  9
$EXTMAX
 10
-1.000000000000000E+20
 20
-1.000000000000000E+20
 30
-1.000000000000000E+20
  9
$LIMMIN
 10
0.0
 20
0.0
  9
$LIMMAX
 10
12.0
 20
9.0
  9
$ORTHOMODE
 70
     0
  9
$REGENMODE
 70
     1
  9
$FILLMODE
 70
     1
  9
$QTEXTMODE
 70
     0
  9
$MIRRTEXT
 70
     1
  9
$LTSCALE
 40
1.0
  9
$ATTMODE
 70
     1
  9
$TEXTSIZE
 40
0.2
  9
$TRACEWID
 40
0.05
  9
$TEXTSTYLE
  7
Standard
  9
$CLAYER
  8
0
  9
$CELTYPE
  6
ByLayer
  9
$CECOLOR
 62
   256
  9
$CELTSCALE
 40
1.0
  9
$DISPSILH
 70
     0
  9
$DIMSCALE
 40
1.0
  9
$DIMASZ
 40
0.18
  9
$DIMEXO
 40
0.0625
  9
$DIMDLI
 40
0.38
  9
$DIMRND
 40
0.0
  9
$DIMDLE
 40
0.0
  9
$DIMEXE
 40
0.18
  9
$DIMTP
 40
0.0
  9
$DIMTM
 40
0.0
  9
$DIMTXT
 40
0.18
  9
$DIMCEN
 40
0.09
  9
$DIMTSZ
 40
0.0
  9
$DIMTOL
 70
     0
  9
$DIMLIM
 70
     0
  9
$DIMTIH
 70
     1
  9
$DIMTOH
 70
     1
  9
$DIMSE1
 70
     0
  9
$DIMSE2
 70
     0
  9
$DIMTAD
 70
     0
  9
$DIMZIN
 70
     0
  9
$DIMBLK
  1

  9
$DIMASO
 70
     1
  9
$DIMSHO
 70
     1
  9
$DIMPOST
  1

  9
$DIMAPOST
  1

  9
$DIMALT
 70
     0
  9
$DIMALTD
 70
     2
  9
$DIMALTF
 40
25.4
  9
$DIMLFAC
 40
1.0
  9
$DIMTOFL
 70
     0
  9
$DIMTVP
 40
0.0
  9
$DIMTIX
 70
     0
  9
$DIMSOXD
 70
     0
  9
$DIMSAH
 70
     0
  9
$DIMBLK1
  1

  9
$DIMBLK2
  1

  9
$DIMSTYLE
  2
Standard
  9
$DIMCLRD
 70
     0
  9
$DIMCLRE
 70
     0
  9
$DIMCLRT
 70
     0
  9
$DIMTFAC
 40
1.0
  9
$DIMGAP
 40
0.09
  9
$DIMJUST
 70
     0
  9
$DIMSD1
 70
     0
  9
$DIMSD2
 70
     0
  9
$DIMTOLJ
 70
     1
  9
$DIMTZIN
 70
     0
  9
$DIMALTZ
 70
     0
  9
$DIMALTTZ
 70
     0
  9
$DIMUPT
 70
     0
  9
$DIMDEC
 70
     4
  9
$DIMTDEC
 70
     4
  9
$DIMALTU
 70
     2
  9
$DIMALTTD
 70
     2
  9
$DIMTXSTY
  7
Standard
  9
$DIMAUNIT
 70
     0
  9
$DIMADEC
 70
     0
  9
$DIMALTRND
 40
0.0
  9
$DIMAZIN
 70
     0
  9
$DIMDSEP
 70
    46
  9
$DIMATFIT
 70
     3
  9
$DIMFRAC
 70
     0
  9
$DIMLDRBLK
  1

  9
$DIMLUNIT
 70
     2
  9
$DIMLWD
 70
    -2
  9
$DIMLWE
 70
    -2
  9
$DIMTMOVE
 70
     0
  9
$DIMFXL
 40
1.0
  9
$DIMFXLON
 70
     0
  9
$DIMJOGANG
 40
0.7853981633974483
  9
$DIMTFILL
 70
     0
  9
$DIMTFILLCLR
 70
     0
  9
$DIMARCSYM
 70
     0
  9
$DIMLTYPE
  6

  9
$DIMLTEX1
  6

  9
$DIMLTEX2
  6

  9
$DIMTXTDIRECTION
 70
     0
  9
$LUNITS
 70
     2
  9
$LUPREC
 70
     4
  9
$SKETCHINC
 40
0.1
  9
$FILLETRAD
 40
0.5
  9
$AUNITS
 70
     0
  9
$AUPREC
 70
     0
  9
$MENU
  1
.
  9
$ELEVATION
 40
0.0
  9
$PELEVATION
 40
0.0
  9
$THICKNESS
 40
0.0
  9
$LIMCHECK
 70
     0
  9
$CHAMFERA
 40
0.5
  9
$CHAMFERB
 40
0.5
  9
$CHAMFERC
 40
1.0
  9
$CHAMFERD
 40
0.0
  9
$SKPOLY
 70
     0
  9
$TDCREATE
 40
2457917.623564803
  9
$TDUCREATE
 40
2457917.248564815
  9
$TDUPDATE
 40
2457917.623564803
  9
$TDUUPDATE
 40
2457917.248564815
  9
$TDINDWG
 40
0.0000000116
  9
$TDUSRTIMER
 40
0.0000000116
  9
$USRTIMER
 70
     1
  9
$ANGBASE
 50
0.0
  9
$ANGDIR
 70
     0
  9
$PDMODE
 70
     0
  9
$PDSIZE
 40
0.0
  9
$PLINEWID
 40
0.0
  9
$SPLFRAME
 70
     0
  9
$SPLINETYPE
 70
     6
  9
$SPLINESEGS
 70
     8
  9
$HANDSEED
  5
BD
  9
$SURFTAB1
 70
     6
  9
$SURFTAB2
 70
     6
  9
$SURFTYPE
 70
     6
  9
$SURFU
 70
     6
  9
$SURFV
 70
     6
  9
$UCSBASE
  2

  9
$UCSNAME
  2

  9
$UCSORG
 10
0.0
 20
0.0
 30
0.0
  9
$UCSXDIR
 10
1.0
 20
0.0
 30
0.0
  9
$UCSYDIR
 10
0.0
 20
1.0
 30
0.0
  9
$UCSORTHOREF
  2

  9
$UCSORTHOVIEW
 70
     0
  9
$UCSORGTOP
 10
0.0
 20
0.0
 30
0.0
  9
$UCSORGBOTTOM
 10
0.0
 20
0.0
 30
0.0
  9
$UCSORGLEFT
 10
0.0
 20
0.0
 30
0.0
  9
$UCSORGRIGHT
 10
0.0
 20
0.0
 30
0.0
  9
$UCSORGFRONT
 10
0.0
 20
0.0
 30
0.0
  9
$UCSORGBACK
 10
0.0
 20
0.0
 30
0.0
  9
$PUCSBASE
  2

  9
$PUCSNAME
  2

  9
$PUCSORG
 10
0.0
 20
0.0
 30
0.0
  9
$PUCSXDIR
 10
1.0
 20
0.0
 30
0.0
  9
$PUCSYDIR
 10
0.0
 20
1.0
 30
0.0
  9
$PUCSORTHOREF
  2

  9
$PUCSORTHOVIEW
 70
     0
  9
$PUCSORGTOP
 10
0.0
 20
0.0
 30
0.0
  9
$PUCSORGBOTTOM
 10
0.0
 20
0.0
 30
0.0
  9
$PUCSORGLEFT
 10
0.0
 20
0.0
 30
0.0
  9
$PUCSORGRIGHT
 10
0.0
 20
0.0
 30
0.0
  9
$PUCSORGFRONT
 10
0.0
 20
0.0
 30
0.0
  9
$PUCSORGBACK
 10
0.0
 20
0.0
 30
0.0
  9
$USERI1
 70
     0
  9
$USERI2
 70
     0
  9
$USERI3
 70
     0
  9
$USERI4
 70
     0
  9
$USERI5
 70
     0
  9
$USERR1
 40
0.0
  9
$USERR2
 40
0.0
  9
$USERR3
 40
0.0
  9
$USERR4
 40
0.0
  9
$USERR5
 40
0.0
  9
$WORLDVIEW
 70
     1
  9
$SHADEDGE
 70
     3
  9
$SHADEDIF
 70
    70
  9
$TILEMODE
 70
     1
  9
$MAXACTVP
 70
    64
  9
$PINSBASE
 10
0.0
 20
0.0
 30
0.0
  9
$PLIMCHECK
 70
     0
  9
$PEXTMIN
 10
1.000000000000000E+20
 20
1.000000000000000E+20
 30
1.000000000000000E+20
  9
$PEXTMAX
 10
-1.000000000000000E+20
 20
-1.000000000000000E+20
 30
-1.000000000000000E+20
  9
$PLIMMIN
 10
0.0
 20
0.0
  9
$PLIMMAX
 10
12.0
 20
9.0
  9
$UNITMODE
 70
     0
  9
$VISRETAIN
 70
     1
  9
$PLINEGEN
 70
     0
  9
$PSLTSCALE
 70
     1
  9
$TREEDEPTH
 70
  3020
  9
$CMLSTYLE
  2
Standard
  9
$CMLJUST
 70
     0
  9
$CMLSCALE
 40
1.0
  9
$PROXYGRAPHICS
 70
     1
  9
$MEASUREMENT
 70
     0
  9
$CELWEIGHT
370
    -1
  9
$ENDCAPS
280
     0
  9
$JOINSTYLE
280
     0
  9
$LWDISPLAY
290
     1
  9
$INSUNITS
 70
     1
  9
$HYPERLINKBASE
  1

  9
$STYLESHEET
  1

  9
$XEDIT
290
     1
  9
$CEPSNTYPE
380
     0
  9
$PSTYLEMODE
290
     1
  9
$FINGERPRINTGUID
  2
{33800D7F-9D7E-76E4-9FF0-596BE9A4F111}
  9
$VERSIONGUID
  2
{FAEB1C32-E019-11D5-929B-00C0DF256EC4}
  9
$EXTNAMES
290
     1
  9
$PSVPSCALE
 40
0.0
  9
$OLESTARTUP
290
     0
  9
$SORTENTS
280
   127
  9
$INDEXCTL
280
     0
  9
$HIDETEXT
280
     1
  9
$XCLIPFRAME
280
     2
  9
$HALOGAP
280
     0
  9
$OBSCOLOR
 70
   257
  9
$OBSLTYPE
280
     0
  9
$INTERSECTIONDISPLAY
280
     0
  9
$INTERSECTIONCOLOR
 70
   257
  9
$DIMASSOC
280
     2
  9
$PROJECTNAME
  1

  9
$CAMERADISPLAY
290
     0
  9
$LENSLENGTH
 40
50.0
  9
$CAMERAHEIGHT
 40
0.0
  9
$STEPSPERSEC
 40
2.0
  9
$STEPSIZE
 40
6.0
  9
$3DDWFPREC
 40
2.0
  9
$PSOLWIDTH
 40
0.25
  9
$PSOLHEIGHT
 40
4.0
  9
$LOFTANG1
 40
1.570796326794897
  9
$LOFTANG2
 40
1.570796326794897
  9
$LOFTMAG1
 40
0.0
  9
$LOFTMAG2
 40
0.0
  9
$LOFTPARAM
 70
     7
  9
$LOFTNORMALS
280
     1
  9
$LATITUDE
 40
37.795
  9
$LONGITUDE
 40
-122.394
  9
$NORTHDIRECTION
 40
0.0
  9
$TIMEZONE
 70
 -8000
  9
$LIGHTGLYPHDISPLAY
280
     1
  9
$TILEMODELIGHTSYNCH
280
     1
  9
$CMATERIAL
347
3C
  9
$SOLIDHIST
280
     1
  9
$SHOWHIST
280
     1
  9
$DWFFRAME
280
     2
  9
$DGNFRAME
280
     2
  9
$REALWORLDSCALE
290
     1
  9
$INTERFERECOLOR
 62
   256
  9
$CSHADOW
280
     0
  9
$SHADOWPLANELOCATION
 40
0.0
  0
ENDSEC
  0
SECTION
  2
CLASSES
  0
CLASS
  1
ACDBDICTIONARYWDFLT
  2
AcDbDictionaryWithDefault
  3
ObjectDBX Classes
 90
        0
 91
        4
280
     0
281
     0
  0
CLASS
  1
VISUALSTYLE
  2
AcDbVisualStyle
  3
ObjectDBX Classes
 90
     4095
 91
        4
280
     0
281
     0
  0
CLASS
  1
MATERIAL
  2
AcDbMaterial
  3
ObjectDBX Classes
 90
     1153
 91
        4
280
     0
281
     0
  0
CLASS
  1
SUN
  2
AcDbSun
  3
SCENEOE
 90
     1024
 91
        4
280
     0
281
     0
  0
ENDSEC
  0
SECTION
  2
TABLES
  0
TABLE
  2
VPORT
  5
8
330
0
100
AcDbSymbolTable
 70
     1
  0
VPORT
  5
29
330
8
100
AcDbSymbolTableRecord
100
AcDbViewportTableRecord
  2
*Active
 70
     0
 10
0.0
 20
0.0
 11
1.0
 21
1.0
 12
0.0
 22
0.0
 13
0.0
 23
0.0
 14
0.5
 24
0.5
 15
0.5
 25
0.5
 16
0.0
 26
0.0
 36
1.0
 17
91.00082462281999
 27
-128.4993055234307
 37
0.0
 40
256.9986110468615
 41
0.7081814508812795
 42
50.0
 43
0.0
 44
0.0
 50
0.0
 51
0.0
 71
     0
 72
   100
 73
     1
 74
     3
 75
     0
 76
     0
 77
     0
 78
     0
281
     0
 65
     1
110
0.0
120
0.0
130
0.0
111
1.0
121
0.0
131
0.0
112
0.0
122
1.0
132
0.0
 79
     0
146
0.0
 60
     3
 61
     5
292
     1
282
     1
141
0.0
142
0.0
 63
   250
361
3F
  0
ENDTAB
  0
TABLE
  2
LTYPE
  5
5
330
0
100
AcDbSymbolTable
 70
     1
  0
LTYPE
  5
14
330
5
100
AcDbSymbolTableRecord
100
AcDbLinetypeTableRecord
  2
ByBlock
 70
     0
  3

 72
    65
 73
     0
 40
0.0
  0
LTYPE
  5
15
330
5
100
AcDbSymbolTableRecord
100
AcDbLinetypeTableRecord
  2
ByLayer
 70
     0
  3

 72
    65
 73
     0
 40
0.0
  0
LTYPE
  5
16
330
5
100
AcDbSymbolTableRecord
100
AcDbLinetypeTableRecord
  2
Continuous
 70
     0
  3
Solid line
 72
    65
 73
     0
 40
0.0
  0
ENDTAB
  0
TABLE
  2
LAYER
  5
2
330
0
100
AcDbSymbolTable
 70
     2
  0
LAYER
  5
10
330
2
100
AcDbSymbolTableRecord
100
AcDbLayerTableRecord
  2
0
 70
     0
 62
     7
  6
Continuous
370
    -3
390
F
347
3E
  0
LAYER
  5
40
330
2
100
AcDbSymbolTableRecord
100
AcDbLayerTableRecord
  2
_U+30EC_U+30A4_U+30E4_U+30FC 1
 70
     0
 62
     7
  6
Continuous
370
    -3
390
F
347
3E
  0
ENDTAB
  0
TABLE
  2
STYLE
  5
3
330
0
100
AcDbSymbolTable
 70
     1
  0
STYLE
  5
11
330
3
100
AcDbSymbolTableRecord
100
AcDbTextStyleTableRecord
  2
Standard
 70
     0
 40
0.0
 41
1.0
 50
0.0
 71
     0
 42
0.2
  3
txt
  4

  0
ENDTAB
  0
TABLE
  2
VIEW
  5
6
330
0
100
AcDbSymbolTable
 70
     0
  0
ENDTAB
  0
TABLE
  2
UCS
  5
7
330
0
100
AcDbSymbolTable
 70
     0
  0
ENDTAB
  0
TABLE
  2
APPID
  5
9
330
0
100
AcDbSymbolTable
 70
     1
  0
APPID
  5
12
330
9
100
AcDbSymbolTableRecord
100
AcDbRegAppTableRecord
  2
ACAD
 70
     0
  0
ENDTAB
  0
TABLE
  2
DIMSTYLE
  5
A
330
0
100
AcDbSymbolTable
 70
     1
100
AcDbDimStyleTable
  0
DIMSTYLE
105
27
330
A
100
AcDbSymbolTableRecord
100
AcDbDimStyleTableRecord
  2
Standard
 70
     0
178
     0
340
11
  0
ENDTAB
  0
TABLE
  2
BLOCK_RECORD
  5
1
330
0
100
AcDbSymbolTable
 70
     5
  0
BLOCK_RECORD
  5
1F
330
1
100
AcDbSymbolTableRecord
100
AcDbBlockTableRecord
  2
*Model_Space
340
22
 70
     0
280
     1
281
     0
  0
BLOCK_RECORD
  5
1B
330
1
100
AcDbSymbolTableRecord
100
AcDbBlockTableRecord
  2
*Paper_Space
340
1E
 70
     0
280
     1
281
     0
  0
BLOCK_RECORD
  5
23
330
1
100
AcDbSymbolTableRecord
100
AcDbBlockTableRecord
  2
*Paper_Space0
340
26
 70
     0
280
     1
281
     0
  0
BLOCK_RECORD
  5
54
330
1
100
AcDbSymbolTableRecord
100
AcDbBlockTableRecord
  2
block 2
340
0
102
{BLKREFS
331
55
102
}
 70
     0
280
     1
281
     0
  0
BLOCK_RECORD
  5
5A
330
1
100
AcDbSymbolTableRecord
100
AcDbBlockTableRecord
  2
block 3
340
0
102
{BLKREFS
331
5B
102
}
 70
     0
280
     1
281
     0
  0
BLOCK_RECORD
  5
9B
330
1
100
AcDbSymbolTableRecord
100
AcDbBlockTableRecord
  2
block 4
340
0
102
{BLKREFS
331
9C
102
}
 70
     0
280
     1
281
     0
  0
BLOCK_RECORD
  5
B2
330
1
100
AcDbSymbolTableRecord
100
AcDbBlockTableRecord
  2
block 5
340
0
102
{BLKREFS
331
B3
102
}
 70
     0
280
     1
281
     0
  0
ENDTAB
  0
ENDSEC
  0
SECTION
  2
BLOCKS
  0
BLOCK
  5
20
330
1F
100
AcDbEntity
  8
0
100
AcDbBlockBegin
  2
*Model_Space
 70
     0
 10
0.0
 20
0.0
 30
0.0
  3
*Model_Space
  1

  0
ENDBLK
  5
21
330
1F
100
AcDbEntity
  8
0
100
AcDbBlockEnd
  0
BLOCK
  5
1C
330
1B
100
AcDbEntity
 67
     1
  8
0
100
AcDbBlockBegin
  2
*Paper_Space
 70
     0
 10
0.0
 20
0.0
 30
0.0
  3
*Paper_Space
  1

  0
ENDBLK
  5
1D
330
1B
100
AcDbEntity
 67
     1
  8
0
100
AcDbBlockEnd
  0
BLOCK
  5
24
330
23
100
AcDbEntity
  8
0
100
AcDbBlockBegin
  2
*Paper_Space0
 70
     0
 10
0.0
 20
0.0
 30
0.0
  3
*Paper_Space0
  1

  0
ENDBLK
  5
25
330
23
100
AcDbEntity
  8
0
100
AcDbBlockEnd
  0
BLOCK
  5
56
330
54
100
AcDbEntity
  8
0
100
AcDbBlockBegin
  2
block 2
 70
     0
 10
0.0
 20
0.0
 30
0.0
  3
block 2
  1

  0
SPLINE
  5
58
330
54
100
AcDbEntity
  8
_U+30EC_U+30A4_U+30E4_U+30FC 1
370
     0
100
AcDbSpline
210
0.0
220
0.0
230
1.0
 70
    11
 71
     3
 72
    26
 73
    22
 74
     0
 42
0.0000000001
 43
0.0000000001
 12
1.0
 22
0.0
 32
0.0
 13
1.0
 23
0.0
 33
0.0
 40
0.0
 40
0.0
 40
0.0
 40
0.0
 40
1.0
 40
1.0
 40
1.0
 40
2.0
 40
2.0
 40
2.0
 40
3.0
 40
3.0
 40
3.0
 40
4.0
 40
4.0
 40
4.0
 40
5.0
 40
5.0
 40
5.0
 40
6.0
 40
6.0
 40
6.0
 40
7.0
 40
7.0
 40
7.0
 40
7.0
 10
106.0955050733025
 20
-134.9464572145273
 30
0.0
 10
106.0955050733025
 20
-134.9464572145273
 30
0.0
 10
104.99135197028
 20
-134.9464572145273
 30
0.0
 10
104.99135197028
 20
-134.9464572145273
 30
0.0
 10
104.99135197028
 20
-134.9464572145273
 30
0.0
 10
104.99135197028
 20
-135.2992349922169
 30
0.0
 10
104.99135197028
 20
-135.2992349922169
 30
0.0
 10
104.99135197028
 20
-135.2992349922169
 30
0.0
 10
104.8432128644142
 20
-135.2992349922169
 30
0.0
 10
104.8432128644142
 20
-135.2992349922169
 30
0.0
 10
104.8283989538276
 20
-134.9443901572361
 30
0.0
 10
104.6654459373753
 20
-134.8944362727
 30
0.0
 10
104.551068767265
 20
-134.8627413942357
 30
0.0
 10
104.551068767265
 20
-134.8627413942357
 30
0.0
 10
104.551068767265
 20
-134.7066785687539
 30
0.0
 10
104.551068767265
 20
-134.7066785687539
 30
0.0
 10
104.551068767265
 20
-134.7066785687539
 30
0.0
 10
106.0955050733025
 20
-134.7066785687539
 30
0.0
 10
106.0955050733025
 20
-134.7066785687539
 30
0.0
 10
106.0955050733025
 20
-134.7066785687539
 30
0.0
 10
106.0955050733025
 20
-134.9464572145273
 30
0.0
 10
106.0955050733025
 20
-134.9464572145273
 30
0.0
  0
HATCH
  5
59
330
54
100
AcDbEntity
  8
_U+30EC_U+30A4_U+30E4_U+30FC 1
 62
     7
420
 16777215
100
AcDbHatch
 10
0.0
 20
0.0
 30
0.0
210
0.0
220
0.0
230
1.0
  2
SOLID
 70
     1
 71
     0
 91
        1
 92
        1
 93
        1
 72
     4
 94
        3
 73
     0
 74
     1
 95
       26
 96
       22
 40
0.0
 40
0.0
 40
0.0
 40
0.0
 40
1.0
 40
1.0
 40
1.0
 40
2.0
 40
2.0
 40
2.0
 40
3.0
 40
3.0
 40
3.0
 40
4.0
 40
4.0
 40
4.0
 40
5.0
 40
5.0
 40
5.0
 40
6.0
 40
6.0
 40
6.0
 40
7.0
 40
7.0
 40
7.0
 40
7.0
 10
106.0955050733025
 20
-134.9464572145273
 10
106.0955050733025
 20
-134.9464572145273
 10
104.99135197028
 20
-134.9464572145273
 10
104.99135197028
 20
-134.9464572145273
 10
104.99135197028
 20
-134.9464572145273
 10
104.99135197028
 20
-135.2992349922169
 10
104.99135197028
 20
-135.2992349922169
 10
104.99135197028
 20
-135.2992349922169
 10
104.8432128644142
 20
-135.2992349922169
 10
104.8432128644142
 20
-135.2992349922169
 10
104.8283989538276
 20
-134.9443901572361
 10
104.6654459373753
 20
-134.8944362727
 10
104.551068767265
 20
-134.8627413942357
 10
104.551068767265
 20
-134.8627413942357
 10
104.551068767265
 20
-134.7066785687539
 10
104.551068767265
 20
-134.7066785687539
 10
104.551068767265
 20
-134.7066785687539
 10
106.0955050733025
 20
-134.7066785687539
 10
106.0955050733025
 20
-134.7066785687539
 10
106.0955050733025
 20
-134.7066785687539
 10
106.0955050733025
 20
-134.9464572145273
 10
106.0955050733025
 20
-134.9464572145273
 97
        0
 97
        0
 75
     2
 76
     1
 98
        0
  0
ENDBLK
  5
57
330
54
100
AcDbEntity
  8
0
100
AcDbBlockEnd
  0
BLOCK
  5
5C
330
5A
100
AcDbEntity
  8
0
100
AcDbBlockBegin
  2
block 3
 70
     0
 10
0.0
 20
0.0
 30
0.0
  3
block 3
  1

  0
SPLINE
  5
5E
330
5A
100
AcDbEntity
  8
_U+30EC_U+30A4_U+30E4_U+30FC 1
370
     0
100
AcDbSpline
210
0.0
220
0.0
230
1.0
 70
    11
 71
     3
 72
    26
 73
    22
 74
     0
 42
0.0000000001
 43
0.0000000001
 12
1.0
 22
0.0
 32
0.0
 13
1.0
 23
0.0
 33
0.0
 40
0.0
 40
0.0
 40
0.0
 40
0.0
 40
1.0
 40
1.0
 40
1.0
 40
2.0
 40
2.0
 40
2.0
 40
3.0
 40
3.0
 40
3.0
 40
4.0
 40
4.0
 40
4.0
 40
5.0
 40
5.0
 40
5.0
 40
6.0
 40
6.0
 40
6.0
 40
7.0
 40
7.0
 40
7.0
 40
7.0
 10
106.0955050733025
 20
-128.916851096243
 30
0.0
 10
106.0955050733025
 20
-128.916851096243
 30
0.0
 10
104.99135197028
 20
-128.916851096243
 30
0.0
 10
104.99135197028
 20
-128.916851096243
 30
0.0
 10
104.99135197028
 20
-128.916851096243
 30
0.0
 10
104.99135197028
 20
-129.2696288739326
 30
0.0
 10
104.99135197028
 20
-129.2696288739326
 30
0.0
 10
104.99135197028
 20
-129.2696288739326
 30
0.0
 10
104.8432128644142
 20
-129.2696288739326
 30
0.0
 10
104.8432128644142
 20
-129.2696288739326
 30
0.0
 10
104.8283989538276
 20
-128.9144395294034
 30
0.0
 10
104.6654459373753
 20
-128.8648301544158
 30
0.0
 10
104.551068767265
 20
-128.8331352759514
 30
0.0
 10
104.551068767265
 20
-128.8331352759514
 30
0.0
 10
104.551068767265
 20
-128.6772447052439
 30
0.0
 10
104.551068767265
 20
-128.6772447052439
 30
0.0
 10
104.551068767265
 20
-128.6772447052439
 30
0.0
 10
106.0955050733025
 20
-128.6772447052439
 30
0.0
 10
106.0955050733025
 20
-128.6772447052439
 30
0.0
 10
106.0955050733025
 20
-128.6772447052439
 30
0.0
 10
106.0955050733025
 20
-128.916851096243
 30
0.0
 10
106.0955050733025
 20
-128.916851096243
 30
0.0
  0
HATCH
  5
5F
330
5A
100
AcDbEntity
  8
_U+30EC_U+30A4_U+30E4_U+30FC 1
 62
     7
420
 16777215
100
AcDbHatch
 10
0.0
 20
0.0
 30
0.0
210
0.0
220
0.0
230
1.0
  2
SOLID
 70
     1
 71
     0
 91
        1
 92
        1
 93
        1
 72
     4
 94
        3
 73
     0
 74
     1
 95
       26
 96
       22
 40
0.0
 40
0.0
 40
0.0
 40
0.0
 40
1.0
 40
1.0
 40
1.0
 40
2.0
 40
2.0
 40
2.0
 40
3.0
 40
3.0
 40
3.0
 40
4.0
 40
4.0
 40
4.0
 40
5.0
 40
5.0
 40
5.0
 40
6.0
 40
6.0
 40
6.0
 40
7.0
 40
7.0
 40
7.0
 40
7.0
 10
106.0955050733025
 20
-128.916851096243
 10
106.0955050733025
 20
-128.916851096243
 10
104.99135197028
 20
-128.916851096243
 10
104.99135197028
 20
-128.916851096243
 10
104.99135197028
 20
-128.916851096243
 10
104.99135197028
 20
-129.2696288739326
 10
104.99135197028
 20
-129.2696288739326
 10
104.99135197028
 20
-129.2696288739326
 10
104.8432128644142
 20
-129.2696288739326
 10
104.8432128644142
 20
-129.2696288739326
 10
104.8283989538276
 20
-128.9144395294034
 10
104.6654459373753
 20
-128.8648301544158
 10
104.551068767265
 20
-128.8331352759514
 10
104.551068767265
 20
-128.8331352759514
 10
104.551068767265
 20
-128.6772447052439
 10
104.551068767265
 20
-128.6772447052439
 10
104.551068767265
 20
-128.6772447052439
 10
106.0955050733025
 20
-128.6772447052439
 10
106.0955050733025
 20
-128.6772447052439
 10
106.0955050733025
 20
-128.6772447052439
 10
106.0955050733025
 20
-128.916851096243
 10
106.0955050733025
 20
-128.916851096243
 97
        0
 97
        0
 75
     2
 76
     1
 98
        0
  0
SPLINE
  5
60
330
5A
100
AcDbEntity
  8
_U+30EC_U+30A4_U+30E4_U+30FC 1
370
     0
100
AcDbSpline
210
0.0
220
0.0
230
1.0
 70
    11
 71
     3
 72
    62
 73
    58
 74
     0
 42
0.0000000001
 43
0.0000000001
 12
1.0
 22
0.0
 32
0.0
 13
1.0
 23
0.0
 33
0.0
 40
0.0
 40
0.0
 40
0.0
 40
0.0
 40
1.0
 40
1.0
 40
1.0
 40
2.0
 40
2.0
 40
2.0
 40
3.0
 40
3.0
 40
3.0
 40
4.0
 40
4.0
 40
4.0
 40
5.0
 40
5.0
 40
5.0
 40
6.0
 40
6.0
 40
6.0
 40
7.0
 40
7.0
 40
7.0
 40
8.0
 40
8.0
 40
8.0
 40
9.0
 40
9.0
 40
9.0
 40
10.0
 40
10.0
 40
10.0
 40
11.0
 40
11.0
 40
11.0
 40
12.0
 40
12.0
 40
12.0
 40
13.0
 40
13.0
 40
13.0
 40
14.0
 40
14.0
 40
14.0
 40
15.0
 40
15.0
 40
15.0
 40
16.0
 40
16.0
 40
16.0
 40
17.0
 40
17.0
 40
17.0
 40
18.0
 40
18.0
 40
18.0
 40
19.0
 40
19.0
 40
19.0
 40
19.0
 10
106.1461479769357
 20
-127.6161552957869
 30
0.0
 10
106.1461479769357
 20
-127.7177856126018
 30
0.0
 10
106.1251328944757
 20
-127.9506740674047
 30
0.0
 10
105.9390977382722
 20
-128.0841715174581
 30
0.0
 10
105.826787625453
 20
-128.1632364588446
 30
0.0
 10
105.7275688754778
 20
-128.1677150829754
 30
0.0
 10
105.6428195265407
 20
-128.1723659618805
 30
0.0
 10
105.6428195265407
 20
-128.1723659618805
 30
0.0
 10
105.6428195265407
 20
-127.937065940238
 30
0.0
 10
105.6428195265407
 20
-127.937065940238
 30
0.0
 10
105.7168890794736
 20
-127.9348266281725
 30
0.0
 10
105.9515000820191
 20
-127.9236300678455
 30
0.0
 10
105.9515000820191
 20
-127.6206339199178
 30
0.0
 10
105.9515000820191
 20
-127.4737005974719
 30
0.0
 10
105.881909153217
 20
-127.3109198357938
 30
0.0
 10
105.653499322545
 20
-127.3109198357938
 30
0.0
 10
105.5370550951435
 20
-127.3109198357938
 30
0.0
 10
105.4884792488015
 20
-127.3515719625198
 30
0.0
 10
105.4567843703372
 20
-127.3855061530495
 30
0.0
 10
105.3827148174043
 20
-127.4645710944359
 30
0.0
 10
105.3699679641089
 20
-127.5889390414535
 30
0.0
 10
105.3699679641089
 20
-127.647677919477
 30
0.0
 10
105.3699679641089
 20
-127.6681762376142
 30
0.0
 10
105.3720350214001
 20
-127.7065890522748
 30
0.0
 10
105.3761691359824
 20
-127.7358723638994
 30
0.0
 10
105.3761691359824
 20
-127.7358723638994
 30
0.0
 10
105.1815212410657
 20
-127.7358723638994
 30
0.0
 10
105.1815212410657
 20
-127.7358723638994
 30
0.0
 10
105.1880669224877
 20
-127.6952202371734
 30
0.0
 10
105.1901339797789
 20
-127.6500894863166
 30
0.0
 10
105.1901339797789
 20
-127.6431992953462
 30
0.0
 10
105.1901339797789
 20
-127.5730916022213
 30
0.0
 10
105.1687743877703
 20
-127.3607014655557
 30
0.0
 10
104.9320963279336
 20
-127.3607014655557
 30
0.0
 10
104.7543294008948
 20
-127.3607014655557
 30
0.0
 10
104.6992078731308
 20
-127.5007445970311
 30
0.0
 10
104.6992078731308
 20
-127.6183946078524
 30
0.0
 10
104.6992078731308
 20
-127.9008924376428
 30
0.0
 10
104.9320963279336
 20
-127.9100219406787
 30
0.0
 10
105.0037543140268
 20
-127.9145005648096
 30
0.0
 10
105.0037543140268
 20
-127.9145005648096
 30
0.0
 10
105.0037543140268
 20
-128.1315415803803
 30
0.0
 10
105.0037543140268
 20
-128.1315415803803
 30
0.0
 10
104.8790418574608
 20
-128.1225843321187
 30
0.0
 10
104.502492920923
 20
-128.0931287657198
 30
0.0
 10
104.502492920923
 20
-127.6047864806856
 30
0.0
 10
104.502492920923
 20
-127.3651800896865
 30
0.0
 10
104.6296169443287
 20
-127.1074869473898
 30
0.0
 10
104.9255506465117
 20
-127.1074869473898
 30
0.0
 10
105.1119303122637
 20
-127.1074869473898
 30
0.0
 10
105.1942680943612
 20
-127.2091172642047
 30
0.0
 10
105.2555907939986
 20
-127.3153984599246
 30
0.0
 10
105.2831515578806
 20
-127.2497693909306
 30
0.0
 10
105.3634222826869
 20
-127.0554660055625
 30
0.0
 10
105.6407524692495
 20
-127.0554660055625
 30
0.0
 10
105.9790608459011
 20
-127.0554660055625
 30
0.0
 10
106.1461479769357
 20
-127.3198770840554
 30
0.0
 10
106.1461479769357
 20
-127.6161552957869
 30
0.0
  0
HATCH
  5
61
330
5A
100
AcDbEntity
  8
_U+30EC_U+30A4_U+30E4_U+30FC 1
 62
     7
420
 16777215
100
AcDbHatch
 10
0.0
 20
0.0
 30
0.0
210
0.0
220
0.0
230
1.0
  2
SOLID
 70
     1
 71
     0
 91
        1
 92
        1
 93
        1
 72
     4
 94
        3
 73
     0
 74
     1
 95
       62
 96
       58
 40
0.0
 40
0.0
 40
0.0
 40
0.0
 40
1.0
 40
1.0
 40
1.0
 40
2.0
 40
2.0
 40
2.0
 40
3.0
 40
3.0
 40
3.0
 40
4.0
 40
4.0
 40
4.0
 40
5.0
 40
5.0
 40
5.0
 40
6.0
 40
6.0
 40
6.0
 40
7.0
 40
7.0
 40
7.0
 40
8.0
 40
8.0
 40
8.0
 40
9.0
 40
9.0
 40
9.0
 40
10.0
 40
10.0
 40
10.0
 40
11.0
 40
11.0
 40
11.0
 40
12.0
 40
12.0
 40
12.0
 40
13.0
 40
13.0
 40
13.0
 40
14.0
 40
14.0
 40
14.0
 40
15.0
 40
15.0
 40
15.0
 40
16.0
 40
16.0
 40
16.0
 40
17.0
 40
17.0
 40
17.0
 40
18.0
 40
18.0
 40
18.0
 40
19.0
 40
19.0
 40
19.0
 40
19.0
 10
106.1461479769357
 20
-127.6161552957869
 10
106.1461479769357
 20
-127.7177856126018
 10
106.1251328944757
 20
-127.9506740674047
 10
105.9390977382722
 20
-128.0841715174581
 10
105.826787625453
 20
-128.1632364588446
 10
105.7275688754778
 20
-128.1677150829754
 10
105.6428195265407
 20
-128.1723659618805
 10
105.6428195265407
 20
-128.1723659618805
 10
105.6428195265407
 20
-127.937065940238
 10
105.6428195265407
 20
-127.937065940238
 10
105.7168890794736
 20
-127.9348266281725
 10
105.9515000820191
 20
-127.9236300678455
 10
105.9515000820191
 20
-127.6206339199178
 10
105.9515000820191
 20
-127.4737005974719
 10
105.881909153217
 20
-127.3109198357938
 10
105.653499322545
 20
-127.3109198357938
 10
105.5370550951435
 20
-127.3109198357938
 10
105.4884792488015
 20
-127.3515719625198
 10
105.4567843703372
 20
-127.3855061530495
 10
105.3827148174043
 20
-127.4645710944359
 10
105.3699679641089
 20
-127.5889390414535
 10
105.3699679641089
 20
-127.647677919477
 10
105.3699679641089
 20
-127.6681762376142
 10
105.3720350214001
 20
-127.7065890522748
 10
105.3761691359824
 20
-127.7358723638994
 10
105.3761691359824
 20
-127.7358723638994
 10
105.1815212410657
 20
-127.7358723638994
 10
105.1815212410657
 20
-127.7358723638994
 10
105.1880669224877
 20
-127.6952202371734
 10
105.1901339797789
 20
-127.6500894863166
 10
105.1901339797789
 20
-127.6431992953462
 10
105.1901339797789
 20
-127.5730916022213
 10
105.1687743877703
 20
-127.3607014655557
 10
104.9320963279336
 20
-127.3607014655557
 10
104.7543294008948
 20
-127.3607014655557
 10
104.6992078731308
 20
-127.5007445970311
 10
104.6992078731308
 20
-127.6183946078524
 10
104.6992078731308
 20
-127.9008924376428
 10
104.9320963279336
 20
-127.9100219406787
 10
105.0037543140268
 20
-127.9145005648096
 10
105.0037543140268
 20
-127.9145005648096
 10
105.0037543140268
 20
-128.1315415803803
 10
105.0037543140268
 20
-128.1315415803803
 10
104.8790418574608
 20
-128.1225843321187
 10
104.502492920923
 20
-128.0931287657198
 10
104.502492920923
 20
-127.6047864806856
 10
104.502492920923
 20
-127.3651800896865
 10
104.6296169443287
 20
-127.1074869473898
 10
104.9255506465117
 20
-127.1074869473898
 10
105.1119303122637
 20
-127.1074869473898
 10
105.1942680943612
 20
-127.2091172642047
 10
105.2555907939986
 20
-127.3153984599246
 10
105.2831515578806
 20
-127.2497693909306
 10
105.3634222826869
 20
-127.0554660055625
 10
105.6407524692495
 20
-127.0554660055625
 10
105.9790608459011
 20
-127.0554660055625
 10
106.1461479769357
 20
-127.3198770840554
 10
106.1461479769357
 20
-127.6161552957869
 97
        0
 97
        0
 75
     2
 76
     1
 98
        0
  0
ENDBLK
  5
5D
330
5A
100
AcDbEntity
  8
0
100
AcDbBlockEnd
  0
BLOCK
  5
9D
330
9B
100
AcDbEntity
  8
0
100
AcDbBlockBegin
  2
block 4
 70
     0
 10
0.0
 20
0.0
 30
0.0
  3
block 4
  1

  0
SPLINE
  5
9F
330
9B
100
AcDbEntity
  8
_U+30EC_U+30A4_U+30E4_U+30FC 1
370
     0
100
AcDbSpline
210
0.0
220
0.0
230
1.0
 70
    11
 71
     3
 72
    62
 73
    58
 74
     0
 42
0.0000000001
 43
0.0000000001
 12
1.0
 22
0.0
 32
0.0
 13
1.0
 23
0.0
 33
0.0
 40
0.0
 40
0.0
 40
0.0
 40
0.0
 40
1.0
 40
1.0
 40
1.0
 40
2.0
 40
2.0
 40
2.0
 40
3.0
 40
3.0
 40
3.0
 40
4.0
 40
4.0
 40
4.0
 40
5.0
 40
5.0
 40
5.0
 40
6.0
 40
6.0
 40
6.0
 40
7.0
 40
7.0
 40
7.0
 40
8.0
 40
8.0
 40
8.0
 40
9.0
 40
9.0
 40
9.0
 40
10.0
 40
10.0
 40
10.0
 40
11.0
 40
11.0
 40
11.0
 40
12.0
 40
12.0
 40
12.0
 40
13.0
 40
13.0
 40
13.0
 40
14.0
 40
14.0
 40
14.0
 40
15.0
 40
15.0
 40
15.0
 40
16.0
 40
16.0
 40
16.0
 40
17.0
 40
17.0
 40
17.0
 40
18.0
 40
18.0
 40
18.0
 40
19.0
 40
19.0
 40
19.0
 40
19.0
 10
88.12967662727314
 20
-138.169688550527
 30
0.0
 10
88.02804631045827
 20
-138.169688550527
 30
0.0
 10
87.79515785565538
 20
-138.1483289585185
 30
0.0
 10
87.6618326603762
 20
-137.962293802315
 30
0.0
 10
87.58259546421547
 20
-137.8499836894958
 30
0.0
 10
87.57811684008465
 20
-137.7507649395206
 30
0.0
 10
87.57363821595382
 20
-137.6660155905835
 30
0.0
 10
87.57363821595382
 20
-137.6660155905835
 30
0.0
 10
87.80859372804785
 20
-137.6660155905835
 30
0.0
 10
87.80859372804785
 20
-137.6660155905835
 30
0.0
 10
87.81100529488754
 20
-137.7400851435164
 30
0.0
 10
87.82237410998886
 20
-137.9746961460619
 30
0.0
 10
88.12519800314232
 20
-137.9746961460619
 30
0.0
 10
88.27230358036249
 20
-137.9746961460619
 30
0.0
 10
88.43491208726627
 20
-137.9051052172598
 30
0.0
 10
88.43491208726627
 20
-137.6763508770393
 30
0.0
 10
88.43491208726627
 20
-137.5602511591863
 30
0.0
 10
88.39425996054032
 20
-137.5116753128443
 30
0.0
 10
88.36015351523635
 20
-137.47998043438
 30
0.0
 10
88.28126082862413
 20
-137.4055663718986
 30
0.0
 10
88.15689288160661
 20
-137.3931640281517
 30
0.0
 10
88.09798174880885
 20
-137.3931640281517
 30
0.0
 10
88.07765568544586
 20
-137.3931640281517
 30
0.0
 10
88.0394151255596
 20
-137.3952310854429
 30
0.0
 10
88.00978730438645
 20
-137.3993652000252
 30
0.0
 10
88.00978730438645
 20
-137.3993652000252
 30
0.0
 10
88.00978730438645
 20
-137.2047173051085
 30
0.0
 10
88.00978730438645
 20
-137.2047173051085
 30
0.0
 10
88.0504394311124
 20
-137.2112629865305
 30
0.0
 10
88.09591469151769
 20
-137.2133300438217
 30
0.0
 10
88.10246037293966
 20
-137.2133300438217
 30
0.0
 10
88.17274032083877
 20
-137.2133300438217
 30
0.0
 10
88.38530271227867
 20
-137.1919704518131
 30
0.0
 10
88.38530271227867
 20
-136.9549478824279
 30
0.0
 10
88.38530271227867
 20
-136.7775254649376
 30
0.0
 10
88.24508732602901
 20
-136.7224039371736
 30
0.0
 10
88.12760956998198
 20
-136.7224039371736
 30
0.0
 10
87.84476723064297
 20
-136.7224039371736
 30
0.0
 10
87.83580998238133
 20
-136.9549478824279
 30
0.0
 10
87.83133135825051
 20
-137.0272948876182
 30
0.0
 10
87.83133135825051
 20
-137.0272948876182
 30
0.0
 10
87.61429034267977
 20
-137.0272948876182
 30
0.0
 10
87.61429034267977
 20
-137.0272948876182
 30
0.0
 10
87.62324759094142
 20
-136.9022379215036
 30
0.0
 10
87.65253090256604
 20
-136.5256889849658
 30
0.0
 10
88.14104544237446
 20
-136.5256889849658
 30
0.0
 10
88.38082408814785
 20
-136.5256889849658
 30
0.0
 10
88.63851723044453
 20
-136.652468498823
 30
0.0
 10
88.63851723044453
 20
-136.9487467105545
 30
0.0
 10
88.63851723044453
 20
-137.134781866758
 30
0.0
 10
88.53654240408115
 20
-137.217464158404
 30
0.0
 10
88.43043346313546
 20
-137.2787868580414
 30
0.0
 10
88.4958902773552
 20
-137.3063476219234
 30
0.0
 10
88.69053817227181
 20
-137.3869628562783
 30
0.0
 10
88.69053817227181
 20
-137.6639485332923
 30
0.0
 10
88.69053817227181
 20
-138.0022569099439
 30
0.0
 10
88.42595483900463
 20
-138.169688550527
 30
0.0
 10
88.12967662727314
 20
-138.169688550527
 30
0.0
  0
HATCH
  5
A0
330
9B
100
AcDbEntity
  8
_U+30EC_U+30A4_U+30E4_U+30FC 1
 62
     7
420
 16777215
100
AcDbHatch
 10
0.0
 20
0.0
 30
0.0
210
0.0
220
0.0
230
1.0
  2
SOLID
 70
     1
 71
     0
 91
        1
 92
        1
 93
        1
 72
     4
 94
        3
 73
     0
 74
     1
 95
       62
 96
       58
 40
0.0
 40
0.0
 40
0.0
 40
0.0
 40
1.0
 40
1.0
 40
1.0
 40
2.0
 40
2.0
 40
2.0
 40
3.0
 40
3.0
 40
3.0
 40
4.0
 40
4.0
 40
4.0
 40
5.0
 40
5.0
 40
5.0
 40
6.0
 40
6.0
 40
6.0
 40
7.0
 40
7.0
 40
7.0
 40
8.0
 40
8.0
 40
8.0
 40
9.0
 40
9.0
 40
9.0
 40
10.0
 40
10.0
 40
10.0
 40
11.0
 40
11.0
 40
11.0
 40
12.0
 40
12.0
 40
12.0
 40
13.0
 40
13.0
 40
13.0
 40
14.0
 40
14.0
 40
14.0
 40
15.0
 40
15.0
 40
15.0
 40
16.0
 40
16.0
 40
16.0
 40
17.0
 40
17.0
 40
17.0
 40
18.0
 40
18.0
 40
18.0
 40
19.0
 40
19.0
 40
19.0
 40
19.0
 10
88.12967662727314
 20
-138.169688550527
 10
88.02804631045827
 20
-138.169688550527
 10
87.79515785565538
 20
-138.1483289585185
 10
87.6618326603762
 20
-137.962293802315
 10
87.58259546421547
 20
-137.8499836894958
 10
87.57811684008465
 20
-137.7507649395206
 10
87.57363821595382
 20
-137.6660155905835
 10
87.57363821595382
 20
-137.6660155905835
 10
87.80859372804785
 20
-137.6660155905835
 10
87.80859372804785
 20
-137.6660155905835
 10
87.81100529488754
 20
-137.7400851435164
 10
87.82237410998886
 20
-137.9746961460619
 10
88.12519800314232
 20
-137.9746961460619
 10
88.27230358036249
 20
-137.9746961460619
 10
88.43491208726627
 20
-137.9051052172598
 10
88.43491208726627
 20
-137.6763508770393
 10
88.43491208726627
 20
-137.5602511591863
 10
88.39425996054032
 20
-137.5116753128443
 10
88.36015351523635
 20
-137.47998043438
 10
88.28126082862413
 20
-137.4055663718986
 10
88.15689288160661
 20
-137.3931640281517
 10
88.09798174880885
 20
-137.3931640281517
 10
88.07765568544586
 20
-137.3931640281517
 10
88.0394151255596
 20
-137.3952310854429
 10
88.00978730438645
 20
-137.3993652000252
 10
88.00978730438645
 20
-137.3993652000252
 10
88.00978730438645
 20
-137.2047173051085
 10
88.00978730438645
 20
-137.2047173051085
 10
88.0504394311124
 20
-137.2112629865305
 10
88.09591469151769
 20
-137.2133300438217
 10
88.10246037293966
 20
-137.2133300438217
 10
88.17274032083877
 20
-137.2133300438217
 10
88.38530271227867
 20
-137.1919704518131
 10
88.38530271227867
 20
-136.9549478824279
 10
88.38530271227867
 20
-136.7775254649376
 10
88.24508732602901
 20
-136.7224039371736
 10
88.12760956998198
 20
-136.7224039371736
 10
87.84476723064297
 20
-136.7224039371736
 10
87.83580998238133
 20
-136.9549478824279
 10
87.83133135825051
 20
-137.0272948876182
 10
87.83133135825051
 20
-137.0272948876182
 10
87.61429034267977
 20
-137.0272948876182
 10
87.61429034267977
 20
-137.0272948876182
 10
87.62324759094142
 20
-136.9022379215036
 10
87.65253090256604
 20
-136.5256889849658
 10
88.14104544237446
 20
-136.5256889849658
 10
88.38082408814785
 20
-136.5256889849658
 10
88.63851723044453
 20
-136.652468498823
 10
88.63851723044453
 20
-136.9487467105545
 10
88.63851723044453
 20
-137.134781866758
 10
88.53654240408115
 20
-137.217464158404
 10
88.43043346313546
 20
-137.2787868580414
 10
88.4958902773552
 20
-137.3063476219234
 10
88.69053817227181
 20
-137.3869628562783
 10
88.69053817227181
 20
-137.6639485332923
 10
88.69053817227181
 20
-138.0022569099439
 10
88.42595483900463
 20
-138.169688550527
 10
88.12967662727314
 20
-138.169688550527
 97
        0
 97
        0
 75
     2
 76
     1
 98
        0
  0
SPLINE
  5
A1
330
9B
100
AcDbEntity
  8
_U+30EC_U+30A4_U+30E4_U+30FC 1
370
     0
100
AcDbSpline
210
0.0
220
0.0
230
1.0
 70
    11
 71
     3
 72
    29
 73
    25
 74
     0
 42
0.0000000001
 43
0.0000000001
 12
1.0
 22
0.0
 32
0.0
 13
1.0
 23
0.0
 33
0.0
 40
0.0
 40
0.0
 40
0.0
 40
0.0
 40
1.0
 40
1.0
 40
1.0
 40
2.0
 40
2.0
 40
2.0
 40
3.0
 40
3.0
 40
3.0
 40
4.0
 40
4.0
 40
4.0
 40
5.0
 40
5.0
 40
5.0
 40
6.0
 40
6.0
 40
6.0
 40
7.0
 40
7.0
 40
7.0
 40
8.0
 40
8.0
 40
8.0
 40
8.0
 10
89.82156302007934
 20
-137.9409342103064
 30
0.0
 10
89.70615232132347
 20
-138.1503960158096
 30
0.0
 10
89.52080618421702
 20
-138.169688550527
 30
0.0
 10
89.3964382371995
 20
-138.169688550527
 30
0.0
 10
89.22487248203406
 20
-138.169688550527
 30
0.0
 10
89.07328828068307
 20
-138.1228352519276
 30
0.0
 10
88.9716579638682
 20
-137.9409342103064
 30
0.0
 10
88.86072588924316
 20
-137.7462863153898
 30
0.0
 10
88.84039982588018
 20
-137.5096082555532
 30
0.0
 10
88.84039982588018
 20
-137.3463107295523
 30
0.0
 10
88.84039982588018
 20
-137.2026502478174
 30
0.0
 10
88.85831432240349
 20
-136.9508137678456
 30
0.0
 10
88.9716579638682
 20
-136.7520317583467
 30
0.0
 10
89.08672415307555
 20
-136.5491156342655
 30
0.0
 10
89.25863441778951
 20
-136.5256889849658
 30
0.0
 10
89.3964382371995
 20
-136.5256889849658
 30
0.0
 10
89.56628144462232
 20
-136.5256889849658
 30
0.0
 10
89.71993270326446
 20
-136.5701307167255
 30
0.0
 10
89.82156302007934
 20
-136.7520317583467
 30
0.0
 10
89.92801647057355
 20
-136.9446125959722
 30
0.0
 10
89.95282115806735
 20
-137.1730224266443
 30
0.0
 10
89.95282115806735
 20
-137.3463107295523
 30
0.0
 10
89.95282115806735
 20
-137.5178764847178
 30
0.0
 10
89.93008352786471
 20
-137.7486978822295
 30
0.0
 10
89.82156302007934
 20
-137.9409342103064
 30
0.0
  0
SPLINE
  5
A2
330
9B
100
AcDbEntity
  8
_U+30EC_U+30A4_U+30E4_U+30FC 1
370
     0
100
AcDbSpline
210
0.0
220
0.0
230
1.0
 70
    11
 71
     3
 72
    17
 73
    13
 74
     0
 42
0.0000000001
 43
0.0000000001
 12
1.0
 22
0.0
 32
0.0
 13
1.0
 23
0.0
 33
0.0
 40
0.0
 40
0.0
 40
0.0
 40
0.0
 40
1.0
 40
1.0
 40
1.0
 40
2.0
 40
2.0
 40
2.0
 40
3.0
 40
3.0
 40
3.0
 40
4.0
 40
4.0
 40
4.0
 40
4.0
 10
89.3964382371995
 20
-136.7182698225913
 30
0.0
 10
89.12978784664116
 20
-136.7182698225913
 30
0.0
 10
89.08017847165357
 20
-137.0018011810273
 30
0.0
 10
89.08017847165357
 20
-137.3463107295523
 30
0.0
 10
89.08017847165357
 20
-137.6660155905835
 30
0.0
 10
89.11841903153984
 20
-137.9746961460619
 30
0.0
 10
89.3964382371995
 20
-137.9746961460619
 30
0.0
 10
89.66102157046669
 20
-137.9746961460619
 30
0.0
 10
89.71304251229397
 20
-137.6935763544655
 30
0.0
 10
89.71304251229397
 20
-137.3463107295523
 30
0.0
 10
89.71304251229397
 20
-137.0272948876182
 30
0.0
 10
89.67239038556802
 20
-136.7182698225913
 30
0.0
 10
89.3964382371995
 20
-136.7182698225913
 30
0.0
  0
HATCH
  5
A3
330
9B
100
AcDbEntity
  8
_U+30EC_U+30A4_U+30E4_U+30FC 1
 62
     7
420
 16777215
100
AcDbHatch
 10
0.0
 20
0.0
 30
0.0
210
0.0
220
0.0
230
1.0
  2
SOLID
 70
     1
 71
     0
 91
        2
 92
        1
 93
        1
 72
     4
 94
        3
 73
     0
 74
     1
 95
       29
 96
       25
 40
0.0
 40
0.0
 40
0.0
 40
0.0
 40
1.0
 40
1.0
 40
1.0
 40
2.0
 40
2.0
 40
2.0
 40
3.0
 40
3.0
 40
3.0
 40
4.0
 40
4.0
 40
4.0
 40
5.0
 40
5.0
 40
5.0
 40
6.0
 40
6.0
 40
6.0
 40
7.0
 40
7.0
 40
7.0
 40
8.0
 40
8.0
 40
8.0
 40
8.0
 10
89.82156302007934
 20
-137.9409342103064
 10
89.70615232132347
 20
-138.1503960158096
 10
89.52080618421702
 20
-138.169688550527
 10
89.3964382371995
 20
-138.169688550527
 10
89.22487248203406
 20
-138.169688550527
 10
89.07328828068307
 20
-138.1228352519276
 10
88.9716579638682
 20
-137.9409342103064
 10
88.86072588924316
 20
-137.7462863153898
 10
88.84039982588018
 20
-137.5096082555532
 10
88.84039982588018
 20
-137.3463107295523
 10
88.84039982588018
 20
-137.2026502478174
 10
88.85831432240349
 20
-136.9508137678456
 10
88.9716579638682
 20
-136.7520317583467
 10
89.08672415307555
 20
-136.5491156342655
 10
89.25863441778951
 20
-136.5256889849658
 10
89.3964382371995
 20
-136.5256889849658
 10
89.56628144462232
 20
-136.5256889849658
 10
89.71993270326446
 20
-136.5701307167255
 10
89.82156302007934
 20
-136.7520317583467
 10
89.92801647057355
 20
-136.9446125959722
 10
89.95282115806735
 20
-137.1730224266443
 10
89.95282115806735
 20
-137.3463107295523
 10
89.95282115806735
 20
-137.5178764847178
 10
89.93008352786471
 20
-137.7486978822295
 10
89.82156302007934
 20
-137.9409342103064
 97
        0
 97
        0
 92
        1
 93
        1
 72
     4
 94
        3
 73
     0
 74
     1
 95
       17
 96
       13
 40
0.0
 40
0.0
 40
0.0
 40
0.0
 40
1.0
 40
1.0
 40
1.0
 40
2.0
 40
2.0
 40
2.0
 40
3.0
 40
3.0
 40
3.0
 40
4.0
 40
4.0
 40
4.0
 40
4.0
 10
89.3964382371995
 20
-136.7182698225913
 10
89.12978784664116
 20
-136.7182698225913
 10
89.08017847165357
 20
-137.0018011810273
 10
89.08017847165357
 20
-137.3463107295523
 10
89.08017847165357
 20
-137.6660155905835
 10
89.11841903153984
 20
-137.9746961460619
 10
89.3964382371995
 20
-137.9746961460619
 10
89.66102157046669
 20
-137.9746961460619
 10
89.71304251229397
 20
-137.6935763544655
 10
89.71304251229397
 20
-137.3463107295523
 10
89.71304251229397
 20
-137.0272948876182
 10
89.67239038556802
 20
-136.7182698225913
 10
89.3964382371995
 20
-136.7182698225913
 97
        0
 97
        0
 75
     2
 76
     1
 98
        0
  0
ENDBLK
  5
9E
330
9B
100
AcDbEntity
  8
0
100
AcDbBlockEnd
  0
BLOCK
  5
B4
330
B2
100
AcDbEntity
  8
0
100
AcDbBlockBegin
  2
block 5
 70
     0
 10
0.0
 20
0.0
 30
0.0
  3
block 5
  1

  0
SPLINE
  5
B6
330
B2
100
AcDbEntity
  8
_U+30EC_U+30A4_U+30E4_U+30FC 1
370
     0
100
AcDbSpline
210
0.0
220
0.0
230
1.0
 70
    11
 71
     3
 72
    26
 73
    22
 74
     0
 42
0.0000000001
 43
0.0000000001
 12
1.0
 22
0.0
 32
0.0
 13
1.0
 23
0.0
 33
0.0
 40
0.0
 40
0.0
 40
0.0
 40
0.0
 40
1.0
 40
1.0
 40
1.0
 40
2.0
 40
2.0
 40
2.0
 40
3.0
 40
3.0
 40
3.0
 40
4.0
 40
4.0
 40
4.0
 40
5.0
 40
5.0
 40
5.0
 40
6.0
 40
6.0
 40
6.0
 40
7.0
 40
7.0
 40
7.0
 40
7.0
 10
87.92710501274045
 20
-119.0687011421078
 30
0.0
 10
87.92710501274045
 20
-119.0687011421078
 30
0.0
 10
87.92710501274045
 20
-117.964375784311
 30
0.0
 10
87.92710501274045
 20
-117.964375784311
 30
0.0
 10
87.92710501274045
 20
-117.964375784311
 30
0.0
 10
87.57467174459939
 20
-117.964375784311
 30
0.0
 10
87.57467174459939
 20
-117.964375784311
 30
0.0
 10
87.57467174459939
 20
-117.964375784311
 30
0.0
 10
87.57467174459939
 20
-117.8164089332195
 30
0.0
 10
87.57467174459939
 20
-117.8164089332195
 30
0.0
 10
87.92951657958012
 20
-117.8015950226329
 30
0.0
 10
87.97912595456772
 20
-117.6386420061806
 30
0.0
 10
88.01082083303203
 20
-117.5244370908446
 30
0.0
 10
88.01082083303203
 20
-117.5244370908446
 30
0.0
 10
88.16688365851384
 20
-117.5244370908446
 30
0.0
 10
88.16688365851384
 20
-117.5244370908446
 30
0.0
 10
88.16688365851384
 20
-117.5244370908446
 30
0.0
 10
88.16688365851384
 20
-119.0687011421078
 30
0.0
 10
88.16688365851384
 20
-119.0687011421078
 30
0.0
 10
88.16688365851384
 20
-119.0687011421078
 30
0.0
 10
87.92710501274045
 20
-119.0687011421078
 30
0.0
 10
87.92710501274045
 20
-119.0687011421078
 30
0.0
  0
HATCH
  5
B7
330
B2
100
AcDbEntity
  8
_U+30EC_U+30A4_U+30E4_U+30FC 1
 62
     7
420
 16777215
100
AcDbHatch
 10
0.0
 20
0.0
 30
0.0
210
0.0
220
0.0
230
1.0
  2
SOLID
 70
     1
 71
     0
 91
        1
 92
        1
 93
        1
 72
     4
 94
        3
 73
     0
 74
     1
 95
       26
 96
       22
 40
0.0
 40
0.0
 40
0.0
 40
0.0
 40
1.0
 40
1.0
 40
1.0
 40
2.0
 40
2.0
 40
2.0
 40
3.0
 40
3.0
 40
3.0
 40
4.0
 40
4.0
 40
4.0
 40
5.0
 40
5.0
 40
5.0
 40
6.0
 40
6.0
 40
6.0
 40
7.0
 40
7.0
 40
7.0
 40
7.0
 10
87.92710501274045
 20
-119.0687011421078
 10
87.92710501274045
 20
-119.0687011421078
 10
87.92710501274045
 20
-117.964375784311
 10
87.92710501274045
 20
-117.964375784311
 10
87.92710501274045
 20
-117.964375784311
 10
87.57467174459939
 20
-117.964375784311
 10
87.57467174459939
 20
-117.964375784311
 10
87.57467174459939
 20
-117.964375784311
 10
87.57467174459939
 20
-117.8164089332195
 10
87.57467174459939
 20
-117.8164089332195
 10
87.92951657958012
 20
-117.8015950226329
 10
87.97912595456772
 20
-117.6386420061806
 10
88.01082083303203
 20
-117.5244370908446
 10
88.01082083303203
 20
-117.5244370908446
 10
88.16688365851384
 20
-117.5244370908446
 10
88.16688365851384
 20
-117.5244370908446
 10
88.16688365851384
 20
-117.5244370908446
 10
88.16688365851384
 20
-119.0687011421078
 10
88.16688365851384
 20
-119.0687011421078
 10
88.16688365851384
 20
-119.0687011421078
 10
87.92710501274045
 20
-119.0687011421078
 10
87.92710501274045
 20
-119.0687011421078
 97
        0
 97
        0
 75
     2
 76
     1
 98
        0
  0
SPLINE
  5
B8
330
B2
100
AcDbEntity
  8
_U+30EC_U+30A4_U+30E4_U+30FC 1
370
     0
100
AcDbSpline
210
0.0
220
0.0
230
1.0
 70
    11
 71
     3
 72
    29
 73
    25
 74
     0
 42
0.0000000001
 43
0.0000000001
 12
1.0
 22
0.0
 32
0.0
 13
1.0
 23
0.0
 33
0.0
 40
0.0
 40
0.0
 40
0.0
 40
0.0
 40
1.0
 40
1.0
 40
1.0
 40
2.0
 40
2.0
 40
2.0
 40
3.0
 40
3.0
 40
3.0
 40
4.0
 40
4.0
 40
4.0
 40
5.0
 40
5.0
 40
5.0
 40
6.0
 40
6.0
 40
6.0
 40
7.0
 40
7.0
 40
7.0
 40
8.0
 40
8.0
 40
8.0
 40
8.0
 10
89.66205509911227
 20
-118.8909342150689
 30
0.0
 10
89.5466444003564
 20
-119.1003960205721
 30
0.0
 10
89.36129826324996
 20
-119.1195163005153
 30
0.0
 10
89.23693031623243
 20
-119.1195163005153
 30
0.0
 10
89.065364561067
 20
-119.1195163005153
 30
0.0
 10
88.913780359716
 20
-119.0730075114644
 30
0.0
 10
88.81215004290114
 20
-118.8909342150689
 30
0.0
 10
88.70121796827608
 20
-118.6962863201523
 30
0.0
 10
88.68089190491311
 20
-118.4594360055414
 30
0.0
 10
88.68089190491311
 20
-118.2964829890891
 30
0.0
 10
88.68089190491311
 20
-118.1526502525799
 30
0.0
 10
88.69880640143641
 20
-117.9009860273824
 30
0.0
 10
88.81215004290114
 20
-117.7020317631092
 30
0.0
 10
88.92721623210848
 20
-117.4989433842537
 30
0.0
 10
89.09912649682245
 20
-117.4756889897283
 30
0.0
 10
89.23693031623243
 20
-117.4756889897283
 30
0.0
 10
89.40677352365526
 20
-117.4756889897283
 30
0.0
 10
89.5604247822974
 20
-117.520130721488
 30
0.0
 10
89.66205509911227
 20
-117.7020317631092
 30
0.0
 10
89.7685085496065
 20
-117.8946126007347
 30
0.0
 10
89.79331323710029
 20
-118.1230224314068
 30
0.0
 10
89.79331323710029
 20
-118.2964829890891
 30
0.0
 10
89.79331323710029
 20
-118.4678764894803
 30
0.0
 10
89.77057560689764
 20
-118.6985256322177
 30
0.0
 10
89.66205509911227
 20
-118.8909342150689
 30
0.0
  0
SPLINE
  5
B9
330
B2
100
AcDbEntity
  8
_U+30EC_U+30A4_U+30E4_U+30FC 1
370
     0
100
AcDbSpline
210
0.0
220
0.0
230
1.0
 70
    11
 71
     3
 72
    17
 73
    13
 74
     0
 42
0.0000000001
 43
0.0000000001
 12
1.0
 22
0.0
 32
0.0
 13
1.0
 23
0.0
 33
0.0
 40
0.0
 40
0.0
 40
0.0
 40
0.0
 40
1.0
 40
1.0
 40
1.0
 40
2.0
 40
2.0
 40
2.0
 40
3.0
 40
3.0
 40
3.0
 40
4.0
 40
4.0
 40
4.0
 40
4.0
 10
89.23693031623243
 20
-117.6682698273538
 30
0.0
 10
88.9702799256741
 20
-117.6682698273538
 30
0.0
 10
88.92067055068651
 20
-117.9518011857898
 30
0.0
 10
88.92067055068651
 20
-118.2964829890891
 30
0.0
 10
88.92067055068651
 20
-118.616015595346
 30
0.0
 10
88.95891111057277
 20
-118.9248684055986
 30
0.0
 10
89.23693031623243
 20
-118.9248684055986
 30
0.0
 10
89.50151364949963
 20
-118.9248684055986
 30
0.0
 10
89.5535345913269
 20
-118.6434041044537
 30
0.0
 10
89.5535345913269
 20
-118.2964829890891
 30
0.0
 10
89.5535345913269
 20
-117.9771226376064
 30
0.0
 10
89.51288246460095
 20
-117.6682698273538
 30
0.0
 10
89.23693031623243
 20
-117.6682698273538
 30
0.0
  0
HATCH
  5
BA
330
B2
100
AcDbEntity
  8
_U+30EC_U+30A4_U+30E4_U+30FC 1
 62
     7
420
 16777215
100
AcDbHatch
 10
0.0
 20
0.0
 30
0.0
210
0.0
220
0.0
230
1.0
  2
SOLID
 70
     1
 71
     0
 91
        2
 92
        1
 93
        1
 72
     4
 94
        3
 73
     0
 74
     1
 95
       29
 96
       25
 40
0.0
 40
0.0
 40
0.0
 40
0.0
 40
1.0
 40
1.0
 40
1.0
 40
2.0
 40
2.0
 40
2.0
 40
3.0
 40
3.0
 40
3.0
 40
4.0
 40
4.0
 40
4.0
 40
5.0
 40
5.0
 40
5.0
 40
6.0
 40
6.0
 40
6.0
 40
7.0
 40
7.0
 40
7.0
 40
8.0
 40
8.0
 40
8.0
 40
8.0
 10
89.66205509911227
 20
-118.8909342150689
 10
89.5466444003564
 20
-119.1003960205721
 10
89.36129826324996
 20
-119.1195163005153
 10
89.23693031623243
 20
-119.1195163005153
 10
89.065364561067
 20
-119.1195163005153
 10
88.913780359716
 20
-119.0730075114644
 10
88.81215004290114
 20
-118.8909342150689
 10
88.70121796827608
 20
-118.6962863201523
 10
88.68089190491311
 20
-118.4594360055414
 10
88.68089190491311
 20
-118.2964829890891
 10
88.68089190491311
 20
-118.1526502525799
 10
88.69880640143641
 20
-117.9009860273824
 10
88.81215004290114
 20
-117.7020317631092
 10
88.92721623210848
 20
-117.4989433842537
 10
89.09912649682245
 20
-117.4756889897283
 10
89.23693031623243
 20
-117.4756889897283
 10
89.40677352365526
 20
-117.4756889897283
 10
89.5604247822974
 20
-117.520130721488
 10
89.66205509911227
 20
-117.7020317631092
 10
89.7685085496065
 20
-117.8946126007347
 10
89.79331323710029
 20
-118.1230224314068
 10
89.79331323710029
 20
-118.2964829890891
 10
89.79331323710029
 20
-118.4678764894803
 10
89.77057560689764
 20
-118.6985256322177
 10
89.66205509911227
 20
-118.8909342150689
 97
        0
 97
        0
 92
        1
 93
        1
 72
     4
 94
        3
 73
     0
 74
     1
 95
       17
 96
       13
 40
0.0
 40
0.0
 40
0.0
 40
0.0
 40
1.0
 40
1.0
 40
1.0
 40
2.0
 40
2.0
 40
2.0
 40
3.0
 40
3.0
 40
3.0
 40
4.0
 40
4.0
 40
4.0
 40
4.0
 10
89.23693031623243
 20
-117.6682698273538
 10
88.9702799256741
 20
-117.6682698273538
 10
88.92067055068651
 20
-117.9518011857898
 10
88.92067055068651
 20
-118.2964829890891
 10
88.92067055068651
 20
-118.616015595346
 10
88.95891111057277
 20
-118.9248684055986
 10
89.23693031623243
 20
-118.9248684055986
 10
89.50151364949963
 20
-118.9248684055986
 10
89.5535345913269
 20
-118.6434041044537
 10
89.5535345913269
 20
-118.2964829890891
 10
89.5535345913269
 20
-117.9771226376064
 10
89.51288246460095
 20
-117.6682698273538
 10
89.23693031623243
 20
-117.6682698273538
 97
        0
 97
        0
 75
     2
 76
     1
 98
        0
  0
ENDBLK
  5
B5
330
B2
100
AcDbEntity
  8
0
100
AcDbBlockEnd
  0
ENDSEC
  0
SECTION
  2
ENTITIES
  0
SPLINE
  5
41
330
1F
100
AcDbEntity
  8
_U+30EC_U+30A4_U+30E4_U+30FC 1
 62
     7
420
 16777215
370
     9
100
AcDbSpline
210
0.0
220
0.0
230
1.0
 70
    11
 71
     3
 72
    17
 73
    13
 74
     0
 42
0.0000000001
 43
0.0000000001
 12
1.0
 22
0.0
 32
0.0
 13
1.0
 23
0.0
 33
0.0
 40
0.0
 40
0.0
 40
0.0
 40
0.0
 40
1.0
 40
1.0
 40
1.0
 40
2.0
 40
2.0
 40
2.0
 40
3.0
 40
3.0
 40
3.0
 40
4.0
 40
4.0
 40
4.0
 40
4.0
 10
106.8148289415933
 20
-121.5522644140564
 30
0.0
 10
106.8148289415933
 20
-121.6074035807092
 30
0.0
 10
106.8596317182281
 20
-121.6521710806981
 30
0.0
 10
106.9147356057112
 20
-121.6521710806981
 30
0.0
 10
106.9698747709711
 20
-121.6521710806981
 30
0.0
 10
107.014642269829
 20
-121.6074035807092
 30
0.0
 10
107.014642269829
 20
-121.5522644140564
 30
0.0
 10
107.014642269829
 20
-121.496454969626
 30
0.0
 10
106.9698747709711
 20
-121.4523577474148
 30
0.0
 10
106.9147356057112
 20
-121.4523577474148
 30
0.0
 10
106.8596317182281
 20
-121.4523577474148
 30
0.0
 10
106.8148289415933
 20
-121.496454969626
 30
0.0
 10
106.8148289415933
 20
-121.5522644140564
 30
0.0
  0
SPLINE
  5
42
330
1F
100
AcDbEntity
  8
_U+30EC_U+30A4_U+30E4_U+30FC 1
 62
     7
420
 16777215
370
     9
100
AcDbSpline
210
0.0
220
0.0
230
1.0
 70
    11
 71
     3
 72
    17
 73
    13
 74
     0
 42
0.0000000001
 43
0.0000000001
 12
1.0
 22
0.0
 32
0.0
 13
1.0
 23
0.0
 33
0.0
 40
0.0
 40
0.0
 40
0.0
 40
0.0
 40
1.0
 40
1.0
 40
1.0
 40
2.0
 40
2.0
 40
2.0
 40
3.0
 40
3.0
 40
3.0
 40
4.0
 40
4.0
 40
4.0
 40
4.0
 10
106.8148289415933
 20
-135.523181632786
 30
0.0
 10
106.8148289415933
 20
-135.5782855216609
 30
0.0
 10
106.8596317182281
 20
-135.6230882994276
 30
0.0
 10
106.9147356057112
 20
-135.6230882994276
 30
0.0
 10
106.9698747709711
 20
-135.6230882994276
 30
0.0
 10
107.014642269829
 20
-135.5782855216609
 30
0.0
 10
107.014642269829
 20
-135.523181632786
 30
0.0
 10
107.014642269829
 20
-135.4676896883551
 30
0.0
 10
106.9698747709711
 20
-135.4229221883666
 30
0.0
 10
106.9147356057112
 20
-135.4229221883666
 30
0.0
 10
106.8596317182281
 20
-135.4229221883666
 30
0.0
 10
106.8148289415933
 20
-135.4676896883551
 30
0.0
 10
106.8148289415933
 20
-135.523181632786
 30
0.0
  0
POLYLINE
  5
43
330
1F
100
AcDbEntity
  8
_U+30EC_U+30A4_U+30E4_U+30FC 1
 62
     7
420
 16777215
370
     9
100
AcDb2dPolyline
 66
     1
 10
0.0
 20
0.0
 30
0.0
  0
VERTEX
  5
44
330
43
100
AcDbEntity
  8
_U+30EC_U+30A4_U+30E4_U+30FC 1
 62
     7
420
 16777215
370
     9
100
AcDbVertex
100
AcDb2dVertex
 10
106.9147356057112
 20
-121.5233366362857
 30
0.0
  0
VERTEX
  5
45
330
43
100
AcDbEntity
  8
_U+30EC_U+30A4_U+30E4_U+30FC 1
 62
     7
420
 16777215
370
     9
100
AcDbVertex
100
AcDb2dVertex
 10
106.9147356057112
 20
-135.523181632786
 30
0.0
  0
SEQEND
  5
46
330
43
100
AcDbEntity
  8
_U+30EC_U+30A4_U+30E4_U+30FC 1
 62
     7
420
 16777215
370
     9
  0
POLYLINE
  5
47
330
1F
100
AcDbEntity
  8
_U+30EC_U+30A4_U+30E4_U+30FC 1
 62
     7
420
 16777215
370
     9
100
AcDb2dPolyline
 66
     1
 10
0.0
 20
0.0
 30
0.0
  0
VERTEX
  5
48
330
47
100
AcDbEntity
  8
_U+30EC_U+30A4_U+30E4_U+30FC 1
 62
     7
420
 16777215
370
     9
100
AcDbVertex
100
AcDb2dVertex
 10
105.9776872962839
 20
-121.5522644140564
 30
0.0
  0
VERTEX
  5
49
330
47
100
AcDbEntity
  8
_U+30EC_U+30A4_U+30E4_U+30FC 1
 62
     7
420
 16777215
370
     9
100
AcDbVertex
100
AcDb2dVertex
 10
107.9152133579646
 20
-121.5522644140564
 30
0.0
  0
SEQEND
  5
4A
330
47
100
AcDbEntity
  8
_U+30EC_U+30A4_U+30E4_U+30FC 1
 62
     7
420
 16777215
370
     9
  0
POLYLINE
  5
4B
330
1F
100
AcDbEntity
  8
_U+30EC_U+30A4_U+30E4_U+30FC 1
 62
     7
420
 16777215
370
     9
100
AcDb2dPolyline
 66
     1
 10
0.0
 20
0.0
 30
0.0
  0
VERTEX
  5
4C
330
4B
100
AcDbEntity
  8
_U+30EC_U+30A4_U+30E4_U+30FC 1
 62
     7
420
 16777215
370
     9
100
AcDbVertex
100
AcDb2dVertex
 10
105.9859422960733
 20
-135.523181632786
 30
0.0
  0
VERTEX
  5
4D
330
4B
100
AcDbEntity
  8
_U+30EC_U+30A4_U+30E4_U+30FC 1
 62
     7
420
 16777215
370
     9
100
AcDbVertex
100
AcDb2dVertex
 10
107.9152133579646
 20
-135.523181632786
 30
0.0
  0
SEQEND
  5
4E
330
4B
100
AcDbEntity
  8
_U+30EC_U+30A4_U+30E4_U+30FC 1
 62
     7
420
 16777215
370
     9
  0
SPLINE
  5
4F
330
1F
100
AcDbEntity
  8
_U+30EC_U+30A4_U+30E4_U+30FC 1
 62
     7
420
 16777215
370
     9
100
AcDbSpline
210
0.0
220
0.0
230
1.0
 70
    11
 71
     3
 72
    17
 73
    13
 74
     0
 42
0.0000000001
 43
0.0000000001
 12
1.0
 22
0.0
 32
0.0
 13
1.0
 23
0.0
 33
0.0
 40
0.0
 40
0.0
 40
0.0
 40
0.0
 40
1.0
 40
1.0
 40
1.0
 40
2.0
 40
2.0
 40
2.0
 40
3.0
 40
3.0
 40
3.0
 40
4.0
 40
4.0
 40
4.0
 40
4.0
 10
106.8148289415933
 20
-134.3177399664208
 30
0.0
 10
106.8148289415933
 20
-134.3728438552958
 30
0.0
 10
106.8596317182281
 20
-134.4176466330625
 30
0.0
 10
106.9147356057112
 20
-134.4176466330625
 30
0.0
 10
106.9698747709711
 20
-134.4176466330625
 30
0.0
 10
107.014642269829
 20
-134.3728438552958
 30
0.0
 10
107.014642269829
 20
-134.3177399664208
 30
0.0
 10
107.014642269829
 20
-134.2626007997678
 30
0.0
 10
106.9698747709711
 20
-134.2178332997786
 30
0.0
 10
106.9147356057112
 20
-134.2178332997786
 30
0.0
 10
106.8596317182281
 20
-134.2178332997786
 30
0.0
 10
106.8148289415933
 20
-134.2626007997678
 30
0.0
 10
106.8148289415933
 20
-134.3177399664208
 30
0.0
  0
POLYLINE
  5
50
330
1F
100
AcDbEntity
  8
_U+30EC_U+30A4_U+30E4_U+30FC 1
 62
     7
420
 16777215
370
     9
100
AcDb2dPolyline
 66
     1
 10
0.0
 20
0.0
 30
0.0
  0
VERTEX
  5
51
330
50
100
AcDbEntity
  8
_U+30EC_U+30A4_U+30E4_U+30FC 1
 62
     7
420
 16777215
370
     9
100
AcDbVertex
100
AcDb2dVertex
 10
105.9859422960733
 20
-134.3177399664208
 30
0.0
  0
VERTEX
  5
52
330
50
100
AcDbEntity
  8
_U+30EC_U+30A4_U+30E4_U+30FC 1
 62
     7
420
 16777215
370
     9
100
AcDbVertex
100
AcDb2dVertex
 10
107.9152133579646
 20
-134.3177399664208
 30
0.0
  0
SEQEND
  5
53
330
50
100
AcDbEntity
  8
_U+30EC_U+30A4_U+30E4_U+30FC 1
 62
     7
420
 16777215
370
     9
  0
INSERT
  5
55
330
1F
100
AcDbEntity
  8
_U+30EC_U+30A4_U+30E4_U+30FC 1
100
AcDbBlockReference
  2
block 2
 10
0.0
 20
0.0
 30
0.0
  0
INSERT
  5
5B
330
1F
100
AcDbEntity
  8
_U+30EC_U+30A4_U+30E4_U+30FC 1
100
AcDbBlockReference
  2
block 3
 10
0.0
 20
0.0
 30
0.0
  0
POLYLINE
  5
62
330
1F
100
AcDbEntity
  8
_U+30EC_U+30A4_U+30E4_U+30FC 1
370
     0
100
AcDb2dPolyline
 66
     1
 10
0.0
 20
0.0
 30
0.0
  0
VERTEX
  5
63
330
62
100
AcDbEntity
  8
_U+30EC_U+30A4_U+30E4_U+30FC 1
370
     0
100
AcDbVertex
100
AcDb2dVertex
 10
81.4795995879489
 20
-134.3859319108479
 30
0.0
  0
VERTEX
  5
64
330
62
100
AcDbEntity
  8
_U+30EC_U+30A4_U+30E4_U+30FC 1
370
     0
100
AcDbVertex
100
AcDb2dVertex
 10
82.56689594909855
 20
-134.3859319108479
 30
0.0
  0
VERTEX
  5
65
330
62
100
AcDbEntity
  8
_U+30EC_U+30A4_U+30E4_U+30FC 1
370
     0
100
AcDbVertex
100
AcDb2dVertex
 10
82.61924816998516
 20
-134.3632130219649
 30
0.0
  0
VERTEX
  5
66
330
62
100
AcDbEntity
  8
_U+30EC_U+30A4_U+30E4_U+30FC 1
370
     0
100
AcDbVertex
100
AcDb2dVertex
 10
82.61924816998516
 20
-121.3631402474369
 30
0.0
  0
VERTEX
  5
67
330
62
100
AcDbEntity
  8
_U+30EC_U+30A4_U+30E4_U+30FC 1
370
     0
100
AcDbVertex
100
AcDb2dVertex
 10
83.61902036670106
 20
-121.3631402474369
 30
0.0
  0
VERTEX
  5
68
330
62
100
AcDbEntity
  8
_U+30EC_U+30A4_U+30E4_U+30FC 1
370
     0
100
AcDbVertex
100
AcDb2dVertex
 10
83.61902036670106
 20
-134.3632130219649
 30
0.0
  0
VERTEX
  5
69
330
62
100
AcDbEntity
  8
_U+30EC_U+30A4_U+30E4_U+30FC 1
370
     0
100
AcDbVertex
100
AcDb2dVertex
 10
83.71374119761786
 20
-134.3859319108479
 30
0.0
  0
VERTEX
  5
6A
330
62
100
AcDbEntity
  8
_U+30EC_U+30A4_U+30E4_U+30FC 1
370
     0
100
AcDbVertex
100
AcDb2dVertex
 10
93.82682149516725
 20
-134.3859319108479
 30
0.0
  0
VERTEX
  5
6B
330
62
100
AcDbEntity
  8
_U+30EC_U+30A4_U+30E4_U+30FC 1
370
     0
100
AcDbVertex
100
AcDb2dVertex
 10
93.82787982847358
 20
-134.3632130219649
 30
0.0
  0
VERTEX
  5
6C
330
62
100
AcDbEntity
  8
_U+30EC_U+30A4_U+30E4_U+30FC 1
370
     0
100
AcDbVertex
100
AcDb2dVertex
 10
93.82787982847358
 20
-121.3631402474369
 30
0.0
  0
VERTEX
  5
6D
330
62
100
AcDbEntity
  8
_U+30EC_U+30A4_U+30E4_U+30FC 1
370
     0
100
AcDbVertex
100
AcDb2dVertex
 10
94.82796952518139
 20
-121.3631402474369
 30
0.0
  0
VERTEX
  5
6E
330
62
100
AcDbEntity
  8
_U+30EC_U+30A4_U+30E4_U+30FC 1
370
     0
100
AcDbVertex
100
AcDb2dVertex
 10
94.82796952518139
 20
-134.3632130219649
 30
0.0
  0
VERTEX
  5
6F
330
62
100
AcDbEntity
  8
_U+30EC_U+30A4_U+30E4_U+30FC 1
370
     0
100
AcDbVertex
100
AcDb2dVertex
 10
94.79696035930583
 20
-134.3859319108479
 30
0.0
  0
VERTEX
  5
70
330
62
100
AcDbEntity
  8
_U+30EC_U+30A4_U+30E4_U+30FC 1
370
     0
100
AcDbVertex
100
AcDb2dVertex
 10
95.4436020094753
 20
-134.3859319108479
 30
0.0
  0
VERTEX
  5
71
330
62
100
AcDbEntity
  8
_U+30EC_U+30A4_U+30E4_U+30FC 1
370
     0
100
AcDbVertex
100
AcDb2dVertex
 10
103.7679931859913
 20
-134.3859319108479
 30
0.0
  0
VERTEX
  5
72
330
62
100
AcDbEntity
  8
_U+30EC_U+30A4_U+30E4_U+30FC 1
370
     0
100
AcDbVertex
100
AcDb2dVertex
 10
103.7679931859913
 20
-135.3857041328205
 30
0.0
  0
VERTEX
  5
73
330
62
100
AcDbEntity
  8
_U+30EC_U+30A4_U+30E4_U+30FC 1
370
     0
100
AcDbVertex
100
AcDb2dVertex
 10
73.76808922913037
 20
-135.3857041328205
 30
0.0
  0
VERTEX
  5
74
330
62
100
AcDbEntity
  8
_U+30EC_U+30A4_U+30E4_U+30FC 1
370
     0
100
AcDbVertex
100
AcDb2dVertex
 10
73.76808922913037
 20
-134.3859319108479
 30
0.0
  0
VERTEX
  5
75
330
62
100
AcDbEntity
  8
_U+30EC_U+30A4_U+30E4_U+30FC 1
370
     0
100
AcDbVertex
100
AcDb2dVertex
 10
81.4795995879489
 20
-134.3859319108479
 30
0.0
  0
SEQEND
  5
77
330
62
100
AcDbEntity
  8
_U+30EC_U+30A4_U+30E4_U+30FC 1
370
     0
  0
HATCH
  5
76
330
1F
100
AcDbEntity
  8
_U+30EC_U+30A4_U+30E4_U+30FC 1
 62
   253
420
 11711154
100
AcDbHatch
 10
0.0
 20
0.0
 30
0.0
210
0.0
220
0.0
230
1.0
  2
SOLID
 70
     1
 71
     0
 91
        1
 92
        1
 93
       18
 72
     1
 10
81.4795995879489
 20
-134.3859319108479
 11
82.56689594909855
 21
-134.3859319108479
 72
     1
 10
82.56689594909855
 20
-134.3859319108479
 11
82.61924816998516
 21
-134.3632130219649
 72
     1
 10
82.61924816998516
 20
-134.3632130219649
 11
82.61924816998516
 21
-121.3631402474369
 72
     1
 10
82.61924816998516
 20
-121.3631402474369
 11
83.61902036670106
 21
-121.3631402474369
 72
     1
 10
83.61902036670106
 20
-121.3631402474369
 11
83.61902036670106
 21
-134.363213021965
 72
     1
 10
83.61902036670106
 20
-134.3632130219649
 11
83.71374119761786
 21
-134.3859319108479
 72
     1
 10
83.71374119761786
 20
-134.3859319108479
 11
93.82682149516725
 21
-134.3859319108479
 72
     1
 10
93.82682149516725
 20
-134.3859319108479
 11
93.82787982847358
 21
-134.3632130219649
 72
     1
 10
93.82787982847358
 20
-134.3632130219649
 11
93.82787982847358
 21
-121.3631402474369
 72
     1
 10
93.82787982847358
 20
-121.3631402474369
 11
94.82796952518139
 21
-121.3631402474369
 72
     1
 10
94.82796952518139
 20
-121.3631402474369
 11
94.82796952518139
 21
-134.363213021965
 72
     1
 10
94.82796952518139
 20
-134.3632130219649
 11
94.79696035930583
 21
-134.3859319108479
 72
     1
 10
94.79696035930583
 20
-134.3859319108479
 11
95.44360200947528
 21
-134.3859319108479
 72
     1
 10
95.4436020094753
 20
-134.3859319108479
 11
103.7679931859913
 21
-134.3859319108479
 72
     1
 10
103.7679931859913
 20
-134.3859319108479
 11
103.7679931859913
 21
-135.3857041328204
 72
     1
 10
103.7679931859913
 20
-135.3857041328205
 11
73.76808922913037
 21
-135.3857041328205
 72
     1
 10
73.76808922913037
 20
-135.3857041328205
 11
73.76808922913037
 21
-134.3859319108479
 72
     1
 10
73.76808922913037
 20
-134.3859319108479
 11
81.47959958794891
 21
-134.3859319108479
 97
        0
 75
     2
 76
     1
 98
        0
  0
POLYLINE
  5
78
330
1F
100
AcDbEntity
  8
_U+30EC_U+30A4_U+30E4_U+30FC 1
 62
     7
420
 16777215
370
    25
100
AcDb2dPolyline
 66
     1
 10
0.0
 20
0.0
 30
0.0
  0
VERTEX
  5
79
330
78
100
AcDbEntity
  8
_U+30EC_U+30A4_U+30E4_U+30FC 1
 62
     7
420
 16777215
370
    25
100
AcDbVertex
100
AcDb2dVertex
 10
81.4795995879489
 20
-134.3859319108479
 30
0.0
  0
VERTEX
  5
7A
330
78
100
AcDbEntity
  8
_U+30EC_U+30A4_U+30E4_U+30FC 1
 62
     7
420
 16777215
370
    25
100
AcDbVertex
100
AcDb2dVertex
 10
82.56689594909855
 20
-134.3859319108479
 30
0.0
  0
VERTEX
  5
7B
330
78
100
AcDbEntity
  8
_U+30EC_U+30A4_U+30E4_U+30FC 1
 62
     7
420
 16777215
370
    25
100
AcDbVertex
100
AcDb2dVertex
 10
82.61924816998516
 20
-134.3632130219649
 30
0.0
  0
VERTEX
  5
7C
330
78
100
AcDbEntity
  8
_U+30EC_U+30A4_U+30E4_U+30FC 1
 62
     7
420
 16777215
370
    25
100
AcDbVertex
100
AcDb2dVertex
 10
82.61924816998516
 20
-121.3631402474369
 30
0.0
  0
VERTEX
  5
7D
330
78
100
AcDbEntity
  8
_U+30EC_U+30A4_U+30E4_U+30FC 1
 62
     7
420
 16777215
370
    25
100
AcDbVertex
100
AcDb2dVertex
 10
83.61902036670106
 20
-121.3631402474369
 30
0.0
  0
VERTEX
  5
7E
330
78
100
AcDbEntity
  8
_U+30EC_U+30A4_U+30E4_U+30FC 1
 62
     7
420
 16777215
370
    25
100
AcDbVertex
100
AcDb2dVertex
 10
83.61902036670106
 20
-134.3632130219649
 30
0.0
  0
VERTEX
  5
7F
330
78
100
AcDbEntity
  8
_U+30EC_U+30A4_U+30E4_U+30FC 1
 62
     7
420
 16777215
370
    25
100
AcDbVertex
100
AcDb2dVertex
 10
83.71374119761786
 20
-134.3859319108479
 30
0.0
  0
VERTEX
  5
80
330
78
100
AcDbEntity
  8
_U+30EC_U+30A4_U+30E4_U+30FC 1
 62
     7
420
 16777215
370
    25
100
AcDbVertex
100
AcDb2dVertex
 10
93.82682149516725
 20
-134.3859319108479
 30
0.0
  0
VERTEX
  5
81
330
78
100
AcDbEntity
  8
_U+30EC_U+30A4_U+30E4_U+30FC 1
 62
     7
420
 16777215
370
    25
100
AcDbVertex
100
AcDb2dVertex
 10
93.82787982847358
 20
-134.3632130219649
 30
0.0
  0
VERTEX
  5
82
330
78
100
AcDbEntity
  8
_U+30EC_U+30A4_U+30E4_U+30FC 1
 62
     7
420
 16777215
370
    25
100
AcDbVertex
100
AcDb2dVertex
 10
93.82787982847358
 20
-121.3631402474369
 30
0.0
  0
VERTEX
  5
83
330
78
100
AcDbEntity
  8
_U+30EC_U+30A4_U+30E4_U+30FC 1
 62
     7
420
 16777215
370
    25
100
AcDbVertex
100
AcDb2dVertex
 10
94.82796952518139
 20
-121.3631402474369
 30
0.0
  0
VERTEX
  5
84
330
78
100
AcDbEntity
  8
_U+30EC_U+30A4_U+30E4_U+30FC 1
 62
     7
420
 16777215
370
    25
100
AcDbVertex
100
AcDb2dVertex
 10
94.82796952518139
 20
-134.3632130219649
 30
0.0
  0
VERTEX
  5
85
330
78
100
AcDbEntity
  8
_U+30EC_U+30A4_U+30E4_U+30FC 1
 62
     7
420
 16777215
370
    25
100
AcDbVertex
100
AcDb2dVertex
 10
94.79696035930583
 20
-134.3859319108479
 30
0.0
  0
VERTEX
  5
86
330
78
100
AcDbEntity
  8
_U+30EC_U+30A4_U+30E4_U+30FC 1
 62
     7
420
 16777215
370
    25
100
AcDbVertex
100
AcDb2dVertex
 10
95.4436020094753
 20
-134.3859319108479
 30
0.0
  0
VERTEX
  5
87
330
78
100
AcDbEntity
  8
_U+30EC_U+30A4_U+30E4_U+30FC 1
 62
     7
420
 16777215
370
    25
100
AcDbVertex
100
AcDb2dVertex
 10
103.7679931859913
 20
-134.3859319108479
 30
0.0
  0
VERTEX
  5
88
330
78
100
AcDbEntity
  8
_U+30EC_U+30A4_U+30E4_U+30FC 1
 62
     7
420
 16777215
370
    25
100
AcDbVertex
100
AcDb2dVertex
 10
103.7679931859913
 20
-135.3857041328205
 30
0.0
  0
VERTEX
  5
89
330
78
100
AcDbEntity
  8
_U+30EC_U+30A4_U+30E4_U+30FC 1
 62
     7
420
 16777215
370
    25
100
AcDbVertex
100
AcDb2dVertex
 10
73.76808922913037
 20
-135.3857041328205
 30
0.0
  0
VERTEX
  5
8A
330
78
100
AcDbEntity
  8
_U+30EC_U+30A4_U+30E4_U+30FC 1
 62
     7
420
 16777215
370
    25
100
AcDbVertex
100
AcDb2dVertex
 10
73.76808922913037
 20
-134.3859319108479
 30
0.0
  0
VERTEX
  5
8B
330
78
100
AcDbEntity
  8
_U+30EC_U+30A4_U+30E4_U+30FC 1
 62
     7
420
 16777215
370
    25
100
AcDbVertex
100
AcDb2dVertex
 10
81.4795995879489
 20
-134.3859319108479
 30
0.0
  0
SEQEND
  5
8C
330
78
100
AcDbEntity
  8
_U+30EC_U+30A4_U+30E4_U+30FC 1
 62
     7
420
 16777215
370
    25
  0
SPLINE
  5
8D
330
1F
100
AcDbEntity
  8
_U+30EC_U+30A4_U+30E4_U+30FC 1
 62
     7
420
 16777215
370
     9
100
AcDbSpline
210
0.0
220
0.0
230
1.0
 70
    11
 71
     3
 72
    17
 73
    13
 74
     0
 42
0.0000000001
 43
0.0000000001
 12
1.0
 22
0.0
 32
0.0
 13
1.0
 23
0.0
 33
0.0
 40
0.0
 40
0.0
 40
0.0
 40
0.0
 40
1.0
 40
1.0
 40
1.0
 40
2.0
 40
2.0
 40
2.0
 40
3.0
 40
3.0
 40
3.0
 40
4.0
 40
4.0
 40
4.0
 40
4.0
 10
73.83081311641904
 20
-138.8321666319589
 30
0.0
 10
73.83081311641904
 20
-138.7770627430834
 30
0.0
 10
73.78601033978427
 20
-138.7322599653167
 30
0.0
 10
73.73090831490069
 20
-138.7322599653167
 30
0.0
 10
73.67576728704125
 20
-138.7322599653167
 30
0.0
 10
73.63099978818336
 20
-138.7770627430834
 30
0.0
 10
73.63099978818336
 20
-138.8321666319589
 30
0.0
 10
73.63099978818336
 20
-138.8873057986114
 30
0.0
 10
73.67576728704125
 20
-138.9320732986006
 30
0.0
 10
73.73090831490069
 20
-138.9320732986006
 30
0.0
 10
73.78601033978427
 20
-138.9320732986006
 30
0.0
 10
73.83081311641904
 20
-138.8873057986114
 30
0.0
 10
73.83081311641904
 20
-138.8321666319589
 30
0.0
  0
POLYLINE
  5
8E
330
1F
100
AcDbEntity
  8
_U+30EC_U+30A4_U+30E4_U+30FC 1
 62
     7
420
 16777215
370
     9
100
AcDb2dPolyline
 66
     1
 10
0.0
 20
0.0
 30
0.0
  0
VERTEX
  5
8F
330
8E
100
AcDbEntity
  8
_U+30EC_U+30A4_U+30E4_U+30FC 1
 62
     7
420
 16777215
370
     9
100
AcDbVertex
100
AcDb2dVertex
 10
73.73090831490069
 20
-138.8321666319589
 30
0.0
  0
VERTEX
  5
90
330
8E
100
AcDbEntity
  8
_U+30EC_U+30A4_U+30E4_U+30FC 1
 62
     7
420
 16777215
370
     9
100
AcDbVertex
100
AcDb2dVertex
 10
103.7307777518454
 20
-138.8321666319589
 30
0.0
  0
SEQEND
  5
91
330
8E
100
AcDbEntity
  8
_U+30EC_U+30A4_U+30E4_U+30FC 1
 62
     7
420
 16777215
370
     9
  0
POLYLINE
  5
92
330
1F
100
AcDbEntity
  8
_U+30EC_U+30A4_U+30E4_U+30FC 1
 62
     7
420
 16777215
370
     9
100
AcDb2dPolyline
 66
     1
 10
0.0
 20
0.0
 30
0.0
  0
VERTEX
  5
93
330
92
100
AcDbEntity
  8
_U+30EC_U+30A4_U+30E4_U+30FC 1
 62
     7
420
 16777215
370
     9
100
AcDbVertex
100
AcDb2dVertex
 10
73.73090831490069
 20
-136.5722016325235
 30
0.0
  0
VERTEX
  5
94
330
92
100
AcDbEntity
  8
_U+30EC_U+30A4_U+30E4_U+30FC 1
 62
     7
420
 16777215
370
     9
100
AcDbVertex
100
AcDb2dVertex
 10
73.73090831490069
 20
-139.8326444094864
 30
0.0
  0
SEQEND
  5
95
330
92
100
AcDbEntity
  8
_U+30EC_U+30A4_U+30E4_U+30FC 1
 62
     7
420
 16777215
370
     9
  0
SPLINE
  5
96
330
1F
100
AcDbEntity
  8
_U+30EC_U+30A4_U+30E4_U+30FC 1
 62
     7
420
 16777215
370
     9
100
AcDbSpline
210
0.0
220
0.0
230
1.0
 70
    11
 71
     3
 72
    17
 73
    13
 74
     0
 42
0.0000000001
 43
0.0000000001
 12
1.0
 22
0.0
 32
0.0
 13
1.0
 23
0.0
 33
0.0
 40
0.0
 40
0.0
 40
0.0
 40
0.0
 40
1.0
 40
1.0
 40
1.0
 40
2.0
 40
2.0
 40
2.0
 40
3.0
 40
3.0
 40
3.0
 40
4.0
 40
4.0
 40
4.0
 40
4.0
 10
103.8238026290119
 20
-138.8321666319589
 30
0.0
 10
103.8238026290119
 20
-138.7770627430834
 30
0.0
 10
103.779035130154
 20
-138.7322599653167
 30
0.0
 10
103.7238959648941
 20
-138.7322599653167
 30
0.0
 10
103.668792077411
 20
-138.7322599653167
 30
0.0
 10
103.6239893007762
 20
-138.7770627430834
 30
0.0
 10
103.6239893007762
 20
-138.8321666319589
 30
0.0
 10
103.6239893007762
 20
-138.8873057986114
 30
0.0
 10
103.668792077411
 20
-138.9320732986006
 30
0.0
 10
103.7238959648941
 20
-138.9320732986006
 30
0.0
 10
103.779035130154
 20
-138.9320732986006
 30
0.0
 10
103.8238026290119
 20
-138.8873057986114
 30
0.0
 10
103.8238026290119
 20
-138.8321666319589
 30
0.0
  0
POLYLINE
  5
97
330
1F
100
AcDbEntity
  8
_U+30EC_U+30A4_U+30E4_U+30FC 1
 62
     7
420
 16777215
370
     9
100
AcDb2dPolyline
 66
     1
 10
0.0
 20
0.0
 30
0.0
  0
VERTEX
  5
98
330
97
100
AcDbEntity
  8
_U+30EC_U+30A4_U+30E4_U+30FC 1
 62
     7
420
 16777215
370
     9
100
AcDbVertex
100
AcDb2dVertex
 10
103.7238959648941
 20
-136.7720149658068
 30
0.0
  0
VERTEX
  5
99
330
97
100
AcDbEntity
  8
_U+30EC_U+30A4_U+30E4_U+30FC 1
 62
     7
420
 16777215
370
     9
100
AcDbVertex
100
AcDb2dVertex
 10
103.7238959648941
 20
-139.8326444094864
 30
0.0
  0
SEQEND
  5
9A
330
97
100
AcDbEntity
  8
_U+30EC_U+30A4_U+30E4_U+30FC 1
 62
     7
420
 16777215
370
     9
  0
INSERT
  5
9C
330
1F
100
AcDbEntity
  8
_U+30EC_U+30A4_U+30E4_U+30FC 1
100
AcDbBlockReference
  2
block 4
 10
0.0
 20
0.0
 30
0.0
  0
SPLINE
  5
A4
330
1F
100
AcDbEntity
  8
_U+30EC_U+30A4_U+30E4_U+30FC 1
 62
     7
420
 16777215
370
     9
100
AcDbSpline
210
0.0
220
0.0
230
1.0
 70
    11
 71
     3
 72
    17
 73
    13
 74
     0
 42
0.0000000001
 43
0.0000000001
 12
1.0
 22
0.0
 32
0.0
 13
1.0
 23
0.0
 33
0.0
 40
0.0
 40
0.0
 40
0.0
 40
0.0
 40
1.0
 40
1.0
 40
1.0
 40
2.0
 40
2.0
 40
2.0
 40
3.0
 40
3.0
 40
3.0
 40
4.0
 40
4.0
 40
4.0
 40
4.0
 10
83.70859064219371
 20
-119.7821666367211
 30
0.0
 10
83.70859064219371
 20
-119.7270627478459
 30
0.0
 10
83.66378786555894
 20
-119.6822599700795
 30
0.0
 10
83.60868609020902
 20
-119.6822599700795
 30
0.0
 10
83.55354481281593
 20
-119.6822599700795
 30
0.0
 10
83.50877731395805
 20
-119.7270627478459
 30
0.0
 10
83.50877731395805
 20
-119.7821666367211
 30
0.0
 10
83.50877731395805
 20
-119.8373058033739
 30
0.0
 10
83.55354481281593
 20
-119.8820733033628
 30
0.0
 10
83.60868609020902
 20
-119.8820733033628
 30
0.0
 10
83.66378786555894
 20
-119.8820733033628
 30
0.0
 10
83.70859064219371
 20
-119.8373058033739
 30
0.0
 10
83.70859064219371
 20
-119.7821666367211
 30
0.0
  0
POLYLINE
  5
A5
330
1F
100
AcDbEntity
  8
_U+30EC_U+30A4_U+30E4_U+30FC 1
 62
     7
420
 16777215
370
     9
100
AcDb2dPolyline
 66
     1
 10
0.0
 20
0.0
 30
0.0
  0
VERTEX
  5
A6
330
A5
100
AcDbEntity
  8
_U+30EC_U+30A4_U+30E4_U+30FC 1
 62
     7
420
 16777215
370
     9
100
AcDbVertex
100
AcDb2dVertex
 10
83.60868609020902
 20
-119.7821666367211
 30
0.0
  0
VERTEX
  5
A7
330
A5
100
AcDbEntity
  8
_U+30EC_U+30A4_U+30E4_U+30FC 1
 62
     7
420
 16777215
370
     9
100
AcDbVertex
100
AcDb2dVertex
 10
93.608416778517
 20
-119.7821666367211
 30
0.0
  0
SEQEND
  5
A8
330
A5
100
AcDbEntity
  8
_U+30EC_U+30A4_U+30E4_U+30FC 1
 62
     7
420
 16777215
370
     9
  0
POLYLINE
  5
A9
330
1F
100
AcDbEntity
  8
_U+30EC_U+30A4_U+30E4_U+30FC 1
 62
     7
420
 16777215
370
     9
100
AcDb2dPolyline
 66
     1
 10
0.0
 20
0.0
 30
0.0
  0
VERTEX
  5
AA
330
A9
100
AcDbEntity
  8
_U+30EC_U+30A4_U+30E4_U+30FC 1
 62
     7
420
 16777215
370
     9
100
AcDbVertex
100
AcDb2dVertex
 10
83.60868609020902
 20
-117.522201637286
 30
0.0
  0
VERTEX
  5
AB
330
A9
100
AcDbEntity
  8
_U+30EC_U+30A4_U+30E4_U+30FC 1
 62
     7
420
 16777215
370
     9
100
AcDbVertex
100
AcDb2dVertex
 10
83.60868609020902
 20
-120.7826444142489
 30
0.0
  0
SEQEND
  5
AC
330
A9
100
AcDbEntity
  8
_U+30EC_U+30A4_U+30E4_U+30FC 1
 62
     7
420
 16777215
370
     9
  0
SPLINE
  5
AD
330
1F
100
AcDbEntity
  8
_U+30EC_U+30A4_U+30E4_U+30FC 1
 62
     7
420
 16777215
370
     9
100
AcDbSpline
210
0.0
220
0.0
230
1.0
 70
    11
 71
     3
 72
    17
 73
    13
 74
     0
 42
0.0000000001
 43
0.0000000001
 12
1.0
 22
0.0
 32
0.0
 13
1.0
 23
0.0
 33
0.0
 40
0.0
 40
0.0
 40
0.0
 40
0.0
 40
1.0
 40
1.0
 40
1.0
 40
2.0
 40
2.0
 40
2.0
 40
3.0
 40
3.0
 40
3.0
 40
4.0
 40
4.0
 40
4.0
 40
4.0
 10
93.8137334399456
 20
-119.7821666367211
 30
0.0
 10
93.8137334399456
 20
-119.7270627478459
 30
0.0
 10
93.76896594108771
 20
-119.6822599700795
 30
0.0
 10
93.71382677582777
 20
-119.6822599700795
 30
0.0
 10
93.6587228883447
 20
-119.6822599700795
 30
0.0
 10
93.61392011170993
 20
-119.7270627478459
 30
0.0
 10
93.61392011170993
 20
-119.7821666367211
 30
0.0
 10
93.61392011170993
 20
-119.8373058033739
 30
0.0
 10
93.6587228883447
 20
-119.8820733033628
 30
0.0
 10
93.71382677582777
 20
-119.8820733033628
 30
0.0
 10
93.76896594108771
 20
-119.8820733033628
 30
0.0
 10
93.8137334399456
 20
-119.8373058033739
 30
0.0
 10
93.8137334399456
 20
-119.7821666367211
 30
0.0
  0
POLYLINE
  5
AE
330
1F
100
AcDbEntity
  8
_U+30EC_U+30A4_U+30E4_U+30FC 1
 62
     7
420
 16777215
370
     9
100
AcDb2dPolyline
 66
     1
 10
0.0
 20
0.0
 30
0.0
  0
VERTEX
  5
AF
330
AE
100
AcDbEntity
  8
_U+30EC_U+30A4_U+30E4_U+30FC 1
 62
     7
420
 16777215
370
     9
100
AcDbVertex
100
AcDb2dVertex
 10
93.71382677582777
 20
-117.7220149705696
 30
0.0
  0
VERTEX
  5
B0
330
AE
100
AcDbEntity
  8
_U+30EC_U+30A4_U+30E4_U+30FC 1
 62
     7
420
 16777215
370
     9
100
AcDbVertex
100
AcDb2dVertex
 10
93.71382677582777
 20
-120.7826444142489
 30
0.0
  0
SEQEND
  5
B1
330
AE
100
AcDbEntity
  8
_U+30EC_U+30A4_U+30E4_U+30FC 1
 62
     7
420
 16777215
370
     9
  0
INSERT
  5
B3
330
1F
100
AcDbEntity
  8
_U+30EC_U+30A4_U+30E4_U+30FC 1
100
AcDbBlockReference
  2
block 5
 10
0.0
 20
0.0
 30
0.0
  0
ENDSEC
  0
SECTION
  2
OBJECTS
  0
DICTIONARY
  5
C
330
0
100
AcDbDictionary
281
     1
  3
ACAD_GROUP
350
D
  3
ACAD_LAYOUT
350
1A
  3
ACAD_MATERIAL
350
3B
  3
ACAD_MLEADERSTYLE
350
BC
  3
ACAD_MLINESTYLE
350
17
  3
ACAD_PLOTSETTINGS
350
19
  3
ACAD_PLOTSTYLENAME
350
E
  3
ACAD_TABLESTYLE
350
BB
  3
ACAD_VISUALSTYLE
350
2A
  0
SUN
  5
3F
330
29
100
AcDbSun
 90
        1
290
     0
 63
     7
421
 16777215
 40
1.0
291
     1
 91
  2455826
 92
 54000000
292
     0
 70
     2
 71
   256
280
     1
  0
DICTIONARY
  5
D
102
{ACAD_REACTORS
330
C
102
}
330
C
100
AcDbDictionary
281
     1
  0
DICTIONARY
  5
1A
102
{ACAD_REACTORS
330
C
102
}
330
C
100
AcDbDictionary
281
     1
  3
Layout1
350
1E
  3
Layout2
350
26
  3
Model
350
22
  0
DICTIONARY
  5
3B
102
{ACAD_REACTORS
330
C
102
}
330
C
100
AcDbDictionary
281
     1
  3
ByBlock
350
3D
  3
ByLayer
350
3C
  3
Global
350
3E
  0
DICTIONARY
  5
BC
102
{ACAD_REACTORS
330
C
102
}
330
C
100
AcDbDictionary
281
     1
  0
DICTIONARY
  5
17
102
{ACAD_REACTORS
330
C
102
}
330
C
100
AcDbDictionary
281
     1
  3
Standard
350
18
  0
DICTIONARY
  5
19
102
{ACAD_REACTORS
330
C
102
}
330
C
100
AcDbDictionary
281
     1
  0
ACDBDICTIONARYWDFLT
  5
E
102
{ACAD_REACTORS
330
C
102
}
330
C
100
AcDbDictionary
281
     1
  3
Normal
350
F
100
AcDbDictionaryWithDefault
340
F
  0
DICTIONARY
  5
BB
102
{ACAD_REACTORS
330
C
102
}
330
C
100
AcDbDictionary
281
     1
  0
DICTIONARY
  5
2A
102
{ACAD_REACTORS
330
C
102
}
330
C
100
AcDbDictionary
281
     1
  3
2dWireframe
350
2F
  3
3D Hidden
350
31
  3
3dWireframe
350
30
  3
Basic
350
32
  3
Brighten
350
36
  3
ColorChange
350
3A
  3
Conceptual
350
34
  3
Dim
350
35
  3
Facepattern
350
39
  3
Flat
350
2B
  3
FlatWithEdges
350
2C
  3
Gouraud
350
2D
  3
GouraudWithEdges
350
2E
  3
Linepattern
350
38
  3
Realistic
350
33
  3
Thicken
350
37
  0
LAYOUT
  5
1E
102
{ACAD_REACTORS
330
1A
102
}
330
1A
100
AcDbPlotSettings
  1

  2
none_device
  4

  6

 40
0.0
 41
0.0
 42
0.0
 43
0.0
 44
0.0
 45
0.0
 46
0.0
 47
0.0
 48
0.0
 49
0.0
140
0.0
141
0.0
142
1.0
143
1.0
 70
   688
 72
     0
 73
     0
 74
     5
  7

 75
    16
 76
     0
 77
     2
 78
   300
147
1.0
148
0.0
149
0.0
100
AcDbLayout
  1
Layout1
 70
     1
 71
     1
 10
0.0
 20
0.0
 11
12.0
 21
9.0
 12
0.0
 22
0.0
 32
0.0
 14
1.000000000000000E+20
 24
1.000000000000000E+20
 34
1.000000000000000E+20
 15
-1.000000000000000E+20
 25
-1.000000000000000E+20
 35
-1.000000000000000E+20
146
0.0
 13
0.0
 23
0.0
 33
0.0
 16
1.0
 26
0.0
 36
0.0
 17
0.0
 27
1.0
 37
0.0
 76
     0
330
1B
  0
LAYOUT
  5
26
102
{ACAD_REACTORS
330
1A
102
}
330
1A
100
AcDbPlotSettings
  1

  2
none_device
  4

  6

 40
0.0
 41
0.0
 42
0.0
 43
0.0
 44
0.0
 45
0.0
 46
0.0
 47
0.0
 48
0.0
 49
0.0
140
0.0
141
0.0
142
1.0
143
1.0
 70
   688
 72
     0
 73
     0
 74
     5
  7

 75
    16
 76
     0
 77
     2
 78
   300
147
1.0
148
0.0
149
0.0
100
AcDbLayout
  1
Layout2
 70
     1
 71
     2
 10
0.0
 20
0.0
 11
0.0
 21
0.0
 12
0.0
 22
0.0
 32
0.0
 14
0.0
 24
0.0
 34
0.0
 15
0.0
 25
0.0
 35
0.0
146
0.0
 13
0.0
 23
0.0
 33
0.0
 16
1.0
 26
0.0
 36
0.0
 17
0.0
 27
1.0
 37
0.0
 76
     0
330
23
  0
LAYOUT
  5
22
102
{ACAD_REACTORS
330
1A
102
}
330
1A
100
AcDbPlotSettings
  1

  2
none_device
  4

  6

 40
0.0
 41
0.0
 42
0.0
 43
0.0
 44
0.0
 45
0.0
 46
0.0
 47
0.0
 48
0.0
 49
0.0
140
0.0
141
0.0
142
1.0
143
1.0
 70
  1712
 72
     0
 73
     0
 74
     0
  7

 75
     0
 76
     0
 77
     2
 78
   300
147
1.0
148
0.0
149
0.0
100
AcDbLayout
  1
Model
 70
     1
 71
     0
 10
0.0
 20
0.0
 11
12.0
 21
9.0
 12
0.0
 22
0.0
 32
0.0
 14
1.000000000000000E+20
 24
1.000000000000000E+20
 34
1.000000000000000E+20
 15
-1.000000000000000E+20
 25
-1.000000000000000E+20
 35
-1.000000000000000E+20
146
0.0
 13
0.0
 23
0.0
 33
0.0
 16
1.0
 26
0.0
 36
0.0
 17
0.0
 27
1.0
 37
0.0
 76
     0
330
1F
331
29
  0
MATERIAL
  5
3D
102
{ACAD_REACTORS
330
3B
102
}
330
3B
100
AcDbMaterial
  1
ByBlock
 72
     1
 94
      127
  0
MATERIAL
  5
3C
102
{ACAD_REACTORS
330
3B
102
}
330
3B
100
AcDbMaterial
  1
ByLayer
 72
     1
 94
      127
  0
MATERIAL
  5
3E
102
{ACAD_REACTORS
330
3B
102
}
330
3B
100
AcDbMaterial
  1
Global
 72
     1
 94
      127
  0
MLINESTYLE
  5
18
102
{ACAD_REACTORS
330
17
102
}
330
17
100
AcDbMlineStyle
  2
Standard
 70
     0
  3

 62
   256
 51
90.0
 52
90.0
 71
     2
 49
0.5
 62
   256
  6
BYLAYER
 49
-0.5
 62
   256
  6
BYLAYER
  0
ACDBPLACEHOLDER
  5
F
102
{ACAD_REACTORS
330
E
102
}
330
E
  0
VISUALSTYLE
  5
2F
102
{ACAD_REACTORS
330
2A
102
}
330
2A
100
AcDbVisualStyle
  2
2dWireframe
 70
     4
177
     2
291
     0
 71
     0
176
     1
 72
     2
176
     1
 73
     0
176
     1
 90
        0
176
     1
 40
-0.6
176
     1
 41
-30.0
176
     1
 62
     5
 63
     7
421
 16777215
176
     1
 74
     1
176
     1
 91
        4
176
     1
 64
     7
176
     1
 65
   257
176
     1
 75
     1
176
     1
175
     1
176
     1
 42
1.0
176
     1
 92
        0
176
     1
 66
   257
176
     1
 43
1.0
176
     1
 76
     1
176
     1
 77
     6
176
     1
 78
     2
176
     1
 67
     7
176
     1
 79
     5
176
     1
170
     0
176
     1
171
     0
176
     1
290
     0
176
     1
 93
        1
176
     1
 44
0.0
176
     1
173
     0
176
     1
  0
VISUALSTYLE
  5
31
102
{ACAD_REACTORS
330
2A
102
}
330
2A
100
AcDbVisualStyle
  2
3D Hidden
 70
     6
177
     2
291
     0
 71
     1
176
     1
 72
     2
176
     1
 73
     2
176
     1
 90
        0
176
     1
 40
-0.6
176
     1
 41
-30.0
176
     1
 62
     5
 63
     7
421
 16777215
176
     1
 74
     2
176
     1
 91
        2
176
     1
 64
     7
176
     1
 65
   257
176
     1
 75
     2
176
     1
175
     1
176
     1
 42
40.0
176
     1
 92
        0
176
     1
 66
   257
176
     1
 43
1.0
176
     1
 76
     1
176
     1
 77
     6
176
     1
 78
     2
176
     1
 67
     7
176
     1
 79
     3
176
     1
170
     0
176
     1
171
     0
176
     1
290
     0
176
     1
 93
        1
176
     1
 44
0.0
176
     1
173
     0
176
     1
  0
VISUALSTYLE
  5
30
102
{ACAD_REACTORS
330
2A
102
}
330
2A
100
AcDbVisualStyle
  2
3dWireframe
 70
     5
177
     2
291
     0
 71
     0
176
     1
 72
     2
176
     1
 73
     0
176
     1
 90
        0
176
     1
 40
-0.6
176
     1
 41
-30.0
176
     1
 62
     5
 63
     7
421
 16777215
176
     1
 74
     1
176
     1
 91
        4
176
     1
 64
     7
176
     1
 65
   257
176
     1
 75
     1
176
     1
175
     1
176
     1
 42
1.0
176
     1
 92
        0
176
     1
 66
   257
176
     1
 43
1.0
176
     1
 76
     1
176
     1
 77
     6
176
     1
 78
     2
176
     1
 67
     7
176
     1
 79
     5
176
     1
170
     0
176
     1
171
     0
176
     1
290
     0
176
     1
 93
        1
176
     1
 44
0.0
176
     1
173
     0
176
     1
  0
VISUALSTYLE
  5
32
102
{ACAD_REACTORS
330
2A
102
}
330
2A
100
AcDbVisualStyle
  2
Basic
 70
     7
177
     2
291
     1
 71
     1
176
     1
 72
     0
176
     1
 73
     1
176
     1
 90
        0
176
     1
 40
-0.6
176
     1
 41
-30.0
176
     1
 62
     5
 63
     7
421
 16777215
176
     1
 74
     0
176
     1
 91
        4
176
     1
 64
     7
176
     1
 65
   257
176
     1
 75
     1
176
     1
175
     1
176
     1
 42
1.0
176
     1
 92
        8
176
     1
 66
     7
176
     1
 43
1.0
176
     1
 76
     1
176
     1
 77
     6
176
     1
 78
     2
176
     1
 67
     7
176
     1
 79
     5
176
     1
170
     0
176
     1
171
     0
176
     1
290
     0
176
     1
 93
        1
176
     1
 44
0.0
176
     1
173
     0
176
     1
  0
VISUALSTYLE
  5
36
102
{ACAD_REACTORS
330
2A
102
}
330
2A
100
AcDbVisualStyle
  2
Brighten
 70
    12
177
     2
291
     1
 71
     2
176
     1
 72
     2
176
     1
 73
     0
176
     1
 90
        0
176
     1
 40
-0.6
176
     1
 41
-30.0
176
     1
 62
     5
 63
     7
421
 16777215
176
     1
 74
     1
176
     1
 91
        4
176
     1
 64
     7
176
     1
 65
   257
176
     1
 75
     1
176
     1
175
     1
176
     1
 42
1.0
176
     1
 92
        8
176
     1
 66
     7
176
     1
 43
1.0
176
     1
 76
     1
176
     1
 77
     6
176
     1
 78
     2
176
     1
 67
     7
176
     1
 79
     5
176
     1
170
     0
176
     1
171
     0
176
     1
290
     0
176
     1
 93
        1
176
     1
 44
50.0
176
     1
173
     0
176
     1
  0
VISUALSTYLE
  5
3A
102
{ACAD_REACTORS
330
2A
102
}
330
2A
100
AcDbVisualStyle
  2
ColorChange
 70
    16
177
     2
291
     1
 71
     2
176
     1
 72
     2
176
     1
 73
     3
176
     1
 90
        0
176
     1
 40
-0.6
176
     1
 41
-30.0
176
     1
 62
     5
 63
     8
421
  8421504
176
     1
 74
     1
176
     1
 91
        4
176
     1
 64
     7
176
     1
 65
   257
176
     1
 75
     1
176
     1
175
     1
176
     1
 42
1.0
176
     1
 92
        8
176
     1
 66
     8
424
  8421504
176
     1
 43
1.0
176
     1
 76
     1
176
     1
 77
     6
176
     1
 78
     2
176
     1
 67
     7
176
     1
 79
     5
176
     1
170
     0
176
     1
171
     0
176
     1
290
     0
176
     1
 93
        1
176
     1
 44
0.0
176
     1
173
     0
176
     1
  0
VISUALSTYLE
  5
34
102
{ACAD_REACTORS
330
2A
102
}
330
2A
100
AcDbVisualStyle
  2
Conceptual
 70
     9
177
     2
291
     0
 71
     3
176
     1
 72
     2
176
     1
 73
     0
176
     1
 90
        0
176
     1
 40
-0.6
176
     1
 41
-30.0
176
     1
 62
     5
 63
     7
421
 16777215
176
     1
 74
     2
176
     1
 91
        2
176
     1
 64
     7
176
     1
 65
   257
176
     1
 75
     1
176
     1
175
     1
176
     1
 42
40.0
176
     1
 92
        8
176
     1
 66
     7
176
     1
 43
1.0
176
     1
 76
     1
176
     1
 77
     6
176
     1
 78
     2
176
     1
 67
     7
176
     1
 79
     3
176
     1
170
     0
176
     1
171
     0
176
     1
290
     0
176
     1
 93
        1
176
     1
 44
0.0
176
     1
173
     0
176
     1
  0
VISUALSTYLE
  5
35
102
{ACAD_REACTORS
330
2A
102
}
330
2A
100
AcDbVisualStyle
  2
Dim
 70
    11
177
     2
291
     1
 71
     2
176
     1
 72
     2
176
     1
 73
     0
176
     1
 90
        0
176
     1
 40
-0.6
176
     1
 41
-30.0
176
     1
 62
     5
 63
     7
421
 16777215
176
     1
 74
     1
176
     1
 91
        4
176
     1
 64
     7
176
     1
 65
   257
176
     1
 75
     1
176
     1
175
     1
176
     1
 42
1.0
176
     1
 92
        8
176
     1
 66
     7
176
     1
 43
1.0
176
     1
 76
     1
176
     1
 77
     6
176
     1
 78
     2
176
     1
 67
     7
176
     1
 79
     5
176
     1
170
     0
176
     1
171
     0
176
     1
290
     0
176
     1
 93
        1
176
     1
 44
-50.0
176
     1
173
     0
176
     1
  0
VISUALSTYLE
  5
39
102
{ACAD_REACTORS
330
2A
102
}
330
2A
100
AcDbVisualStyle
  2
Facepattern
 70
    15
177
     2
291
     1
 71
     2
176
     1
 72
     2
176
     1
 73
     0
176
     1
 90
        0
176
     1
 40
-0.6
176
     1
 41
-30.0
176
     1
 62
     5
 63
     7
421
 16777215
176
     1
 74
     1
176
     1
 91
        4
176
     1
 64
     7
176
     1
 65
   257
176
     1
 75
     1
176
     1
175
     1
176
     1
 42
1.0
176
     1
 92
        8
176
     1
 66
     7
176
     1
 43
1.0
176
     1
 76
     1
176
     1
 77
     6
176
     1
 78
     2
176
     1
 67
     7
176
     1
 79
     5
176
     1
170
     0
176
     1
171
     0
176
     1
290
     0
176
     1
 93
        1
176
     1
 44
0.0
176
     1
173
     0
176
     1
  0
VISUALSTYLE
  5
2B
102
{ACAD_REACTORS
330
2A
102
}
330
2A
100
AcDbVisualStyle
  2
Flat
 70
     0
177
     2
291
     1
 71
     2
176
     1
 72
     1
176
     1
 73
     1
176
     1
 90
        2
176
     1
 40
-0.6
176
     1
 41
30.0
176
     1
 62
     5
 63
     7
421
 16777215
176
     1
 74
     0
176
     1
 91
        4
176
     1
 64
     7
176
     1
 65
   257
176
     1
 75
     1
176
     1
175
     1
176
     1
 42
1.0
176
     1
 92
        8
176
     1
 66
     7
176
     1
 43
1.0
176
     1
 76
     1
176
     1
 77
     6
176
     1
 78
     2
176
     1
 67
     7
176
     1
 79
     5
176
     1
170
     0
176
     1
171
     0
176
     1
290
     0
176
     1
 93
       13
176
     1
 44
0.0
176
     1
173
     0
176
     1
  0
VISUALSTYLE
  5
2C
102
{ACAD_REACTORS
330
2A
102
}
330
2A
100
AcDbVisualStyle
  2
FlatWithEdges
 70
     1
177
     2
291
     1
 71
     2
176
     1
 72
     1
176
     1
 73
     1
176
     1
 90
        2
176
     1
 40
-0.6
176
     1
 41
30.0
176
     1
 62
     5
 63
     7
421
 16777215
176
     1
 74
     1
176
     1
 91
        4
176
     1
 64
     7
176
     1
 65
   257
176
     1
 75
     1
176
     1
175
     1
176
     1
 42
1.0
176
     1
 92
        0
176
     1
 66
   257
176
     1
 43
1.0
176
     1
 76
     1
176
     1
 77
     6
176
     1
 78
     2
176
     1
 67
     7
176
     1
 79
     5
176
     1
170
     0
176
     1
171
     0
176
     1
290
     0
176
     1
 93
       13
176
     1
 44
0.0
176
     1
173
     0
176
     1
  0
VISUALSTYLE
  5
2D
102
{ACAD_REACTORS
330
2A
102
}
330
2A
100
AcDbVisualStyle
  2
Gouraud
 70
     2
177
     2
291
     1
 71
     2
176
     1
 72
     2
176
     1
 73
     1
176
     1
 90
        2
176
     1
 40
-0.6
176
     1
 41
30.0
176
     1
 62
     5
 63
     7
421
 16777215
176
     1
 74
     0
176
     1
 91
        4
176
     1
 64
     7
176
     1
 65
   257
176
     1
 75
     1
176
     1
175
     1
176
     1
 42
1.0
176
     1
 92
        0
176
     1
 66
     7
176
     1
 43
1.0
176
     1
 76
     1
176
     1
 77
     6
176
     1
 78
     2
176
     1
 67
     7
176
     1
 79
     5
176
     1
170
     0
176
     1
171
     0
176
     1
290
     0
176
     1
 93
       13
176
     1
 44
0.0
176
     1
173
     0
176
     1
  0
VISUALSTYLE
  5
2E
102
{ACAD_REACTORS
330
2A
102
}
330
2A
100
AcDbVisualStyle
  2
GouraudWithEdges
 70
     3
177
     2
291
     1
 71
     2
176
     1
 72
     2
176
     1
 73
     1
176
     1
 90
        2
176
     1
 40
-0.6
176
     1
 41
30.0
176
     1
 62
     5
 63
     7
421
 16777215
176
     1
 74
     1
176
     1
 91
        4
176
     1
 64
     7
176
     1
 65
   257
176
     1
 75
     1
176
     1
175
     1
176
     1
 42
1.0
176
     1
 92
        0
176
     1
 66
   257
176
     1
 43
1.0
176
     1
 76
     1
176
     1
 77
     6
176
     1
 78
     2
176
     1
 67
     7
176
     1
 79
     5
176
     1
170
     0
176
     1
171
     0
176
     1
290
     0
176
     1
 93
       13
176
     1
 44
0.0
176
     1
173
     0
176
     1
  0
VISUALSTYLE
  5
38
102
{ACAD_REACTORS
330
2A
102
}
330
2A
100
AcDbVisualStyle
  2
Linepattern
 70
    14
177
     2
291
     1
 71
     2
176
     1
 72
     2
176
     1
 73
     0
176
     1
 90
        0
176
     1
 40
-0.6
176
     1
 41
-30.0
176
     1
 62
     5
 63
     7
421
 16777215
176
     1
 74
     1
176
     1
 91
        4
176
     1
 64
     7
176
     1
 65
   257
176
     1
 75
     7
176
     1
175
     7
176
     1
 42
1.0
176
     1
 92
        8
176
     1
 66
     7
176
     1
 43
1.0
176
     1
 76
     1
176
     1
 77
     6
176
     1
 78
     2
176
     1
 67
     7
176
     1
 79
     5
176
     1
170
     0
176
     1
171
     0
176
     1
290
     0
176
     1
 93
        1
176
     1
 44
0.0
176
     1
173
     0
176
     1
  0
VISUALSTYLE
  5
33
102
{ACAD_REACTORS
330
2A
102
}
330
2A
100
AcDbVisualStyle
  2
Realistic
 70
     8
177
     2
291
     0
 71
     2
176
     1
 72
     2
176
     1
 73
     0
176
     1
 90
        0
176
     1
 40
-0.6
176
     1
 41
-30.0
176
     1
 62
     5
 63
     7
421
 16777215
176
     1
 74
     1
176
     1
 91
        0
176
     1
 64
     7
176
     1
 65
   257
176
     1
 75
     1
176
     1
175
     1
176
     1
 42
1.0
176
     1
 92
        8
176
     1
 66
     8
424
  7895160
176
     1
 43
1.0
176
     1
 76
     1
176
     1
 77
     6
176
     1
 78
     2
176
     1
 67
     7
176
     1
 79
     5
176
     1
170
     0
176
     1
171
     0
176
     1
290
     0
176
     1
 93
       13
176
     1
 44
0.0
176
     1
173
     0
176
     1
  0
VISUALSTYLE
  5
37
102
{ACAD_REACTORS
330
2A
102
}
330
2A
100
AcDbVisualStyle
  2
Thicken
 70
    13
177
     2
291
     1
 71
     2
176
     1
 72
     2
176
     1
 73
     0
176
     1
 90
        0
176
     1
 40
-0.6
176
     1
 41
-30.0
176
     1
 62
     5
 63
     7
421
 16777215
176
     1
 74
     1
176
     1
 91
        4
176
     1
 64
     7
176
     1
 65
   257
176
     1
 75
     1
176
     1
175
     1
176
     1
 42
1.0
176
     1
 92
       12
176
     1
 66
     7
176
     1
 43
1.0
176
     1
 76
     1
176
     1
 77
     6
176
     1
 78
     2
176
     1
 67
     7
176
     1
 79
     5
176
     1
170
     0
176
     1
171
     0
176
     1
290
     0
176
     1
 93
        1
176
     1
 44
0.0
176
     1
173
     0
176
     1
  0
ENDSEC
  0
EOF
