  0
SECTION
  2
HEADER
  9
$ACADVER
  1
AC1024
  9
$ACADMAINTVER
 70
     6
  9
$DWGCODEPAGE
  3
UNDEFINED
  9
$INSBASE
 10
0.0
 20
0.0
 30
0.0
  9
$EXTMIN
 10
1.000000000000000E+20
 20
1.000000000000000E+20
 30
1.000000000000000E+20
  9
$EXTMAX
 10
-1.000000000000000E+20
 20
-1.000000000000000E+20
 30
-1.000000000000000E+20
  9
$LIMMIN
 10
0.0
 20
0.0
  9
$LIMMAX
 10
12.0
 20
9.0
  9
$ORTHOMODE
 70
     0
  9
$REGENMODE
 70
     1
  9
$FILLMODE
 70
     1
  9
$QTEXTMODE
 70
     0
  9
$MIRRTEXT
 70
     1
  9
$LTSCALE
 40
1.0
  9
$ATTMODE
 70
     1
  9
$TEXTSIZE
 40
0.2
  9
$TRACEWID
 40
0.05
  9
$TEXTSTYLE
  7
Standard
  9
$CLAYER
  8
0
  9
$CELTYPE
  6
ByLayer
  9
$CECOLOR
 62
   256
  9
$CELTSCALE
 40
1.0
  9
$DISPSILH
 70
     0
  9
$DIMSCALE
 40
1.0
  9
$DIMASZ
 40
0.18
  9
$DIMEXO
 40
0.0625
  9
$DIMDLI
 40
0.38
  9
$DIMRND
 40
0.0
  9
$DIMDLE
 40
0.0
  9
$DIMEXE
 40
0.18
  9
$DIMTP
 40
0.0
  9
$DIMTM
 40
0.0
  9
$DIMTXT
 40
0.18
  9
$DIMCEN
 40
0.09
  9
$DIMTSZ
 40
0.0
  9
$DIMTOL
 70
     0
  9
$DIMLIM
 70
     0
  9
$DIMTIH
 70
     1
  9
$DIMTOH
 70
     1
  9
$DIMSE1
 70
     0
  9
$DIMSE2
 70
     0
  9
$DIMTAD
 70
     0
  9
$DIMZIN
 70
     0
  9
$DIMBLK
  1

  9
$DIMASO
 70
     1
  9
$DIMSHO
 70
     1
  9
$DIMPOST
  1

  9
$DIMAPOST
  1

  9
$DIMALT
 70
     0
  9
$DIMALTD
 70
     2
  9
$DIMALTF
 40
25.4
  9
$DIMLFAC
 40
1.0
  9
$DIMTOFL
 70
     0
  9
$DIMTVP
 40
0.0
  9
$DIMTIX
 70
     0
  9
$DIMSOXD
 70
     0
  9
$DIMSAH
 70
     0
  9
$DIMBLK1
  1

  9
$DIMBLK2
  1

  9
$DIMSTYLE
  2
Standard
  9
$DIMCLRD
 70
     0
  9
$DIMCLRE
 70
     0
  9
$DIMCLRT
 70
     0
  9
$DIMTFAC
 40
1.0
  9
$DIMGAP
 40
0.09
  9
$DIMJUST
 70
     0
  9
$DIMSD1
 70
     0
  9
$DIMSD2
 70
     0
  9
$DIMTOLJ
 70
     1
  9
$DIMTZIN
 70
     0
  9
$DIMALTZ
 70
     0
  9
$DIMALTTZ
 70
     0
  9
$DIMUPT
 70
     0
  9
$DIMDEC
 70
     4
  9
$DIMTDEC
 70
     4
  9
$DIMALTU
 70
     2
  9
$DIMALTTD
 70
     2
  9
$DIMTXSTY
  7
Standard
  9
$DIMAUNIT
 70
     0
  9
$DIMADEC
 70
     0
  9
$DIMALTRND
 40
0.0
  9
$DIMAZIN
 70
     0
  9
$DIMDSEP
 70
    46
  9
$DIMATFIT
 70
     3
  9
$DIMFRAC
 70
     0
  9
$DIMLDRBLK
  1

  9
$DIMLUNIT
 70
     2
  9
$DIMLWD
 70
    -2
  9
$DIMLWE
 70
    -2
  9
$DIMTMOVE
 70
     0
  9
$DIMFXL
 40
1.0
  9
$DIMFXLON
 70
     0
  9
$DIMJOGANG
 40
0.7853981633974483
  9
$DIMTFILL
 70
     0
  9
$DIMTFILLCLR
 70
     0
  9
$DIMARCSYM
 70
     0
  9
$DIMLTYPE
  6

  9
$DIMLTEX1
  6

  9
$DIMLTEX2
  6

  9
$DIMTXTDIRECTION
 70
     0
  9
$LUNITS
 70
     2
  9
$LUPREC
 70
     4
  9
$SKETCHINC
 40
0.1
  9
$FILLETRAD
 40
0.5
  9
$AUNITS
 70
     0
  9
$AUPREC
 70
     0
  9
$MENU
  1
.
  9
$ELEVATION
 40
0.0
  9
$PELEVATION
 40
0.0
  9
$THICKNESS
 40
0.0
  9
$LIMCHECK
 70
     0
  9
$CHAMFERA
 40
0.5
  9
$CHAMFERB
 40
0.5
  9
$CHAMFERC
 40
1.0
  9
$CHAMFERD
 40
0.0
  9
$SKPOLY
 70
     0
  9
$TDCREATE
 40
2457917.623495359
  9
$TDUCREATE
 40
2457917.24849537
  9
$TDUPDATE
 40
2457917.623495359
  9
$TDUUPDATE
 40
2457917.24849537
  9
$TDINDWG
 40
0.0000000116
  9
$TDUSRTIMER
 40
0.0000000116
  9
$USRTIMER
 70
     1
  9
$ANGBASE
 50
0.0
  9
$ANGDIR
 70
     0
  9
$PDMODE
 70
     0
  9
$PDSIZE
 40
0.0
  9
$PLINEWID
 40
0.0
  9
$SPLFRAME
 70
     0
  9
$SPLINETYPE
 70
     6
  9
$SPLINESEGS
 70
     8
  9
$HANDSEED
  5
BF
  9
$SURFTAB1
 70
     6
  9
$SURFTAB2
 70
     6
  9
$SURFTYPE
 70
     6
  9
$SURFU
 70
     6
  9
$SURFV
 70
     6
  9
$UCSBASE
  2

  9
$UCSNAME
  2

  9
$UCSORG
 10
0.0
 20
0.0
 30
0.0
  9
$UCSXDIR
 10
1.0
 20
0.0
 30
0.0
  9
$UCSYDIR
 10
0.0
 20
1.0
 30
0.0
  9
$UCSORTHOREF
  2

  9
$UCSORTHOVIEW
 70
     0
  9
$UCSORGTOP
 10
0.0
 20
0.0
 30
0.0
  9
$UCSORGBOTTOM
 10
0.0
 20
0.0
 30
0.0
  9
$UCSORGLEFT
 10
0.0
 20
0.0
 30
0.0
  9
$UCSORGRIGHT
 10
0.0
 20
0.0
 30
0.0
  9
$UCSORGFRONT
 10
0.0
 20
0.0
 30
0.0
  9
$UCSORGBACK
 10
0.0
 20
0.0
 30
0.0
  9
$PUCSBASE
  2

  9
$PUCSNAME
  2

  9
$PUCSORG
 10
0.0
 20
0.0
 30
0.0
  9
$PUCSXDIR
 10
1.0
 20
0.0
 30
0.0
  9
$PUCSYDIR
 10
0.0
 20
1.0
 30
0.0
  9
$PUCSORTHOREF
  2

  9
$PUCSORTHOVIEW
 70
     0
  9
$PUCSORGTOP
 10
0.0
 20
0.0
 30
0.0
  9
$PUCSORGBOTTOM
 10
0.0
 20
0.0
 30
0.0
  9
$PUCSORGLEFT
 10
0.0
 20
0.0
 30
0.0
  9
$PUCSORGRIGHT
 10
0.0
 20
0.0
 30
0.0
  9
$PUCSORGFRONT
 10
0.0
 20
0.0
 30
0.0
  9
$PUCSORGBACK
 10
0.0
 20
0.0
 30
0.0
  9
$USERI1
 70
     0
  9
$USERI2
 70
     0
  9
$USERI3
 70
     0
  9
$USERI4
 70
     0
  9
$USERI5
 70
     0
  9
$USERR1
 40
0.0
  9
$USERR2
 40
0.0
  9
$USERR3
 40
0.0
  9
$USERR4
 40
0.0
  9
$USERR5
 40
0.0
  9
$WORLDVIEW
 70
     1
  9
$SHADEDGE
 70
     3
  9
$SHADEDIF
 70
    70
  9
$TILEMODE
 70
     1
  9
$MAXACTVP
 70
    64
  9
$PINSBASE
 10
0.0
 20
0.0
 30
0.0
  9
$PLIMCHECK
 70
     0
  9
$PEXTMIN
 10
1.000000000000000E+20
 20
1.000000000000000E+20
 30
1.000000000000000E+20
  9
$PEXTMAX
 10
-1.000000000000000E+20
 20
-1.000000000000000E+20
 30
-1.000000000000000E+20
  9
$PLIMMIN
 10
0.0
 20
0.0
  9
$PLIMMAX
 10
12.0
 20
9.0
  9
$UNITMODE
 70
     0
  9
$VISRETAIN
 70
     1
  9
$PLINEGEN
 70
     0
  9
$PSLTSCALE
 70
     1
  9
$TREEDEPTH
 70
  3020
  9
$CMLSTYLE
  2
Standard
  9
$CMLJUST
 70
     0
  9
$CMLSCALE
 40
1.0
  9
$PROXYGRAPHICS
 70
     1
  9
$MEASUREMENT
 70
     0
  9
$CELWEIGHT
370
    -1
  9
$ENDCAPS
280
     0
  9
$JOINSTYLE
280
     0
  9
$LWDISPLAY
290
     1
  9
$INSUNITS
 70
     1
  9
$HYPERLINKBASE
  1

  9
$STYLESHEET
  1

  9
$XEDIT
290
     1
  9
$CEPSNTYPE
380
     0
  9
$PSTYLEMODE
290
     1
  9
$FINGERPRINTGUID
  2
{6F1B332B-9F14-0925-F8C2-55EBDCB9B0CA}
  9
$VERSIONGUID
  2
{FAEB1C32-E019-11D5-929B-00C0DF256EC4}
  9
$EXTNAMES
290
     1
  9
$PSVPSCALE
 40
0.0
  9
$OLESTARTUP
290
     0
  9
$SORTENTS
280
   127
  9
$INDEXCTL
280
     0
  9
$HIDETEXT
280
     1
  9
$XCLIPFRAME
280
     2
  9
$HALOGAP
280
     0
  9
$OBSCOLOR
 70
   257
  9
$OBSLTYPE
280
     0
  9
$INTERSECTIONDISPLAY
280
     0
  9
$INTERSECTIONCOLOR
 70
   257
  9
$DIMASSOC
280
     2
  9
$PROJECTNAME
  1

  9
$CAMERADISPLAY
290
     0
  9
$LENSLENGTH
 40
50.0
  9
$CAMERAHEIGHT
 40
0.0
  9
$STEPSPERSEC
 40
2.0
  9
$STEPSIZE
 40
6.0
  9
$3DDWFPREC
 40
2.0
  9
$PSOLWIDTH
 40
0.25
  9
$PSOLHEIGHT
 40
4.0
  9
$LOFTANG1
 40
1.570796326794897
  9
$LOFTANG2
 40
1.570796326794897
  9
$LOFTMAG1
 40
0.0
  9
$LOFTMAG2
 40
0.0
  9
$LOFTPARAM
 70
     7
  9
$LOFTNORMALS
280
     1
  9
$LATITUDE
 40
37.795
  9
$LONGITUDE
 40
-122.394
  9
$NORTHDIRECTION
 40
0.0
  9
$TIMEZONE
 70
 -8000
  9
$LIGHTGLYPHDISPLAY
280
     1
  9
$TILEMODELIGHTSYNCH
280
     1
  9
$CMATERIAL
347
3C
  9
$SOLIDHIST
280
     1
  9
$SHOWHIST
280
     1
  9
$DWFFRAME
280
     2
  9
$DGNFRAME
280
     2
  9
$REALWORLDSCALE
290
     1
  9
$INTERFERECOLOR
 62
   256
  9
$CSHADOW
280
     0
  9
$SHADOWPLANELOCATION
 40
0.0
  0
ENDSEC
  0
SECTION
  2
CLASSES
  0
CLASS
  1
ACDBDICTIONARYWDFLT
  2
AcDbDictionaryWithDefault
  3
ObjectDBX Classes
 90
        0
 91
        4
280
     0
281
     0
  0
CLASS
  1
VISUALSTYLE
  2
AcDbVisualStyle
  3
ObjectDBX Classes
 90
     4095
 91
        4
280
     0
281
     0
  0
CLASS
  1
MATERIAL
  2
AcDbMaterial
  3
ObjectDBX Classes
 90
     1153
 91
        4
280
     0
281
     0
  0
CLASS
  1
SUN
  2
AcDbSun
  3
SCENEOE
 90
     1024
 91
        4
280
     0
281
     0
  0
ENDSEC
  0
SECTION
  2
TABLES
  0
TABLE
  2
VPORT
  5
8
330
0
100
AcDbSymbolTable
 70
     1
  0
VPORT
  5
29
330
8
100
AcDbSymbolTableRecord
100
AcDbViewportTableRecord
  2
*Active
 70
     0
 10
0.0
 20
0.0
 11
1.0
 21
1.0
 12
0.0
 22
0.0
 13
0.0
 23
0.0
 14
0.5
 24
0.5
 15
0.5
 25
0.5
 16
0.0
 26
0.0
 36
1.0
 17
91.00082462281999
 27
-128.4993055234307
 37
0.0
 40
256.9986110468615
 41
0.7081814508812795
 42
50.0
 43
0.0
 44
0.0
 50
0.0
 51
0.0
 71
     0
 72
   100
 73
     1
 74
     3
 75
     0
 76
     0
 77
     0
 78
     0
281
     0
 65
     1
110
0.0
120
0.0
130
0.0
111
1.0
121
0.0
131
0.0
112
0.0
122
1.0
132
0.0
 79
     0
146
0.0
 60
     3
 61
     5
292
     1
282
     1
141
0.0
142
0.0
 63
   250
361
3F
  0
ENDTAB
  0
TABLE
  2
LTYPE
  5
5
330
0
100
AcDbSymbolTable
 70
     1
  0
LTYPE
  5
14
330
5
100
AcDbSymbolTableRecord
100
AcDbLinetypeTableRecord
  2
ByBlock
 70
     0
  3

 72
    65
 73
     0
 40
0.0
  0
LTYPE
  5
15
330
5
100
AcDbSymbolTableRecord
100
AcDbLinetypeTableRecord
  2
ByLayer
 70
     0
  3

 72
    65
 73
     0
 40
0.0
  0
LTYPE
  5
16
330
5
100
AcDbSymbolTableRecord
100
AcDbLinetypeTableRecord
  2
Continuous
 70
     0
  3
Solid line
 72
    65
 73
     0
 40
0.0
  0
ENDTAB
  0
TABLE
  2
LAYER
  5
2
330
0
100
AcDbSymbolTable
 70
     2
  0
LAYER
  5
10
330
2
100
AcDbSymbolTableRecord
100
AcDbLayerTableRecord
  2
0
 70
     0
 62
     7
  6
Continuous
370
    -3
390
F
347
3E
  0
LAYER
  5
40
330
2
100
AcDbSymbolTableRecord
100
AcDbLayerTableRecord
  2
_U+30EC_U+30A4_U+30E4_U+30FC 1
 70
     0
 62
     7
  6
Continuous
370
    -3
390
F
347
3E
  0
ENDTAB
  0
TABLE
  2
STYLE
  5
3
330
0
100
AcDbSymbolTable
 70
     1
  0
STYLE
  5
11
330
3
100
AcDbSymbolTableRecord
100
AcDbTextStyleTableRecord
  2
Standard
 70
     0
 40
0.0
 41
1.0
 50
0.0
 71
     0
 42
0.2
  3
txt
  4

  0
ENDTAB
  0
TABLE
  2
VIEW
  5
6
330
0
100
AcDbSymbolTable
 70
     0
  0
ENDTAB
  0
TABLE
  2
UCS
  5
7
330
0
100
AcDbSymbolTable
 70
     0
  0
ENDTAB
  0
TABLE
  2
APPID
  5
9
330
0
100
AcDbSymbolTable
 70
     1
  0
APPID
  5
12
330
9
100
AcDbSymbolTableRecord
100
AcDbRegAppTableRecord
  2
ACAD
 70
     0
  0
ENDTAB
  0
TABLE
  2
DIMSTYLE
  5
A
330
0
100
AcDbSymbolTable
 70
     1
100
AcDbDimStyleTable
  0
DIMSTYLE
105
27
330
A
100
AcDbSymbolTableRecord
100
AcDbDimStyleTableRecord
  2
Standard
 70
     0
178
     0
340
11
  0
ENDTAB
  0
TABLE
  2
BLOCK_RECORD
  5
1
330
0
100
AcDbSymbolTable
 70
     7
  0
BLOCK_RECORD
  5
1F
330
1
100
AcDbSymbolTableRecord
100
AcDbBlockTableRecord
  2
*Model_Space
340
22
 70
     0
280
     1
281
     0
  0
BLOCK_RECORD
  5
1B
330
1
100
AcDbSymbolTableRecord
100
AcDbBlockTableRecord
  2
*Paper_Space
340
1E
 70
     0
280
     1
281
     0
  0
BLOCK_RECORD
  5
23
330
1
100
AcDbSymbolTableRecord
100
AcDbBlockTableRecord
  2
*Paper_Space0
340
26
 70
     0
280
     1
281
     0
  0
BLOCK_RECORD
  5
57
330
1
100
AcDbSymbolTableRecord
100
AcDbBlockTableRecord
  2
block 2
340
0
102
{BLKREFS
331
58
102
}
 70
     0
280
     1
281
     0
  0
BLOCK_RECORD
  5
65
330
1
100
AcDbSymbolTableRecord
100
AcDbBlockTableRecord
  2
block 3
340
0
102
{BLKREFS
331
66
102
}
 70
     0
280
     1
281
     0
  0
BLOCK_RECORD
  5
75
330
1
100
AcDbSymbolTableRecord
100
AcDbBlockTableRecord
  2
block 4
340
0
102
{BLKREFS
331
76
102
}
 70
     0
280
     1
281
     0
  0
BLOCK_RECORD
  5
87
330
1
100
AcDbSymbolTableRecord
100
AcDbBlockTableRecord
  2
block 5
340
0
102
{BLKREFS
331
88
102
}
 70
     0
280
     1
281
     0
  0
BLOCK_RECORD
  5
9C
330
1
100
AcDbSymbolTableRecord
100
AcDbBlockTableRecord
  2
block 6
340
0
102
{BLKREFS
331
9D
102
}
 70
     0
280
     1
281
     0
  0
BLOCK_RECORD
  5
B7
330
1
100
AcDbSymbolTableRecord
100
AcDbBlockTableRecord
  2
block 7
340
0
102
{BLKREFS
331
B8
102
}
 70
     0
280
     1
281
     0
  0
ENDTAB
  0
ENDSEC
  0
SECTION
  2
BLOCKS
  0
BLOCK
  5
20
330
1F
100
AcDbEntity
  8
0
100
AcDbBlockBegin
  2
*Model_Space
 70
     0
 10
0.0
 20
0.0
 30
0.0
  3
*Model_Space
  1

  0
ENDBLK
  5
21
330
1F
100
AcDbEntity
  8
0
100
AcDbBlockEnd
  0
BLOCK
  5
1C
330
1B
100
AcDbEntity
 67
     1
  8
0
100
AcDbBlockBegin
  2
*Paper_Space
 70
     0
 10
0.0
 20
0.0
 30
0.0
  3
*Paper_Space
  1

  0
ENDBLK
  5
1D
330
1B
100
AcDbEntity
 67
     1
  8
0
100
AcDbBlockEnd
  0
BLOCK
  5
24
330
23
100
AcDbEntity
  8
0
100
AcDbBlockBegin
  2
*Paper_Space0
 70
     0
 10
0.0
 20
0.0
 30
0.0
  3
*Paper_Space0
  1

  0
ENDBLK
  5
25
330
23
100
AcDbEntity
  8
0
100
AcDbBlockEnd
  0
BLOCK
  5
59
330
57
100
AcDbEntity
  8
0
100
AcDbBlockBegin
  2
block 2
 70
     0
 10
0.0
 20
0.0
 30
0.0
  3
block 2
  1

  0
SPLINE
  5
5B
330
57
100
AcDbEntity
  8
_U+30EC_U+30A4_U+30E4_U+30FC 1
370
     0
100
AcDbSpline
210
0.0
220
0.0
230
1.0
 70
    11
 71
     3
 72
    26
 73
    22
 74
     0
 42
0.0000000001
 43
0.0000000001
 12
1.0
 22
0.0
 32
0.0
 13
1.0
 23
0.0
 33
0.0
 40
0.0
 40
0.0
 40
0.0
 40
0.0
 40
1.0
 40
1.0
 40
1.0
 40
2.0
 40
2.0
 40
2.0
 40
3.0
 40
3.0
 40
3.0
 40
4.0
 40
4.0
 40
4.0
 40
5.0
 40
5.0
 40
5.0
 40
6.0
 40
6.0
 40
6.0
 40
7.0
 40
7.0
 40
7.0
 40
7.0
 10
81.34525008817063
 20
-120.9490342579572
 30
0.0
 10
81.34525008817063
 20
-120.9490342579572
 30
0.0
 10
81.09203557000477
 20
-120.9490342579572
 30
0.0
 10
81.09203557000477
 20
-120.9490342579572
 30
0.0
 10
81.11907956956398
 20
-120.6401814477045
 30
0.0
 10
81.3247517700334
 20
-120.1218668319487
 30
0.0
 10
81.75883380117487
 20
-119.6162990694883
 30
0.0
 10
81.75883380117487
 20
-119.6162990694883
 30
0.0
 10
80.8636257393327
 20
-119.6162990694883
 30
0.0
 10
80.8636257393327
 20
-119.6162990694883
 30
0.0
 10
80.8636257393327
 20
-119.6162990694883
 30
0.0
 10
80.8636257393327
 20
-119.404770206694
 30
0.0
 10
80.8636257393327
 20
-119.404770206694
 30
0.0
 10
80.8636257393327
 20
-119.404770206694
 30
0.0
 10
82.01204831934074
 20
-119.404770206694
 30
0.0
 10
82.01204831934074
 20
-119.404770206694
 30
0.0
 10
82.01204831934074
 20
-119.404770206694
 30
0.0
 10
82.01204831934074
 20
-119.6162990694883
 30
0.0
 10
82.01204831934074
 20
-119.6162990694883
 30
0.0
 10
81.66616073262166
 20
-119.9060315997978
 30
0.0
 10
81.38142359076576
 20
-120.4984157684865
 30
0.0
 10
81.34525008817063
 20
-120.9490342579572
 30
0.0
  0
HATCH
  5
5C
330
57
100
AcDbEntity
  8
_U+30EC_U+30A4_U+30E4_U+30FC 1
 62
   179
420
  2234388
100
AcDbHatch
 10
0.0
 20
0.0
 30
0.0
210
0.0
220
0.0
230
1.0
  2
SOLID
 70
     1
 71
     0
 91
        1
 92
        1
 93
        1
 72
     4
 94
        3
 73
     0
 74
     1
 95
       26
 96
       22
 40
0.0
 40
0.0
 40
0.0
 40
0.0
 40
1.0
 40
1.0
 40
1.0
 40
2.0
 40
2.0
 40
2.0
 40
3.0
 40
3.0
 40
3.0
 40
4.0
 40
4.0
 40
4.0
 40
5.0
 40
5.0
 40
5.0
 40
6.0
 40
6.0
 40
6.0
 40
7.0
 40
7.0
 40
7.0
 40
7.0
 10
81.34525008817063
 20
-120.9490342579572
 10
81.34525008817063
 20
-120.9490342579572
 10
81.09203557000477
 20
-120.9490342579572
 10
81.09203557000477
 20
-120.9490342579572
 10
81.11907956956398
 20
-120.6401814477045
 10
81.3247517700334
 20
-120.1218668319487
 10
81.75883380117487
 20
-119.6162990694883
 10
81.75883380117487
 20
-119.6162990694883
 10
80.8636257393327
 20
-119.6162990694883
 10
80.8636257393327
 20
-119.6162990694883
 10
80.8636257393327
 20
-119.6162990694883
 10
80.8636257393327
 20
-119.404770206694
 10
80.8636257393327
 20
-119.404770206694
 10
80.8636257393327
 20
-119.404770206694
 10
82.01204831934074
 20
-119.404770206694
 10
82.01204831934074
 20
-119.404770206694
 10
82.01204831934074
 20
-119.404770206694
 10
82.01204831934074
 20
-119.6162990694883
 10
82.01204831934074
 20
-119.6162990694883
 10
81.66616073262166
 20
-119.9060315997978
 10
81.38142359076576
 20
-120.4984157684865
 10
81.34525008817063
 20
-120.9490342579572
 97
        0
 97
        0
 75
     2
 76
     1
 98
        0
  0
ENDBLK
  5
5A
330
57
100
AcDbEntity
  8
0
100
AcDbBlockEnd
  0
BLOCK
  5
67
330
65
100
AcDbEntity
  8
0
100
AcDbBlockBegin
  2
block 3
 70
     0
 10
0.0
 20
0.0
 30
0.0
  3
block 3
  1

  0
SPLINE
  5
69
330
65
100
AcDbEntity
  8
_U+30EC_U+30A4_U+30E4_U+30FC 1
370
     0
100
AcDbSpline
210
0.0
220
0.0
230
1.0
 70
    11
 71
     3
 72
    29
 73
    25
 74
     0
 42
0.0000000001
 43
0.0000000001
 12
1.0
 22
0.0
 32
0.0
 13
1.0
 23
0.0
 33
0.0
 40
0.0
 40
0.0
 40
0.0
 40
0.0
 40
1.0
 40
1.0
 40
1.0
 40
2.0
 40
2.0
 40
2.0
 40
3.0
 40
3.0
 40
3.0
 40
4.0
 40
4.0
 40
4.0
 40
5.0
 40
5.0
 40
5.0
 40
6.0
 40
6.0
 40
6.0
 40
7.0
 40
7.0
 40
7.0
 40
8.0
 40
8.0
 40
8.0
 40
8.0
 10
88.9399630854039
 20
-120.9998494163646
 30
0.0
 10
88.65539819832226
 20
-120.9998494163646
 30
0.0
 10
88.38392467408458
 20
-120.8622178517289
 30
0.0
 10
88.38392467408458
 20
-120.5132296790731
 30
0.0
 10
88.38392467408458
 20
-120.257259084519
 30
0.0
 10
88.53533662066131
 20
-120.1620021943519
 30
0.0
 10
88.64850800735177
 20
-120.1006794947144
 30
0.0
 10
88.51501055729834
 20
-120.0414238523681
 30
0.0
 10
88.43370630384644
 20
-119.9272189370321
 30
0.0
 10
88.43370630384644
 20
-119.7665052326452
 30
0.0
 10
88.43370630384644
 20
-119.491414358148
 30
0.0
 10
88.6460964405121
 20
-119.3560221055777
 30
0.0
 10
88.9399630854039
 20
-119.3560221055777
 30
0.0
 10
89.24313148810589
 20
-119.3560221055777
 30
0.0
 10
89.44639212173563
 20
-119.4998548420868
 30
0.0
 10
89.44639212173563
 20
-119.7665052326452
 30
0.0
 10
89.44639212173563
 20
-119.9272189370321
 30
0.0
 10
89.36302081099258
 20
-120.0414238523681
 30
0.0
 10
89.22935110616488
 20
-120.1006794947144
 30
0.0
 10
89.32443574155778
 20
-120.1514946531219
 30
0.0
 10
89.49393443943208
 20
-120.246751543289
 30
0.0
 10
89.49393443943208
 20
-120.5090955644908
 30
0.0
 10
89.49393443943208
 20
-120.8834051889632
 30
0.0
 10
89.19558917040943
 20
-120.9998494163646
 30
0.0
 10
88.9399630854039
 20
-120.9998494163646
 30
0.0
  0
SPLINE
  5
6A
330
65
100
AcDbEntity
  8
_U+30EC_U+30A4_U+30E4_U+30FC 1
370
     0
100
AcDbSpline
210
0.0
220
0.0
230
1.0
 70
    11
 71
     3
 72
    17
 73
    13
 74
     0
 42
0.0000000001
 43
0.0000000001
 12
1.0
 22
0.0
 32
0.0
 13
1.0
 23
0.0
 33
0.0
 40
0.0
 40
0.0
 40
0.0
 40
0.0
 40
1.0
 40
1.0
 40
1.0
 40
2.0
 40
2.0
 40
2.0
 40
3.0
 40
3.0
 40
3.0
 40
4.0
 40
4.0
 40
4.0
 40
4.0
 10
88.9399630854039
 20
-120.208683238177
 30
0.0
 10
88.78631182676176
 20
-120.208683238177
 30
0.0
 10
88.62370331985797
 20
-120.295327389631
 30
0.0
 10
88.62370331985797
 20
-120.4984157684865
 30
0.0
 10
88.62370331985797
 20
-120.7035712046331
 30
0.0
 10
88.75909557242828
 20
-120.805201521448
 30
0.0
 10
88.9399630854039
 20
-120.805201521448
 30
0.0
 10
89.13908960445134
 20
-120.805201521448
 30
0.0
 10
89.25656736049837
 20
-120.6825561221731
 30
0.0
 10
89.25656736049837
 20
-120.5047891951342
 30
0.0
 10
89.25656736049837
 20
-120.2825805363356
 30
0.0
 10
89.08259003849325
 20
-120.208683238177
 30
0.0
 10
88.9399630854039
 20
-120.208683238177
 30
0.0
  0
SPLINE
  5
6B
330
65
100
AcDbEntity
  8
_U+30EC_U+30A4_U+30E4_U+30FC 1
370
     0
100
AcDbSpline
210
0.0
220
0.0
230
1.0
 70
    11
 71
     3
 72
    17
 73
    13
 74
     0
 42
0.0000000001
 43
0.0000000001
 12
1.0
 22
0.0
 32
0.0
 13
1.0
 23
0.0
 33
0.0
 40
0.0
 40
0.0
 40
0.0
 40
0.0
 40
1.0
 40
1.0
 40
1.0
 40
2.0
 40
2.0
 40
2.0
 40
3.0
 40
3.0
 40
3.0
 40
4.0
 40
4.0
 40
4.0
 40
4.0
 10
88.9399630854039
 20
-119.5486029432031
 30
0.0
 10
88.7635741965591
 20
-119.5486029432031
 30
0.0
 10
88.67331269484556
 20
-119.643687578596
 30
0.0
 10
88.67331269484556
 20
-119.7790798311663
 30
0.0
 10
88.67331269484556
 20
-119.9018974852155
 30
0.0
 10
88.75013832416664
 20
-120.0204087699081
 30
0.0
 10
88.9399630854039
 20
-120.0204087699081
 30
0.0
 10
89.13013235618969
 20
-120.0204087699081
 30
0.0
 10
89.20695798551077
 20
-119.9018974852155
 30
0.0
 10
89.20695798551077
 20
-119.7790798311663
 30
0.0
 10
89.20695798551077
 20
-119.643687578596
 30
0.0
 10
89.11428491695754
 20
-119.5486029432031
 30
0.0
 10
88.9399630854039
 20
-119.5486029432031
 30
0.0
  0
HATCH
  5
6C
330
65
100
AcDbEntity
  8
_U+30EC_U+30A4_U+30E4_U+30FC 1
 62
   179
420
  2234388
100
AcDbHatch
 10
0.0
 20
0.0
 30
0.0
210
0.0
220
0.0
230
1.0
  2
SOLID
 70
     1
 71
     0
 91
        3
 92
        1
 93
        1
 72
     4
 94
        3
 73
     0
 74
     1
 95
       29
 96
       25
 40
0.0
 40
0.0
 40
0.0
 40
0.0
 40
1.0
 40
1.0
 40
1.0
 40
2.0
 40
2.0
 40
2.0
 40
3.0
 40
3.0
 40
3.0
 40
4.0
 40
4.0
 40
4.0
 40
5.0
 40
5.0
 40
5.0
 40
6.0
 40
6.0
 40
6.0
 40
7.0
 40
7.0
 40
7.0
 40
8.0
 40
8.0
 40
8.0
 40
8.0
 10
88.9399630854039
 20
-120.9998494163646
 10
88.65539819832226
 20
-120.9998494163646
 10
88.38392467408458
 20
-120.8622178517289
 10
88.38392467408458
 20
-120.5132296790731
 10
88.38392467408458
 20
-120.257259084519
 10
88.53533662066131
 20
-120.1620021943519
 10
88.64850800735177
 20
-120.1006794947144
 10
88.51501055729834
 20
-120.0414238523681
 10
88.43370630384644
 20
-119.9272189370321
 10
88.43370630384644
 20
-119.7665052326452
 10
88.43370630384644
 20
-119.491414358148
 10
88.6460964405121
 20
-119.3560221055777
 10
88.9399630854039
 20
-119.3560221055777
 10
89.24313148810589
 20
-119.3560221055777
 10
89.44639212173563
 20
-119.4998548420868
 10
89.44639212173563
 20
-119.7665052326452
 10
89.44639212173563
 20
-119.9272189370321
 10
89.36302081099258
 20
-120.0414238523681
 10
89.22935110616488
 20
-120.1006794947144
 10
89.32443574155778
 20
-120.1514946531219
 10
89.49393443943208
 20
-120.246751543289
 10
89.49393443943208
 20
-120.5090955644908
 10
89.49393443943208
 20
-120.8834051889632
 10
89.19558917040943
 20
-120.9998494163646
 10
88.9399630854039
 20
-120.9998494163646
 97
        0
 97
        0
 92
        1
 93
        1
 72
     4
 94
        3
 73
     0
 74
     1
 95
       17
 96
       13
 40
0.0
 40
0.0
 40
0.0
 40
0.0
 40
1.0
 40
1.0
 40
1.0
 40
2.0
 40
2.0
 40
2.0
 40
3.0
 40
3.0
 40
3.0
 40
4.0
 40
4.0
 40
4.0
 40
4.0
 10
88.9399630854039
 20
-120.208683238177
 10
88.78631182676176
 20
-120.208683238177
 10
88.62370331985797
 20
-120.295327389631
 10
88.62370331985797
 20
-120.4984157684865
 10
88.62370331985797
 20
-120.7035712046331
 10
88.75909557242828
 20
-120.805201521448
 10
88.9399630854039
 20
-120.805201521448
 10
89.13908960445134
 20
-120.805201521448
 10
89.25656736049837
 20
-120.6825561221731
 10
89.25656736049837
 20
-120.5047891951342
 10
89.25656736049837
 20
-120.2825805363356
 10
89.08259003849325
 20
-120.208683238177
 10
88.9399630854039
 20
-120.208683238177
 97
        0
 97
        0
 92
        1
 93
        1
 72
     4
 94
        3
 73
     0
 74
     1
 95
       17
 96
       13
 40
0.0
 40
0.0
 40
0.0
 40
0.0
 40
1.0
 40
1.0
 40
1.0
 40
2.0
 40
2.0
 40
2.0
 40
3.0
 40
3.0
 40
3.0
 40
4.0
 40
4.0
 40
4.0
 40
4.0
 10
88.9399630854039
 20
-119.5486029432031
 10
88.7635741965591
 20
-119.5486029432031
 10
88.67331269484556
 20
-119.643687578596
 10
88.67331269484556
 20
-119.7790798311663
 10
88.67331269484556
 20
-119.9018974852155
 10
88.75013832416664
 20
-120.0204087699081
 10
88.9399630854039
 20
-120.0204087699081
 10
89.13013235618969
 20
-120.0204087699081
 10
89.20695798551077
 20
-119.9018974852155
 10
89.20695798551077
 20
-119.7790798311663
 10
89.20695798551077
 20
-119.643687578596
 10
89.11428491695754
 20
-119.5486029432031
 10
88.9399630854039
 20
-119.5486029432031
 97
        0
 97
        0
 75
     2
 76
     1
 98
        0
  0
ENDBLK
  5
68
330
65
100
AcDbEntity
  8
0
100
AcDbBlockEnd
  0
BLOCK
  5
77
330
75
100
AcDbEntity
  8
0
100
AcDbBlockBegin
  2
block 4
 70
     0
 10
0.0
 20
0.0
 30
0.0
  3
block 4
  1

  0
SPLINE
  5
79
330
75
100
AcDbEntity
  8
_U+30EC_U+30A4_U+30E4_U+30FC 1
370
     0
100
AcDbSpline
210
0.0
220
0.0
230
1.0
 70
    11
 71
     3
 72
    26
 73
    22
 74
     0
 42
0.0000000001
 43
0.0000000001
 12
1.0
 22
0.0
 32
0.0
 13
1.0
 23
0.0
 33
0.0
 40
0.0
 40
0.0
 40
0.0
 40
0.0
 40
1.0
 40
1.0
 40
1.0
 40
2.0
 40
2.0
 40
2.0
 40
3.0
 40
3.0
 40
3.0
 40
4.0
 40
4.0
 40
4.0
 40
5.0
 40
5.0
 40
5.0
 40
6.0
 40
6.0
 40
6.0
 40
7.0
 40
7.0
 40
7.0
 40
7.0
 10
96.34519583094843
 20
-120.9490342579572
 30
0.0
 10
96.34519583094843
 20
-120.9490342579572
 30
0.0
 10
96.09198131278256
 20
-120.9490342579572
 30
0.0
 10
96.09198131278256
 20
-120.9490342579572
 30
0.0
 10
96.11885305756752
 20
-120.6401814477045
 30
0.0
 10
96.32486976758545
 20
-120.1218668319487
 30
0.0
 10
96.75895179872693
 20
-119.6162990694883
 30
0.0
 10
96.75895179872693
 20
-119.6162990694883
 30
0.0
 10
95.8635714821105
 20
-119.6162990694883
 30
0.0
 10
95.8635714821105
 20
-119.6162990694883
 30
0.0
 10
95.8635714821105
 20
-119.6162990694883
 30
0.0
 10
95.8635714821105
 20
-119.404770206694
 30
0.0
 10
95.8635714821105
 20
-119.404770206694
 30
0.0
 10
95.8635714821105
 20
-119.404770206694
 30
0.0
 10
97.0121663168928
 20
-119.404770206694
 30
0.0
 10
97.0121663168928
 20
-119.404770206694
 30
0.0
 10
97.0121663168928
 20
-119.404770206694
 30
0.0
 10
97.0121663168928
 20
-119.6162990694883
 30
0.0
 10
97.0121663168928
 20
-119.6162990694883
 30
0.0
 10
96.66627873017372
 20
-119.9060315997978
 30
0.0
 10
96.38136933354355
 20
-120.4984157684865
 30
0.0
 10
96.34519583094843
 20
-120.9490342579572
 30
0.0
  0
HATCH
  5
7A
330
75
100
AcDbEntity
  8
_U+30EC_U+30A4_U+30E4_U+30FC 1
 62
   179
420
  2234388
100
AcDbHatch
 10
0.0
 20
0.0
 30
0.0
210
0.0
220
0.0
230
1.0
  2
SOLID
 70
     1
 71
     0
 91
        1
 92
        1
 93
        1
 72
     4
 94
        3
 73
     0
 74
     1
 95
       26
 96
       22
 40
0.0
 40
0.0
 40
0.0
 40
0.0
 40
1.0
 40
1.0
 40
1.0
 40
2.0
 40
2.0
 40
2.0
 40
3.0
 40
3.0
 40
3.0
 40
4.0
 40
4.0
 40
4.0
 40
5.0
 40
5.0
 40
5.0
 40
6.0
 40
6.0
 40
6.0
 40
7.0
 40
7.0
 40
7.0
 40
7.0
 10
96.34519583094843
 20
-120.9490342579572
 10
96.34519583094843
 20
-120.9490342579572
 10
96.09198131278256
 20
-120.9490342579572
 10
96.09198131278256
 20
-120.9490342579572
 10
96.11885305756752
 20
-120.6401814477045
 10
96.32486976758545
 20
-120.1218668319487
 10
96.75895179872693
 20
-119.6162990694883
 10
96.75895179872693
 20
-119.6162990694883
 10
95.8635714821105
 20
-119.6162990694883
 10
95.8635714821105
 20
-119.6162990694883
 10
95.8635714821105
 20
-119.6162990694883
 10
95.8635714821105
 20
-119.404770206694
 10
95.8635714821105
 20
-119.404770206694
 10
95.8635714821105
 20
-119.404770206694
 10
97.0121663168928
 20
-119.404770206694
 10
97.0121663168928
 20
-119.404770206694
 10
97.0121663168928
 20
-119.404770206694
 10
97.0121663168928
 20
-119.6162990694883
 10
97.0121663168928
 20
-119.6162990694883
 10
96.66627873017372
 20
-119.9060315997978
 10
96.38136933354355
 20
-120.4984157684865
 10
96.34519583094843
 20
-120.9490342579572
 97
        0
 97
        0
 75
     2
 76
     1
 98
        0
  0
ENDBLK
  5
78
330
75
100
AcDbEntity
  8
0
100
AcDbBlockEnd
  0
BLOCK
  5
89
330
87
100
AcDbEntity
  8
0
100
AcDbBlockBegin
  2
block 5
 70
     0
 10
0.0
 20
0.0
 30
0.0
  3
block 5
  1

  0
SPLINE
  5
8B
330
87
100
AcDbEntity
  8
_U+30EC_U+30A4_U+30E4_U+30FC 1
370
     0
100
AcDbSpline
210
0.0
220
0.0
230
1.0
 70
    11
 71
     3
 72
    62
 73
    58
 74
     0
 42
0.0000000001
 43
0.0000000001
 12
1.0
 22
0.0
 32
0.0
 13
1.0
 23
0.0
 33
0.0
 40
0.0
 40
0.0
 40
0.0
 40
0.0
 40
1.0
 40
1.0
 40
1.0
 40
2.0
 40
2.0
 40
2.0
 40
3.0
 40
3.0
 40
3.0
 40
4.0
 40
4.0
 40
4.0
 40
5.0
 40
5.0
 40
5.0
 40
6.0
 40
6.0
 40
6.0
 40
7.0
 40
7.0
 40
7.0
 40
8.0
 40
8.0
 40
8.0
 40
9.0
 40
9.0
 40
9.0
 40
10.0
 40
10.0
 40
10.0
 40
11.0
 40
11.0
 40
11.0
 40
12.0
 40
12.0
 40
12.0
 40
13.0
 40
13.0
 40
13.0
 40
14.0
 40
14.0
 40
14.0
 40
15.0
 40
15.0
 40
15.0
 40
16.0
 40
16.0
 40
16.0
 40
17.0
 40
17.0
 40
17.0
 40
18.0
 40
18.0
 40
18.0
 40
19.0
 40
19.0
 40
19.0
 40
19.0
 10
90.30215384027169
 20
-137.4996174786459
 30
0.0
 10
90.20052352345682
 20
-137.4996174786459
 30
0.0
 10
89.96763506865393
 20
-137.4786023961859
 30
0.0
 10
89.83430987337476
 20
-137.2925672399824
 30
0.0
 10
89.75507267721402
 20
-137.1802571271633
 30
0.0
 10
89.75059405308319
 20
-137.0810383771881
 30
0.0
 10
89.74611542895236
 20
-136.9962890282509
 30
0.0
 10
89.74611542895236
 20
-136.9962890282509
 30
0.0
 10
89.9810709410464
 20
-136.9962890282509
 30
0.0
 10
89.9810709410464
 20
-136.9962890282509
 30
0.0
 10
89.98348250788608
 20
-137.0703585811838
 30
0.0
 10
89.9948513229874
 20
-137.3049695837293
 30
0.0
 10
90.29767521614086
 20
-137.3049695837293
 30
0.0
 10
90.44478079336103
 20
-137.3049695837293
 30
0.0
 10
90.60738930026483
 20
-137.2353786549273
 30
0.0
 10
90.60738930026483
 20
-137.0069688242552
 30
0.0
 10
90.60738930026483
 20
-136.8905245968538
 30
0.0
 10
90.56673717353887
 20
-136.8419487505117
 30
0.0
 10
90.53297523778343
 20
-136.8102538720474
 30
0.0
 10
90.45373804162269
 20
-136.7361843191146
 30
0.0
 10
90.32937009460517
 20
-136.7234374658192
 30
0.0
 10
90.27045896180739
 20
-136.7234374658192
 30
0.0
 10
90.25013289844442
 20
-136.7234374658192
 30
0.0
 10
90.21189233855814
 20
-136.7255045231103
 30
0.0
 10
90.182264517385
 20
-136.7296386376926
 30
0.0
 10
90.182264517385
 20
-136.7296386376926
 30
0.0
 10
90.182264517385
 20
-136.534990742776
 30
0.0
 10
90.182264517385
 20
-136.534990742776
 30
0.0
 10
90.22291664411094
 20
-136.5415364241979
 30
0.0
 10
90.26839190451624
 20
-136.5436034814891
 30
0.0
 10
90.27493758593822
 20
-136.5436034814891
 30
0.0
 10
90.34521753383731
 20
-136.5436034814891
 30
0.0
 10
90.55777992527723
 20
-136.5222438894806
 30
0.0
 10
90.55777992527723
 20
-136.2855658296439
 30
0.0
 10
90.55777992527723
 20
-136.107798902605
 30
0.0
 10
90.41756453902755
 20
-136.052677374841
 30
0.0
 10
90.30008678298054
 20
-136.052677374841
 30
0.0
 10
90.01724444364153
 20
-136.052677374841
 30
0.0
 10
90.00828719537988
 20
-136.2855658296439
 30
0.0
 10
90.00380857124905
 20
-136.3572238157371
 30
0.0
 10
90.00380857124905
 20
-136.3572238157371
 30
0.0
 10
89.78676755567831
 20
-136.3572238157371
 30
0.0
 10
89.78676755567831
 20
-136.3572238157371
 30
0.0
 10
89.79572480393996
 20
-136.232511359171
 30
0.0
 10
89.82500811556459
 20
-135.8559624226332
 30
0.0
 10
90.313522655373
 20
-135.8559624226332
 30
0.0
 10
90.5533013011464
 20
-135.8559624226332
 30
0.0
 10
90.8109944434431
 20
-135.983086446039
 30
0.0
 10
90.8109944434431
 20
-136.2790201482219
 30
0.0
 10
90.8109944434431
 20
-136.4653998139739
 30
0.0
 10
90.70901961707969
 20
-136.5477375960714
 30
0.0
 10
90.602910676134
 20
-136.6090602957088
 30
0.0
 10
90.66836749035375
 20
-136.6366210595909
 30
0.0
 10
90.86301538527036
 20
-136.7168917843972
 30
0.0
 10
90.86301538527036
 20
-136.9942219709598
 30
0.0
 10
90.86301538527036
 20
-137.3325303476113
 30
0.0
 10
90.59843205200318
 20
-137.4996174786459
 30
0.0
 10
90.30215384027169
 20
-137.4996174786459
 30
0.0
  0
HATCH
  5
8C
330
87
100
AcDbEntity
  8
_U+30EC_U+30A4_U+30E4_U+30FC 1
 62
   179
420
  2234388
100
AcDbHatch
 10
0.0
 20
0.0
 30
0.0
210
0.0
220
0.0
230
1.0
  2
SOLID
 70
     1
 71
     0
 91
        1
 92
        1
 93
        1
 72
     4
 94
        3
 73
     0
 74
     1
 95
       62
 96
       58
 40
0.0
 40
0.0
 40
0.0
 40
0.0
 40
1.0
 40
1.0
 40
1.0
 40
2.0
 40
2.0
 40
2.0
 40
3.0
 40
3.0
 40
3.0
 40
4.0
 40
4.0
 40
4.0
 40
5.0
 40
5.0
 40
5.0
 40
6.0
 40
6.0
 40
6.0
 40
7.0
 40
7.0
 40
7.0
 40
8.0
 40
8.0
 40
8.0
 40
9.0
 40
9.0
 40
9.0
 40
10.0
 40
10.0
 40
10.0
 40
11.0
 40
11.0
 40
11.0
 40
12.0
 40
12.0
 40
12.0
 40
13.0
 40
13.0
 40
13.0
 40
14.0
 40
14.0
 40
14.0
 40
15.0
 40
15.0
 40
15.0
 40
16.0
 40
16.0
 40
16.0
 40
17.0
 40
17.0
 40
17.0
 40
18.0
 40
18.0
 40
18.0
 40
19.0
 40
19.0
 40
19.0
 40
19.0
 10
90.30215384027169
 20
-137.4996174786459
 10
90.20052352345682
 20
-137.4996174786459
 10
89.96763506865393
 20
-137.4786023961859
 10
89.83430987337476
 20
-137.2925672399824
 10
89.75507267721402
 20
-137.1802571271633
 10
89.75059405308319
 20
-137.0810383771881
 10
89.74611542895236
 20
-136.9962890282509
 10
89.74611542895236
 20
-136.9962890282509
 10
89.9810709410464
 20
-136.9962890282509
 10
89.9810709410464
 20
-136.9962890282509
 10
89.98348250788608
 20
-137.0703585811838
 10
89.9948513229874
 20
-137.3049695837293
 10
90.29767521614086
 20
-137.3049695837293
 10
90.44478079336103
 20
-137.3049695837293
 10
90.60738930026483
 20
-137.2353786549273
 10
90.60738930026483
 20
-137.0069688242552
 10
90.60738930026483
 20
-136.8905245968538
 10
90.56673717353887
 20
-136.8419487505117
 10
90.53297523778343
 20
-136.8102538720474
 10
90.45373804162269
 20
-136.7361843191146
 10
90.32937009460517
 20
-136.7234374658192
 10
90.27045896180739
 20
-136.7234374658192
 10
90.25013289844442
 20
-136.7234374658192
 10
90.21189233855814
 20
-136.7255045231103
 10
90.182264517385
 20
-136.7296386376926
 10
90.182264517385
 20
-136.7296386376926
 10
90.182264517385
 20
-136.534990742776
 10
90.182264517385
 20
-136.534990742776
 10
90.22291664411094
 20
-136.5415364241979
 10
90.26839190451624
 20
-136.5436034814891
 10
90.27493758593822
 20
-136.5436034814891
 10
90.34521753383731
 20
-136.5436034814891
 10
90.55777992527723
 20
-136.5222438894806
 10
90.55777992527723
 20
-136.2855658296439
 10
90.55777992527723
 20
-136.107798902605
 10
90.41756453902755
 20
-136.052677374841
 10
90.30008678298054
 20
-136.052677374841
 10
90.01724444364153
 20
-136.052677374841
 10
90.00828719537988
 20
-136.2855658296439
 10
90.00380857124905
 20
-136.3572238157371
 10
90.00380857124905
 20
-136.3572238157371
 10
89.78676755567831
 20
-136.3572238157371
 10
89.78676755567831
 20
-136.3572238157371
 10
89.79572480393996
 20
-136.232511359171
 10
89.82500811556459
 20
-135.8559624226332
 10
90.313522655373
 20
-135.8559624226332
 10
90.5533013011464
 20
-135.8559624226332
 10
90.8109944434431
 20
-135.983086446039
 10
90.8109944434431
 20
-136.2790201482219
 10
90.8109944434431
 20
-136.4653998139739
 10
90.70901961707969
 20
-136.5477375960714
 10
90.602910676134
 20
-136.6090602957088
 10
90.66836749035375
 20
-136.6366210595909
 10
90.86301538527036
 20
-136.7168917843972
 10
90.86301538527036
 20
-136.9942219709598
 10
90.86301538527036
 20
-137.3325303476113
 10
90.59843205200318
 20
-137.4996174786459
 10
90.30215384027169
 20
-137.4996174786459
 97
        0
 97
        0
 75
     2
 76
     1
 98
        0
  0
SPLINE
  5
8D
330
87
100
AcDbEntity
  8
_U+30EC_U+30A4_U+30E4_U+30FC 1
370
     0
100
AcDbSpline
210
0.0
220
0.0
230
1.0
 70
    11
 71
     3
 72
    29
 73
    25
 74
     0
 42
0.0000000001
 43
0.0000000001
 12
1.0
 22
0.0
 32
0.0
 13
1.0
 23
0.0
 33
0.0
 40
0.0
 40
0.0
 40
0.0
 40
0.0
 40
1.0
 40
1.0
 40
1.0
 40
2.0
 40
2.0
 40
2.0
 40
3.0
 40
3.0
 40
3.0
 40
4.0
 40
4.0
 40
4.0
 40
5.0
 40
5.0
 40
5.0
 40
6.0
 40
6.0
 40
6.0
 40
7.0
 40
7.0
 40
7.0
 40
8.0
 40
8.0
 40
8.0
 40
8.0
 10
91.99404023307788
 20
-137.2712076479739
 30
0.0
 10
91.87862953432202
 20
-137.480669453477
 30
0.0
 10
91.69328339721557
 20
-137.4996174786459
 30
0.0
 10
91.56891545019805
 20
-137.4996174786459
 30
0.0
 10
91.39734969503262
 20
-137.4996174786459
 30
0.0
 10
91.24576549368162
 20
-137.4531086895951
 30
0.0
 10
91.14413517686675
 20
-137.2712076479739
 30
0.0
 10
91.0332031022417
 20
-137.0765597530573
 30
0.0
 10
91.01287703887873
 20
-136.8398816932206
 30
0.0
 10
91.01287703887873
 20
-136.6769286767683
 30
0.0
 10
91.01287703887873
 20
-136.5329236854848
 30
0.0
 10
91.03113604495056
 20
-136.2810872055131
 30
0.0
 10
91.14413517686675
 20
-136.0823051960141
 30
0.0
 10
91.2592013660741
 20
-135.8793890719329
 30
0.0
 10
91.43111163078807
 20
-135.8559624226332
 30
0.0
 10
91.56891545019805
 20
-135.8559624226332
 30
0.0
 10
91.73875865762086
 20
-135.8559624226332
 30
0.0
 10
91.89240991626302
 20
-135.900404154393
 30
0.0
 10
91.99404023307788
 20
-136.0823051960141
 30
0.0
 10
92.1004936835721
 20
-136.2748860336396
 30
0.0
 10
92.1252983710659
 20
-136.5032958643117
 30
0.0
 10
92.1252983710659
 20
-136.6769286767683
 30
0.0
 10
92.1252983710659
 20
-136.8481499223852
 30
0.0
 10
92.10256074086325
 20
-137.0786268103484
 30
0.0
 10
91.99404023307788
 20
-137.2712076479739
 30
0.0
  0
SPLINE
  5
8E
330
87
100
AcDbEntity
  8
_U+30EC_U+30A4_U+30E4_U+30FC 1
370
     0
100
AcDbSpline
210
0.0
220
0.0
230
1.0
 70
    11
 71
     3
 72
    17
 73
    13
 74
     0
 42
0.0000000001
 43
0.0000000001
 12
1.0
 22
0.0
 32
0.0
 13
1.0
 23
0.0
 33
0.0
 40
0.0
 40
0.0
 40
0.0
 40
0.0
 40
1.0
 40
1.0
 40
1.0
 40
2.0
 40
2.0
 40
2.0
 40
3.0
 40
3.0
 40
3.0
 40
4.0
 40
4.0
 40
4.0
 40
4.0
 10
91.56891545019805
 20
-136.0485432602587
 30
0.0
 10
91.30226505963972
 20
-136.0485432602587
 30
0.0
 10
91.25265568465211
 20
-136.3320746186948
 30
0.0
 10
91.25265568465211
 20
-136.6769286767683
 30
0.0
 10
91.25265568465211
 20
-136.9962890282509
 30
0.0
 10
91.29089624453839
 20
-137.3049695837293
 30
0.0
 10
91.56891545019805
 20
-137.3049695837293
 30
0.0
 10
91.83349878346525
 20
-137.3049695837293
 30
0.0
 10
91.88551972529251
 20
-137.0238497921329
 30
0.0
 10
91.88551972529251
 20
-136.6769286767683
 30
0.0
 10
91.88551972529251
 20
-136.3572238157371
 30
0.0
 10
91.84486759856657
 20
-136.0485432602587
 30
0.0
 10
91.56891545019805
 20
-136.0485432602587
 30
0.0
  0
HATCH
  5
8F
330
87
100
AcDbEntity
  8
_U+30EC_U+30A4_U+30E4_U+30FC 1
 62
   179
420
  2234388
100
AcDbHatch
 10
0.0
 20
0.0
 30
0.0
210
0.0
220
0.0
230
1.0
  2
SOLID
 70
     1
 71
     0
 91
        2
 92
        1
 93
        1
 72
     4
 94
        3
 73
     0
 74
     1
 95
       29
 96
       25
 40
0.0
 40
0.0
 40
0.0
 40
0.0
 40
1.0
 40
1.0
 40
1.0
 40
2.0
 40
2.0
 40
2.0
 40
3.0
 40
3.0
 40
3.0
 40
4.0
 40
4.0
 40
4.0
 40
5.0
 40
5.0
 40
5.0
 40
6.0
 40
6.0
 40
6.0
 40
7.0
 40
7.0
 40
7.0
 40
8.0
 40
8.0
 40
8.0
 40
8.0
 10
91.99404023307788
 20
-137.2712076479739
 10
91.87862953432202
 20
-137.480669453477
 10
91.69328339721557
 20
-137.4996174786459
 10
91.56891545019805
 20
-137.4996174786459
 10
91.39734969503262
 20
-137.4996174786459
 10
91.24576549368162
 20
-137.4531086895951
 10
91.14413517686675
 20
-137.2712076479739
 10
91.0332031022417
 20
-137.0765597530573
 10
91.01287703887873
 20
-136.8398816932206
 10
91.01287703887873
 20
-136.6769286767683
 10
91.01287703887873
 20
-136.5329236854848
 10
91.03113604495056
 20
-136.2810872055131
 10
91.14413517686675
 20
-136.0823051960141
 10
91.2592013660741
 20
-135.8793890719329
 10
91.43111163078807
 20
-135.8559624226332
 10
91.56891545019805
 20
-135.8559624226332
 10
91.73875865762086
 20
-135.8559624226332
 10
91.89240991626302
 20
-135.900404154393
 10
91.99404023307788
 20
-136.0823051960141
 10
92.1004936835721
 20
-136.2748860336396
 10
92.1252983710659
 20
-136.5032958643117
 10
92.1252983710659
 20
-136.6769286767683
 10
92.1252983710659
 20
-136.8481499223852
 10
92.10256074086325
 20
-137.0786268103484
 10
91.99404023307788
 20
-137.2712076479739
 97
        0
 97
        0
 92
        1
 93
        1
 72
     4
 94
        3
 73
     0
 74
     1
 95
       17
 96
       13
 40
0.0
 40
0.0
 40
0.0
 40
0.0
 40
1.0
 40
1.0
 40
1.0
 40
2.0
 40
2.0
 40
2.0
 40
3.0
 40
3.0
 40
3.0
 40
4.0
 40
4.0
 40
4.0
 40
4.0
 10
91.56891545019805
 20
-136.0485432602587
 10
91.30226505963972
 20
-136.0485432602587
 10
91.25265568465211
 20
-136.3320746186948
 10
91.25265568465211
 20
-136.6769286767683
 10
91.25265568465211
 20
-136.9962890282509
 10
91.29089624453839
 20
-137.3049695837293
 10
91.56891545019805
 20
-137.3049695837293
 10
91.83349878346525
 20
-137.3049695837293
 10
91.88551972529251
 20
-137.0238497921329
 10
91.88551972529251
 20
-136.6769286767683
 10
91.88551972529251
 20
-136.3572238157371
 10
91.84486759856657
 20
-136.0485432602587
 10
91.56891545019805
 20
-136.0485432602587
 97
        0
 97
        0
 75
     2
 76
     1
 98
        0
  0
ENDBLK
  5
8A
330
87
100
AcDbEntity
  8
0
100
AcDbBlockEnd
  0
BLOCK
  5
9E
330
9C
100
AcDbEntity
  8
0
100
AcDbBlockBegin
  2
block 6
 70
     0
 10
0.0
 20
0.0
 30
0.0
  3
block 6
  1

  0
SPLINE
  5
A0
330
9C
100
AcDbEntity
  8
_U+30EC_U+30A4_U+30E4_U+30FC 1
370
     0
100
AcDbSpline
210
0.0
220
0.0
230
1.0
 70
    11
 71
     3
 72
    32
 73
    28
 74
     0
 42
0.0000000001
 43
0.0000000001
 12
1.0
 22
0.0
 32
0.0
 13
1.0
 23
0.0
 33
0.0
 40
0.0
 40
0.0
 40
0.0
 40
0.0
 40
1.0
 40
1.0
 40
1.0
 40
2.0
 40
2.0
 40
2.0
 40
3.0
 40
3.0
 40
3.0
 40
4.0
 40
4.0
 40
4.0
 40
5.0
 40
5.0
 40
5.0
 40
6.0
 40
6.0
 40
6.0
 40
7.0
 40
7.0
 40
7.0
 40
8.0
 40
8.0
 40
8.0
 40
9.0
 40
9.0
 40
9.0
 40
9.0
 10
102.8447129734208
 20
-130.7627332572399
 30
0.0
 10
102.8447129734208
 20
-131.3142930444284
 30
0.0
 10
102.2907416193926
 20
-131.32325029269
 30
0.0
 10
102.0768011897586
 20
-131.32325029269
 30
0.0
 10
101.8463243017954
 20
-131.32325029269
 30
0.0
 10
101.1989908601169
 20
-131.3029242293271
 30
0.0
 10
101.1989908601169
 20
-130.7217366209654
 30
0.0
 10
101.1989908601169
 20
-130.536390483859
 30
0.0
 10
101.2689262984675
 20
-130.2742187174314
 30
0.0
 10
101.6010335032456
 20
-130.2335665907055
 30
0.0
 10
101.6010335032456
 20
-130.2335665907055
 30
0.0
 10
101.6010335032456
 20
-130.4619764213776
 30
0.0
 10
101.6010335032456
 20
-130.4619764213776
 30
0.0
 10
101.5438449181904
 20
-130.4733452364789
 30
0.0
 10
101.3957058123247
 20
-130.5071071722343
 30
0.0
 10
101.3957058123247
 20
-130.7241481878051
 30
0.0
 10
101.3957058123247
 20
-131.0362738387687
 30
0.0
 10
101.7236789025205
 20
-131.0789930227858
 30
0.0
 10
101.9286620838928
 20
-131.0927734047268
 30
0.0
 10
101.8504584163777
 20
-130.9932101452031
 30
0.0
 10
101.7912027740314
 20
-130.9208631400128
 30
0.0
 10
101.7912027740314
 20
-130.7262152450962
 30
0.0
 10
101.7912027740314
 20
-130.5343234265678
 30
0.0
 10
101.8993787722682
 20
-130.2108289605029
 30
0.0
 10
102.3055555299792
 20
-130.2108289605029
 30
0.0
 10
102.6249158814618
 20
-130.2108289605029
 30
0.0
 10
102.8447129734208
 20
-130.4233913519428
 30
0.0
 10
102.8447129734208
 20
-130.7627332572399
 30
0.0
  0
SPLINE
  5
A1
330
9C
100
AcDbEntity
  8
_U+30EC_U+30A4_U+30E4_U+30FC 1
370
     0
100
AcDbSpline
210
0.0
220
0.0
230
1.0
 70
    11
 71
     3
 72
    17
 73
    13
 74
     0
 42
0.0000000001
 43
0.0000000001
 12
1.0
 22
0.0
 32
0.0
 13
1.0
 23
0.0
 33
0.0
 40
0.0
 40
0.0
 40
0.0
 40
0.0
 40
1.0
 40
1.0
 40
1.0
 40
2.0
 40
2.0
 40
2.0
 40
3.0
 40
3.0
 40
3.0
 40
4.0
 40
4.0
 40
4.0
 40
4.0
 10
101.985850668948
 20
-130.744474251168
 30
0.0
 10
101.985850668948
 20
-131.0249050236674
 30
0.0
 10
102.1973795317423
 20
-131.0655571503933
 30
0.0
 10
102.3138237591438
 20
-131.0655571503933
 30
0.0
 10
102.4895236288915
 20
-131.0655571503933
 30
0.0
 10
102.6524766453438
 20
-130.9639268335785
 30
0.0
 10
102.6524766453438
 20
-130.7672118813707
 30
0.0
 10
102.6524766453438
 20
-130.6383653102224
 30
0.0
 10
102.5932210029975
 20
-130.4506076062762
 30
0.0
 10
102.3076225872703
 20
-130.4506076062762
 30
0.0
 10
102.0833468711806
 20
-130.4506076062762
 30
0.0
 10
101.985850668948
 20
-130.5997802407876
 30
0.0
 10
101.985850668948
 20
-130.744474251168
 30
0.0
  0
HATCH
  5
A2
330
9C
100
AcDbEntity
  8
_U+30EC_U+30A4_U+30E4_U+30FC 1
 62
   179
420
  2234388
100
AcDbHatch
 10
0.0
 20
0.0
 30
0.0
210
0.0
220
0.0
230
1.0
  2
SOLID
 70
     1
 71
     0
 91
        2
 92
        1
 93
        1
 72
     4
 94
        3
 73
     0
 74
     1
 95
       32
 96
       28
 40
0.0
 40
0.0
 40
0.0
 40
0.0
 40
1.0
 40
1.0
 40
1.0
 40
2.0
 40
2.0
 40
2.0
 40
3.0
 40
3.0
 40
3.0
 40
4.0
 40
4.0
 40
4.0
 40
5.0
 40
5.0
 40
5.0
 40
6.0
 40
6.0
 40
6.0
 40
7.0
 40
7.0
 40
7.0
 40
8.0
 40
8.0
 40
8.0
 40
9.0
 40
9.0
 40
9.0
 40
9.0
 10
102.8447129734208
 20
-130.7627332572399
 10
102.8447129734208
 20
-131.3142930444284
 10
102.2907416193926
 20
-131.32325029269
 10
102.0768011897586
 20
-131.32325029269
 10
101.8463243017954
 20
-131.32325029269
 10
101.1989908601169
 20
-131.3029242293271
 10
101.1989908601169
 20
-130.7217366209654
 10
101.1989908601169
 20
-130.536390483859
 10
101.2689262984675
 20
-130.2742187174314
 10
101.6010335032456
 20
-130.2335665907055
 10
101.6010335032456
 20
-130.2335665907055
 10
101.6010335032456
 20
-130.4619764213776
 10
101.6010335032456
 20
-130.4619764213776
 10
101.5438449181904
 20
-130.4733452364789
 10
101.3957058123247
 20
-130.5071071722343
 10
101.3957058123247
 20
-130.7241481878051
 10
101.3957058123247
 20
-131.0362738387687
 10
101.7236789025205
 20
-131.0789930227858
 10
101.9286620838928
 20
-131.0927734047268
 10
101.8504584163777
 20
-130.9932101452031
 10
101.7912027740314
 20
-130.9208631400128
 10
101.7912027740314
 20
-130.7262152450962
 10
101.7912027740314
 20
-130.5343234265678
 10
101.8993787722682
 20
-130.2108289605029
 10
102.3055555299792
 20
-130.2108289605029
 10
102.6249158814618
 20
-130.2108289605029
 10
102.8447129734208
 20
-130.4233913519428
 10
102.8447129734208
 20
-130.7627332572399
 97
        0
 97
        0
 92
        1
 93
        1
 72
     4
 94
        3
 73
     0
 74
     1
 95
       17
 96
       13
 40
0.0
 40
0.0
 40
0.0
 40
0.0
 40
1.0
 40
1.0
 40
1.0
 40
2.0
 40
2.0
 40
2.0
 40
3.0
 40
3.0
 40
3.0
 40
4.0
 40
4.0
 40
4.0
 40
4.0
 10
101.985850668948
 20
-130.744474251168
 10
101.985850668948
 20
-131.0249050236674
 10
102.1973795317423
 20
-131.0655571503933
 10
102.3138237591438
 20
-131.0655571503933
 10
102.4895236288915
 20
-131.0655571503933
 10
102.6524766453438
 20
-130.9639268335785
 10
102.6524766453438
 20
-130.7672118813707
 10
102.6524766453438
 20
-130.6383653102224
 10
102.5932210029975
 20
-130.4506076062762
 10
102.3076225872703
 20
-130.4506076062762
 10
102.0833468711806
 20
-130.4506076062762
 10
101.985850668948
 20
-130.5997802407876
 10
101.985850668948
 20
-130.744474251168
 97
        0
 97
        0
 75
     2
 76
     1
 98
        0
  0
POLYLINE
  5
A3
330
9C
100
AcDbEntity
  8
_U+30EC_U+30A4_U+30E4_U+30FC 1
370
     0
100
AcDb2dPolyline
 66
     1
 10
0.0
 20
0.0
 30
0.0
  0
VERTEX
  5
A4
330
A3
100
AcDbEntity
  8
_U+30EC_U+30A4_U+30E4_U+30FC 1
370
     0
100
AcDbVertex
100
AcDb2dVertex
 10
102.7940700697876
 20
-129.9796630534426
 30
0.0
  0
VERTEX
  5
A5
330
A3
100
AcDbEntity
  8
_U+30EC_U+30A4_U+30E4_U+30FC 1
370
     0
100
AcDbVertex
100
AcDb2dVertex
 10
102.5422335898158
 20
-129.9796630534426
 30
0.0
  0
VERTEX
  5
A6
330
A3
100
AcDbEntity
  8
_U+30EC_U+30A4_U+30E4_U+30FC 1
370
     0
100
AcDbVertex
100
AcDb2dVertex
 10
102.5422335898158
 20
-129.7106010960446
 30
0.0
  0
VERTEX
  5
A7
330
A3
100
AcDbEntity
  8
_U+30EC_U+30A4_U+30E4_U+30FC 1
370
     0
100
AcDbVertex
100
AcDb2dVertex
 10
102.7940700697876
 20
-129.7106010960446
 30
0.0
  0
VERTEX
  5
A8
330
A3
100
AcDbEntity
  8
_U+30EC_U+30A4_U+30E4_U+30FC 1
370
     0
100
AcDbVertex
100
AcDb2dVertex
 10
102.7940700697876
 20
-129.9796630534426
 30
0.0
  0
SEQEND
  5
A9
330
A3
100
AcDbEntity
  8
_U+30EC_U+30A4_U+30E4_U+30FC 1
370
     0
  0
HATCH
  5
AA
330
9C
100
AcDbEntity
  8
_U+30EC_U+30A4_U+30E4_U+30FC 1
 62
   179
420
  2234388
100
AcDbHatch
 10
0.0
 20
0.0
 30
0.0
210
0.0
220
0.0
230
1.0
  2
SOLID
 70
     1
 71
     0
 91
        1
 92
        1
 93
        4
 72
     1
 10
102.7940700697876
 20
-129.9796630534426
 11
102.5422335898158
 21
-129.9796630534426
 72
     1
 10
102.5422335898158
 20
-129.9796630534426
 11
102.5422335898158
 21
-129.7106010960446
 72
     1
 10
102.5422335898158
 20
-129.7106010960446
 11
102.7940700697876
 21
-129.7106010960446
 72
     1
 10
102.7940700697876
 20
-129.7106010960446
 11
102.7940700697876
 21
-129.9796630534426
 97
        0
 75
     2
 76
     1
 98
        0
  0
SPLINE
  5
AB
330
9C
100
AcDbEntity
  8
_U+30EC_U+30A4_U+30E4_U+30FC 1
370
     0
100
AcDbSpline
210
0.0
220
0.0
230
1.0
 70
    11
 71
     3
 72
    53
 73
    49
 74
     0
 42
0.0000000001
 43
0.0000000001
 12
1.0
 22
0.0
 32
0.0
 13
1.0
 23
0.0
 33
0.0
 40
0.0
 40
0.0
 40
0.0
 40
0.0
 40
1.0
 40
1.0
 40
1.0
 40
2.0
 40
2.0
 40
2.0
 40
3.0
 40
3.0
 40
3.0
 40
4.0
 40
4.0
 40
4.0
 40
5.0
 40
5.0
 40
5.0
 40
6.0
 40
6.0
 40
6.0
 40
7.0
 40
7.0
 40
7.0
 40
8.0
 40
8.0
 40
8.0
 40
9.0
 40
9.0
 40
9.0
 40
10.0
 40
10.0
 40
10.0
 40
11.0
 40
11.0
 40
11.0
 40
12.0
 40
12.0
 40
12.0
 40
13.0
 40
13.0
 40
13.0
 40
14.0
 40
14.0
 40
14.0
 40
15.0
 40
15.0
 40
15.0
 40
16.0
 40
16.0
 40
16.0
 40
16.0
 10
102.8447129734208
 20
-128.943722841028
 30
0.0
 10
102.8447129734208
 20
-129.027094151771
 30
0.0
 10
102.827832005543
 20
-129.1359591691049
 30
0.0
 10
102.7644422486144
 20
-129.2441351673417
 30
0.0
 10
102.654543702635
 20
-129.4298258139967
 30
0.0
 10
102.523285564647
 20
-129.4522189346508
 30
0.0
 10
102.4154540759586
 20
-129.4725449980138
 30
0.0
 10
102.4154540759586
 20
-129.4725449980138
 30
0.0
 10
102.4154540759586
 20
-129.2351779190801
 30
0.0
 10
102.4154540759586
 20
-129.2351779190801
 30
0.0
 10
102.6142360854576
 20
-129.1766112958309
 30
0.0
 10
102.6438639066307
 20
-129.040874533712
 30
0.0
 10
102.6438639066307
 20
-128.9413112741883
 30
0.0
 10
102.6438639066307
 20
-128.792138639677
 30
0.0
 10
102.544300647107
 20
-128.6295301327732
 30
0.0
 10
102.3117567018526
 20
-128.6295301327732
 30
0.0
 10
102.0557861072986
 20
-128.6295301327732
 30
0.0
 10
101.985850668948
 20
-128.8214219513016
 30
0.0
 10
101.985850668948
 20
-128.9502685224499
 30
0.0
 10
101.985850668948
 20
-128.9843749677539
 30
0.0
 10
101.985850668948
 20
-129.1359591691049
 30
0.0
 10
102.1150417496449
 20
-129.2306992949493
 30
0.0
 10
102.1150417496449
 20
-129.2306992949493
 30
0.0
 10
102.096093724476
 20
-129.4184569988954
 30
0.0
 10
102.096093724476
 20
-129.4184569988954
 30
0.0
 10
102.096093724476
 20
-129.4184569988954
 30
0.0
 10
101.2496337637501
 20
-129.289610427747
 30
0.0
 10
101.2496337637501
 20
-129.289610427747
 30
0.0
 10
101.2496337637501
 20
-129.289610427747
 30
0.0
 10
101.2496337637501
 20
-128.4576198680592
 30
0.0
 10
101.2496337637501
 20
-128.4576198680592
 30
0.0
 10
101.2496337637501
 20
-128.4576198680592
 30
0.0
 10
101.4442816586667
 20
-128.4576198680592
 30
0.0
 10
101.4442816586667
 20
-128.4576198680592
 30
0.0
 10
101.4442816586667
 20
-128.4576198680592
 30
0.0
 10
101.4442816586667
 20
-129.1152885961934
 30
0.0
 10
101.4442816586667
 20
-129.1152885961934
 30
0.0
 10
101.4442816586667
 20
-129.1152885961934
 30
0.0
 10
101.8673393842554
 20
-129.1855685440925
 30
0.0
 10
101.8673393842554
 20
-129.1855685440925
 30
0.0
 10
101.8335774484999
 20
-129.1201117298727
 30
0.0
 10
101.7932698313225
 20
-129.0319172854504
 30
0.0
 10
101.7932698313225
 20
-128.9051377715932
 30
0.0
 10
101.7932698313225
 20
-128.634008756904
 30
0.0
 10
101.9796494970745
 20
-128.3807942387381
 30
0.0
 10
102.2928086766837
 20
-128.3807942387381
 30
0.0
 10
102.6101019708753
 20
-128.3807942387381
 30
0.0
 10
102.8447129734208
 20
-128.620228374963
 30
0.0
 10
102.8447129734208
 20
-128.943722841028
 30
0.0
  0
HATCH
  5
AC
330
9C
100
AcDbEntity
  8
_U+30EC_U+30A4_U+30E4_U+30FC 1
 62
   179
420
  2234388
100
AcDbHatch
 10
0.0
 20
0.0
 30
0.0
210
0.0
220
0.0
230
1.0
  2
SOLID
 70
     1
 71
     0
 91
        1
 92
        1
 93
        1
 72
     4
 94
        3
 73
     0
 74
     1
 95
       53
 96
       49
 40
0.0
 40
0.0
 40
0.0
 40
0.0
 40
1.0
 40
1.0
 40
1.0
 40
2.0
 40
2.0
 40
2.0
 40
3.0
 40
3.0
 40
3.0
 40
4.0
 40
4.0
 40
4.0
 40
5.0
 40
5.0
 40
5.0
 40
6.0
 40
6.0
 40
6.0
 40
7.0
 40
7.0
 40
7.0
 40
8.0
 40
8.0
 40
8.0
 40
9.0
 40
9.0
 40
9.0
 40
10.0
 40
10.0
 40
10.0
 40
11.0
 40
11.0
 40
11.0
 40
12.0
 40
12.0
 40
12.0
 40
13.0
 40
13.0
 40
13.0
 40
14.0
 40
14.0
 40
14.0
 40
15.0
 40
15.0
 40
15.0
 40
16.0
 40
16.0
 40
16.0
 40
16.0
 10
102.8447129734208
 20
-128.943722841028
 10
102.8447129734208
 20
-129.027094151771
 10
102.827832005543
 20
-129.1359591691049
 10
102.7644422486144
 20
-129.2441351673417
 10
102.654543702635
 20
-129.4298258139967
 10
102.523285564647
 20
-129.4522189346508
 10
102.4154540759586
 20
-129.4725449980138
 10
102.4154540759586
 20
-129.4725449980138
 10
102.4154540759586
 20
-129.2351779190801
 10
102.4154540759586
 20
-129.2351779190801
 10
102.6142360854576
 20
-129.1766112958309
 10
102.6438639066307
 20
-129.040874533712
 10
102.6438639066307
 20
-128.9413112741883
 10
102.6438639066307
 20
-128.792138639677
 10
102.544300647107
 20
-128.6295301327732
 10
102.3117567018526
 20
-128.6295301327732
 10
102.0557861072986
 20
-128.6295301327732
 10
101.985850668948
 20
-128.8214219513016
 10
101.985850668948
 20
-128.9502685224499
 10
101.985850668948
 20
-128.9843749677539
 10
101.985850668948
 20
-129.1359591691049
 10
102.1150417496449
 20
-129.2306992949493
 10
102.1150417496449
 20
-129.2306992949493
 10
102.096093724476
 20
-129.4184569988954
 10
102.096093724476
 20
-129.4184569988954
 10
102.096093724476
 20
-129.4184569988954
 10
101.2496337637501
 20
-129.289610427747
 10
101.2496337637501
 20
-129.289610427747
 10
101.2496337637501
 20
-129.289610427747
 10
101.2496337637501
 20
-128.4576198680592
 10
101.2496337637501
 20
-128.4576198680592
 10
101.2496337637501
 20
-128.4576198680592
 10
101.4442816586667
 20
-128.4576198680592
 10
101.4442816586667
 20
-128.4576198680592
 10
101.4442816586667
 20
-128.4576198680592
 10
101.4442816586667
 20
-129.1152885961934
 10
101.4442816586667
 20
-129.1152885961934
 10
101.4442816586667
 20
-129.1152885961934
 10
101.8673393842554
 20
-129.1855685440925
 10
101.8673393842554
 20
-129.1855685440925
 10
101.8335774484999
 20
-129.1201117298727
 10
101.7932698313225
 20
-129.0319172854504
 10
101.7932698313225
 20
-128.9051377715932
 10
101.7932698313225
 20
-128.634008756904
 10
101.9796494970745
 20
-128.3807942387381
 10
102.2928086766837
 20
-128.3807942387381
 10
102.6101019708753
 20
-128.3807942387381
 10
102.8447129734208
 20
-128.620228374963
 10
102.8447129734208
 20
-128.943722841028
 97
        0
 97
        0
 75
     2
 76
     1
 98
        0
  0
ENDBLK
  5
9F
330
9C
100
AcDbEntity
  8
0
100
AcDbBlockEnd
  0
BLOCK
  5
B9
330
B7
100
AcDbEntity
  8
0
100
AcDbBlockBegin
  2
block 7
 70
     0
 10
0.0
 20
0.0
 30
0.0
  3
block 7
  1

  0
SPLINE
  5
BB
330
B7
100
AcDbEntity
  8
_U+30EC_U+30A4_U+30E4_U+30FC 1
370
     0
100
AcDbSpline
210
0.0
220
0.0
230
1.0
 70
    11
 71
     3
 72
    26
 73
    22
 74
     0
 42
0.0000000001
 43
0.0000000001
 12
1.0
 22
0.0
 32
0.0
 13
1.0
 23
0.0
 33
0.0
 40
0.0
 40
0.0
 40
0.0
 40
0.0
 40
1.0
 40
1.0
 40
1.0
 40
2.0
 40
2.0
 40
2.0
 40
3.0
 40
3.0
 40
3.0
 40
4.0
 40
4.0
 40
4.0
 40
5.0
 40
5.0
 40
5.0
 40
6.0
 40
6.0
 40
6.0
 40
7.0
 40
7.0
 40
7.0
 40
7.0
 10
87.90643443982896
 20
-129.1783338435735
 30
0.0
 10
87.90643443982896
 20
-129.1783338435735
 30
0.0
 10
87.90643443982896
 20
-128.0740084857766
 30
0.0
 10
87.90643443982896
 20
-128.0740084857766
 30
0.0
 10
87.90643443982896
 20
-128.0740084857766
 30
0.0
 10
87.55382891691363
 20
-128.0740084857766
 30
0.0
 10
87.55382891691363
 20
-128.0740084857766
 30
0.0
 10
87.55382891691363
 20
-128.0740084857766
 30
0.0
 10
87.55382891691363
 20
-127.9260416346852
 30
0.0
 10
87.55382891691363
 20
-127.9260416346852
 30
0.0
 10
87.90884600666863
 20
-127.9112277240986
 30
0.0
 10
87.95845538165622
 20
-127.7482747076463
 30
0.0
 10
87.99015026012052
 20
-127.6340697923102
 30
0.0
 10
87.99015026012052
 20
-127.6340697923102
 30
0.0
 10
88.14621308560234
 20
-127.6340697923102
 30
0.0
 10
88.14621308560234
 20
-127.6340697923102
 30
0.0
 10
88.14621308560234
 20
-127.6340697923102
 30
0.0
 10
88.14621308560234
 20
-129.1783338435735
 30
0.0
 10
88.14621308560234
 20
-129.1783338435735
 30
0.0
 10
88.14621308560234
 20
-129.1783338435735
 30
0.0
 10
87.90643443982896
 20
-129.1783338435735
 30
0.0
 10
87.90643443982896
 20
-129.1783338435735
 30
0.0
  0
HATCH
  5
BC
330
B7
100
AcDbEntity
  8
_U+30EC_U+30A4_U+30E4_U+30FC 1
 62
   179
420
  2234388
100
AcDbHatch
 10
0.0
 20
0.0
 30
0.0
210
0.0
220
0.0
230
1.0
  2
SOLID
 70
     1
 71
     0
 91
        1
 92
        1
 93
        1
 72
     4
 94
        3
 73
     0
 74
     1
 95
       26
 96
       22
 40
0.0
 40
0.0
 40
0.0
 40
0.0
 40
1.0
 40
1.0
 40
1.0
 40
2.0
 40
2.0
 40
2.0
 40
3.0
 40
3.0
 40
3.0
 40
4.0
 40
4.0
 40
4.0
 40
5.0
 40
5.0
 40
5.0
 40
6.0
 40
6.0
 40
6.0
 40
7.0
 40
7.0
 40
7.0
 40
7.0
 10
87.90643443982896
 20
-129.1783338435735
 10
87.90643443982896
 20
-129.1783338435735
 10
87.90643443982896
 20
-128.0740084857766
 10
87.90643443982896
 20
-128.0740084857766
 10
87.90643443982896
 20
-128.0740084857766
 10
87.55382891691363
 20
-128.0740084857766
 10
87.55382891691363
 20
-128.0740084857766
 10
87.55382891691363
 20
-128.0740084857766
 10
87.55382891691363
 20
-127.9260416346852
 10
87.55382891691363
 20
-127.9260416346852
 10
87.90884600666863
 20
-127.9112277240986
 10
87.95845538165622
 20
-127.7482747076463
 10
87.99015026012052
 20
-127.6340697923102
 10
87.99015026012052
 20
-127.6340697923102
 10
88.14621308560234
 20
-127.6340697923102
 10
88.14621308560234
 20
-127.6340697923102
 10
88.14621308560234
 20
-127.6340697923102
 10
88.14621308560234
 20
-129.1783338435735
 10
88.14621308560234
 20
-129.1783338435735
 10
88.14621308560234
 20
-129.1783338435735
 10
87.90643443982896
 20
-129.1783338435735
 10
87.90643443982896
 20
-129.1783338435735
 97
        0
 97
        0
 75
     2
 76
     1
 98
        0
  0
ENDBLK
  5
BA
330
B7
100
AcDbEntity
  8
0
100
AcDbBlockEnd
  0
ENDSEC
  0
SECTION
  2
ENTITIES
  0
SPLINE
  5
41
330
1F
100
AcDbEntity
  8
_U+30EC_U+30A4_U+30E4_U+30FC 1
 62
   179
420
  2234388
370
    25
100
AcDbSpline
210
0.0
220
0.0
230
1.0
 70
    11
 71
     3
 72
    65
 73
    61
 74
     0
 42
0.0000000001
 43
0.0000000001
 12
1.0
 22
0.0
 32
0.0
 13
1.0
 23
0.0
 33
0.0
 40
0.0
 40
0.0
 40
0.0
 40
0.0
 40
1.0
 40
1.0
 40
1.0
 40
2.0
 40
2.0
 40
2.0
 40
3.0
 40
3.0
 40
3.0
 40
4.0
 40
4.0
 40
4.0
 40
5.0
 40
5.0
 40
5.0
 40
6.0
 40
6.0
 40
6.0
 40
7.0
 40
7.0
 40
7.0
 40
8.0
 40
8.0
 40
8.0
 40
9.0
 40
9.0
 40
9.0
 40
10.0
 40
10.0
 40
10.0
 40
11.0
 40
11.0
 40
11.0
 40
12.0
 40
12.0
 40
12.0
 40
13.0
 40
13.0
 40
13.0
 40
14.0
 40
14.0
 40
14.0
 40
15.0
 40
15.0
 40
15.0
 40
16.0
 40
16.0
 40
16.0
 40
17.0
 40
17.0
 40
17.0
 40
18.0
 40
18.0
 40
18.0
 40
19.0
 40
19.0
 40
19.0
 40
20.0
 40
20.0
 40
20.0
 40
20.0
 10
92.94039679555961
 20
-126.3447505239694
 30
0.0
 10
92.94039679555961
 20
-125.9304835796287
 30
0.0
 10
93.2763117869897
 20
-125.5947449686013
 30
0.0
 10
93.69040233198092
 20
-125.5947449686013
 30
0.0
 10
93.69040233198092
 20
-125.5947449686013
 30
0.0
 10
98.94037053137642
 20
-125.5947449686013
 30
0.0
 10
98.94037053137642
 20
-125.5947449686013
 30
0.0
 10
98.94037053137642
 20
-125.5947449686013
 30
0.0
 10
99.94014272809233
 20
-126.5951874683512
 30
0.0
 10
99.94014272809233
 20
-126.5951874683512
 30
0.0
 10
99.94014272809233
 20
-126.5951874683512
 30
0.0
 10
93.94016899227552
 20
-126.5951874683512
 30
0.0
 10
93.94016899227552
 20
-126.5951874683512
 30
0.0
 10
93.94016899227552
 20
-126.5951874683512
 30
0.0
 10
93.94016899227552
 20
-133.0950474667262
 30
0.0
 10
93.94016899227552
 20
-133.0950474667262
 30
0.0
 10
93.94016899227552
 20
-133.0950474667262
 30
0.0
 10
99.44060940750315
 20
-133.0950474667262
 30
0.0
 10
99.44060940750315
 20
-133.0950474667262
 30
0.0
 10
99.44060940750315
 20
-133.0950474667262
 30
0.0
 10
99.94014272809233
 20
-133.5949335777121
 30
0.0
 10
99.94014272809233
 20
-133.5949335777121
 30
0.0
 10
99.94014272809233
 20
-133.5949335777121
 30
0.0
 10
105.44058314332
 20
-133.5949335777121
 30
0.0
 10
105.44058314332
 20
-133.5949335777121
 30
0.0
 10
105.44058314332
 20
-133.5949335777121
 30
0.0
 10
105.9401164639091
 20
-134.0948196886987
 30
0.0
 10
105.9401164639091
 20
-134.0948196886987
 30
0.0
 10
105.9401164639091
 20
-134.0948196886987
 30
0.0
 10
75.94024778482509
 20
-134.0948196886987
 30
0.0
 10
75.94024778482509
 20
-134.0948196886987
 30
0.0
 10
75.94024778482509
 20
-134.0948196886987
 30
0.0
 10
76.940019981541
 20
-133.0950474667262
 30
0.0
 10
76.940019981541
 20
-133.0950474667262
 30
0.0
 10
76.940019981541
 20
-133.0950474667262
 30
0.0
 10
83.9404361918344
 20
-133.0950474667262
 30
0.0
 10
83.9404361918344
 20
-133.0950474667262
 30
0.0
 10
83.9404361918344
 20
-133.0950474667262
 30
0.0
 10
83.9404361918344
 20
-126.5951874683512
 30
0.0
 10
83.9404361918344
 20
-126.5951874683512
 30
0.0
 10
83.9404361918344
 20
-126.5951874683512
 30
0.0
 10
77.94046245601758
 20
-126.5951874683512
 30
0.0
 10
77.94046245601758
 20
-126.5951874683512
 30
0.0
 10
77.94046245601758
 20
-126.5951874683512
 30
0.0
 10
78.9402346527335
 20
-125.5947449686013
 30
0.0
 10
78.9402346527335
 20
-125.5947449686013
 30
0.0
 10
78.9402346527335
 20
-125.5947449686013
 30
0.0
 10
84.19020285212899
 20
-125.5947449686013
 30
0.0
 10
84.19020285212899
 20
-125.5947449686013
 30
0.0
 10
84.60429339712022
 20
-125.5947449686013
 30
0.0
 10
84.9402083885503
 20
-125.9304835796287
 30
0.0
 10
84.9402083885503
 20
-126.3447505239694
 30
0.0
 10
84.9402083885503
 20
-126.3447505239694
 30
0.0
 10
84.9402083885503
 20
-133.0950474667262
 30
0.0
 10
84.9402083885503
 20
-133.0950474667262
 30
0.0
 10
84.9402083885503
 20
-133.0950474667262
 30
0.0
 10
92.94039679555961
 20
-133.0950474667262
 30
0.0
 10
92.94039679555961
 20
-133.0950474667262
 30
0.0
 10
92.94039679555961
 20
-133.0950474667262
 30
0.0
 10
92.94039679555961
 20
-126.3447505239694
 30
0.0
 10
92.94039679555961
 20
-126.3447505239694
 30
0.0
  0
HATCH
  5
42
330
1F
100
AcDbEntity
  8
_U+30EC_U+30A4_U+30E4_U+30FC 1
 62
   253
420
 11711154
100
AcDbHatch
 10
0.0
 20
0.0
 30
0.0
210
0.0
220
0.0
230
1.0
  2
SOLID
 70
     1
 71
     0
 91
        1
 92
        1
 93
        1
 72
     4
 94
        3
 73
     0
 74
     1
 95
       65
 96
       61
 40
0.0
 40
0.0
 40
0.0
 40
0.0
 40
1.0
 40
1.0
 40
1.0
 40
2.0
 40
2.0
 40
2.0
 40
3.0
 40
3.0
 40
3.0
 40
4.0
 40
4.0
 40
4.0
 40
5.0
 40
5.0
 40
5.0
 40
6.0
 40
6.0
 40
6.0
 40
7.0
 40
7.0
 40
7.0
 40
8.0
 40
8.0
 40
8.0
 40
9.0
 40
9.0
 40
9.0
 40
10.0
 40
10.0
 40
10.0
 40
11.0
 40
11.0
 40
11.0
 40
12.0
 40
12.0
 40
12.0
 40
13.0
 40
13.0
 40
13.0
 40
14.0
 40
14.0
 40
14.0
 40
15.0
 40
15.0
 40
15.0
 40
16.0
 40
16.0
 40
16.0
 40
17.0
 40
17.0
 40
17.0
 40
18.0
 40
18.0
 40
18.0
 40
19.0
 40
19.0
 40
19.0
 40
20.0
 40
20.0
 40
20.0
 40
20.0
 10
92.94039679555961
 20
-126.3447505239694
 10
92.94039679555961
 20
-125.9304835796287
 10
93.2763117869897
 20
-125.5947449686013
 10
93.69040233198092
 20
-125.5947449686013
 10
93.69040233198092
 20
-125.5947449686013
 10
98.94037053137642
 20
-125.5947449686013
 10
98.94037053137642
 20
-125.5947449686013
 10
98.94037053137642
 20
-125.5947449686013
 10
99.94014272809233
 20
-126.5951874683512
 10
99.94014272809233
 20
-126.5951874683512
 10
99.94014272809233
 20
-126.5951874683512
 10
93.94016899227552
 20
-126.5951874683512
 10
93.94016899227552
 20
-126.5951874683512
 10
93.94016899227552
 20
-126.5951874683512
 10
93.94016899227552
 20
-133.0950474667262
 10
93.94016899227552
 20
-133.0950474667262
 10
93.94016899227552
 20
-133.0950474667262
 10
99.44060940750315
 20
-133.0950474667262
 10
99.44060940750315
 20
-133.0950474667262
 10
99.44060940750315
 20
-133.0950474667262
 10
99.94014272809233
 20
-133.5949335777121
 10
99.94014272809233
 20
-133.5949335777121
 10
99.94014272809233
 20
-133.5949335777121
 10
105.44058314332
 20
-133.5949335777121
 10
105.44058314332
 20
-133.5949335777121
 10
105.44058314332
 20
-133.5949335777121
 10
105.9401164639091
 20
-134.0948196886987
 10
105.9401164639091
 20
-134.0948196886987
 10
105.9401164639091
 20
-134.0948196886987
 10
75.94024778482509
 20
-134.0948196886987
 10
75.94024778482509
 20
-134.0948196886987
 10
75.94024778482509
 20
-134.0948196886987
 10
76.940019981541
 20
-133.0950474667262
 10
76.940019981541
 20
-133.0950474667262
 10
76.940019981541
 20
-133.0950474667262
 10
83.9404361918344
 20
-133.0950474667262
 10
83.9404361918344
 20
-133.0950474667262
 10
83.9404361918344
 20
-133.0950474667262
 10
83.9404361918344
 20
-126.5951874683512
 10
83.9404361918344
 20
-126.5951874683512
 10
83.9404361918344
 20
-126.5951874683512
 10
77.94046245601758
 20
-126.5951874683512
 10
77.94046245601758
 20
-126.5951874683512
 10
77.94046245601758
 20
-126.5951874683512
 10
78.9402346527335
 20
-125.5947449686013
 10
78.9402346527335
 20
-125.5947449686013
 10
78.9402346527335
 20
-125.5947449686013
 10
84.19020285212899
 20
-125.5947449686013
 10
84.19020285212899
 20
-125.5947449686013
 10
84.60429339712022
 20
-125.5947449686013
 10
84.9402083885503
 20
-125.9304835796287
 10
84.9402083885503
 20
-126.3447505239694
 10
84.9402083885503
 20
-126.3447505239694
 10
84.9402083885503
 20
-133.0950474667262
 10
84.9402083885503
 20
-133.0950474667262
 10
84.9402083885503
 20
-133.0950474667262
 10
92.94039679555961
 20
-133.0950474667262
 10
92.94039679555961
 20
-133.0950474667262
 10
92.94039679555961
 20
-133.0950474667262
 10
92.94039679555961
 20
-126.3447505239694
 10
92.94039679555961
 20
-126.3447505239694
 97
        0
 97
        0
 75
     2
 76
     1
 98
        0
  0
SPLINE
  5
43
330
1F
100
AcDbEntity
  8
_U+30EC_U+30A4_U+30E4_U+30FC 1
 62
   179
420
  2234388
370
     9
100
AcDbSpline
210
0.0
220
0.0
230
1.0
 70
    11
 71
     3
 72
    17
 73
    13
 74
     0
 42
0.0000000001
 43
0.0000000001
 12
1.0
 22
0.0
 32
0.0
 13
1.0
 23
0.0
 33
0.0
 40
0.0
 40
0.0
 40
0.0
 40
0.0
 40
1.0
 40
1.0
 40
1.0
 40
2.0
 40
2.0
 40
2.0
 40
3.0
 40
3.0
 40
3.0
 40
4.0
 40
4.0
 40
4.0
 40
4.0
 10
78.04036912013542
 20
-121.5949858029347
 30
0.0
 10
78.04036912013542
 20
-121.5398819140595
 30
0.0
 10
77.99556634350066
 20
-121.4950791362928
 30
0.0
 10
77.94046245601758
 20
-121.4950791362928
 30
0.0
 10
77.88532329075764
 20
-121.4950791362928
 30
0.0
 10
77.84055579189976
 20
-121.5398819140595
 30
0.0
 10
77.84055579189976
 20
-121.5949858029347
 30
0.0
 10
77.84055579189976
 20
-121.6501249695875
 30
0.0
 10
77.88532329075764
 20
-121.6948924695764
 30
0.0
 10
77.94046245601758
 20
-121.6948924695764
 30
0.0
 10
77.99556634350066
 20
-121.6948924695764
 30
0.0
 10
78.04036912013542
 20
-121.6501249695875
 30
0.0
 10
78.04036912013542
 20
-121.5949858029347
 30
0.0
  0
SPLINE
  5
44
330
1F
100
AcDbEntity
  8
_U+30EC_U+30A4_U+30E4_U+30FC 1
 62
   179
420
  2234388
370
     9
100
AcDbSpline
210
0.0
220
0.0
230
1.0
 70
    11
 71
     3
 72
    17
 73
    13
 74
     0
 42
0.0000000001
 43
0.0000000001
 12
1.0
 22
0.0
 32
0.0
 13
1.0
 23
0.0
 33
0.0
 40
0.0
 40
0.0
 40
0.0
 40
0.0
 40
1.0
 40
1.0
 40
1.0
 40
2.0
 40
2.0
 40
2.0
 40
3.0
 40
3.0
 40
3.0
 40
4.0
 40
4.0
 40
4.0
 40
4.0
 10
85.04011505266814
 20
-121.5949858029347
 30
0.0
 10
85.04011505266814
 20
-121.5398819140595
 30
0.0
 10
84.99531227603337
 20
-121.4950791362928
 30
0.0
 10
84.9402083885503
 20
-121.4950791362928
 30
0.0
 10
84.88506922329036
 20
-121.4950791362928
 30
0.0
 10
84.84030172443246
 20
-121.5398819140595
 30
0.0
 10
84.84030172443246
 20
-121.5949858029347
 30
0.0
 10
84.84030172443246
 20
-121.6501249695875
 30
0.0
 10
84.88506922329036
 20
-121.6948924695764
 30
0.0
 10
84.9402083885503
 20
-121.6948924695764
 30
0.0
 10
84.99531227603337
 20
-121.6948924695764
 30
0.0
 10
85.04011505266814
 20
-121.6501249695875
 30
0.0
 10
85.04011505266814
 20
-121.5949858029347
 30
0.0
  0
SPLINE
  5
45
330
1F
100
AcDbEntity
  8
_U+30EC_U+30A4_U+30E4_U+30FC 1
 62
   179
420
  2234388
370
     9
100
AcDbSpline
210
0.0
220
0.0
230
1.0
 70
    11
 71
     3
 72
    17
 73
    13
 74
     0
 42
0.0000000001
 43
0.0000000001
 12
1.0
 22
0.0
 32
0.0
 13
1.0
 23
0.0
 33
0.0
 40
0.0
 40
0.0
 40
0.0
 40
0.0
 40
1.0
 40
1.0
 40
1.0
 40
2.0
 40
2.0
 40
2.0
 40
3.0
 40
3.0
 40
3.0
 40
4.0
 40
4.0
 40
4.0
 40
4.0
 10
93.04030345967745
 20
-121.5949858029347
 30
0.0
 10
93.04030345967745
 20
-121.5398819140595
 30
0.0
 10
92.99553596081955
 20
-121.4950791362928
 30
0.0
 10
92.94039679555961
 20
-121.4950791362928
 30
0.0
 10
92.88529290807654
 20
-121.4950791362928
 30
0.0
 10
92.84049013144177
 20
-121.5398819140595
 30
0.0
 10
92.84049013144177
 20
-121.5949858029347
 30
0.0
 10
92.84049013144177
 20
-121.6501249695875
 30
0.0
 10
92.88529290807654
 20
-121.6948924695764
 30
0.0
 10
92.94039679555961
 20
-121.6948924695764
 30
0.0
 10
92.99553596081955
 20
-121.6948924695764
 30
0.0
 10
93.04030345967745
 20
-121.6501249695875
 30
0.0
 10
93.04030345967745
 20
-121.5949858029347
 30
0.0
  0
SPLINE
  5
46
330
1F
100
AcDbEntity
  8
_U+30EC_U+30A4_U+30E4_U+30FC 1
 62
   179
420
  2234388
370
     9
100
AcDbSpline
210
0.0
220
0.0
230
1.0
 70
    11
 71
     3
 72
    17
 73
    13
 74
     0
 42
0.0000000001
 43
0.0000000001
 12
1.0
 22
0.0
 32
0.0
 13
1.0
 23
0.0
 33
0.0
 40
0.0
 40
0.0
 40
0.0
 40
0.0
 40
1.0
 40
1.0
 40
1.0
 40
2.0
 40
2.0
 40
2.0
 40
3.0
 40
3.0
 40
3.0
 40
4.0
 40
4.0
 40
4.0
 40
4.0
 10
100.0400493922102
 20
-121.5949858029347
 30
0.0
 10
100.0400493922102
 20
-121.5398819140595
 30
0.0
 10
99.99528189335227
 20
-121.4950791362928
 30
0.0
 10
99.94014272809233
 20
-121.4950791362928
 30
0.0
 10
99.88503884060925
 20
-121.4950791362928
 30
0.0
 10
99.84023606397449
 20
-121.5398819140595
 30
0.0
 10
99.84023606397449
 20
-121.5949858029347
 30
0.0
 10
99.84023606397449
 20
-121.6501249695875
 30
0.0
 10
99.88503884060925
 20
-121.6948924695764
 30
0.0
 10
99.94014272809233
 20
-121.6948924695764
 30
0.0
 10
99.99528189335227
 20
-121.6948924695764
 30
0.0
 10
100.0400493922102
 20
-121.6501249695875
 30
0.0
 10
100.0400493922102
 20
-121.5949858029347
 30
0.0
  0
SPLINE
  5
47
330
1F
100
AcDbEntity
  8
_U+30EC_U+30A4_U+30E4_U+30FC 1
 62
   179
420
  2234388
370
     9
100
AcDbSpline
210
0.0
220
0.0
230
1.0
 70
    11
 71
     3
 72
    17
 73
    13
 74
     0
 42
0.0000000001
 43
0.0000000001
 12
1.0
 22
0.0
 32
0.0
 13
1.0
 23
0.0
 33
0.0
 40
0.0
 40
0.0
 40
0.0
 40
0.0
 40
1.0
 40
1.0
 40
1.0
 40
2.0
 40
2.0
 40
2.0
 40
3.0
 40
3.0
 40
3.0
 40
4.0
 40
4.0
 40
4.0
 40
4.0
 10
103.5402777518927
 20
-126.5951874683512
 30
0.0
 10
103.5402777518927
 20
-126.5397308016985
 30
0.0
 10
103.495474974126
 20
-126.4949633017096
 30
0.0
 10
103.4403684721275
 20
-126.4949633017096
 30
0.0
 10
103.3852293068675
 20
-126.4949633017096
 30
0.0
 10
103.3404618080096
 20
-126.5397308016985
 30
0.0
 10
103.3404618080096
 20
-126.5951874683512
 30
0.0
 10
103.3404618080096
 20
-126.6503266350039
 30
0.0
 10
103.3852293068675
 20
-126.6950941349928
 30
0.0
 10
103.4403684721275
 20
-126.6950941349928
 30
0.0
 10
103.495474974126
 20
-126.6950941349928
 30
0.0
 10
103.5402777518927
 20
-126.6503266350039
 30
0.0
 10
103.5402777518927
 20
-126.5951874683512
 30
0.0
  0
SPLINE
  5
48
330
1F
100
AcDbEntity
  8
_U+30EC_U+30A4_U+30E4_U+30FC 1
 62
   179
420
  2234388
370
     9
100
AcDbSpline
210
0.0
220
0.0
230
1.0
 70
    11
 71
     3
 72
    17
 73
    13
 74
     0
 42
0.0000000001
 43
0.0000000001
 12
1.0
 22
0.0
 32
0.0
 13
1.0
 23
0.0
 33
0.0
 40
0.0
 40
0.0
 40
0.0
 40
0.0
 40
1.0
 40
1.0
 40
1.0
 40
2.0
 40
2.0
 40
2.0
 40
3.0
 40
3.0
 40
3.0
 40
4.0
 40
4.0
 40
4.0
 40
4.0
 10
103.5402777518927
 20
-133.0950474667262
 30
0.0
 10
103.5402777518927
 20
-133.0395908000735
 30
0.0
 10
103.495474974126
 20
-132.9948233000849
 30
0.0
 10
103.4403684721275
 20
-132.9948233000849
 30
0.0
 10
103.3852293068675
 20
-132.9948233000849
 30
0.0
 10
103.3404618080096
 20
-133.0395908000735
 30
0.0
 10
103.3404618080096
 20
-133.0950474667262
 30
0.0
 10
103.3404618080096
 20
-133.1501866333792
 30
0.0
 10
103.3852293068675
 20
-133.1949541333678
 30
0.0
 10
103.4403684721275
 20
-133.1949541333678
 30
0.0
 10
103.495474974126
 20
-133.1949541333678
 30
0.0
 10
103.5402777518927
 20
-133.1501866333792
 30
0.0
 10
103.5402777518927
 20
-133.0950474667262
 30
0.0
  0
SPLINE
  5
49
330
1F
100
AcDbEntity
  8
_U+30EC_U+30A4_U+30E4_U+30FC 1
 62
   179
420
  2234388
370
     9
100
AcDbSpline
210
0.0
220
0.0
230
1.0
 70
    11
 71
     3
 72
    17
 73
    13
 74
     0
 42
0.0000000001
 43
0.0000000001
 12
1.0
 22
0.0
 32
0.0
 13
1.0
 23
0.0
 33
0.0
 40
0.0
 40
0.0
 40
0.0
 40
0.0
 40
1.0
 40
1.0
 40
1.0
 40
2.0
 40
2.0
 40
2.0
 40
3.0
 40
3.0
 40
3.0
 40
4.0
 40
4.0
 40
4.0
 40
4.0
 10
76.04015444894293
 20
-138.0949316321427
 30
0.0
 10
76.04015444894293
 20
-138.0397924654903
 30
0.0
 10
75.99535167230816
 20
-137.9950249655011
 30
0.0
 10
75.94024778482509
 20
-137.9950249655011
 30
0.0
 10
75.88510861956514
 20
-137.9950249655011
 30
0.0
 10
75.84034112070727
 20
-138.0397924654903
 30
0.0
 10
75.84034112070727
 20
-138.0949316321427
 30
0.0
 10
75.84034112070727
 20
-138.150388298796
 30
0.0
 10
75.88510861956514
 20
-138.1948382987843
 30
0.0
 10
75.94024778482509
 20
-138.1948382987843
 30
0.0
 10
75.99535167230816
 20
-138.1948382987843
 30
0.0
 10
76.04015444894293
 20
-138.150388298796
 30
0.0
 10
76.04015444894293
 20
-138.0949316321427
 30
0.0
  0
SPLINE
  5
4A
330
1F
100
AcDbEntity
  8
_U+30EC_U+30A4_U+30E4_U+30FC 1
 62
   179
420
  2234388
370
     9
100
AcDbSpline
210
0.0
220
0.0
230
1.0
 70
    11
 71
     3
 72
    17
 73
    13
 74
     0
 42
0.0000000001
 43
0.0000000001
 12
1.0
 22
0.0
 32
0.0
 13
1.0
 23
0.0
 33
0.0
 40
0.0
 40
0.0
 40
0.0
 40
0.0
 40
1.0
 40
1.0
 40
1.0
 40
2.0
 40
2.0
 40
2.0
 40
3.0
 40
3.0
 40
3.0
 40
4.0
 40
4.0
 40
4.0
 40
4.0
 10
106.040023128027
 20
-138.0949316321427
 30
0.0
 10
106.040023128027
 20
-138.0397924654903
 30
0.0
 10
105.9952583068348
 20
-137.9950249655011
 30
0.0
 10
105.9401164639091
 20
-137.9950249655011
 30
0.0
 10
105.885012576426
 20
-137.9950249655011
 30
0.0
 10
105.8402097997913
 20
-138.0397924654903
 30
0.0
 10
105.8402097997913
 20
-138.0949316321427
 30
0.0
 10
105.8402097997913
 20
-138.150388298796
 30
0.0
 10
105.885012576426
 20
-138.1948382987843
 30
0.0
 10
105.9401164639091
 20
-138.1948382987843
 30
0.0
 10
105.9952583068348
 20
-138.1948382987843
 30
0.0
 10
106.040023128027
 20
-138.150388298796
 30
0.0
 10
106.040023128027
 20
-138.0949316321427
 30
0.0
  0
POLYLINE
  5
4B
330
1F
100
AcDbEntity
  8
_U+30EC_U+30A4_U+30E4_U+30FC 1
 62
   179
420
  2234388
370
     9
100
AcDb2dPolyline
 66
     1
 10
0.0
 20
0.0
 30
0.0
  0
VERTEX
  5
4C
330
4B
100
AcDbEntity
  8
_U+30EC_U+30A4_U+30E4_U+30FC 1
 62
   179
420
  2234388
370
     9
100
AcDbVertex
100
AcDb2dVertex
 10
77.94046245601758
 20
-121.5949858029347
 30
0.0
  0
VERTEX
  5
4D
330
4B
100
AcDbEntity
  8
_U+30EC_U+30A4_U+30E4_U+30FC 1
 62
   179
420
  2234388
370
     9
100
AcDbVertex
100
AcDb2dVertex
 10
84.9402083885503
 20
-121.5949858029347
 30
0.0
  0
SEQEND
  5
4E
330
4B
100
AcDbEntity
  8
_U+30EC_U+30A4_U+30E4_U+30FC 1
 62
   179
420
  2234388
370
     9
  0
POLYLINE
  5
4F
330
1F
100
AcDbEntity
  8
_U+30EC_U+30A4_U+30E4_U+30FC 1
 62
   179
420
  2234388
370
     9
100
AcDb2dPolyline
 66
     1
 10
0.0
 20
0.0
 30
0.0
  0
VERTEX
  5
50
330
4F
100
AcDbEntity
  8
_U+30EC_U+30A4_U+30E4_U+30FC 1
 62
   179
420
  2234388
370
     9
100
AcDbVertex
100
AcDb2dVertex
 10
77.94046245601758
 20
-124.0547994134307
 30
0.0
  0
VERTEX
  5
51
330
4F
100
AcDbEntity
  8
_U+30EC_U+30A4_U+30E4_U+30FC 1
 62
   179
420
  2234388
370
     9
100
AcDbVertex
100
AcDb2dVertex
 10
77.94046245601758
 20
-120.5952135809622
 30
0.0
  0
SEQEND
  5
52
330
4F
100
AcDbEntity
  8
_U+30EC_U+30A4_U+30E4_U+30FC 1
 62
   179
420
  2234388
370
     9
  0
POLYLINE
  5
53
330
1F
100
AcDbEntity
  8
_U+30EC_U+30A4_U+30E4_U+30FC 1
 62
   179
420
  2234388
370
     9
100
AcDb2dPolyline
 66
     1
 10
0.0
 20
0.0
 30
0.0
  0
VERTEX
  5
54
330
53
100
AcDbEntity
  8
_U+30EC_U+30A4_U+30E4_U+30FC 1
 62
   179
420
  2234388
370
     9
100
AcDbVertex
100
AcDb2dVertex
 10
84.9402083885503
 20
-123.0550271914584
 30
0.0
  0
VERTEX
  5
55
330
53
100
AcDbEntity
  8
_U+30EC_U+30A4_U+30E4_U+30FC 1
 62
   179
420
  2234388
370
     9
100
AcDbVertex
100
AcDb2dVertex
 10
84.9402083885503
 20
-120.5952135809622
 30
0.0
  0
SEQEND
  5
56
330
53
100
AcDbEntity
  8
_U+30EC_U+30A4_U+30E4_U+30FC 1
 62
   179
420
  2234388
370
     9
  0
INSERT
  5
58
330
1F
100
AcDbEntity
  8
_U+30EC_U+30A4_U+30E4_U+30FC 1
100
AcDbBlockReference
  2
block 2
 10
0.0
 20
0.0
 30
0.0
  0
POLYLINE
  5
5D
330
1F
100
AcDbEntity
  8
_U+30EC_U+30A4_U+30E4_U+30FC 1
 62
   179
420
  2234388
370
     9
100
AcDb2dPolyline
 66
     1
 10
0.0
 20
0.0
 30
0.0
  0
VERTEX
  5
5E
330
5D
100
AcDbEntity
  8
_U+30EC_U+30A4_U+30E4_U+30FC 1
 62
   179
420
  2234388
370
     9
100
AcDbVertex
100
AcDb2dVertex
 10
84.9402083885503
 20
-121.5949858029347
 30
0.0
  0
VERTEX
  5
5F
330
5D
100
AcDbEntity
  8
_U+30EC_U+30A4_U+30E4_U+30FC 1
 62
   179
420
  2234388
370
     9
100
AcDbVertex
100
AcDb2dVertex
 10
92.94039679555961
 20
-121.5949858029347
 30
0.0
  0
SEQEND
  5
60
330
5D
100
AcDbEntity
  8
_U+30EC_U+30A4_U+30E4_U+30FC 1
 62
   179
420
  2234388
370
     9
  0
POLYLINE
  5
61
330
1F
100
AcDbEntity
  8
_U+30EC_U+30A4_U+30E4_U+30FC 1
 62
   179
420
  2234388
370
     9
100
AcDb2dPolyline
 66
     1
 10
0.0
 20
0.0
 30
0.0
  0
VERTEX
  5
62
330
61
100
AcDbEntity
  8
_U+30EC_U+30A4_U+30E4_U+30FC 1
 62
   179
420
  2234388
370
     9
100
AcDbVertex
100
AcDb2dVertex
 10
92.94039679555961
 20
-123.0550271914584
 30
0.0
  0
VERTEX
  5
63
330
61
100
AcDbEntity
  8
_U+30EC_U+30A4_U+30E4_U+30FC 1
 62
   179
420
  2234388
370
     9
100
AcDbVertex
100
AcDb2dVertex
 10
92.94039679555961
 20
-120.5952135809622
 30
0.0
  0
SEQEND
  5
64
330
61
100
AcDbEntity
  8
_U+30EC_U+30A4_U+30E4_U+30FC 1
 62
   179
420
  2234388
370
     9
  0
INSERT
  5
66
330
1F
100
AcDbEntity
  8
_U+30EC_U+30A4_U+30E4_U+30FC 1
100
AcDbBlockReference
  2
block 3
 10
0.0
 20
0.0
 30
0.0
  0
POLYLINE
  5
6D
330
1F
100
AcDbEntity
  8
_U+30EC_U+30A4_U+30E4_U+30FC 1
 62
   179
420
  2234388
370
     9
100
AcDb2dPolyline
 66
     1
 10
0.0
 20
0.0
 30
0.0
  0
VERTEX
  5
6E
330
6D
100
AcDbEntity
  8
_U+30EC_U+30A4_U+30E4_U+30FC 1
 62
   179
420
  2234388
370
     9
100
AcDbVertex
100
AcDb2dVertex
 10
92.94039679555961
 20
-121.5949858029347
 30
0.0
  0
VERTEX
  5
6F
330
6D
100
AcDbEntity
  8
_U+30EC_U+30A4_U+30E4_U+30FC 1
 62
   179
420
  2234388
370
     9
100
AcDbVertex
100
AcDb2dVertex
 10
99.94014272809233
 20
-121.5949858029347
 30
0.0
  0
SEQEND
  5
70
330
6D
100
AcDbEntity
  8
_U+30EC_U+30A4_U+30E4_U+30FC 1
 62
   179
420
  2234388
370
     9
  0
POLYLINE
  5
71
330
1F
100
AcDbEntity
  8
_U+30EC_U+30A4_U+30E4_U+30FC 1
 62
   179
420
  2234388
370
     9
100
AcDb2dPolyline
 66
     1
 10
0.0
 20
0.0
 30
0.0
  0
VERTEX
  5
72
330
71
100
AcDbEntity
  8
_U+30EC_U+30A4_U+30E4_U+30FC 1
 62
   179
420
  2234388
370
     9
100
AcDbVertex
100
AcDb2dVertex
 10
99.94014272809233
 20
-124.0547994134307
 30
0.0
  0
VERTEX
  5
73
330
71
100
AcDbEntity
  8
_U+30EC_U+30A4_U+30E4_U+30FC 1
 62
   179
420
  2234388
370
     9
100
AcDbVertex
100
AcDb2dVertex
 10
99.94014272809233
 20
-120.5952135809622
 30
0.0
  0
SEQEND
  5
74
330
71
100
AcDbEntity
  8
_U+30EC_U+30A4_U+30E4_U+30FC 1
 62
   179
420
  2234388
370
     9
  0
INSERT
  5
76
330
1F
100
AcDbEntity
  8
_U+30EC_U+30A4_U+30E4_U+30FC 1
100
AcDbBlockReference
  2
block 4
 10
0.0
 20
0.0
 30
0.0
  0
POLYLINE
  5
7B
330
1F
100
AcDbEntity
  8
_U+30EC_U+30A4_U+30E4_U+30FC 1
 62
   179
420
  2234388
370
     9
100
AcDb2dPolyline
 66
     1
 10
0.0
 20
0.0
 30
0.0
  0
VERTEX
  5
7C
330
7B
100
AcDbEntity
  8
_U+30EC_U+30A4_U+30E4_U+30FC 1
 62
   179
420
  2234388
370
     9
100
AcDbVertex
100
AcDb2dVertex
 10
75.94024778482509
 20
-138.0949316321427
 30
0.0
  0
VERTEX
  5
7D
330
7B
100
AcDbEntity
  8
_U+30EC_U+30A4_U+30E4_U+30FC 1
 62
   179
420
  2234388
370
     9
100
AcDbVertex
100
AcDb2dVertex
 10
105.9401164639091
 20
-138.0949316321427
 30
0.0
  0
SEQEND
  5
7E
330
7B
100
AcDbEntity
  8
_U+30EC_U+30A4_U+30E4_U+30FC 1
 62
   179
420
  2234388
370
     9
  0
POLYLINE
  5
7F
330
1F
100
AcDbEntity
  8
_U+30EC_U+30A4_U+30E4_U+30FC 1
 62
   179
420
  2234388
370
     9
100
AcDb2dPolyline
 66
     1
 10
0.0
 20
0.0
 30
0.0
  0
VERTEX
  5
80
330
7F
100
AcDbEntity
  8
_U+30EC_U+30A4_U+30E4_U+30FC 1
 62
   179
420
  2234388
370
     9
100
AcDbVertex
100
AcDb2dVertex
 10
75.94024778482509
 20
-136.634890243619
 30
0.0
  0
VERTEX
  5
81
330
7F
100
AcDbEntity
  8
_U+30EC_U+30A4_U+30E4_U+30FC 1
 62
   179
420
  2234388
370
     9
100
AcDbVertex
100
AcDb2dVertex
 10
75.94024778482509
 20
-139.095056631893
 30
0.0
  0
SEQEND
  5
82
330
7F
100
AcDbEntity
  8
_U+30EC_U+30A4_U+30E4_U+30FC 1
 62
   179
420
  2234388
370
     9
  0
POLYLINE
  5
83
330
1F
100
AcDbEntity
  8
_U+30EC_U+30A4_U+30E4_U+30FC 1
 62
   179
420
  2234388
370
     9
100
AcDb2dPolyline
 66
     1
 10
0.0
 20
0.0
 30
0.0
  0
VERTEX
  5
84
330
83
100
AcDbEntity
  8
_U+30EC_U+30A4_U+30E4_U+30FC 1
 62
   179
420
  2234388
370
     9
100
AcDbVertex
100
AcDb2dVertex
 10
105.9401164639091
 20
-136.634890243619
 30
0.0
  0
VERTEX
  5
85
330
83
100
AcDbEntity
  8
_U+30EC_U+30A4_U+30E4_U+30FC 1
 62
   179
420
  2234388
370
     9
100
AcDbVertex
100
AcDb2dVertex
 10
105.9401164639091
 20
-139.095056631893
 30
0.0
  0
SEQEND
  5
86
330
83
100
AcDbEntity
  8
_U+30EC_U+30A4_U+30E4_U+30FC 1
 62
   179
420
  2234388
370
     9
  0
INSERT
  5
88
330
1F
100
AcDbEntity
  8
_U+30EC_U+30A4_U+30E4_U+30FC 1
100
AcDbBlockReference
  2
block 5
 10
0.0
 20
0.0
 30
0.0
  0
POLYLINE
  5
90
330
1F
100
AcDbEntity
  8
_U+30EC_U+30A4_U+30E4_U+30FC 1
 62
   179
420
  2234388
370
     9
100
AcDb2dPolyline
 66
     1
 10
0.0
 20
0.0
 30
0.0
  0
VERTEX
  5
91
330
90
100
AcDbEntity
  8
_U+30EC_U+30A4_U+30E4_U+30FC 1
 62
   179
420
  2234388
370
     9
100
AcDbVertex
100
AcDb2dVertex
 10
103.4403684721275
 20
-133.0950474667262
 30
0.0
  0
VERTEX
  5
92
330
90
100
AcDbEntity
  8
_U+30EC_U+30A4_U+30E4_U+30FC 1
 62
   179
420
  2234388
370
     9
100
AcDbVertex
100
AcDb2dVertex
 10
103.4403684721275
 20
-126.5951874683512
 30
0.0
  0
SEQEND
  5
93
330
90
100
AcDbEntity
  8
_U+30EC_U+30A4_U+30E4_U+30FC 1
 62
   179
420
  2234388
370
     9
  0
POLYLINE
  5
94
330
1F
100
AcDbEntity
  8
_U+30EC_U+30A4_U+30E4_U+30FC 1
 62
   179
420
  2234388
370
     9
100
AcDb2dPolyline
 66
     1
 10
0.0
 20
0.0
 30
0.0
  0
VERTEX
  5
95
330
94
100
AcDbEntity
  8
_U+30EC_U+30A4_U+30E4_U+30FC 1
 62
   179
420
  2234388
370
     9
100
AcDbVertex
100
AcDb2dVertex
 10
101.9803271204873
 20
-133.0950474667262
 30
0.0
  0
VERTEX
  5
96
330
94
100
AcDbEntity
  8
_U+30EC_U+30A4_U+30E4_U+30FC 1
 62
   179
420
  2234388
370
     9
100
AcDbVertex
100
AcDb2dVertex
 10
104.4401406688434
 20
-133.0950474667262
 30
0.0
  0
SEQEND
  5
97
330
94
100
AcDbEntity
  8
_U+30EC_U+30A4_U+30E4_U+30FC 1
 62
   179
420
  2234388
370
     9
  0
POLYLINE
  5
98
330
1F
100
AcDbEntity
  8
_U+30EC_U+30A4_U+30E4_U+30FC 1
 62
   179
420
  2234388
370
     9
100
AcDb2dPolyline
 66
     1
 10
0.0
 20
0.0
 30
0.0
  0
VERTEX
  5
99
330
98
100
AcDbEntity
  8
_U+30EC_U+30A4_U+30E4_U+30FC 1
 62
   179
420
  2234388
370
     9
100
AcDbVertex
100
AcDb2dVertex
 10
102.4805659966141
 20
-126.5951874683512
 30
0.0
  0
VERTEX
  5
9A
330
98
100
AcDbEntity
  8
_U+30EC_U+30A4_U+30E4_U+30FC 1
 62
   179
420
  2234388
370
     9
100
AcDbVertex
100
AcDb2dVertex
 10
104.4401406688434
 20
-126.5951874683512
 30
0.0
  0
SEQEND
  5
9B
330
98
100
AcDbEntity
  8
_U+30EC_U+30A4_U+30E4_U+30FC 1
 62
   179
420
  2234388
370
     9
  0
INSERT
  5
9D
330
1F
100
AcDbEntity
  8
_U+30EC_U+30A4_U+30E4_U+30FC 1
100
AcDbBlockReference
  2
block 6
 10
0.0
 20
0.0
 30
0.0
  0
SPLINE
  5
AD
330
1F
100
AcDbEntity
  8
_U+30EC_U+30A4_U+30E4_U+30FC 1
 62
   179
420
  2234388
370
     9
100
AcDbSpline
210
0.0
220
0.0
230
1.0
 70
    11
 71
     3
 72
    17
 73
    13
 74
     0
 42
0.0000000001
 43
0.0000000001
 12
1.0
 22
0.0
 32
0.0
 13
1.0
 23
0.0
 33
0.0
 40
0.0
 40
0.0
 40
0.0
 40
0.0
 40
1.0
 40
1.0
 40
1.0
 40
2.0
 40
2.0
 40
2.0
 40
3.0
 40
3.0
 40
3.0
 40
4.0
 40
4.0
 40
4.0
 40
4.0
 10
84.05893424436681
 20
-129.8243035786551
 30
0.0
 10
84.05893424436681
 20
-129.769164412002
 30
0.0
 10
84.01416674550893
 20
-129.7243969120134
 30
0.0
 10
83.95902758024899
 20
-129.7243969120134
 30
0.0
 10
83.90321813722835
 20
-129.7243969120134
 30
0.0
 10
83.85845275681311
 20
-129.769164412002
 30
0.0
 10
83.85845275681311
 20
-129.8243035786551
 30
0.0
 10
83.85845275681311
 20
-129.87940746753
 30
0.0
 10
83.90321813722835
 20
-129.9242102452967
 30
0.0
 10
83.95902758024899
 20
-129.9242102452967
 30
0.0
 10
84.01416674550893
 20
-129.9242102452967
 30
0.0
 10
84.05893424436681
 20
-129.87940746753
 30
0.0
 10
84.05893424436681
 20
-129.8243035786551
 30
0.0
  0
SPLINE
  5
AE
330
1F
100
AcDbEntity
  8
_U+30EC_U+30A4_U+30E4_U+30FC 1
 62
   179
420
  2234388
370
     9
100
AcDbSpline
210
0.0
220
0.0
230
1.0
 70
    11
 71
     3
 72
    17
 73
    13
 74
     0
 42
0.0000000001
 43
0.0000000001
 12
1.0
 22
0.0
 32
0.0
 13
1.0
 23
0.0
 33
0.0
 40
0.0
 40
0.0
 40
0.0
 40
0.0
 40
1.0
 40
1.0
 40
1.0
 40
2.0
 40
2.0
 40
2.0
 40
3.0
 40
3.0
 40
3.0
 40
4.0
 40
4.0
 40
4.0
 40
4.0
 10
85.05870644108272
 20
-129.8243035786551
 30
0.0
 10
85.05870644108272
 20
-129.769164412002
 30
0.0
 10
85.01393894222484
 20
-129.7243969120134
 30
0.0
 10
84.95879977696488
 20
-129.7243969120134
 30
0.0
 10
84.90369588948181
 20
-129.7243969120134
 30
0.0
 10
84.85889311284706
 20
-129.769164412002
 30
0.0
 10
84.85889311284706
 20
-129.8243035786551
 30
0.0
 10
84.85889311284706
 20
-129.87940746753
 30
0.0
 10
84.90369588948181
 20
-129.9242102452967
 30
0.0
 10
84.95879977696488
 20
-129.9242102452967
 30
0.0
 10
85.01393894222484
 20
-129.9242102452967
 30
0.0
 10
85.05870644108272
 20
-129.87940746753
 30
0.0
 10
85.05870644108272
 20
-129.8243035786551
 30
0.0
  0
POLYLINE
  5
AF
330
1F
100
AcDbEntity
  8
_U+30EC_U+30A4_U+30E4_U+30FC 1
 62
   179
420
  2234388
370
     9
100
AcDb2dPolyline
 66
     1
 10
0.0
 20
0.0
 30
0.0
  0
VERTEX
  5
B0
330
AF
100
AcDbEntity
  8
_U+30EC_U+30A4_U+30E4_U+30FC 1
 62
   179
420
  2234388
370
     9
100
AcDbVertex
100
AcDb2dVertex
 10
84.95879977696488
 20
-129.8243035786551
 30
0.0
  0
VERTEX
  5
B1
330
AF
100
AcDbEntity
  8
_U+30EC_U+30A4_U+30E4_U+30FC 1
 62
   179
420
  2234388
370
     9
100
AcDbVertex
100
AcDb2dVertex
 10
88.7291121807762
 20
-129.8243035786551
 30
0.0
  0
SEQEND
  5
B2
330
AF
100
AcDbEntity
  8
_U+30EC_U+30A4_U+30E4_U+30FC 1
 62
   179
420
  2234388
370
     9
  0
POLYLINE
  5
B3
330
1F
100
AcDbEntity
  8
_U+30EC_U+30A4_U+30E4_U+30FC 1
 62
   179
420
  2234388
370
     9
100
AcDb2dPolyline
 66
     1
 10
0.0
 20
0.0
 30
0.0
  0
VERTEX
  5
B4
330
B3
100
AcDbEntity
  8
_U+30EC_U+30A4_U+30E4_U+30FC 1
 62
   179
420
  2234388
370
     9
100
AcDbVertex
100
AcDb2dVertex
 10
82.9585851057724
 20
-129.8243035786551
 30
0.0
  0
VERTEX
  5
B5
330
B3
100
AcDbEntity
  8
_U+30EC_U+30A4_U+30E4_U+30FC 1
 62
   179
420
  2234388
370
     9
100
AcDbVertex
100
AcDb2dVertex
 10
84.95879977696488
 20
-129.8243035786551
 30
0.0
  0
SEQEND
  5
B6
330
B3
100
AcDbEntity
  8
_U+30EC_U+30A4_U+30E4_U+30FC 1
 62
   179
420
  2234388
370
     9
  0
INSERT
  5
B8
330
1F
100
AcDbEntity
  8
_U+30EC_U+30A4_U+30E4_U+30FC 1
100
AcDbBlockReference
  2
block 7
 10
0.0
 20
0.0
 30
0.0
  0
ENDSEC
  0
SECTION
  2
OBJECTS
  0
DICTIONARY
  5
C
330
0
100
AcDbDictionary
281
     1
  3
ACAD_GROUP
350
D
  3
ACAD_LAYOUT
350
1A
  3
ACAD_MATERIAL
350
3B
  3
ACAD_MLEADERSTYLE
350
BE
  3
ACAD_MLINESTYLE
350
17
  3
ACAD_PLOTSETTINGS
350
19
  3
ACAD_PLOTSTYLENAME
350
E
  3
ACAD_TABLESTYLE
350
BD
  3
ACAD_VISUALSTYLE
350
2A
  0
SUN
  5
3F
330
29
100
AcDbSun
 90
        1
290
     0
 63
     7
421
 16777215
 40
1.0
291
     1
 91
  2455826
 92
 54000000
292
     0
 70
     2
 71
   256
280
     1
  0
DICTIONARY
  5
D
102
{ACAD_REACTORS
330
C
102
}
330
C
100
AcDbDictionary
281
     1
  0
DICTIONARY
  5
1A
102
{ACAD_REACTORS
330
C
102
}
330
C
100
AcDbDictionary
281
     1
  3
Layout1
350
1E
  3
Layout2
350
26
  3
Model
350
22
  0
DICTIONARY
  5
3B
102
{ACAD_REACTORS
330
C
102
}
330
C
100
AcDbDictionary
281
     1
  3
ByBlock
350
3D
  3
ByLayer
350
3C
  3
Global
350
3E
  0
DICTIONARY
  5
BE
102
{ACAD_REACTORS
330
C
102
}
330
C
100
AcDbDictionary
281
     1
  0
DICTIONARY
  5
17
102
{ACAD_REACTORS
330
C
102
}
330
C
100
AcDbDictionary
281
     1
  3
Standard
350
18
  0
DICTIONARY
  5
19
102
{ACAD_REACTORS
330
C
102
}
330
C
100
AcDbDictionary
281
     1
  0
ACDBDICTIONARYWDFLT
  5
E
102
{ACAD_REACTORS
330
C
102
}
330
C
100
AcDbDictionary
281
     1
  3
Normal
350
F
100
AcDbDictionaryWithDefault
340
F
  0
DICTIONARY
  5
BD
102
{ACAD_REACTORS
330
C
102
}
330
C
100
AcDbDictionary
281
     1
  0
DICTIONARY
  5
2A
102
{ACAD_REACTORS
330
C
102
}
330
C
100
AcDbDictionary
281
     1
  3
2dWireframe
350
2F
  3
3D Hidden
350
31
  3
3dWireframe
350
30
  3
Basic
350
32
  3
Brighten
350
36
  3
ColorChange
350
3A
  3
Conceptual
350
34
  3
Dim
350
35
  3
Facepattern
350
39
  3
Flat
350
2B
  3
FlatWithEdges
350
2C
  3
Gouraud
350
2D
  3
GouraudWithEdges
350
2E
  3
Linepattern
350
38
  3
Realistic
350
33
  3
Thicken
350
37
  0
LAYOUT
  5
1E
102
{ACAD_REACTORS
330
1A
102
}
330
1A
100
AcDbPlotSettings
  1

  2
none_device
  4

  6

 40
0.0
 41
0.0
 42
0.0
 43
0.0
 44
0.0
 45
0.0
 46
0.0
 47
0.0
 48
0.0
 49
0.0
140
0.0
141
0.0
142
1.0
143
1.0
 70
   688
 72
     0
 73
     0
 74
     5
  7

 75
    16
 76
     0
 77
     2
 78
   300
147
1.0
148
0.0
149
0.0
100
AcDbLayout
  1
Layout1
 70
     1
 71
     1
 10
0.0
 20
0.0
 11
12.0
 21
9.0
 12
0.0
 22
0.0
 32
0.0
 14
1.000000000000000E+20
 24
1.000000000000000E+20
 34
1.000000000000000E+20
 15
-1.000000000000000E+20
 25
-1.000000000000000E+20
 35
-1.000000000000000E+20
146
0.0
 13
0.0
 23
0.0
 33
0.0
 16
1.0
 26
0.0
 36
0.0
 17
0.0
 27
1.0
 37
0.0
 76
     0
330
1B
  0
LAYOUT
  5
26
102
{ACAD_REACTORS
330
1A
102
}
330
1A
100
AcDbPlotSettings
  1

  2
none_device
  4

  6

 40
0.0
 41
0.0
 42
0.0
 43
0.0
 44
0.0
 45
0.0
 46
0.0
 47
0.0
 48
0.0
 49
0.0
140
0.0
141
0.0
142
1.0
143
1.0
 70
   688
 72
     0
 73
     0
 74
     5
  7

 75
    16
 76
     0
 77
     2
 78
   300
147
1.0
148
0.0
149
0.0
100
AcDbLayout
  1
Layout2
 70
     1
 71
     2
 10
0.0
 20
0.0
 11
0.0
 21
0.0
 12
0.0
 22
0.0
 32
0.0
 14
0.0
 24
0.0
 34
0.0
 15
0.0
 25
0.0
 35
0.0
146
0.0
 13
0.0
 23
0.0
 33
0.0
 16
1.0
 26
0.0
 36
0.0
 17
0.0
 27
1.0
 37
0.0
 76
     0
330
23
  0
LAYOUT
  5
22
102
{ACAD_REACTORS
330
1A
102
}
330
1A
100
AcDbPlotSettings
  1

  2
none_device
  4

  6

 40
0.0
 41
0.0
 42
0.0
 43
0.0
 44
0.0
 45
0.0
 46
0.0
 47
0.0
 48
0.0
 49
0.0
140
0.0
141
0.0
142
1.0
143
1.0
 70
  1712
 72
     0
 73
     0
 74
     0
  7

 75
     0
 76
     0
 77
     2
 78
   300
147
1.0
148
0.0
149
0.0
100
AcDbLayout
  1
Model
 70
     1
 71
     0
 10
0.0
 20
0.0
 11
12.0
 21
9.0
 12
0.0
 22
0.0
 32
0.0
 14
1.000000000000000E+20
 24
1.000000000000000E+20
 34
1.000000000000000E+20
 15
-1.000000000000000E+20
 25
-1.000000000000000E+20
 35
-1.000000000000000E+20
146
0.0
 13
0.0
 23
0.0
 33
0.0
 16
1.0
 26
0.0
 36
0.0
 17
0.0
 27
1.0
 37
0.0
 76
     0
330
1F
331
29
  0
MATERIAL
  5
3D
102
{ACAD_REACTORS
330
3B
102
}
330
3B
100
AcDbMaterial
  1
ByBlock
 72
     1
 94
      127
  0
MATERIAL
  5
3C
102
{ACAD_REACTORS
330
3B
102
}
330
3B
100
AcDbMaterial
  1
ByLayer
 72
     1
 94
      127
  0
MATERIAL
  5
3E
102
{ACAD_REACTORS
330
3B
102
}
330
3B
100
AcDbMaterial
  1
Global
 72
     1
 94
      127
  0
MLINESTYLE
  5
18
102
{ACAD_REACTORS
330
17
102
}
330
17
100
AcDbMlineStyle
  2
Standard
 70
     0
  3

 62
   256
 51
90.0
 52
90.0
 71
     2
 49
0.5
 62
   256
  6
BYLAYER
 49
-0.5
 62
   256
  6
BYLAYER
  0
ACDBPLACEHOLDER
  5
F
102
{ACAD_REACTORS
330
E
102
}
330
E
  0
VISUALSTYLE
  5
2F
102
{ACAD_REACTORS
330
2A
102
}
330
2A
100
AcDbVisualStyle
  2
2dWireframe
 70
     4
177
     2
291
     0
 71
     0
176
     1
 72
     2
176
     1
 73
     0
176
     1
 90
        0
176
     1
 40
-0.6
176
     1
 41
-30.0
176
     1
 62
     5
 63
     7
421
 16777215
176
     1
 74
     1
176
     1
 91
        4
176
     1
 64
     7
176
     1
 65
   257
176
     1
 75
     1
176
     1
175
     1
176
     1
 42
1.0
176
     1
 92
        0
176
     1
 66
   257
176
     1
 43
1.0
176
     1
 76
     1
176
     1
 77
     6
176
     1
 78
     2
176
     1
 67
     7
176
     1
 79
     5
176
     1
170
     0
176
     1
171
     0
176
     1
290
     0
176
     1
 93
        1
176
     1
 44
0.0
176
     1
173
     0
176
     1
  0
VISUALSTYLE
  5
31
102
{ACAD_REACTORS
330
2A
102
}
330
2A
100
AcDbVisualStyle
  2
3D Hidden
 70
     6
177
     2
291
     0
 71
     1
176
     1
 72
     2
176
     1
 73
     2
176
     1
 90
        0
176
     1
 40
-0.6
176
     1
 41
-30.0
176
     1
 62
     5
 63
     7
421
 16777215
176
     1
 74
     2
176
     1
 91
        2
176
     1
 64
     7
176
     1
 65
   257
176
     1
 75
     2
176
     1
175
     1
176
     1
 42
40.0
176
     1
 92
        0
176
     1
 66
   257
176
     1
 43
1.0
176
     1
 76
     1
176
     1
 77
     6
176
     1
 78
     2
176
     1
 67
     7
176
     1
 79
     3
176
     1
170
     0
176
     1
171
     0
176
     1
290
     0
176
     1
 93
        1
176
     1
 44
0.0
176
     1
173
     0
176
     1
  0
VISUALSTYLE
  5
30
102
{ACAD_REACTORS
330
2A
102
}
330
2A
100
AcDbVisualStyle
  2
3dWireframe
 70
     5
177
     2
291
     0
 71
     0
176
     1
 72
     2
176
     1
 73
     0
176
     1
 90
        0
176
     1
 40
-0.6
176
     1
 41
-30.0
176
     1
 62
     5
 63
     7
421
 16777215
176
     1
 74
     1
176
     1
 91
        4
176
     1
 64
     7
176
     1
 65
   257
176
     1
 75
     1
176
     1
175
     1
176
     1
 42
1.0
176
     1
 92
        0
176
     1
 66
   257
176
     1
 43
1.0
176
     1
 76
     1
176
     1
 77
     6
176
     1
 78
     2
176
     1
 67
     7
176
     1
 79
     5
176
     1
170
     0
176
     1
171
     0
176
     1
290
     0
176
     1
 93
        1
176
     1
 44
0.0
176
     1
173
     0
176
     1
  0
VISUALSTYLE
  5
32
102
{ACAD_REACTORS
330
2A
102
}
330
2A
100
AcDbVisualStyle
  2
Basic
 70
     7
177
     2
291
     1
 71
     1
176
     1
 72
     0
176
     1
 73
     1
176
     1
 90
        0
176
     1
 40
-0.6
176
     1
 41
-30.0
176
     1
 62
     5
 63
     7
421
 16777215
176
     1
 74
     0
176
     1
 91
        4
176
     1
 64
     7
176
     1
 65
   257
176
     1
 75
     1
176
     1
175
     1
176
     1
 42
1.0
176
     1
 92
        8
176
     1
 66
     7
176
     1
 43
1.0
176
     1
 76
     1
176
     1
 77
     6
176
     1
 78
     2
176
     1
 67
     7
176
     1
 79
     5
176
     1
170
     0
176
     1
171
     0
176
     1
290
     0
176
     1
 93
        1
176
     1
 44
0.0
176
     1
173
     0
176
     1
  0
VISUALSTYLE
  5
36
102
{ACAD_REACTORS
330
2A
102
}
330
2A
100
AcDbVisualStyle
  2
Brighten
 70
    12
177
     2
291
     1
 71
     2
176
     1
 72
     2
176
     1
 73
     0
176
     1
 90
        0
176
     1
 40
-0.6
176
     1
 41
-30.0
176
     1
 62
     5
 63
     7
421
 16777215
176
     1
 74
     1
176
     1
 91
        4
176
     1
 64
     7
176
     1
 65
   257
176
     1
 75
     1
176
     1
175
     1
176
     1
 42
1.0
176
     1
 92
        8
176
     1
 66
     7
176
     1
 43
1.0
176
     1
 76
     1
176
     1
 77
     6
176
     1
 78
     2
176
     1
 67
     7
176
     1
 79
     5
176
     1
170
     0
176
     1
171
     0
176
     1
290
     0
176
     1
 93
        1
176
     1
 44
50.0
176
     1
173
     0
176
     1
  0
VISUALSTYLE
  5
3A
102
{ACAD_REACTORS
330
2A
102
}
330
2A
100
AcDbVisualStyle
  2
ColorChange
 70
    16
177
     2
291
     1
 71
     2
176
     1
 72
     2
176
     1
 73
     3
176
     1
 90
        0
176
     1
 40
-0.6
176
     1
 41
-30.0
176
     1
 62
     5
 63
     8
421
  8421504
176
     1
 74
     1
176
     1
 91
        4
176
     1
 64
     7
176
     1
 65
   257
176
     1
 75
     1
176
     1
175
     1
176
     1
 42
1.0
176
     1
 92
        8
176
     1
 66
     8
424
  8421504
176
     1
 43
1.0
176
     1
 76
     1
176
     1
 77
     6
176
     1
 78
     2
176
     1
 67
     7
176
     1
 79
     5
176
     1
170
     0
176
     1
171
     0
176
     1
290
     0
176
     1
 93
        1
176
     1
 44
0.0
176
     1
173
     0
176
     1
  0
VISUALSTYLE
  5
34
102
{ACAD_REACTORS
330
2A
102
}
330
2A
100
AcDbVisualStyle
  2
Conceptual
 70
     9
177
     2
291
     0
 71
     3
176
     1
 72
     2
176
     1
 73
     0
176
     1
 90
        0
176
     1
 40
-0.6
176
     1
 41
-30.0
176
     1
 62
     5
 63
     7
421
 16777215
176
     1
 74
     2
176
     1
 91
        2
176
     1
 64
     7
176
     1
 65
   257
176
     1
 75
     1
176
     1
175
     1
176
     1
 42
40.0
176
     1
 92
        8
176
     1
 66
     7
176
     1
 43
1.0
176
     1
 76
     1
176
     1
 77
     6
176
     1
 78
     2
176
     1
 67
     7
176
     1
 79
     3
176
     1
170
     0
176
     1
171
     0
176
     1
290
     0
176
     1
 93
        1
176
     1
 44
0.0
176
     1
173
     0
176
     1
  0
VISUALSTYLE
  5
35
102
{ACAD_REACTORS
330
2A
102
}
330
2A
100
AcDbVisualStyle
  2
Dim
 70
    11
177
     2
291
     1
 71
     2
176
     1
 72
     2
176
     1
 73
     0
176
     1
 90
        0
176
     1
 40
-0.6
176
     1
 41
-30.0
176
     1
 62
     5
 63
     7
421
 16777215
176
     1
 74
     1
176
     1
 91
        4
176
     1
 64
     7
176
     1
 65
   257
176
     1
 75
     1
176
     1
175
     1
176
     1
 42
1.0
176
     1
 92
        8
176
     1
 66
     7
176
     1
 43
1.0
176
     1
 76
     1
176
     1
 77
     6
176
     1
 78
     2
176
     1
 67
     7
176
     1
 79
     5
176
     1
170
     0
176
     1
171
     0
176
     1
290
     0
176
     1
 93
        1
176
     1
 44
-50.0
176
     1
173
     0
176
     1
  0
VISUALSTYLE
  5
39
102
{ACAD_REACTORS
330
2A
102
}
330
2A
100
AcDbVisualStyle
  2
Facepattern
 70
    15
177
     2
291
     1
 71
     2
176
     1
 72
     2
176
     1
 73
     0
176
     1
 90
        0
176
     1
 40
-0.6
176
     1
 41
-30.0
176
     1
 62
     5
 63
     7
421
 16777215
176
     1
 74
     1
176
     1
 91
        4
176
     1
 64
     7
176
     1
 65
   257
176
     1
 75
     1
176
     1
175
     1
176
     1
 42
1.0
176
     1
 92
        8
176
     1
 66
     7
176
     1
 43
1.0
176
     1
 76
     1
176
     1
 77
     6
176
     1
 78
     2
176
     1
 67
     7
176
     1
 79
     5
176
     1
170
     0
176
     1
171
     0
176
     1
290
     0
176
     1
 93
        1
176
     1
 44
0.0
176
     1
173
     0
176
     1
  0
VISUALSTYLE
  5
2B
102
{ACAD_REACTORS
330
2A
102
}
330
2A
100
AcDbVisualStyle
  2
Flat
 70
     0
177
     2
291
     1
 71
     2
176
     1
 72
     1
176
     1
 73
     1
176
     1
 90
        2
176
     1
 40
-0.6
176
     1
 41
30.0
176
     1
 62
     5
 63
     7
421
 16777215
176
     1
 74
     0
176
     1
 91
        4
176
     1
 64
     7
176
     1
 65
   257
176
     1
 75
     1
176
     1
175
     1
176
     1
 42
1.0
176
     1
 92
        8
176
     1
 66
     7
176
     1
 43
1.0
176
     1
 76
     1
176
     1
 77
     6
176
     1
 78
     2
176
     1
 67
     7
176
     1
 79
     5
176
     1
170
     0
176
     1
171
     0
176
     1
290
     0
176
     1
 93
       13
176
     1
 44
0.0
176
     1
173
     0
176
     1
  0
VISUALSTYLE
  5
2C
102
{ACAD_REACTORS
330
2A
102
}
330
2A
100
AcDbVisualStyle
  2
FlatWithEdges
 70
     1
177
     2
291
     1
 71
     2
176
     1
 72
     1
176
     1
 73
     1
176
     1
 90
        2
176
     1
 40
-0.6
176
     1
 41
30.0
176
     1
 62
     5
 63
     7
421
 16777215
176
     1
 74
     1
176
     1
 91
        4
176
     1
 64
     7
176
     1
 65
   257
176
     1
 75
     1
176
     1
175
     1
176
     1
 42
1.0
176
     1
 92
        0
176
     1
 66
   257
176
     1
 43
1.0
176
     1
 76
     1
176
     1
 77
     6
176
     1
 78
     2
176
     1
 67
     7
176
     1
 79
     5
176
     1
170
     0
176
     1
171
     0
176
     1
290
     0
176
     1
 93
       13
176
     1
 44
0.0
176
     1
173
     0
176
     1
  0
VISUALSTYLE
  5
2D
102
{ACAD_REACTORS
330
2A
102
}
330
2A
100
AcDbVisualStyle
  2
Gouraud
 70
     2
177
     2
291
     1
 71
     2
176
     1
 72
     2
176
     1
 73
     1
176
     1
 90
        2
176
     1
 40
-0.6
176
     1
 41
30.0
176
     1
 62
     5
 63
     7
421
 16777215
176
     1
 74
     0
176
     1
 91
        4
176
     1
 64
     7
176
     1
 65
   257
176
     1
 75
     1
176
     1
175
     1
176
     1
 42
1.0
176
     1
 92
        0
176
     1
 66
     7
176
     1
 43
1.0
176
     1
 76
     1
176
     1
 77
     6
176
     1
 78
     2
176
     1
 67
     7
176
     1
 79
     5
176
     1
170
     0
176
     1
171
     0
176
     1
290
     0
176
     1
 93
       13
176
     1
 44
0.0
176
     1
173
     0
176
     1
  0
VISUALSTYLE
  5
2E
102
{ACAD_REACTORS
330
2A
102
}
330
2A
100
AcDbVisualStyle
  2
GouraudWithEdges
 70
     3
177
     2
291
     1
 71
     2
176
     1
 72
     2
176
     1
 73
     1
176
     1
 90
        2
176
     1
 40
-0.6
176
     1
 41
30.0
176
     1
 62
     5
 63
     7
421
 16777215
176
     1
 74
     1
176
     1
 91
        4
176
     1
 64
     7
176
     1
 65
   257
176
     1
 75
     1
176
     1
175
     1
176
     1
 42
1.0
176
     1
 92
        0
176
     1
 66
   257
176
     1
 43
1.0
176
     1
 76
     1
176
     1
 77
     6
176
     1
 78
     2
176
     1
 67
     7
176
     1
 79
     5
176
     1
170
     0
176
     1
171
     0
176
     1
290
     0
176
     1
 93
       13
176
     1
 44
0.0
176
     1
173
     0
176
     1
  0
VISUALSTYLE
  5
38
102
{ACAD_REACTORS
330
2A
102
}
330
2A
100
AcDbVisualStyle
  2
Linepattern
 70
    14
177
     2
291
     1
 71
     2
176
     1
 72
     2
176
     1
 73
     0
176
     1
 90
        0
176
     1
 40
-0.6
176
     1
 41
-30.0
176
     1
 62
     5
 63
     7
421
 16777215
176
     1
 74
     1
176
     1
 91
        4
176
     1
 64
     7
176
     1
 65
   257
176
     1
 75
     7
176
     1
175
     7
176
     1
 42
1.0
176
     1
 92
        8
176
     1
 66
     7
176
     1
 43
1.0
176
     1
 76
     1
176
     1
 77
     6
176
     1
 78
     2
176
     1
 67
     7
176
     1
 79
     5
176
     1
170
     0
176
     1
171
     0
176
     1
290
     0
176
     1
 93
        1
176
     1
 44
0.0
176
     1
173
     0
176
     1
  0
VISUALSTYLE
  5
33
102
{ACAD_REACTORS
330
2A
102
}
330
2A
100
AcDbVisualStyle
  2
Realistic
 70
     8
177
     2
291
     0
 71
     2
176
     1
 72
     2
176
     1
 73
     0
176
     1
 90
        0
176
     1
 40
-0.6
176
     1
 41
-30.0
176
     1
 62
     5
 63
     7
421
 16777215
176
     1
 74
     1
176
     1
 91
        0
176
     1
 64
     7
176
     1
 65
   257
176
     1
 75
     1
176
     1
175
     1
176
     1
 42
1.0
176
     1
 92
        8
176
     1
 66
     8
424
  7895160
176
     1
 43
1.0
176
     1
 76
     1
176
     1
 77
     6
176
     1
 78
     2
176
     1
 67
     7
176
     1
 79
     5
176
     1
170
     0
176
     1
171
     0
176
     1
290
     0
176
     1
 93
       13
176
     1
 44
0.0
176
     1
173
     0
176
     1
  0
VISUALSTYLE
  5
37
102
{ACAD_REACTORS
330
2A
102
}
330
2A
100
AcDbVisualStyle
  2
Thicken
 70
    13
177
     2
291
     1
 71
     2
176
     1
 72
     2
176
     1
 73
     0
176
     1
 90
        0
176
     1
 40
-0.6
176
     1
 41
-30.0
176
     1
 62
     5
 63
     7
421
 16777215
176
     1
 74
     1
176
     1
 91
        4
176
     1
 64
     7
176
     1
 65
   257
176
     1
 75
     1
176
     1
175
     1
176
     1
 42
1.0
176
     1
 92
       12
176
     1
 66
     7
176
     1
 43
1.0
176
     1
 76
     1
176
     1
 77
     6
176
     1
 78
     2
176
     1
 67
     7
176
     1
 79
     5
176
     1
170
     0
176
     1
171
     0
176
     1
290
     0
176
     1
 93
        1
176
     1
 44
0.0
176
     1
173
     0
176
     1
  0
ENDSEC
  0
EOF
