  0
SECTION
  2
HEADER
  9
$ACADVER
  1
AC1024
  9
$ACADMAINTVER
 70
     6
  9
$DWGCODEPAGE
  3
UNDEFINED
  9
$INSBASE
 10
0.0
 20
0.0
 30
0.0
  9
$EXTMIN
 10
1.000000000000000E+20
 20
1.000000000000000E+20
 30
1.000000000000000E+20
  9
$EXTMAX
 10
-1.000000000000000E+20
 20
-1.000000000000000E+20
 30
-1.000000000000000E+20
  9
$LIMMIN
 10
0.0
 20
0.0
  9
$LIMMAX
 10
12.0
 20
9.0
  9
$ORTHOMODE
 70
     0
  9
$REGENMODE
 70
     1
  9
$FILLMODE
 70
     1
  9
$QTEXTMODE
 70
     0
  9
$MIRRTEXT
 70
     1
  9
$LTSCALE
 40
1.0
  9
$ATTMODE
 70
     1
  9
$TEXTSIZE
 40
0.2
  9
$TRACEWID
 40
0.05
  9
$TEXTSTYLE
  7
Standard
  9
$CLAYER
  8
0
  9
$CELTYPE
  6
ByLayer
  9
$CECOLOR
 62
   256
  9
$CELTSCALE
 40
1.0
  9
$DISPSILH
 70
     0
  9
$DIMSCALE
 40
1.0
  9
$DIMASZ
 40
0.18
  9
$DIMEXO
 40
0.0625
  9
$DIMDLI
 40
0.38
  9
$DIMRND
 40
0.0
  9
$DIMDLE
 40
0.0
  9
$DIMEXE
 40
0.18
  9
$DIMTP
 40
0.0
  9
$DIMTM
 40
0.0
  9
$DIMTXT
 40
0.18
  9
$DIMCEN
 40
0.09
  9
$DIMTSZ
 40
0.0
  9
$DIMTOL
 70
     0
  9
$DIMLIM
 70
     0
  9
$DIMTIH
 70
     1
  9
$DIMTOH
 70
     1
  9
$DIMSE1
 70
     0
  9
$DIMSE2
 70
     0
  9
$DIMTAD
 70
     0
  9
$DIMZIN
 70
     0
  9
$DIMBLK
  1

  9
$DIMASO
 70
     1
  9
$DIMSHO
 70
     1
  9
$DIMPOST
  1

  9
$DIMAPOST
  1

  9
$DIMALT
 70
     0
  9
$DIMALTD
 70
     2
  9
$DIMALTF
 40
25.4
  9
$DIMLFAC
 40
1.0
  9
$DIMTOFL
 70
     0
  9
$DIMTVP
 40
0.0
  9
$DIMTIX
 70
     0
  9
$DIMSOXD
 70
     0
  9
$DIMSAH
 70
     0
  9
$DIMBLK1
  1

  9
$DIMBLK2
  1

  9
$DIMSTYLE
  2
Standard
  9
$DIMCLRD
 70
     0
  9
$DIMCLRE
 70
     0
  9
$DIMCLRT
 70
     0
  9
$DIMTFAC
 40
1.0
  9
$DIMGAP
 40
0.09
  9
$DIMJUST
 70
     0
  9
$DIMSD1
 70
     0
  9
$DIMSD2
 70
     0
  9
$DIMTOLJ
 70
     1
  9
$DIMTZIN
 70
     0
  9
$DIMALTZ
 70
     0
  9
$DIMALTTZ
 70
     0
  9
$DIMUPT
 70
     0
  9
$DIMDEC
 70
     4
  9
$DIMTDEC
 70
     4
  9
$DIMALTU
 70
     2
  9
$DIMALTTD
 70
     2
  9
$DIMTXSTY
  7
Standard
  9
$DIMAUNIT
 70
     0
  9
$DIMADEC
 70
     0
  9
$DIMALTRND
 40
0.0
  9
$DIMAZIN
 70
     0
  9
$DIMDSEP
 70
    46
  9
$DIMATFIT
 70
     3
  9
$DIMFRAC
 70
     0
  9
$DIMLDRBLK
  1

  9
$DIMLUNIT
 70
     2
  9
$DIMLWD
 70
    -2
  9
$DIMLWE
 70
    -2
  9
$DIMTMOVE
 70
     0
  9
$DIMFXL
 40
1.0
  9
$DIMFXLON
 70
     0
  9
$DIMJOGANG
 40
0.7853981633974483
  9
$DIMTFILL
 70
     0
  9
$DIMTFILLCLR
 70
     0
  9
$DIMARCSYM
 70
     0
  9
$DIMLTYPE
  6

  9
$DIMLTEX1
  6

  9
$DIMLTEX2
  6

  9
$DIMTXTDIRECTION
 70
     0
  9
$LUNITS
 70
     2
  9
$LUPREC
 70
     4
  9
$SKETCHINC
 40
0.1
  9
$FILLETRAD
 40
0.5
  9
$AUNITS
 70
     0
  9
$AUPREC
 70
     0
  9
$MENU
  1
.
  9
$ELEVATION
 40
0.0
  9
$PELEVATION
 40
0.0
  9
$THICKNESS
 40
0.0
  9
$LIMCHECK
 70
     0
  9
$CHAMFERA
 40
0.5
  9
$CHAMFERB
 40
0.5
  9
$CHAMFERC
 40
1.0
  9
$CHAMFERD
 40
0.0
  9
$SKPOLY
 70
     0
  9
$TDCREATE
 40
2457917.6234375
  9
$TDUCREATE
 40
2457917.2484375
  9
$TDUPDATE
 40
2457917.6234375
  9
$TDUUPDATE
 40
2457917.2484375
  9
$TDINDWG
 40
0.0000000116
  9
$TDUSRTIMER
 40
0.0000000116
  9
$USRTIMER
 70
     1
  9
$ANGBASE
 50
0.0
  9
$ANGDIR
 70
     0
  9
$PDMODE
 70
     0
  9
$PDSIZE
 40
0.0
  9
$PLINEWID
 40
0.0
  9
$SPLFRAME
 70
     0
  9
$SPLINETYPE
 70
     6
  9
$SPLINESEGS
 70
     8
  9
$HANDSEED
  5
10E
  9
$SURFTAB1
 70
     6
  9
$SURFTAB2
 70
     6
  9
$SURFTYPE
 70
     6
  9
$SURFU
 70
     6
  9
$SURFV
 70
     6
  9
$UCSBASE
  2

  9
$UCSNAME
  2

  9
$UCSORG
 10
0.0
 20
0.0
 30
0.0
  9
$UCSXDIR
 10
1.0
 20
0.0
 30
0.0
  9
$UCSYDIR
 10
0.0
 20
1.0
 30
0.0
  9
$UCSORTHOREF
  2

  9
$UCSORTHOVIEW
 70
     0
  9
$UCSORGTOP
 10
0.0
 20
0.0
 30
0.0
  9
$UCSORGBOTTOM
 10
0.0
 20
0.0
 30
0.0
  9
$UCSORGLEFT
 10
0.0
 20
0.0
 30
0.0
  9
$UCSORGRIGHT
 10
0.0
 20
0.0
 30
0.0
  9
$UCSORGFRONT
 10
0.0
 20
0.0
 30
0.0
  9
$UCSORGBACK
 10
0.0
 20
0.0
 30
0.0
  9
$PUCSBASE
  2

  9
$PUCSNAME
  2

  9
$PUCSORG
 10
0.0
 20
0.0
 30
0.0
  9
$PUCSXDIR
 10
1.0
 20
0.0
 30
0.0
  9
$PUCSYDIR
 10
0.0
 20
1.0
 30
0.0
  9
$PUCSORTHOREF
  2

  9
$PUCSORTHOVIEW
 70
     0
  9
$PUCSORGTOP
 10
0.0
 20
0.0
 30
0.0
  9
$PUCSORGBOTTOM
 10
0.0
 20
0.0
 30
0.0
  9
$PUCSORGLEFT
 10
0.0
 20
0.0
 30
0.0
  9
$PUCSORGRIGHT
 10
0.0
 20
0.0
 30
0.0
  9
$PUCSORGFRONT
 10
0.0
 20
0.0
 30
0.0
  9
$PUCSORGBACK
 10
0.0
 20
0.0
 30
0.0
  9
$USERI1
 70
     0
  9
$USERI2
 70
     0
  9
$USERI3
 70
     0
  9
$USERI4
 70
     0
  9
$USERI5
 70
     0
  9
$USERR1
 40
0.0
  9
$USERR2
 40
0.0
  9
$USERR3
 40
0.0
  9
$USERR4
 40
0.0
  9
$USERR5
 40
0.0
  9
$WORLDVIEW
 70
     1
  9
$SHADEDGE
 70
     3
  9
$SHADEDIF
 70
    70
  9
$TILEMODE
 70
     1
  9
$MAXACTVP
 70
    64
  9
$PINSBASE
 10
0.0
 20
0.0
 30
0.0
  9
$PLIMCHECK
 70
     0
  9
$PEXTMIN
 10
1.000000000000000E+20
 20
1.000000000000000E+20
 30
1.000000000000000E+20
  9
$PEXTMAX
 10
-1.000000000000000E+20
 20
-1.000000000000000E+20
 30
-1.000000000000000E+20
  9
$PLIMMIN
 10
0.0
 20
0.0
  9
$PLIMMAX
 10
12.0
 20
9.0
  9
$UNITMODE
 70
     0
  9
$VISRETAIN
 70
     1
  9
$PLINEGEN
 70
     0
  9
$PSLTSCALE
 70
     1
  9
$TREEDEPTH
 70
  3020
  9
$CMLSTYLE
  2
Standard
  9
$CMLJUST
 70
     0
  9
$CMLSCALE
 40
1.0
  9
$PROXYGRAPHICS
 70
     1
  9
$MEASUREMENT
 70
     0
  9
$CELWEIGHT
370
    -1
  9
$ENDCAPS
280
     0
  9
$JOINSTYLE
280
     0
  9
$LWDISPLAY
290
     1
  9
$INSUNITS
 70
     1
  9
$HYPERLINKBASE
  1

  9
$STYLESHEET
  1

  9
$XEDIT
290
     1
  9
$CEPSNTYPE
380
     0
  9
$PSTYLEMODE
290
     1
  9
$FINGERPRINTGUID
  2
{E22E2529-8B05-6462-D426-CFB9B8400D3B}
  9
$VERSIONGUID
  2
{FAEB1C32-E019-11D5-929B-00C0DF256EC4}
  9
$EXTNAMES
290
     1
  9
$PSVPSCALE
 40
0.0
  9
$OLESTARTUP
290
     0
  9
$SORTENTS
280
   127
  9
$INDEXCTL
280
     0
  9
$HIDETEXT
280
     1
  9
$XCLIPFRAME
280
     2
  9
$HALOGAP
280
     0
  9
$OBSCOLOR
 70
   257
  9
$OBSLTYPE
280
     0
  9
$INTERSECTIONDISPLAY
280
     0
  9
$INTERSECTIONCOLOR
 70
   257
  9
$DIMASSOC
280
     2
  9
$PROJECTNAME
  1

  9
$CAMERADISPLAY
290
     0
  9
$LENSLENGTH
 40
50.0
  9
$CAMERAHEIGHT
 40
0.0
  9
$STEPSPERSEC
 40
2.0
  9
$STEPSIZE
 40
6.0
  9
$3DDWFPREC
 40
2.0
  9
$PSOLWIDTH
 40
0.25
  9
$PSOLHEIGHT
 40
4.0
  9
$LOFTANG1
 40
1.570796326794897
  9
$LOFTANG2
 40
1.570796326794897
  9
$LOFTMAG1
 40
0.0
  9
$LOFTMAG2
 40
0.0
  9
$LOFTPARAM
 70
     7
  9
$LOFTNORMALS
280
     1
  9
$LATITUDE
 40
37.795
  9
$LONGITUDE
 40
-122.394
  9
$NORTHDIRECTION
 40
0.0
  9
$TIMEZONE
 70
 -8000
  9
$LIGHTGLYPHDISPLAY
280
     1
  9
$TILEMODELIGHTSYNCH
280
     1
  9
$CMATERIAL
347
3C
  9
$SOLIDHIST
280
     1
  9
$SHOWHIST
280
     1
  9
$DWFFRAME
280
     2
  9
$DGNFRAME
280
     2
  9
$REALWORLDSCALE
290
     1
  9
$INTERFERECOLOR
 62
   256
  9
$CSHADOW
280
     0
  9
$SHADOWPLANELOCATION
 40
0.0
  0
ENDSEC
  0
SECTION
  2
CLASSES
  0
CLASS
  1
ACDBDICTIONARYWDFLT
  2
AcDbDictionaryWithDefault
  3
ObjectDBX Classes
 90
        0
 91
        4
280
     0
281
     0
  0
CLASS
  1
VISUALSTYLE
  2
AcDbVisualStyle
  3
ObjectDBX Classes
 90
     4095
 91
        4
280
     0
281
     0
  0
CLASS
  1
MATERIAL
  2
AcDbMaterial
  3
ObjectDBX Classes
 90
     1153
 91
        4
280
     0
281
     0
  0
CLASS
  1
SUN
  2
AcDbSun
  3
SCENEOE
 90
     1024
 91
        4
280
     0
281
     0
  0
ENDSEC
  0
SECTION
  2
TABLES
  0
TABLE
  2
VPORT
  5
8
330
0
100
AcDbSymbolTable
 70
     1
  0
VPORT
  5
29
330
8
100
AcDbSymbolTableRecord
100
AcDbViewportTableRecord
  2
*Active
 70
     0
 10
0.0
 20
0.0
 11
1.0
 21
1.0
 12
0.0
 22
0.0
 13
0.0
 23
0.0
 14
0.5
 24
0.5
 15
0.5
 25
0.5
 16
0.0
 26
0.0
 36
1.0
 17
91.00082462281999
 27
-128.4993055234307
 37
0.0
 40
256.9986110468615
 41
0.7081814508812795
 42
50.0
 43
0.0
 44
0.0
 50
0.0
 51
0.0
 71
     0
 72
   100
 73
     1
 74
     3
 75
     0
 76
     0
 77
     0
 78
     0
281
     0
 65
     1
110
0.0
120
0.0
130
0.0
111
1.0
121
0.0
131
0.0
112
0.0
122
1.0
132
0.0
 79
     0
146
0.0
 60
     3
 61
     5
292
     1
282
     1
141
0.0
142
0.0
 63
   250
361
3F
  0
ENDTAB
  0
TABLE
  2
LTYPE
  5
5
330
0
100
AcDbSymbolTable
 70
     1
  0
LTYPE
  5
14
330
5
100
AcDbSymbolTableRecord
100
AcDbLinetypeTableRecord
  2
ByBlock
 70
     0
  3

 72
    65
 73
     0
 40
0.0
  0
LTYPE
  5
15
330
5
100
AcDbSymbolTableRecord
100
AcDbLinetypeTableRecord
  2
ByLayer
 70
     0
  3

 72
    65
 73
     0
 40
0.0
  0
LTYPE
  5
16
330
5
100
AcDbSymbolTableRecord
100
AcDbLinetypeTableRecord
  2
Continuous
 70
     0
  3
Solid line
 72
    65
 73
     0
 40
0.0
  0
ENDTAB
  0
TABLE
  2
LAYER
  5
2
330
0
100
AcDbSymbolTable
 70
     2
  0
LAYER
  5
10
330
2
100
AcDbSymbolTableRecord
100
AcDbLayerTableRecord
  2
0
 70
     0
 62
     7
  6
Continuous
370
    -3
390
F
347
3E
  0
LAYER
  5
40
330
2
100
AcDbSymbolTableRecord
100
AcDbLayerTableRecord
  2
_U+30EC_U+30A4_U+30E4_U+30FC 1
 70
     0
 62
     7
  6
Continuous
370
    -3
390
F
347
3E
  0
ENDTAB
  0
TABLE
  2
STYLE
  5
3
330
0
100
AcDbSymbolTable
 70
     1
  0
STYLE
  5
11
330
3
100
AcDbSymbolTableRecord
100
AcDbTextStyleTableRecord
  2
Standard
 70
     0
 40
0.0
 41
1.0
 50
0.0
 71
     0
 42
0.2
  3
txt
  4

  0
ENDTAB
  0
TABLE
  2
VIEW
  5
6
330
0
100
AcDbSymbolTable
 70
     0
  0
ENDTAB
  0
TABLE
  2
UCS
  5
7
330
0
100
AcDbSymbolTable
 70
     0
  0
ENDTAB
  0
TABLE
  2
APPID
  5
9
330
0
100
AcDbSymbolTable
 70
     1
  0
APPID
  5
12
330
9
100
AcDbSymbolTableRecord
100
AcDbRegAppTableRecord
  2
ACAD
 70
     0
  0
ENDTAB
  0
TABLE
  2
DIMSTYLE
  5
A
330
0
100
AcDbSymbolTable
 70
     1
100
AcDbDimStyleTable
  0
DIMSTYLE
105
27
330
A
100
AcDbSymbolTableRecord
100
AcDbDimStyleTableRecord
  2
Standard
 70
     0
178
     0
340
11
  0
ENDTAB
  0
TABLE
  2
BLOCK_RECORD
  5
1
330
0
100
AcDbSymbolTable
 70
     7
  0
BLOCK_RECORD
  5
1F
330
1
100
AcDbSymbolTableRecord
100
AcDbBlockTableRecord
  2
*Model_Space
340
22
 70
     0
280
     1
281
     0
  0
BLOCK_RECORD
  5
1B
330
1
100
AcDbSymbolTableRecord
100
AcDbBlockTableRecord
  2
*Paper_Space
340
1E
 70
     0
280
     1
281
     0
  0
BLOCK_RECORD
  5
23
330
1
100
AcDbSymbolTableRecord
100
AcDbBlockTableRecord
  2
*Paper_Space0
340
26
 70
     0
280
     1
281
     0
  0
BLOCK_RECORD
  5
A6
330
1
100
AcDbSymbolTableRecord
100
AcDbBlockTableRecord
  2
block 2
340
0
102
{BLKREFS
331
A7
102
}
 70
     0
280
     1
281
     0
  0
BLOCK_RECORD
  5
B6
330
1
100
AcDbSymbolTableRecord
100
AcDbBlockTableRecord
  2
block 3
340
0
102
{BLKREFS
331
B7
102
}
 70
     0
280
     1
281
     0
  0
BLOCK_RECORD
  5
C6
330
1
100
AcDbSymbolTableRecord
100
AcDbBlockTableRecord
  2
block 4
340
0
102
{BLKREFS
331
C7
102
}
 70
     0
280
     1
281
     0
  0
BLOCK_RECORD
  5
DE
330
1
100
AcDbSymbolTableRecord
100
AcDbBlockTableRecord
  2
block 5
340
0
102
{BLKREFS
331
DF
102
}
 70
     0
280
     1
281
     0
  0
BLOCK_RECORD
  5
F6
330
1
100
AcDbSymbolTableRecord
100
AcDbBlockTableRecord
  2
block 6
340
0
102
{BLKREFS
331
F7
102
}
 70
     0
280
     1
281
     0
  0
BLOCK_RECORD
  5
104
330
1
100
AcDbSymbolTableRecord
100
AcDbBlockTableRecord
  2
block 7
340
0
102
{BLKREFS
331
105
102
}
 70
     0
280
     1
281
     0
  0
ENDTAB
  0
ENDSEC
  0
SECTION
  2
BLOCKS
  0
BLOCK
  5
20
330
1F
100
AcDbEntity
  8
0
100
AcDbBlockBegin
  2
*Model_Space
 70
     0
 10
0.0
 20
0.0
 30
0.0
  3
*Model_Space
  1

  0
ENDBLK
  5
21
330
1F
100
AcDbEntity
  8
0
100
AcDbBlockEnd
  0
BLOCK
  5
1C
330
1B
100
AcDbEntity
 67
     1
  8
0
100
AcDbBlockBegin
  2
*Paper_Space
 70
     0
 10
0.0
 20
0.0
 30
0.0
  3
*Paper_Space
  1

  0
ENDBLK
  5
1D
330
1B
100
AcDbEntity
 67
     1
  8
0
100
AcDbBlockEnd
  0
BLOCK
  5
24
330
23
100
AcDbEntity
  8
0
100
AcDbBlockBegin
  2
*Paper_Space0
 70
     0
 10
0.0
 20
0.0
 30
0.0
  3
*Paper_Space0
  1

  0
ENDBLK
  5
25
330
23
100
AcDbEntity
  8
0
100
AcDbBlockEnd
  0
BLOCK
  5
A8
330
A6
100
AcDbEntity
  8
0
100
AcDbBlockBegin
  2
block 2
 70
     0
 10
0.0
 20
0.0
 30
0.0
  3
block 2
  1

  0
SPLINE
  5
AA
330
A6
100
AcDbEntity
  8
_U+30EC_U+30A4_U+30E4_U+30FC 1
370
     0
100
AcDbSpline
210
0.0
220
0.0
230
1.0
 70
    11
 71
     3
 72
    29
 73
    25
 74
     0
 42
0.0000000001
 43
0.0000000001
 12
1.0
 22
0.0
 32
0.0
 13
1.0
 23
0.0
 33
0.0
 40
0.0
 40
0.0
 40
0.0
 40
0.0
 40
1.0
 40
1.0
 40
1.0
 40
2.0
 40
2.0
 40
2.0
 40
3.0
 40
3.0
 40
3.0
 40
4.0
 40
4.0
 40
4.0
 40
5.0
 40
5.0
 40
5.0
 40
6.0
 40
6.0
 40
6.0
 40
7.0
 40
7.0
 40
7.0
 40
8.0
 40
8.0
 40
8.0
 40
8.0
 10
79.94430200909379
 20
-123.1299519548946
 30
0.0
 10
79.65939261246363
 20
-123.1299519548946
 30
0.0
 10
79.3880913430002
 20
-122.9923203902589
 30
0.0
 10
79.3880913430002
 20
-122.6433322176031
 30
0.0
 10
79.3880913430002
 20
-122.387361623049
 30
0.0
 10
79.53950328957693
 20
-122.2921047328818
 30
0.0
 10
79.6526746762674
 20
-122.2307820332444
 30
0.0
 10
79.51917722621396
 20
-122.1715263908981
 30
0.0
 10
79.43787297276207
 20
-122.0573214755621
 30
0.0
 10
79.43787297276207
 20
-121.8966077711752
 30
0.0
 10
79.43787297276207
 20
-121.621516896678
 30
0.0
 10
79.65043536420198
 20
-121.4861246441076
 30
0.0
 10
79.94430200909379
 20
-121.4861246441076
 30
0.0
 10
80.24712590224725
 20
-121.4861246441076
 30
0.0
 10
80.45073104542551
 20
-121.6299573806168
 30
0.0
 10
80.45073104542551
 20
-121.8966077711752
 30
0.0
 10
80.45073104542551
 20
-122.0573214755621
 30
0.0
 10
80.36701522513394
 20
-122.1715263908981
 30
0.0
 10
80.23369002985477
 20
-122.2307820332444
 30
0.0
 10
80.32860241047341
 20
-122.2815971916518
 30
0.0
 10
80.4981011083477
 20
-122.376854081819
 30
0.0
 10
80.4981011083477
 20
-122.6391981030208
 30
0.0
 10
80.4981011083477
 20
-123.0135077274932
 30
0.0
 10
80.19975583932506
 20
-123.1299519548946
 30
0.0
 10
79.94430200909379
 20
-123.1299519548946
 30
0.0
  0
SPLINE
  5
AB
330
A6
100
AcDbEntity
  8
_U+30EC_U+30A4_U+30E4_U+30FC 1
370
     0
100
AcDbSpline
210
0.0
220
0.0
230
1.0
 70
    11
 71
     3
 72
    17
 73
    13
 74
     0
 42
0.0000000001
 43
0.0000000001
 12
1.0
 22
0.0
 32
0.0
 13
1.0
 23
0.0
 33
0.0
 40
0.0
 40
0.0
 40
0.0
 40
0.0
 40
1.0
 40
1.0
 40
1.0
 40
2.0
 40
2.0
 40
2.0
 40
3.0
 40
3.0
 40
3.0
 40
4.0
 40
4.0
 40
4.0
 40
4.0
 10
79.94430200909379
 20
-122.338785776707
 30
0.0
 10
79.79047849567739
 20
-122.338785776707
 30
0.0
 10
79.62769773399933
 20
-122.425429928161
 30
0.0
 10
79.62769773399933
 20
-122.6285183070165
 30
0.0
 10
79.62769773399933
 20
-122.8336737431631
 30
0.0
 10
79.76343449611818
 20
-122.935304059978
 30
0.0
 10
79.94430200909379
 20
-122.935304059978
 30
0.0
 10
80.14325627336697
 20
-122.935304059978
 30
0.0
 10
80.26073402941398
 20
-122.8126586607031
 30
0.0
 10
80.26073402941398
 20
-122.6348917336642
 30
0.0
 10
80.26073402941398
 20
-122.4126830748656
 30
0.0
 10
80.08675670740887
 20
-122.338785776707
 30
0.0
 10
79.94430200909379
 20
-122.338785776707
 30
0.0
  0
SPLINE
  5
AC
330
A6
100
AcDbEntity
  8
_U+30EC_U+30A4_U+30E4_U+30FC 1
370
     0
100
AcDbSpline
210
0.0
220
0.0
230
1.0
 70
    11
 71
     3
 72
    17
 73
    13
 74
     0
 42
0.0000000001
 43
0.0000000001
 12
1.0
 22
0.0
 32
0.0
 13
1.0
 23
0.0
 33
0.0
 40
0.0
 40
0.0
 40
0.0
 40
0.0
 40
1.0
 40
1.0
 40
1.0
 40
2.0
 40
2.0
 40
2.0
 40
3.0
 40
3.0
 40
3.0
 40
4.0
 40
4.0
 40
4.0
 40
4.0
 10
79.94430200909379
 20
-121.6787054817331
 30
0.0
 10
79.76791312024899
 20
-121.6787054817331
 30
0.0
 10
79.6774793637612
 20
-121.773790117126
 30
0.0
 10
79.6774793637612
 20
-121.9091823696963
 30
0.0
 10
79.6774793637612
 20
-122.0320000237455
 30
0.0
 10
79.75430499308226
 20
-122.1505113084381
 30
0.0
 10
79.94430200909379
 20
-122.1505113084381
 30
0.0
 10
80.13412677033105
 20
-122.1505113084381
 30
0.0
 10
80.21095239965213
 20
-122.0320000237455
 30
0.0
 10
80.21095239965213
 20
-121.9091823696963
 30
0.0
 10
80.21095239965213
 20
-121.773790117126
 30
0.0
 10
80.1182793310989
 20
-121.6787054817331
 30
0.0
 10
79.94430200909379
 20
-121.6787054817331
 30
0.0
  0
HATCH
  5
AD
330
A6
100
AcDbEntity
  8
_U+30EC_U+30A4_U+30E4_U+30FC 1
 62
   179
420
  2234388
100
AcDbHatch
 10
0.0
 20
0.0
 30
0.0
210
0.0
220
0.0
230
1.0
  2
SOLID
 70
     1
 71
     0
 91
        3
 92
        1
 93
        1
 72
     4
 94
        3
 73
     0
 74
     1
 95
       29
 96
       25
 40
0.0
 40
0.0
 40
0.0
 40
0.0
 40
1.0
 40
1.0
 40
1.0
 40
2.0
 40
2.0
 40
2.0
 40
3.0
 40
3.0
 40
3.0
 40
4.0
 40
4.0
 40
4.0
 40
5.0
 40
5.0
 40
5.0
 40
6.0
 40
6.0
 40
6.0
 40
7.0
 40
7.0
 40
7.0
 40
8.0
 40
8.0
 40
8.0
 40
8.0
 10
79.94430200909379
 20
-123.1299519548946
 10
79.65939261246363
 20
-123.1299519548946
 10
79.3880913430002
 20
-122.9923203902589
 10
79.3880913430002
 20
-122.6433322176031
 10
79.3880913430002
 20
-122.387361623049
 10
79.53950328957693
 20
-122.2921047328818
 10
79.6526746762674
 20
-122.2307820332444
 10
79.51917722621396
 20
-122.1715263908981
 10
79.43787297276207
 20
-122.0573214755621
 10
79.43787297276207
 20
-121.8966077711752
 10
79.43787297276207
 20
-121.621516896678
 10
79.65043536420198
 20
-121.4861246441076
 10
79.94430200909379
 20
-121.4861246441076
 10
80.24712590224725
 20
-121.4861246441076
 10
80.45073104542551
 20
-121.6299573806168
 10
80.45073104542551
 20
-121.8966077711752
 10
80.45073104542551
 20
-122.0573214755621
 10
80.36701522513394
 20
-122.1715263908981
 10
80.23369002985477
 20
-122.2307820332444
 10
80.32860241047341
 20
-122.2815971916518
 10
80.4981011083477
 20
-122.376854081819
 10
80.4981011083477
 20
-122.6391981030208
 10
80.4981011083477
 20
-123.0135077274932
 10
80.19975583932506
 20
-123.1299519548946
 10
79.94430200909379
 20
-123.1299519548946
 97
        0
 97
        0
 92
        1
 93
        1
 72
     4
 94
        3
 73
     0
 74
     1
 95
       17
 96
       13
 40
0.0
 40
0.0
 40
0.0
 40
0.0
 40
1.0
 40
1.0
 40
1.0
 40
2.0
 40
2.0
 40
2.0
 40
3.0
 40
3.0
 40
3.0
 40
4.0
 40
4.0
 40
4.0
 40
4.0
 10
79.94430200909379
 20
-122.338785776707
 10
79.79047849567739
 20
-122.338785776707
 10
79.62769773399933
 20
-122.425429928161
 10
79.62769773399933
 20
-122.6285183070165
 10
79.62769773399933
 20
-122.8336737431631
 10
79.76343449611818
 20
-122.935304059978
 10
79.94430200909379
 20
-122.935304059978
 10
80.14325627336697
 20
-122.935304059978
 10
80.26073402941398
 20
-122.8126586607031
 10
80.26073402941398
 20
-122.6348917336642
 10
80.26073402941398
 20
-122.4126830748656
 10
80.08675670740887
 20
-122.338785776707
 10
79.94430200909379
 20
-122.338785776707
 97
        0
 97
        0
 92
        1
 93
        1
 72
     4
 94
        3
 73
     0
 74
     1
 95
       17
 96
       13
 40
0.0
 40
0.0
 40
0.0
 40
0.0
 40
1.0
 40
1.0
 40
1.0
 40
2.0
 40
2.0
 40
2.0
 40
3.0
 40
3.0
 40
3.0
 40
4.0
 40
4.0
 40
4.0
 40
4.0
 10
79.94430200909379
 20
-121.6787054817331
 10
79.76791312024899
 20
-121.6787054817331
 10
79.6774793637612
 20
-121.773790117126
 10
79.6774793637612
 20
-121.9091823696963
 10
79.6774793637612
 20
-122.0320000237455
 10
79.75430499308226
 20
-122.1505113084381
 10
79.94430200909379
 20
-122.1505113084381
 10
80.13412677033105
 20
-122.1505113084381
 10
80.21095239965213
 20
-122.0320000237455
 10
80.21095239965213
 20
-121.9091823696963
 10
80.21095239965213
 20
-121.773790117126
 10
80.1182793310989
 20
-121.6787054817331
 10
79.94430200909379
 20
-121.6787054817331
 97
        0
 97
        0
 75
     2
 76
     1
 98
        0
  0
ENDBLK
  5
A9
330
A6
100
AcDbEntity
  8
0
100
AcDbBlockEnd
  0
BLOCK
  5
B8
330
B6
100
AcDbEntity
  8
0
100
AcDbBlockBegin
  2
block 3
 70
     0
 10
0.0
 20
0.0
 30
0.0
  3
block 3
  1

  0
SPLINE
  5
BA
330
B6
100
AcDbEntity
  8
_U+30EC_U+30A4_U+30E4_U+30FC 1
370
     0
100
AcDbSpline
210
0.0
220
0.0
230
1.0
 70
    11
 71
     3
 72
    29
 73
    25
 74
     0
 42
0.0000000001
 43
0.0000000001
 12
1.0
 22
0.0
 32
0.0
 13
1.0
 23
0.0
 33
0.0
 40
0.0
 40
0.0
 40
0.0
 40
0.0
 40
1.0
 40
1.0
 40
1.0
 40
2.0
 40
2.0
 40
2.0
 40
3.0
 40
3.0
 40
3.0
 40
4.0
 40
4.0
 40
4.0
 40
5.0
 40
5.0
 40
5.0
 40
6.0
 40
6.0
 40
6.0
 40
7.0
 40
7.0
 40
7.0
 40
8.0
 40
8.0
 40
8.0
 40
8.0
 10
87.94415823539244
 20
-123.1299519548946
 30
0.0
 10
87.65924883876228
 20
-123.1299519548946
 30
0.0
 10
87.38811982407312
 20
-122.9923203902589
 30
0.0
 10
87.38811982407312
 20
-122.6433322176031
 30
0.0
 10
87.38811982407312
 20
-122.387361623049
 30
0.0
 10
87.5397040254241
 20
-122.2921047328818
 30
0.0
 10
87.6527031573403
 20
-122.2307820332444
 30
0.0
 10
87.51937796206113
 20
-122.1715263908981
 30
0.0
 10
87.43772919906071
 20
-122.0573214755621
 30
0.0
 10
87.43772919906071
 20
-121.8966077711752
 30
0.0
 10
87.43772919906071
 20
-121.621516896678
 30
0.0
 10
87.65029159050063
 20
-121.4861246441076
 30
0.0
 10
87.94415823539244
 20
-121.4861246441076
 30
0.0
 10
88.24732663809442
 20
-121.4861246441076
 30
0.0
 10
88.45058727172416
 20
-121.6299573806168
 30
0.0
 10
88.45058727172416
 20
-121.8966077711752
 30
0.0
 10
88.45058727172416
 20
-122.0573214755621
 30
0.0
 10
88.36721596098111
 20
-122.1715263908981
 30
0.0
 10
88.23354625615342
 20
-122.2307820332444
 30
0.0
 10
88.32863089154633
 20
-122.2815971916518
 30
0.0
 10
88.49812958942061
 20
-122.376854081819
 30
0.0
 10
88.49812958942061
 20
-122.6391981030208
 30
0.0
 10
88.49812958942061
 20
-123.0135077274932
 30
0.0
 10
88.19978432039798
 20
-123.1299519548946
 30
0.0
 10
87.94415823539244
 20
-123.1299519548946
 30
0.0
  0
SPLINE
  5
BB
330
B6
100
AcDbEntity
  8
_U+30EC_U+30A4_U+30E4_U+30FC 1
370
     0
100
AcDbSpline
210
0.0
220
0.0
230
1.0
 70
    11
 71
     3
 72
    17
 73
    13
 74
     0
 42
0.0000000001
 43
0.0000000001
 12
1.0
 22
0.0
 32
0.0
 13
1.0
 23
0.0
 33
0.0
 40
0.0
 40
0.0
 40
0.0
 40
0.0
 40
1.0
 40
1.0
 40
1.0
 40
2.0
 40
2.0
 40
2.0
 40
3.0
 40
3.0
 40
3.0
 40
4.0
 40
4.0
 40
4.0
 40
4.0
 10
87.94415823539244
 20
-122.338785776707
 30
0.0
 10
87.7905069767503
 20
-122.338785776707
 30
0.0
 10
87.6278984698465
 20
-122.425429928161
 30
0.0
 10
87.6278984698465
 20
-122.6285183070165
 30
0.0
 10
87.6278984698465
 20
-122.8336737431631
 30
0.0
 10
87.76329072241683
 20
-122.935304059978
 30
0.0
 10
87.94415823539244
 20
-122.935304059978
 30
0.0
 10
88.14328475443988
 20
-122.935304059978
 30
0.0
 10
88.2607625104869
 20
-122.8126586607031
 30
0.0
 10
88.2607625104869
 20
-122.6348917336642
 30
0.0
 10
88.2607625104869
 20
-122.4126830748656
 30
0.0
 10
88.08678518848178
 20
-122.338785776707
 30
0.0
 10
87.94415823539244
 20
-122.338785776707
 30
0.0
  0
SPLINE
  5
BC
330
B6
100
AcDbEntity
  8
_U+30EC_U+30A4_U+30E4_U+30FC 1
370
     0
100
AcDbSpline
210
0.0
220
0.0
230
1.0
 70
    11
 71
     3
 72
    17
 73
    13
 74
     0
 42
0.0000000001
 43
0.0000000001
 12
1.0
 22
0.0
 32
0.0
 13
1.0
 23
0.0
 33
0.0
 40
0.0
 40
0.0
 40
0.0
 40
0.0
 40
1.0
 40
1.0
 40
1.0
 40
2.0
 40
2.0
 40
2.0
 40
3.0
 40
3.0
 40
3.0
 40
4.0
 40
4.0
 40
4.0
 40
4.0
 10
87.94415823539244
 20
-121.6787054817331
 30
0.0
 10
87.76811385609616
 20
-121.6787054817331
 30
0.0
 10
87.6775078448341
 20
-121.773790117126
 30
0.0
 10
87.6775078448341
 20
-121.9091823696963
 30
0.0
 10
87.6775078448341
 20
-122.0320000237455
 30
0.0
 10
87.75433347415517
 20
-122.1505113084381
 30
0.0
 10
87.94415823539244
 20
-122.1505113084381
 30
0.0
 10
88.13432750617822
 20
-122.1505113084381
 30
0.0
 10
88.2111531354993
 20
-122.0320000237455
 30
0.0
 10
88.2111531354993
 20
-121.9091823696963
 30
0.0
 10
88.2111531354993
 20
-121.773790117126
 30
0.0
 10
88.11848006694608
 20
-121.6787054817331
 30
0.0
 10
87.94415823539244
 20
-121.6787054817331
 30
0.0
  0
HATCH
  5
BD
330
B6
100
AcDbEntity
  8
_U+30EC_U+30A4_U+30E4_U+30FC 1
 62
   179
420
  2234388
100
AcDbHatch
 10
0.0
 20
0.0
 30
0.0
210
0.0
220
0.0
230
1.0
  2
SOLID
 70
     1
 71
     0
 91
        3
 92
        1
 93
        1
 72
     4
 94
        3
 73
     0
 74
     1
 95
       29
 96
       25
 40
0.0
 40
0.0
 40
0.0
 40
0.0
 40
1.0
 40
1.0
 40
1.0
 40
2.0
 40
2.0
 40
2.0
 40
3.0
 40
3.0
 40
3.0
 40
4.0
 40
4.0
 40
4.0
 40
5.0
 40
5.0
 40
5.0
 40
6.0
 40
6.0
 40
6.0
 40
7.0
 40
7.0
 40
7.0
 40
8.0
 40
8.0
 40
8.0
 40
8.0
 10
87.94415823539244
 20
-123.1299519548946
 10
87.65924883876228
 20
-123.1299519548946
 10
87.38811982407312
 20
-122.9923203902589
 10
87.38811982407312
 20
-122.6433322176031
 10
87.38811982407312
 20
-122.387361623049
 10
87.5397040254241
 20
-122.2921047328818
 10
87.6527031573403
 20
-122.2307820332444
 10
87.51937796206113
 20
-122.1715263908981
 10
87.43772919906071
 20
-122.0573214755621
 10
87.43772919906071
 20
-121.8966077711752
 10
87.43772919906071
 20
-121.621516896678
 10
87.65029159050063
 20
-121.4861246441076
 10
87.94415823539244
 20
-121.4861246441076
 10
88.24732663809442
 20
-121.4861246441076
 10
88.45058727172416
 20
-121.6299573806168
 10
88.45058727172416
 20
-121.8966077711752
 10
88.45058727172416
 20
-122.0573214755621
 10
88.36721596098111
 20
-122.1715263908981
 10
88.23354625615342
 20
-122.2307820332444
 10
88.32863089154633
 20
-122.2815971916518
 10
88.49812958942061
 20
-122.376854081819
 10
88.49812958942061
 20
-122.6391981030208
 10
88.49812958942061
 20
-123.0135077274932
 10
88.19978432039798
 20
-123.1299519548946
 10
87.94415823539244
 20
-123.1299519548946
 97
        0
 97
        0
 92
        1
 93
        1
 72
     4
 94
        3
 73
     0
 74
     1
 95
       17
 96
       13
 40
0.0
 40
0.0
 40
0.0
 40
0.0
 40
1.0
 40
1.0
 40
1.0
 40
2.0
 40
2.0
 40
2.0
 40
3.0
 40
3.0
 40
3.0
 40
4.0
 40
4.0
 40
4.0
 40
4.0
 10
87.94415823539244
 20
-122.338785776707
 10
87.7905069767503
 20
-122.338785776707
 10
87.6278984698465
 20
-122.425429928161
 10
87.6278984698465
 20
-122.6285183070165
 10
87.6278984698465
 20
-122.8336737431631
 10
87.76329072241683
 20
-122.935304059978
 10
87.94415823539244
 20
-122.935304059978
 10
88.14328475443988
 20
-122.935304059978
 10
88.2607625104869
 20
-122.8126586607031
 10
88.2607625104869
 20
-122.6348917336642
 10
88.2607625104869
 20
-122.4126830748656
 10
88.08678518848178
 20
-122.338785776707
 10
87.94415823539244
 20
-122.338785776707
 97
        0
 97
        0
 92
        1
 93
        1
 72
     4
 94
        3
 73
     0
 74
     1
 95
       17
 96
       13
 40
0.0
 40
0.0
 40
0.0
 40
0.0
 40
1.0
 40
1.0
 40
1.0
 40
2.0
 40
2.0
 40
2.0
 40
3.0
 40
3.0
 40
3.0
 40
4.0
 40
4.0
 40
4.0
 40
4.0
 10
87.94415823539244
 20
-121.6787054817331
 10
87.76811385609616
 20
-121.6787054817331
 10
87.6775078448341
 20
-121.773790117126
 10
87.6775078448341
 20
-121.9091823696963
 10
87.6775078448341
 20
-122.0320000237455
 10
87.75433347415517
 20
-122.1505113084381
 10
87.94415823539244
 20
-122.1505113084381
 10
88.13432750617822
 20
-122.1505113084381
 10
88.2111531354993
 20
-122.0320000237455
 10
88.2111531354993
 20
-121.9091823696963
 10
88.2111531354993
 20
-121.773790117126
 10
88.11848006694608
 20
-121.6787054817331
 10
87.94415823539244
 20
-121.6787054817331
 97
        0
 97
        0
 75
     2
 76
     1
 98
        0
  0
ENDBLK
  5
B9
330
B6
100
AcDbEntity
  8
0
100
AcDbBlockEnd
  0
BLOCK
  5
C8
330
C6
100
AcDbEntity
  8
0
100
AcDbBlockBegin
  2
block 4
 70
     0
 10
0.0
 20
0.0
 30
0.0
  3
block 4
  1

  0
SPLINE
  5
CA
330
C6
100
AcDbEntity
  8
_U+30EC_U+30A4_U+30E4_U+30FC 1
370
     0
100
AcDbSpline
210
0.0
220
0.0
230
1.0
 70
    11
 71
     3
 72
    29
 73
    25
 74
     0
 42
0.0000000001
 43
0.0000000001
 12
1.0
 22
0.0
 32
0.0
 13
1.0
 23
0.0
 33
0.0
 40
0.0
 40
0.0
 40
0.0
 40
0.0
 40
1.0
 40
1.0
 40
1.0
 40
2.0
 40
2.0
 40
2.0
 40
3.0
 40
3.0
 40
3.0
 40
4.0
 40
4.0
 40
4.0
 40
5.0
 40
5.0
 40
5.0
 40
6.0
 40
6.0
 40
6.0
 40
7.0
 40
7.0
 40
7.0
 40
8.0
 40
8.0
 40
8.0
 40
8.0
 10
95.94418671646535
 20
-123.1299519548946
 30
0.0
 10
95.65962182938371
 20
-123.1299519548946
 30
0.0
 10
95.38814830514602
 20
-122.9923203902589
 30
0.0
 10
95.38814830514602
 20
-122.6433322176031
 30
0.0
 10
95.38814830514602
 20
-122.387361623049
 30
0.0
 10
95.53973250649702
 20
-122.2921047328818
 30
0.0
 10
95.65273163841321
 20
-122.2307820332444
 30
0.0
 10
95.51940644313405
 20
-122.1715263908981
 30
0.0
 10
95.43775768013361
 20
-122.0573214755621
 30
0.0
 10
95.43775768013361
 20
-121.8966077711752
 30
0.0
 10
95.43775768013361
 20
-121.621516896678
 30
0.0
 10
95.65032007157353
 20
-121.4861246441076
 30
0.0
 10
95.94418671646535
 20
-121.4861246441076
 30
0.0
 10
96.24735511916734
 20
-121.4861246441076
 30
0.0
 10
96.45061575279708
 20
-121.6299573806168
 30
0.0
 10
96.45061575279708
 20
-121.8966077711752
 30
0.0
 10
96.45061575279708
 20
-122.0573214755621
 30
0.0
 10
96.36724444205403
 20
-122.1715263908981
 30
0.0
 10
96.23357473722633
 20
-122.2307820332444
 30
0.0
 10
96.32865937261923
 20
-122.2815971916518
 30
0.0
 10
96.49815807049352
 20
-122.376854081819
 30
0.0
 10
96.49815807049352
 20
-122.6391981030208
 30
0.0
 10
96.49815807049352
 20
-123.0135077274932
 30
0.0
 10
96.19981280147088
 20
-123.1299519548946
 30
0.0
 10
95.94418671646535
 20
-123.1299519548946
 30
0.0
  0
SPLINE
  5
CB
330
C6
100
AcDbEntity
  8
_U+30EC_U+30A4_U+30E4_U+30FC 1
370
     0
100
AcDbSpline
210
0.0
220
0.0
230
1.0
 70
    11
 71
     3
 72
    17
 73
    13
 74
     0
 42
0.0000000001
 43
0.0000000001
 12
1.0
 22
0.0
 32
0.0
 13
1.0
 23
0.0
 33
0.0
 40
0.0
 40
0.0
 40
0.0
 40
0.0
 40
1.0
 40
1.0
 40
1.0
 40
2.0
 40
2.0
 40
2.0
 40
3.0
 40
3.0
 40
3.0
 40
4.0
 40
4.0
 40
4.0
 40
4.0
 10
95.94418671646535
 20
-122.338785776707
 30
0.0
 10
95.79053545782321
 20
-122.338785776707
 30
0.0
 10
95.62792695091942
 20
-122.425429928161
 30
0.0
 10
95.62792695091942
 20
-122.6285183070165
 30
0.0
 10
95.62792695091942
 20
-122.8336737431631
 30
0.0
 10
95.76331920348973
 20
-122.935304059978
 30
0.0
 10
95.94418671646535
 20
-122.935304059978
 30
0.0
 10
96.14331323551279
 20
-122.935304059978
 30
0.0
 10
96.2607909915598
 20
-122.8126586607031
 30
0.0
 10
96.2607909915598
 20
-122.6348917336642
 30
0.0
 10
96.2607909915598
 20
-122.4126830748656
 30
0.0
 10
96.08681366955469
 20
-122.338785776707
 30
0.0
 10
95.94418671646535
 20
-122.338785776707
 30
0.0
  0
SPLINE
  5
CC
330
C6
100
AcDbEntity
  8
_U+30EC_U+30A4_U+30E4_U+30FC 1
370
     0
100
AcDbSpline
210
0.0
220
0.0
230
1.0
 70
    11
 71
     3
 72
    17
 73
    13
 74
     0
 42
0.0000000001
 43
0.0000000001
 12
1.0
 22
0.0
 32
0.0
 13
1.0
 23
0.0
 33
0.0
 40
0.0
 40
0.0
 40
0.0
 40
0.0
 40
1.0
 40
1.0
 40
1.0
 40
2.0
 40
2.0
 40
2.0
 40
3.0
 40
3.0
 40
3.0
 40
4.0
 40
4.0
 40
4.0
 40
4.0
 10
95.94418671646535
 20
-121.6787054817331
 30
0.0
 10
95.76779782762056
 20
-121.6787054817331
 30
0.0
 10
95.67753632590701
 20
-121.773790117126
 30
0.0
 10
95.67753632590701
 20
-121.9091823696963
 30
0.0
 10
95.67753632590701
 20
-122.0320000237455
 30
0.0
 10
95.75436195522808
 20
-122.1505113084381
 30
0.0
 10
95.94418671646535
 20
-122.1505113084381
 30
0.0
 10
96.13435598725114
 20
-122.1505113084381
 30
0.0
 10
96.2111816165722
 20
-122.0320000237455
 30
0.0
 10
96.2111816165722
 20
-121.9091823696963
 30
0.0
 10
96.2111816165722
 20
-121.773790117126
 30
0.0
 10
96.118508548019
 20
-121.6787054817331
 30
0.0
 10
95.94418671646535
 20
-121.6787054817331
 30
0.0
  0
HATCH
  5
CD
330
C6
100
AcDbEntity
  8
_U+30EC_U+30A4_U+30E4_U+30FC 1
 62
   179
420
  2234388
100
AcDbHatch
 10
0.0
 20
0.0
 30
0.0
210
0.0
220
0.0
230
1.0
  2
SOLID
 70
     1
 71
     0
 91
        3
 92
        1
 93
        1
 72
     4
 94
        3
 73
     0
 74
     1
 95
       29
 96
       25
 40
0.0
 40
0.0
 40
0.0
 40
0.0
 40
1.0
 40
1.0
 40
1.0
 40
2.0
 40
2.0
 40
2.0
 40
3.0
 40
3.0
 40
3.0
 40
4.0
 40
4.0
 40
4.0
 40
5.0
 40
5.0
 40
5.0
 40
6.0
 40
6.0
 40
6.0
 40
7.0
 40
7.0
 40
7.0
 40
8.0
 40
8.0
 40
8.0
 40
8.0
 10
95.94418671646535
 20
-123.1299519548946
 10
95.65962182938371
 20
-123.1299519548946
 10
95.38814830514602
 20
-122.9923203902589
 10
95.38814830514602
 20
-122.6433322176031
 10
95.38814830514602
 20
-122.387361623049
 10
95.53973250649702
 20
-122.2921047328818
 10
95.65273163841321
 20
-122.2307820332444
 10
95.51940644313405
 20
-122.1715263908981
 10
95.43775768013361
 20
-122.0573214755621
 10
95.43775768013361
 20
-121.8966077711752
 10
95.43775768013361
 20
-121.621516896678
 10
95.65032007157353
 20
-121.4861246441076
 10
95.94418671646535
 20
-121.4861246441076
 10
96.24735511916734
 20
-121.4861246441076
 10
96.45061575279708
 20
-121.6299573806168
 10
96.45061575279708
 20
-121.8966077711752
 10
96.45061575279708
 20
-122.0573214755621
 10
96.36724444205403
 20
-122.1715263908981
 10
96.23357473722633
 20
-122.2307820332444
 10
96.32865937261923
 20
-122.2815971916518
 10
96.49815807049352
 20
-122.376854081819
 10
96.49815807049352
 20
-122.6391981030208
 10
96.49815807049352
 20
-123.0135077274932
 10
96.19981280147088
 20
-123.1299519548946
 10
95.94418671646535
 20
-123.1299519548946
 97
        0
 97
        0
 92
        1
 93
        1
 72
     4
 94
        3
 73
     0
 74
     1
 95
       17
 96
       13
 40
0.0
 40
0.0
 40
0.0
 40
0.0
 40
1.0
 40
1.0
 40
1.0
 40
2.0
 40
2.0
 40
2.0
 40
3.0
 40
3.0
 40
3.0
 40
4.0
 40
4.0
 40
4.0
 40
4.0
 10
95.94418671646535
 20
-122.338785776707
 10
95.79053545782321
 20
-122.338785776707
 10
95.62792695091942
 20
-122.425429928161
 10
95.62792695091942
 20
-122.6285183070165
 10
95.62792695091942
 20
-122.8336737431631
 10
95.76331920348973
 20
-122.935304059978
 10
95.94418671646535
 20
-122.935304059978
 10
96.14331323551279
 20
-122.935304059978
 10
96.2607909915598
 20
-122.8126586607031
 10
96.2607909915598
 20
-122.6348917336642
 10
96.2607909915598
 20
-122.4126830748656
 10
96.08681366955469
 20
-122.338785776707
 10
95.94418671646535
 20
-122.338785776707
 97
        0
 97
        0
 92
        1
 93
        1
 72
     4
 94
        3
 73
     0
 74
     1
 95
       17
 96
       13
 40
0.0
 40
0.0
 40
0.0
 40
0.0
 40
1.0
 40
1.0
 40
1.0
 40
2.0
 40
2.0
 40
2.0
 40
3.0
 40
3.0
 40
3.0
 40
4.0
 40
4.0
 40
4.0
 40
4.0
 10
95.94418671646535
 20
-121.6787054817331
 10
95.76779782762056
 20
-121.6787054817331
 10
95.67753632590701
 20
-121.773790117126
 10
95.67753632590701
 20
-121.9091823696963
 10
95.67753632590701
 20
-122.0320000237455
 10
95.75436195522808
 20
-122.1505113084381
 10
95.94418671646535
 20
-122.1505113084381
 10
96.13435598725114
 20
-122.1505113084381
 10
96.2111816165722
 20
-122.0320000237455
 10
96.2111816165722
 20
-121.9091823696963
 10
96.2111816165722
 20
-121.773790117126
 10
96.118508548019
 20
-121.6787054817331
 10
95.94418671646535
 20
-121.6787054817331
 97
        0
 97
        0
 75
     2
 76
     1
 98
        0
  0
ENDBLK
  5
C9
330
C6
100
AcDbEntity
  8
0
100
AcDbBlockEnd
  0
BLOCK
  5
E0
330
DE
100
AcDbEntity
  8
0
100
AcDbBlockBegin
  2
block 5
 70
     0
 10
0.0
 20
0.0
 30
0.0
  3
block 5
  1

  0
SPLINE
  5
E2
330
DE
100
AcDbEntity
  8
_U+30EC_U+30A4_U+30E4_U+30FC 1
370
     0
100
AcDbSpline
210
0.0
220
0.0
230
1.0
 70
    11
 71
     3
 72
    26
 73
    22
 74
     0
 42
0.0000000001
 43
0.0000000001
 12
1.0
 22
0.0
 32
0.0
 13
1.0
 23
0.0
 33
0.0
 40
0.0
 40
0.0
 40
0.0
 40
0.0
 40
1.0
 40
1.0
 40
1.0
 40
2.0
 40
2.0
 40
2.0
 40
3.0
 40
3.0
 40
3.0
 40
4.0
 40
4.0
 40
4.0
 40
5.0
 40
5.0
 40
5.0
 40
6.0
 40
6.0
 40
6.0
 40
7.0
 40
7.0
 40
7.0
 40
7.0
 10
103.2987765583767
 20
-125.7008544607623
 30
0.0
 10
103.2987765583767
 20
-125.7008544607623
 30
0.0
 10
102.1946234553541
 20
-125.7008544607623
 30
0.0
 10
102.1946234553541
 20
-125.7008544607623
 30
0.0
 10
102.1946234553541
 20
-125.7008544607623
 30
0.0
 10
102.1946234553541
 20
-126.0532877289034
 30
0.0
 10
102.1946234553541
 20
-126.0532877289034
 30
0.0
 10
102.1946234553541
 20
-126.0532877289034
 30
0.0
 10
102.0464843494884
 20
-126.0532877289034
 30
0.0
 10
102.0464843494884
 20
-126.0532877289034
 30
0.0
 10
102.0316704389018
 20
-125.6984428939226
 30
0.0
 10
101.8687174224495
 20
-125.648833518935
 30
0.0
 10
101.7543402523392
 20
-125.6171386404707
 30
0.0
 10
101.7543402523392
 20
-125.6171386404707
 30
0.0
 10
101.7543402523392
 20
-125.4610758149889
 30
0.0
 10
101.7543402523392
 20
-125.4610758149889
 30
0.0
 10
101.7543402523392
 20
-125.4610758149889
 30
0.0
 10
103.2987765583767
 20
-125.4610758149889
 30
0.0
 10
103.2987765583767
 20
-125.4610758149889
 30
0.0
 10
103.2987765583767
 20
-125.4610758149889
 30
0.0
 10
103.2987765583767
 20
-125.7008544607623
 30
0.0
 10
103.2987765583767
 20
-125.7008544607623
 30
0.0
  0
HATCH
  5
E3
330
DE
100
AcDbEntity
  8
_U+30EC_U+30A4_U+30E4_U+30FC 1
 62
   179
420
  2234388
100
AcDbHatch
 10
0.0
 20
0.0
 30
0.0
210
0.0
220
0.0
230
1.0
  2
SOLID
 70
     1
 71
     0
 91
        1
 92
        1
 93
        1
 72
     4
 94
        3
 73
     0
 74
     1
 95
       26
 96
       22
 40
0.0
 40
0.0
 40
0.0
 40
0.0
 40
1.0
 40
1.0
 40
1.0
 40
2.0
 40
2.0
 40
2.0
 40
3.0
 40
3.0
 40
3.0
 40
4.0
 40
4.0
 40
4.0
 40
5.0
 40
5.0
 40
5.0
 40
6.0
 40
6.0
 40
6.0
 40
7.0
 40
7.0
 40
7.0
 40
7.0
 10
103.2987765583767
 20
-125.7008544607623
 10
103.2987765583767
 20
-125.7008544607623
 10
102.1946234553541
 20
-125.7008544607623
 10
102.1946234553541
 20
-125.7008544607623
 10
102.1946234553541
 20
-125.7008544607623
 10
102.1946234553541
 20
-126.0532877289034
 10
102.1946234553541
 20
-126.0532877289034
 10
102.1946234553541
 20
-126.0532877289034
 10
102.0464843494884
 20
-126.0532877289034
 10
102.0464843494884
 20
-126.0532877289034
 10
102.0316704389018
 20
-125.6984428939226
 10
101.8687174224495
 20
-125.648833518935
 10
101.7543402523392
 20
-125.6171386404707
 10
101.7543402523392
 20
-125.6171386404707
 10
101.7543402523392
 20
-125.4610758149889
 10
101.7543402523392
 20
-125.4610758149889
 10
101.7543402523392
 20
-125.4610758149889
 10
103.2987765583767
 20
-125.4610758149889
 10
103.2987765583767
 20
-125.4610758149889
 10
103.2987765583767
 20
-125.4610758149889
 10
103.2987765583767
 20
-125.7008544607623
 10
103.2987765583767
 20
-125.7008544607623
 97
        0
 97
        0
 75
     2
 76
     1
 98
        0
  0
POLYLINE
  5
E4
330
DE
100
AcDbEntity
  8
_U+30EC_U+30A4_U+30E4_U+30FC 1
370
     0
100
AcDb2dPolyline
 66
     1
 10
0.0
 20
0.0
 30
0.0
  0
VERTEX
  5
E5
330
E4
100
AcDbEntity
  8
_U+30EC_U+30A4_U+30E4_U+30FC 1
370
     0
100
AcDbVertex
100
AcDb2dVertex
 10
103.2987765583767
 20
-124.8612846910069
 30
0.0
  0
VERTEX
  5
E6
330
E4
100
AcDbEntity
  8
_U+30EC_U+30A4_U+30E4_U+30FC 1
370
     0
100
AcDbVertex
100
AcDb2dVertex
 10
103.0469400784049
 20
-124.8612846910069
 30
0.0
  0
VERTEX
  5
E7
330
E4
100
AcDbEntity
  8
_U+30EC_U+30A4_U+30E4_U+30FC 1
370
     0
100
AcDbVertex
100
AcDb2dVertex
 10
103.0469400784049
 20
-124.5922227336089
 30
0.0
  0
VERTEX
  5
E8
330
E4
100
AcDbEntity
  8
_U+30EC_U+30A4_U+30E4_U+30FC 1
370
     0
100
AcDbVertex
100
AcDb2dVertex
 10
103.2987765583767
 20
-124.5922227336089
 30
0.0
  0
VERTEX
  5
E9
330
E4
100
AcDbEntity
  8
_U+30EC_U+30A4_U+30E4_U+30FC 1
370
     0
100
AcDbVertex
100
AcDb2dVertex
 10
103.2987765583767
 20
-124.8612846910069
 30
0.0
  0
SEQEND
  5
EA
330
E4
100
AcDbEntity
  8
_U+30EC_U+30A4_U+30E4_U+30FC 1
370
     0
  0
HATCH
  5
EB
330
DE
100
AcDbEntity
  8
_U+30EC_U+30A4_U+30E4_U+30FC 1
 62
   179
420
  2234388
100
AcDbHatch
 10
0.0
 20
0.0
 30
0.0
210
0.0
220
0.0
230
1.0
  2
SOLID
 70
     1
 71
     0
 91
        1
 92
        1
 93
        4
 72
     1
 10
103.2987765583767
 20
-124.8612846910069
 11
103.0469400784049
 21
-124.8612846910069
 72
     1
 10
103.0469400784049
 20
-124.8612846910069
 11
103.0469400784049
 21
-124.5922227336089
 72
     1
 10
103.0469400784049
 20
-124.5922227336089
 11
103.2987765583767
 21
-124.5922227336089
 72
     1
 10
103.2987765583767
 20
-124.5922227336089
 11
103.2987765583767
 21
-124.8612846910069
 97
        0
 75
     2
 76
     1
 98
        0
  0
SPLINE
  5
EC
330
DE
100
AcDbEntity
  8
_U+30EC_U+30A4_U+30E4_U+30FC 1
370
     0
100
AcDbSpline
210
0.0
220
0.0
230
1.0
 70
    11
 71
     3
 72
    53
 73
    49
 74
     0
 42
0.0000000001
 43
0.0000000001
 12
1.0
 22
0.0
 32
0.0
 13
1.0
 23
0.0
 33
0.0
 40
0.0
 40
0.0
 40
0.0
 40
0.0
 40
1.0
 40
1.0
 40
1.0
 40
2.0
 40
2.0
 40
2.0
 40
3.0
 40
3.0
 40
3.0
 40
4.0
 40
4.0
 40
4.0
 40
5.0
 40
5.0
 40
5.0
 40
6.0
 40
6.0
 40
6.0
 40
7.0
 40
7.0
 40
7.0
 40
8.0
 40
8.0
 40
8.0
 40
9.0
 40
9.0
 40
9.0
 40
10.0
 40
10.0
 40
10.0
 40
11.0
 40
11.0
 40
11.0
 40
12.0
 40
12.0
 40
12.0
 40
13.0
 40
13.0
 40
13.0
 40
14.0
 40
14.0
 40
14.0
 40
15.0
 40
15.0
 40
15.0
 40
16.0
 40
16.0
 40
16.0
 40
16.0
 10
103.3494194620099
 20
-123.8253444785923
 30
0.0
 10
103.3494194620099
 20
-123.9090602988839
 30
0.0
 10
103.3325384941322
 20
-124.0172362971207
 30
0.0
 10
103.2691487372036
 20
-124.1261013144546
 30
0.0
 10
103.1592501912241
 20
-124.311447451561
 30
0.0
 10
103.0279920532361
 20
-124.3338405722152
 30
0.0
 10
102.9201605645477
 20
-124.3541666355781
 30
0.0
 10
102.9201605645477
 20
-124.3541666355781
 30
0.0
 10
102.9201605645477
 20
-124.1167995566444
 30
0.0
 10
102.9201605645477
 20
-124.1167995566444
 30
0.0
 10
103.1189425740467
 20
-124.0582329333952
 30
0.0
 10
103.1485703952198
 20
-123.9224961712763
 30
0.0
 10
103.1485703952198
 20
-123.8229329117526
 30
0.0
 10
103.1485703952198
 20
-123.6737602772413
 30
0.0
 10
103.0490071356961
 20
-123.510807260789
 30
0.0
 10
102.8164631904417
 20
-123.510807260789
 30
0.0
 10
102.5604925958877
 20
-123.510807260789
 30
0.0
 10
102.4905571575371
 20
-123.7030435888659
 30
0.0
 10
102.4905571575371
 20
-123.8318901600143
 30
0.0
 10
102.4905571575371
 20
-123.8659966053182
 30
0.0
 10
102.4905571575371
 20
-124.0172362971207
 30
0.0
 10
102.619748238234
 20
-124.1123209325136
 30
0.0
 10
102.619748238234
 20
-124.1123209325136
 30
0.0
 10
102.6008002130651
 20
-124.3000786364597
 30
0.0
 10
102.6008002130651
 20
-124.3000786364597
 30
0.0
 10
102.6008002130651
 20
-124.3000786364597
 30
0.0
 10
101.7543402523392
 20
-124.1712320653114
 30
0.0
 10
101.7543402523392
 20
-124.1712320653114
 30
0.0
 10
101.7543402523392
 20
-124.1712320653114
 30
0.0
 10
101.7543402523392
 20
-123.3392415056235
 30
0.0
 10
101.7543402523392
 20
-123.3392415056235
 30
0.0
 10
101.7543402523392
 20
-123.3392415056235
 30
0.0
 10
101.9489881472558
 20
-123.3392415056235
 30
0.0
 10
101.9489881472558
 20
-123.3392415056235
 30
0.0
 10
101.9489881472558
 20
-123.3392415056235
 30
0.0
 10
101.9489881472558
 20
-123.9969102337577
 30
0.0
 10
101.9489881472558
 20
-123.9969102337577
 30
0.0
 10
101.9489881472558
 20
-123.9969102337577
 30
0.0
 10
102.3720458728445
 20
-124.0671901816568
 30
0.0
 10
102.3720458728445
 20
-124.0671901816568
 30
0.0
 10
102.338283937089
 20
-124.0017333674371
 30
0.0
 10
102.2979763199116
 20
-123.9135389230147
 30
0.0
 10
102.2979763199116
 20
-123.7867594091575
 30
0.0
 10
102.2979763199116
 20
-123.5156303944683
 30
0.0
 10
102.4843559856636
 20
-123.2624158763025
 30
0.0
 10
102.7975151652728
 20
-123.2624158763025
 30
0.0
 10
103.1148084594644
 20
-123.2624158763025
 30
0.0
 10
103.3494194620099
 20
-123.5018500125273
 30
0.0
 10
103.3494194620099
 20
-123.8253444785923
 30
0.0
  0
HATCH
  5
ED
330
DE
100
AcDbEntity
  8
_U+30EC_U+30A4_U+30E4_U+30FC 1
 62
   179
420
  2234388
100
AcDbHatch
 10
0.0
 20
0.0
 30
0.0
210
0.0
220
0.0
230
1.0
  2
SOLID
 70
     1
 71
     0
 91
        1
 92
        1
 93
        1
 72
     4
 94
        3
 73
     0
 74
     1
 95
       53
 96
       49
 40
0.0
 40
0.0
 40
0.0
 40
0.0
 40
1.0
 40
1.0
 40
1.0
 40
2.0
 40
2.0
 40
2.0
 40
3.0
 40
3.0
 40
3.0
 40
4.0
 40
4.0
 40
4.0
 40
5.0
 40
5.0
 40
5.0
 40
6.0
 40
6.0
 40
6.0
 40
7.0
 40
7.0
 40
7.0
 40
8.0
 40
8.0
 40
8.0
 40
9.0
 40
9.0
 40
9.0
 40
10.0
 40
10.0
 40
10.0
 40
11.0
 40
11.0
 40
11.0
 40
12.0
 40
12.0
 40
12.0
 40
13.0
 40
13.0
 40
13.0
 40
14.0
 40
14.0
 40
14.0
 40
15.0
 40
15.0
 40
15.0
 40
16.0
 40
16.0
 40
16.0
 40
16.0
 10
103.3494194620099
 20
-123.8253444785923
 10
103.3494194620099
 20
-123.9090602988839
 10
103.3325384941322
 20
-124.0172362971207
 10
103.2691487372036
 20
-124.1261013144546
 10
103.1592501912241
 20
-124.311447451561
 10
103.0279920532361
 20
-124.3338405722152
 10
102.9201605645477
 20
-124.3541666355781
 10
102.9201605645477
 20
-124.3541666355781
 10
102.9201605645477
 20
-124.1167995566444
 10
102.9201605645477
 20
-124.1167995566444
 10
103.1189425740467
 20
-124.0582329333952
 10
103.1485703952198
 20
-123.9224961712763
 10
103.1485703952198
 20
-123.8229329117526
 10
103.1485703952198
 20
-123.6737602772413
 10
103.0490071356961
 20
-123.510807260789
 10
102.8164631904417
 20
-123.510807260789
 10
102.5604925958877
 20
-123.510807260789
 10
102.4905571575371
 20
-123.7030435888659
 10
102.4905571575371
 20
-123.8318901600143
 10
102.4905571575371
 20
-123.8659966053182
 10
102.4905571575371
 20
-124.0172362971207
 10
102.619748238234
 20
-124.1123209325136
 10
102.619748238234
 20
-124.1123209325136
 10
102.6008002130651
 20
-124.3000786364597
 10
102.6008002130651
 20
-124.3000786364597
 10
102.6008002130651
 20
-124.3000786364597
 10
101.7543402523392
 20
-124.1712320653114
 10
101.7543402523392
 20
-124.1712320653114
 10
101.7543402523392
 20
-124.1712320653114
 10
101.7543402523392
 20
-123.3392415056235
 10
101.7543402523392
 20
-123.3392415056235
 10
101.7543402523392
 20
-123.3392415056235
 10
101.9489881472558
 20
-123.3392415056235
 10
101.9489881472558
 20
-123.3392415056235
 10
101.9489881472558
 20
-123.3392415056235
 10
101.9489881472558
 20
-123.9969102337577
 10
101.9489881472558
 20
-123.9969102337577
 10
101.9489881472558
 20
-123.9969102337577
 10
102.3720458728445
 20
-124.0671901816568
 10
102.3720458728445
 20
-124.0671901816568
 10
102.338283937089
 20
-124.0017333674371
 10
102.2979763199116
 20
-123.9135389230147
 10
102.2979763199116
 20
-123.7867594091575
 10
102.2979763199116
 20
-123.5156303944683
 10
102.4843559856636
 20
-123.2624158763025
 10
102.7975151652728
 20
-123.2624158763025
 10
103.1148084594644
 20
-123.2624158763025
 10
103.3494194620099
 20
-123.5018500125273
 10
103.3494194620099
 20
-123.8253444785923
 97
        0
 97
        0
 75
     2
 76
     1
 98
        0
  0
ENDBLK
  5
E1
330
DE
100
AcDbEntity
  8
0
100
AcDbBlockEnd
  0
BLOCK
  5
F8
330
F6
100
AcDbEntity
  8
0
100
AcDbBlockBegin
  2
block 6
 70
     0
 10
0.0
 20
0.0
 30
0.0
  3
block 6
  1

  0
SPLINE
  5
FA
330
F6
100
AcDbEntity
  8
_U+30EC_U+30A4_U+30E4_U+30FC 1
370
     0
100
AcDbSpline
210
0.0
220
0.0
230
1.0
 70
    11
 71
     3
 72
    26
 73
    22
 74
     0
 42
0.0000000001
 43
0.0000000001
 12
1.0
 22
0.0
 32
0.0
 13
1.0
 23
0.0
 33
0.0
 40
0.0
 40
0.0
 40
0.0
 40
0.0
 40
1.0
 40
1.0
 40
1.0
 40
2.0
 40
2.0
 40
2.0
 40
3.0
 40
3.0
 40
3.0
 40
4.0
 40
4.0
 40
4.0
 40
5.0
 40
5.0
 40
5.0
 40
6.0
 40
6.0
 40
6.0
 40
7.0
 40
7.0
 40
7.0
 40
7.0
 10
86.89202607419713
 20
-131.5792208872441
 30
0.0
 10
86.89202607419713
 20
-131.5792208872441
 30
0.0
 10
86.89202607419713
 20
-130.474723274673
 30
0.0
 10
86.89202607419713
 20
-130.474723274673
 30
0.0
 10
86.89202607419713
 20
-130.474723274673
 30
0.0
 10
86.53942055128182
 20
-130.474723274673
 30
0.0
 10
86.53942055128182
 20
-130.474723274673
 30
0.0
 10
86.53942055128182
 20
-130.474723274673
 30
0.0
 10
86.53942055128182
 20
-130.3269286783558
 30
0.0
 10
86.53942055128182
 20
-130.3269286783558
 30
0.0
 10
86.89443764103682
 20
-130.3121147677692
 30
0.0
 10
86.94404701602441
 20
-130.1491617513169
 30
0.0
 10
86.9757418944887
 20
-130.0347845812066
 30
0.0
 10
86.9757418944887
 20
-130.0347845812066
 30
0.0
 10
87.13180471997053
 20
-130.0347845812066
 30
0.0
 10
87.13180471997053
 20
-130.0347845812066
 30
0.0
 10
87.13180471997053
 20
-130.0347845812066
 30
0.0
 10
87.13180471997053
 20
-131.5792208872441
 30
0.0
 10
87.13180471997053
 20
-131.5792208872441
 30
0.0
 10
87.13180471997053
 20
-131.5792208872441
 30
0.0
 10
86.89202607419713
 20
-131.5792208872441
 30
0.0
 10
86.89202607419713
 20
-131.5792208872441
 30
0.0
  0
HATCH
  5
FB
330
F6
100
AcDbEntity
  8
_U+30EC_U+30A4_U+30E4_U+30FC 1
 62
   179
420
  2234388
100
AcDbHatch
 10
0.0
 20
0.0
 30
0.0
210
0.0
220
0.0
230
1.0
  2
SOLID
 70
     1
 71
     0
 91
        1
 92
        1
 93
        1
 72
     4
 94
        3
 73
     0
 74
     1
 95
       26
 96
       22
 40
0.0
 40
0.0
 40
0.0
 40
0.0
 40
1.0
 40
1.0
 40
1.0
 40
2.0
 40
2.0
 40
2.0
 40
3.0
 40
3.0
 40
3.0
 40
4.0
 40
4.0
 40
4.0
 40
5.0
 40
5.0
 40
5.0
 40
6.0
 40
6.0
 40
6.0
 40
7.0
 40
7.0
 40
7.0
 40
7.0
 10
86.89202607419713
 20
-131.5792208872441
 10
86.89202607419713
 20
-131.5792208872441
 10
86.89202607419713
 20
-130.474723274673
 10
86.89202607419713
 20
-130.474723274673
 10
86.89202607419713
 20
-130.474723274673
 10
86.53942055128182
 20
-130.474723274673
 10
86.53942055128182
 20
-130.474723274673
 10
86.53942055128182
 20
-130.474723274673
 10
86.53942055128182
 20
-130.3269286783558
 10
86.53942055128182
 20
-130.3269286783558
 10
86.89443764103682
 20
-130.3121147677692
 10
86.94404701602441
 20
-130.1491617513169
 10
86.9757418944887
 20
-130.0347845812066
 10
86.9757418944887
 20
-130.0347845812066
 10
87.13180471997053
 20
-130.0347845812066
 10
87.13180471997053
 20
-130.0347845812066
 10
87.13180471997053
 20
-130.0347845812066
 10
87.13180471997053
 20
-131.5792208872441
 10
87.13180471997053
 20
-131.5792208872441
 10
87.13180471997053
 20
-131.5792208872441
 10
86.89202607419713
 20
-131.5792208872441
 10
86.89202607419713
 20
-131.5792208872441
 97
        0
 97
        0
 75
     2
 76
     1
 98
        0
  0
ENDBLK
  5
F9
330
F6
100
AcDbEntity
  8
0
100
AcDbBlockEnd
  0
BLOCK
  5
106
330
104
100
AcDbEntity
  8
0
100
AcDbBlockBegin
  2
block 7
 70
     0
 10
0.0
 20
0.0
 30
0.0
  3
block 7
  1

  0
SPLINE
  5
108
330
104
100
AcDbEntity
  8
_U+30EC_U+30A4_U+30E4_U+30FC 1
370
     0
100
AcDbSpline
210
0.0
220
0.0
230
1.0
 70
    11
 71
     3
 72
    29
 73
    25
 74
     0
 42
0.0000000001
 43
0.0000000001
 12
1.0
 22
0.0
 32
0.0
 13
1.0
 23
0.0
 33
0.0
 40
0.0
 40
0.0
 40
0.0
 40
0.0
 40
1.0
 40
1.0
 40
1.0
 40
2.0
 40
2.0
 40
2.0
 40
3.0
 40
3.0
 40
3.0
 40
4.0
 40
4.0
 40
4.0
 40
5.0
 40
5.0
 40
5.0
 40
6.0
 40
6.0
 40
6.0
 40
7.0
 40
7.0
 40
7.0
 40
8.0
 40
8.0
 40
8.0
 40
8.0
 10
103.3494194620099
 20
-133.2270100578391
 30
0.0
 10
103.3494194620099
 20
-133.5119194544693
 30
0.0
 10
103.2119601521484
 20
-133.7830484691584
 30
0.0
 10
102.8629719794926
 20
-133.7830484691584
 30
0.0
 10
102.6070013849385
 20
-133.7830484691584
 30
0.0
 10
102.5119167495456
 20
-133.6314642678074
 30
0.0
 10
102.4505940499082
 20
-133.5184651358912
 30
0.0
 10
102.3913384075619
 20
-133.6517903311704
 30
0.0
 10
102.2769612374516
 20
-133.7334390941708
 30
0.0
 10
102.1160752782904
 20
-133.7334390941708
 30
0.0
 10
101.8411566585675
 20
-133.7334390941708
 30
0.0
 10
101.7057644059972
 20
-133.5208767027309
 30
0.0
 10
101.7057644059972
 20
-133.2270100578391
 30
0.0
 10
101.7057644059972
 20
-132.9238416551371
 30
0.0
 10
101.8497693972806
 20
-132.7205810215074
 30
0.0
 10
102.1160752782904
 20
-132.7205810215074
 30
0.0
 10
102.2769612374516
 20
-132.7205810215074
 30
0.0
 10
102.3913384075619
 20
-132.8039523322504
 30
0.0
 10
102.4505940499082
 20
-132.9376220370781
 30
0.0
 10
102.5012369535414
 20
-132.8425374016852
 30
0.0
 10
102.5963215889343
 20
-132.6730387038109
 30
0.0
 10
102.8588378649103
 20
-132.6730387038109
 30
0.0
 10
103.233319744157
 20
-132.6730387038109
 30
0.0
 10
103.3494194620099
 20
-132.9713839728335
 30
0.0
 10
103.3494194620099
 20
-133.2270100578391
 30
0.0
  0
SPLINE
  5
109
330
104
100
AcDbEntity
  8
_U+30EC_U+30A4_U+30E4_U+30FC 1
370
     0
100
AcDbSpline
210
0.0
220
0.0
230
1.0
 70
    11
 71
     3
 72
    17
 73
    13
 74
     0
 42
0.0000000001
 43
0.0000000001
 12
1.0
 22
0.0
 32
0.0
 13
1.0
 23
0.0
 33
0.0
 40
0.0
 40
0.0
 40
0.0
 40
0.0
 40
1.0
 40
1.0
 40
1.0
 40
2.0
 40
2.0
 40
2.0
 40
3.0
 40
3.0
 40
3.0
 40
4.0
 40
4.0
 40
4.0
 40
4.0
 10
101.8983452436226
 20
-133.2270100578391
 30
0.0
 10
101.8983452436226
 20
-133.4030544371354
 30
0.0
 10
101.9934298790155
 20
-133.4936604483974
 30
0.0
 10
102.1288221315858
 20
-133.4936604483974
 30
0.0
 10
102.2514675308608
 20
-133.4936604483974
 30
0.0
 10
102.3699788155533
 20
-133.4168348190763
 30
0.0
 10
102.3699788155533
 20
-133.2270100578391
 30
0.0
 10
102.3699788155533
 20
-133.0368407870533
 30
0.0
 10
102.2514675308608
 20
-132.9600151577322
 30
0.0
 10
102.1288221315858
 20
-132.9600151577322
 30
0.0
 10
101.9934298790155
 20
-132.9600151577322
 30
0.0
 10
101.8983452436226
 20
-133.0526882262855
 30
0.0
 10
101.8983452436226
 20
-133.2270100578391
 30
0.0
  0
SPLINE
  5
10A
330
104
100
AcDbEntity
  8
_U+30EC_U+30A4_U+30E4_U+30FC 1
370
     0
100
AcDbSpline
210
0.0
220
0.0
230
1.0
 70
    11
 71
     3
 72
    17
 73
    13
 74
     0
 42
0.0000000001
 43
0.0000000001
 12
1.0
 22
0.0
 32
0.0
 13
1.0
 23
0.0
 33
0.0
 40
0.0
 40
0.0
 40
0.0
 40
0.0
 40
1.0
 40
1.0
 40
1.0
 40
2.0
 40
2.0
 40
2.0
 40
3.0
 40
3.0
 40
3.0
 40
4.0
 40
4.0
 40
4.0
 40
4.0
 10
102.5584255385965
 20
-133.2270100578391
 30
0.0
 10
102.5584255385965
 20
-133.3806613164812
 30
0.0
 10
102.6452419448248
 20
-133.543269823385
 30
0.0
 10
102.848158068906
 20
-133.543269823385
 30
0.0
 10
103.0534857598269
 20
-133.543269823385
 30
0.0
 10
103.1547715670933
 20
-133.4078775708147
 30
0.0
 10
103.1547715670933
 20
-133.2270100578391
 30
0.0
 10
103.1547715670933
 20
-133.0278835387917
 30
0.0
 10
103.0321261678184
 20
-132.9104057827446
 30
0.0
 10
102.8543592407795
 20
-132.9104057827446
 30
0.0
 10
102.6324950915294
 20
-132.9104057827446
 30
0.0
 10
102.5584255385965
 20
-133.0843831047497
 30
0.0
 10
102.5584255385965
 20
-133.2270100578391
 30
0.0
  0
HATCH
  5
10B
330
104
100
AcDbEntity
  8
_U+30EC_U+30A4_U+30E4_U+30FC 1
 62
   179
420
  2234388
100
AcDbHatch
 10
0.0
 20
0.0
 30
0.0
210
0.0
220
0.0
230
1.0
  2
SOLID
 70
     1
 71
     0
 91
        3
 92
        1
 93
        1
 72
     4
 94
        3
 73
     0
 74
     1
 95
       29
 96
       25
 40
0.0
 40
0.0
 40
0.0
 40
0.0
 40
1.0
 40
1.0
 40
1.0
 40
2.0
 40
2.0
 40
2.0
 40
3.0
 40
3.0
 40
3.0
 40
4.0
 40
4.0
 40
4.0
 40
5.0
 40
5.0
 40
5.0
 40
6.0
 40
6.0
 40
6.0
 40
7.0
 40
7.0
 40
7.0
 40
8.0
 40
8.0
 40
8.0
 40
8.0
 10
103.3494194620099
 20
-133.2270100578391
 10
103.3494194620099
 20
-133.5119194544693
 10
103.2119601521484
 20
-133.7830484691584
 10
102.8629719794926
 20
-133.7830484691584
 10
102.6070013849385
 20
-133.7830484691584
 10
102.5119167495456
 20
-133.6314642678074
 10
102.4505940499082
 20
-133.5184651358912
 10
102.3913384075619
 20
-133.6517903311704
 10
102.2769612374516
 20
-133.7334390941708
 10
102.1160752782904
 20
-133.7334390941708
 10
101.8411566585675
 20
-133.7334390941708
 10
101.7057644059972
 20
-133.5208767027309
 10
101.7057644059972
 20
-133.2270100578391
 10
101.7057644059972
 20
-132.9238416551371
 10
101.8497693972806
 20
-132.7205810215074
 10
102.1160752782904
 20
-132.7205810215074
 10
102.2769612374516
 20
-132.7205810215074
 10
102.3913384075619
 20
-132.8039523322504
 10
102.4505940499082
 20
-132.9376220370781
 10
102.5012369535414
 20
-132.8425374016852
 10
102.5963215889343
 20
-132.6730387038109
 10
102.8588378649103
 20
-132.6730387038109
 10
103.233319744157
 20
-132.6730387038109
 10
103.3494194620099
 20
-132.9713839728335
 10
103.3494194620099
 20
-133.2270100578391
 97
        0
 97
        0
 92
        1
 93
        1
 72
     4
 94
        3
 73
     0
 74
     1
 95
       17
 96
       13
 40
0.0
 40
0.0
 40
0.0
 40
0.0
 40
1.0
 40
1.0
 40
1.0
 40
2.0
 40
2.0
 40
2.0
 40
3.0
 40
3.0
 40
3.0
 40
4.0
 40
4.0
 40
4.0
 40
4.0
 10
101.8983452436226
 20
-133.2270100578391
 10
101.8983452436226
 20
-133.4030544371354
 10
101.9934298790155
 20
-133.4936604483974
 10
102.1288221315858
 20
-133.4936604483974
 10
102.2514675308608
 20
-133.4936604483974
 10
102.3699788155533
 20
-133.4168348190763
 10
102.3699788155533
 20
-133.2270100578391
 10
102.3699788155533
 20
-133.0368407870533
 10
102.2514675308608
 20
-132.9600151577322
 10
102.1288221315858
 20
-132.9600151577322
 10
101.9934298790155
 20
-132.9600151577322
 10
101.8983452436226
 20
-133.0526882262855
 10
101.8983452436226
 20
-133.2270100578391
 97
        0
 97
        0
 92
        1
 93
        1
 72
     4
 94
        3
 73
     0
 74
     1
 95
       17
 96
       13
 40
0.0
 40
0.0
 40
0.0
 40
0.0
 40
1.0
 40
1.0
 40
1.0
 40
2.0
 40
2.0
 40
2.0
 40
3.0
 40
3.0
 40
3.0
 40
4.0
 40
4.0
 40
4.0
 40
4.0
 10
102.5584255385965
 20
-133.2270100578391
 10
102.5584255385965
 20
-133.3806613164812
 10
102.6452419448248
 20
-133.543269823385
 10
102.848158068906
 20
-133.543269823385
 10
103.0534857598269
 20
-133.543269823385
 10
103.1547715670933
 20
-133.4078775708147
 10
103.1547715670933
 20
-133.2270100578391
 10
103.1547715670933
 20
-133.0278835387917
 10
103.0321261678184
 20
-132.9104057827446
 10
102.8543592407795
 20
-132.9104057827446
 10
102.6324950915294
 20
-132.9104057827446
 10
102.5584255385965
 20
-133.0843831047497
 10
102.5584255385965
 20
-133.2270100578391
 97
        0
 97
        0
 75
     2
 76
     1
 98
        0
  0
ENDBLK
  5
107
330
104
100
AcDbEntity
  8
0
100
AcDbBlockEnd
  0
ENDSEC
  0
SECTION
  2
ENTITIES
  0
SPLINE
  5
41
330
1F
100
AcDbEntity
  8
_U+30EC_U+30A4_U+30E4_U+30FC 1
370
     0
100
AcDbSpline
210
0.0
220
0.0
230
1.0
 70
    11
 71
     3
 72
    68
 73
    64
 74
     0
 42
0.0000000001
 43
0.0000000001
 12
1.0
 22
0.0
 32
0.0
 13
1.0
 23
0.0
 33
0.0
 40
0.0
 40
0.0
 40
0.0
 40
0.0
 40
1.0
 40
1.0
 40
1.0
 40
2.0
 40
2.0
 40
2.0
 40
3.0
 40
3.0
 40
3.0
 40
4.0
 40
4.0
 40
4.0
 40
5.0
 40
5.0
 40
5.0
 40
6.0
 40
6.0
 40
6.0
 40
7.0
 40
7.0
 40
7.0
 40
8.0
 40
8.0
 40
8.0
 40
9.0
 40
9.0
 40
9.0
 40
10.0
 40
10.0
 40
10.0
 40
11.0
 40
11.0
 40
11.0
 40
12.0
 40
12.0
 40
12.0
 40
13.0
 40
13.0
 40
13.0
 40
14.0
 40
14.0
 40
14.0
 40
15.0
 40
15.0
 40
15.0
 40
16.0
 40
16.0
 40
16.0
 40
17.0
 40
17.0
 40
17.0
 40
18.0
 40
18.0
 40
18.0
 40
19.0
 40
19.0
 40
19.0
 40
20.0
 40
20.0
 40
20.0
 40
21.0
 40
21.0
 40
21.0
 40
21.0
 10
98.94485080903989
 20
-127.7255227458464
 30
0.0
 10
98.94485080903989
 20
-127.7255227458464
 30
0.0
 10
91.94478737651528
 20
-127.7255227458464
 30
0.0
 10
91.94478737651528
 20
-127.7255227458464
 30
0.0
 10
91.94478737651528
 20
-127.7255227458464
 30
0.0
 10
91.94478737651528
 20
-136.2252799659439
 30
0.0
 10
91.94478737651528
 20
-136.2252799659439
 30
0.0
 10
91.94478737651528
 20
-136.2252799659439
 30
0.0
 10
88.348782468257
 20
-136.2252799659439
 30
0.0
 10
88.348782468257
 20
-136.2252799659439
 30
0.0
 10
88.348782468257
 20
-136.2252799659439
 30
0.0
 10
87.94467775579174
 20
-136.9253321879908
 30
0.0
 10
87.94467775579174
 20
-136.9253321879908
 30
0.0
 10
87.94467775579174
 20
-136.9253321879908
 30
0.0
 10
87.54056859998737
 20
-136.2252799659439
 30
0.0
 10
87.54056859998737
 20
-136.2252799659439
 30
0.0
 10
87.54056859998737
 20
-136.2252799659439
 30
0.0
 10
83.94491646949787
 20
-136.2252799659439
 30
0.0
 10
83.94491646949787
 20
-136.2252799659439
 30
0.0
 10
83.94491646949787
 20
-136.2252799659439
 30
0.0
 10
83.94491646949787
 20
-127.7255227458464
 30
0.0
 10
83.94491646949787
 20
-127.7255227458464
 30
0.0
 10
83.94491646949787
 20
-127.7255227458464
 30
0.0
 10
76.94481775919638
 20
-127.7255227458464
 30
0.0
 10
76.94481775919638
 20
-127.7255227458464
 30
0.0
 10
76.39257943995182
 20
-127.7255227458464
 30
0.0
 10
75.94472806248857
 20
-128.1734094124012
 30
0.0
 10
75.94472806248857
 20
-128.7252949678186
 30
0.0
 10
75.94472806248857
 20
-128.7252949678186
 30
0.0
 10
75.94472806248857
 20
-129.2255338565826
 30
0.0
 10
75.94472806248857
 20
-129.2255338565826
 30
0.0
 10
75.94472806248857
 20
-129.2255338565826
 30
0.0
 10
77.44470385755433
 20
-129.2255338565826
 30
0.0
 10
77.44470385755433
 20
-129.2255338565826
 30
0.0
 10
77.44470385755433
 20
-129.2255338565826
 30
0.0
 10
77.44470385755433
 20
-128.7252949678186
 30
0.0
 10
77.44470385755433
 20
-128.7252949678186
 30
0.0
 10
77.44470385755433
 20
-128.7252949678186
 30
0.0
 10
82.94479149501319
 20
-128.7252949678186
 30
0.0
 10
82.94479149501319
 20
-128.7252949678186
 30
0.0
 10
82.94479149501319
 20
-128.7252949678186
 30
0.0
 10
82.94479149501319
 20
-137.2250521879157
 30
0.0
 10
82.94479149501319
 20
-137.2250521879157
 30
0.0
 10
82.94479149501319
 20
-137.2250521879157
 30
0.0
 10
92.94487707322308
 20
-137.2250521879157
 30
0.0
 10
92.94487707322308
 20
-137.2250521879157
 30
0.0
 10
92.94487707322308
 20
-137.2250521879157
 30
0.0
 10
92.94487707322308
 20
-128.7252949678186
 30
0.0
 10
92.94487707322308
 20
-128.7252949678186
 30
0.0
 10
92.94487707322308
 20
-128.7252949678186
 30
0.0
 10
98.44464721069004
 20
-128.7252949678186
 30
0.0
 10
98.44464721069004
 20
-128.7252949678186
 30
0.0
 10
98.44464721069004
 20
-128.7252949678186
 30
0.0
 10
98.44464721069004
 20
-129.2255338565826
 30
0.0
 10
98.44464721069004
 20
-129.2255338565826
 30
0.0
 10
98.44464721069004
 20
-129.2255338565826
 30
0.0
 10
99.9446230057558
 20
-129.2255338565826
 30
0.0
 10
99.9446230057558
 20
-129.2255338565826
 30
0.0
 10
99.9446230057558
 20
-129.2255338565826
 30
0.0
 10
99.9446230057558
 20
-128.7252949678186
 30
0.0
 10
99.9446230057558
 20
-128.7252949678186
 30
0.0
 10
99.9446230057558
 20
-128.1734094124012
 30
0.0
 10
99.49712440606133
 20
-127.7255227458464
 30
0.0
 10
98.94485080903989
 20
-127.7255227458464
 30
0.0
  0
HATCH
  5
42
330
1F
100
AcDbEntity
  8
_U+30EC_U+30A4_U+30E4_U+30FC 1
 62
   253
420
 11711154
100
AcDbHatch
 10
0.0
 20
0.0
 30
0.0
210
0.0
220
0.0
230
1.0
  2
SOLID
 70
     1
 71
     0
 91
        1
 92
        1
 93
        1
 72
     4
 94
        3
 73
     0
 74
     1
 95
       68
 96
       64
 40
0.0
 40
0.0
 40
0.0
 40
0.0
 40
1.0
 40
1.0
 40
1.0
 40
2.0
 40
2.0
 40
2.0
 40
3.0
 40
3.0
 40
3.0
 40
4.0
 40
4.0
 40
4.0
 40
5.0
 40
5.0
 40
5.0
 40
6.0
 40
6.0
 40
6.0
 40
7.0
 40
7.0
 40
7.0
 40
8.0
 40
8.0
 40
8.0
 40
9.0
 40
9.0
 40
9.0
 40
10.0
 40
10.0
 40
10.0
 40
11.0
 40
11.0
 40
11.0
 40
12.0
 40
12.0
 40
12.0
 40
13.0
 40
13.0
 40
13.0
 40
14.0
 40
14.0
 40
14.0
 40
15.0
 40
15.0
 40
15.0
 40
16.0
 40
16.0
 40
16.0
 40
17.0
 40
17.0
 40
17.0
 40
18.0
 40
18.0
 40
18.0
 40
19.0
 40
19.0
 40
19.0
 40
20.0
 40
20.0
 40
20.0
 40
21.0
 40
21.0
 40
21.0
 40
21.0
 10
98.94485080903989
 20
-127.7255227458464
 10
98.94485080903989
 20
-127.7255227458464
 10
91.94478737651528
 20
-127.7255227458464
 10
91.94478737651528
 20
-127.7255227458464
 10
91.94478737651528
 20
-127.7255227458464
 10
91.94478737651528
 20
-136.2252799659439
 10
91.94478737651528
 20
-136.2252799659439
 10
91.94478737651528
 20
-136.2252799659439
 10
88.348782468257
 20
-136.2252799659439
 10
88.348782468257
 20
-136.2252799659439
 10
88.348782468257
 20
-136.2252799659439
 10
87.94467775579174
 20
-136.9253321879908
 10
87.94467775579174
 20
-136.9253321879908
 10
87.94467775579174
 20
-136.9253321879908
 10
87.54056859998737
 20
-136.2252799659439
 10
87.54056859998737
 20
-136.2252799659439
 10
87.54056859998737
 20
-136.2252799659439
 10
83.94491646949787
 20
-136.2252799659439
 10
83.94491646949787
 20
-136.2252799659439
 10
83.94491646949787
 20
-136.2252799659439
 10
83.94491646949787
 20
-127.7255227458464
 10
83.94491646949787
 20
-127.7255227458464
 10
83.94491646949787
 20
-127.7255227458464
 10
76.94481775919638
 20
-127.7255227458464
 10
76.94481775919638
 20
-127.7255227458464
 10
76.39257943995182
 20
-127.7255227458464
 10
75.94472806248857
 20
-128.1734094124012
 10
75.94472806248857
 20
-128.7252949678186
 10
75.94472806248857
 20
-128.7252949678186
 10
75.94472806248857
 20
-129.2255338565826
 10
75.94472806248857
 20
-129.2255338565826
 10
75.94472806248857
 20
-129.2255338565826
 10
77.44470385755433
 20
-129.2255338565826
 10
77.44470385755433
 20
-129.2255338565826
 10
77.44470385755433
 20
-129.2255338565826
 10
77.44470385755433
 20
-128.7252949678186
 10
77.44470385755433
 20
-128.7252949678186
 10
77.44470385755433
 20
-128.7252949678186
 10
82.94479149501319
 20
-128.7252949678186
 10
82.94479149501319
 20
-128.7252949678186
 10
82.94479149501319
 20
-128.7252949678186
 10
82.94479149501319
 20
-137.2250521879157
 10
82.94479149501319
 20
-137.2250521879157
 10
82.94479149501319
 20
-137.2250521879157
 10
92.94487707322308
 20
-137.2250521879157
 10
92.94487707322308
 20
-137.2250521879157
 10
92.94487707322308
 20
-137.2250521879157
 10
92.94487707322308
 20
-128.7252949678186
 10
92.94487707322308
 20
-128.7252949678186
 10
92.94487707322308
 20
-128.7252949678186
 10
98.44464721069004
 20
-128.7252949678186
 10
98.44464721069004
 20
-128.7252949678186
 10
98.44464721069004
 20
-128.7252949678186
 10
98.44464721069004
 20
-129.2255338565826
 10
98.44464721069004
 20
-129.2255338565826
 10
98.44464721069004
 20
-129.2255338565826
 10
99.9446230057558
 20
-129.2255338565826
 10
99.9446230057558
 20
-129.2255338565826
 10
99.9446230057558
 20
-129.2255338565826
 10
99.9446230057558
 20
-128.7252949678186
 10
99.9446230057558
 20
-128.7252949678186
 10
99.9446230057558
 20
-128.1734094124012
 10
99.49712440606133
 20
-127.7255227458464
 10
98.94485080903989
 20
-127.7255227458464
 97
        0
 97
        0
 75
     2
 76
     1
 98
        0
  0
POLYLINE
  5
43
330
1F
100
AcDbEntity
  8
_U+30EC_U+30A4_U+30E4_U+30FC 1
 62
   179
420
  2234388
370
    25
100
AcDb2dPolyline
 66
     1
 10
0.0
 20
0.0
 30
0.0
  0
VERTEX
  5
44
330
43
100
AcDbEntity
  8
_U+30EC_U+30A4_U+30E4_U+30FC 1
 62
   179
420
  2234388
370
    25
100
AcDbVertex
100
AcDb2dVertex
 10
99.9446230057558
 20
-128.7252949678186
 30
0.0
  0
VERTEX
  5
45
330
43
100
AcDbEntity
  8
_U+30EC_U+30A4_U+30E4_U+30FC 1
 62
   179
420
  2234388
370
    25
100
AcDbVertex
100
AcDb2dVertex
 10
99.9446230057558
 20
-129.2255338565826
 30
0.0
  0
SEQEND
  5
46
330
43
100
AcDbEntity
  8
_U+30EC_U+30A4_U+30E4_U+30FC 1
 62
   179
420
  2234388
370
    25
  0
POLYLINE
  5
47
330
1F
100
AcDbEntity
  8
_U+30EC_U+30A4_U+30E4_U+30FC 1
 62
   179
420
  2234388
370
    25
100
AcDb2dPolyline
 66
     1
 10
0.0
 20
0.0
 30
0.0
  0
VERTEX
  5
48
330
47
100
AcDbEntity
  8
_U+30EC_U+30A4_U+30E4_U+30FC 1
 62
   179
420
  2234388
370
    25
100
AcDbVertex
100
AcDb2dVertex
 10
82.94479149501319
 20
-137.2250521879157
 30
0.0
  0
VERTEX
  5
49
330
47
100
AcDbEntity
  8
_U+30EC_U+30A4_U+30E4_U+30FC 1
 62
   179
420
  2234388
370
    25
100
AcDbVertex
100
AcDb2dVertex
 10
92.94487707322308
 20
-137.2250521879157
 30
0.0
  0
SEQEND
  5
4A
330
47
100
AcDbEntity
  8
_U+30EC_U+30A4_U+30E4_U+30FC 1
 62
   179
420
  2234388
370
    25
  0
POLYLINE
  5
4B
330
1F
100
AcDbEntity
  8
_U+30EC_U+30A4_U+30E4_U+30FC 1
 62
   179
420
  2234388
370
    25
100
AcDb2dPolyline
 66
     1
 10
0.0
 20
0.0
 30
0.0
  0
VERTEX
  5
4C
330
4B
100
AcDbEntity
  8
_U+30EC_U+30A4_U+30E4_U+30FC 1
 62
   179
420
  2234388
370
    25
100
AcDbVertex
100
AcDb2dVertex
 10
88.348782468257
 20
-136.2252799659439
 30
0.0
  0
VERTEX
  5
4D
330
4B
100
AcDbEntity
  8
_U+30EC_U+30A4_U+30E4_U+30FC 1
 62
   179
420
  2234388
370
    25
100
AcDbVertex
100
AcDb2dVertex
 10
91.94478737651528
 20
-136.2252799659439
 30
0.0
  0
SEQEND
  5
4E
330
4B
100
AcDbEntity
  8
_U+30EC_U+30A4_U+30E4_U+30FC 1
 62
   179
420
  2234388
370
    25
  0
POLYLINE
  5
4F
330
1F
100
AcDbEntity
  8
_U+30EC_U+30A4_U+30E4_U+30FC 1
 62
   179
420
  2234388
370
    25
100
AcDb2dPolyline
 66
     1
 10
0.0
 20
0.0
 30
0.0
  0
VERTEX
  5
50
330
4F
100
AcDbEntity
  8
_U+30EC_U+30A4_U+30E4_U+30FC 1
 62
   179
420
  2234388
370
    25
100
AcDbVertex
100
AcDb2dVertex
 10
91.94478737651528
 20
-127.7255227458464
 30
0.0
  0
VERTEX
  5
51
330
4F
100
AcDbEntity
  8
_U+30EC_U+30A4_U+30E4_U+30FC 1
 62
   179
420
  2234388
370
    25
100
AcDbVertex
100
AcDb2dVertex
 10
91.94478737651528
 20
-136.2252799659439
 30
0.0
  0
SEQEND
  5
52
330
4F
100
AcDbEntity
  8
_U+30EC_U+30A4_U+30E4_U+30FC 1
 62
   179
420
  2234388
370
    25
  0
POLYLINE
  5
53
330
1F
100
AcDbEntity
  8
_U+30EC_U+30A4_U+30E4_U+30FC 1
 62
   179
420
  2234388
370
    25
100
AcDb2dPolyline
 66
     1
 10
0.0
 20
0.0
 30
0.0
  0
VERTEX
  5
54
330
53
100
AcDbEntity
  8
_U+30EC_U+30A4_U+30E4_U+30FC 1
 62
   179
420
  2234388
370
    25
100
AcDbVertex
100
AcDb2dVertex
 10
92.94487707322308
 20
-128.7252949678186
 30
0.0
  0
VERTEX
  5
55
330
53
100
AcDbEntity
  8
_U+30EC_U+30A4_U+30E4_U+30FC 1
 62
   179
420
  2234388
370
    25
100
AcDbVertex
100
AcDb2dVertex
 10
92.94487707322308
 20
-137.2250521879157
 30
0.0
  0
SEQEND
  5
56
330
53
100
AcDbEntity
  8
_U+30EC_U+30A4_U+30E4_U+30FC 1
 62
   179
420
  2234388
370
    25
  0
POLYLINE
  5
57
330
1F
100
AcDbEntity
  8
_U+30EC_U+30A4_U+30E4_U+30FC 1
 62
   179
420
  2234388
370
    25
100
AcDb2dPolyline
 66
     1
 10
0.0
 20
0.0
 30
0.0
  0
VERTEX
  5
58
330
57
100
AcDbEntity
  8
_U+30EC_U+30A4_U+30E4_U+30FC 1
 62
   179
420
  2234388
370
    25
100
AcDbVertex
100
AcDb2dVertex
 10
98.44464721069004
 20
-129.2255338565826
 30
0.0
  0
VERTEX
  5
59
330
57
100
AcDbEntity
  8
_U+30EC_U+30A4_U+30E4_U+30FC 1
 62
   179
420
  2234388
370
    25
100
AcDbVertex
100
AcDb2dVertex
 10
99.9446230057558
 20
-129.2255338565826
 30
0.0
  0
SEQEND
  5
5A
330
57
100
AcDbEntity
  8
_U+30EC_U+30A4_U+30E4_U+30FC 1
 62
   179
420
  2234388
370
    25
  0
POLYLINE
  5
5B
330
1F
100
AcDbEntity
  8
_U+30EC_U+30A4_U+30E4_U+30FC 1
 62
   179
420
  2234388
370
    25
100
AcDb2dPolyline
 66
     1
 10
0.0
 20
0.0
 30
0.0
  0
VERTEX
  5
5C
330
5B
100
AcDbEntity
  8
_U+30EC_U+30A4_U+30E4_U+30FC 1
 62
   179
420
  2234388
370
    25
100
AcDbVertex
100
AcDb2dVertex
 10
91.94478737651528
 20
-127.7255227458464
 30
0.0
  0
VERTEX
  5
5D
330
5B
100
AcDbEntity
  8
_U+30EC_U+30A4_U+30E4_U+30FC 1
 62
   179
420
  2234388
370
    25
100
AcDbVertex
100
AcDb2dVertex
 10
98.94485080903989
 20
-127.7255227458464
 30
0.0
  0
SEQEND
  5
5E
330
5B
100
AcDbEntity
  8
_U+30EC_U+30A4_U+30E4_U+30FC 1
 62
   179
420
  2234388
370
    25
  0
POLYLINE
  5
5F
330
1F
100
AcDbEntity
  8
_U+30EC_U+30A4_U+30E4_U+30FC 1
 62
   179
420
  2234388
370
    25
100
AcDb2dPolyline
 66
     1
 10
0.0
 20
0.0
 30
0.0
  0
VERTEX
  5
60
330
5F
100
AcDbEntity
  8
_U+30EC_U+30A4_U+30E4_U+30FC 1
 62
   179
420
  2234388
370
    25
100
AcDbVertex
100
AcDb2dVertex
 10
92.94487707322308
 20
-128.7252949678186
 30
0.0
  0
VERTEX
  5
61
330
5F
100
AcDbEntity
  8
_U+30EC_U+30A4_U+30E4_U+30FC 1
 62
   179
420
  2234388
370
    25
100
AcDbVertex
100
AcDb2dVertex
 10
98.44464721069004
 20
-128.7252949678186
 30
0.0
  0
SEQEND
  5
62
330
5F
100
AcDbEntity
  8
_U+30EC_U+30A4_U+30E4_U+30FC 1
 62
   179
420
  2234388
370
    25
  0
POLYLINE
  5
63
330
1F
100
AcDbEntity
  8
_U+30EC_U+30A4_U+30E4_U+30FC 1
 62
   179
420
  2234388
370
    25
100
AcDb2dPolyline
 66
     1
 10
0.0
 20
0.0
 30
0.0
  0
VERTEX
  5
64
330
63
100
AcDbEntity
  8
_U+30EC_U+30A4_U+30E4_U+30FC 1
 62
   179
420
  2234388
370
    25
100
AcDbVertex
100
AcDb2dVertex
 10
98.44464721069004
 20
-128.7252949678186
 30
0.0
  0
VERTEX
  5
65
330
63
100
AcDbEntity
  8
_U+30EC_U+30A4_U+30E4_U+30FC 1
 62
   179
420
  2234388
370
    25
100
AcDbVertex
100
AcDb2dVertex
 10
98.44464721069004
 20
-129.2255338565826
 30
0.0
  0
SEQEND
  5
66
330
63
100
AcDbEntity
  8
_U+30EC_U+30A4_U+30E4_U+30FC 1
 62
   179
420
  2234388
370
    25
  0
POLYLINE
  5
67
330
1F
100
AcDbEntity
  8
_U+30EC_U+30A4_U+30E4_U+30FC 1
 62
   179
420
  2234388
370
    25
100
AcDb2dPolyline
 66
     1
 10
0.0
 20
0.0
 30
0.0
  0
VERTEX
  5
68
330
67
100
AcDbEntity
  8
_U+30EC_U+30A4_U+30E4_U+30FC 1
 62
   179
420
  2234388
370
    25
100
AcDbVertex
100
AcDb2dVertex
 10
87.94467775579174
 20
-136.9253321879908
 30
0.0
  0
VERTEX
  5
69
330
67
100
AcDbEntity
  8
_U+30EC_U+30A4_U+30E4_U+30FC 1
 62
   179
420
  2234388
370
    25
100
AcDbVertex
100
AcDb2dVertex
 10
88.348782468257
 20
-136.2252799659439
 30
0.0
  0
SEQEND
  5
6A
330
67
100
AcDbEntity
  8
_U+30EC_U+30A4_U+30E4_U+30FC 1
 62
   179
420
  2234388
370
    25
  0
POLYLINE
  5
6B
330
1F
100
AcDbEntity
  8
_U+30EC_U+30A4_U+30E4_U+30FC 1
 62
   179
420
  2234388
370
    25
100
AcDb2dPolyline
 66
     1
 10
0.0
 20
0.0
 30
0.0
  0
VERTEX
  5
6C
330
6B
100
AcDbEntity
  8
_U+30EC_U+30A4_U+30E4_U+30FC 1
 62
   179
420
  2234388
370
    25
100
AcDbVertex
100
AcDb2dVertex
 10
87.94467775579174
 20
-136.9253321879908
 30
0.0
  0
VERTEX
  5
6D
330
6B
100
AcDbEntity
  8
_U+30EC_U+30A4_U+30E4_U+30FC 1
 62
   179
420
  2234388
370
    25
100
AcDbVertex
100
AcDb2dVertex
 10
87.54056859998737
 20
-136.2252799659439
 30
0.0
  0
SEQEND
  5
6E
330
6B
100
AcDbEntity
  8
_U+30EC_U+30A4_U+30E4_U+30FC 1
 62
   179
420
  2234388
370
    25
  0
POLYLINE
  5
6F
330
1F
100
AcDbEntity
  8
_U+30EC_U+30A4_U+30E4_U+30FC 1
 62
   179
420
  2234388
370
    25
100
AcDb2dPolyline
 66
     1
 10
0.0
 20
0.0
 30
0.0
  0
VERTEX
  5
70
330
6F
100
AcDbEntity
  8
_U+30EC_U+30A4_U+30E4_U+30FC 1
 62
   179
420
  2234388
370
    25
100
AcDbVertex
100
AcDb2dVertex
 10
87.54056859998737
 20
-136.2252799659439
 30
0.0
  0
VERTEX
  5
71
330
6F
100
AcDbEntity
  8
_U+30EC_U+30A4_U+30E4_U+30FC 1
 62
   179
420
  2234388
370
    25
100
AcDbVertex
100
AcDb2dVertex
 10
83.94491646949787
 20
-136.2252799659439
 30
0.0
  0
SEQEND
  5
72
330
6F
100
AcDbEntity
  8
_U+30EC_U+30A4_U+30E4_U+30FC 1
 62
   179
420
  2234388
370
    25
  0
POLYLINE
  5
73
330
1F
100
AcDbEntity
  8
_U+30EC_U+30A4_U+30E4_U+30FC 1
 62
   179
420
  2234388
370
    25
100
AcDb2dPolyline
 66
     1
 10
0.0
 20
0.0
 30
0.0
  0
VERTEX
  5
74
330
73
100
AcDbEntity
  8
_U+30EC_U+30A4_U+30E4_U+30FC 1
 62
   179
420
  2234388
370
    25
100
AcDbVertex
100
AcDb2dVertex
 10
82.94479149501319
 20
-128.7252949678186
 30
0.0
  0
VERTEX
  5
75
330
73
100
AcDbEntity
  8
_U+30EC_U+30A4_U+30E4_U+30FC 1
 62
   179
420
  2234388
370
    25
100
AcDbVertex
100
AcDb2dVertex
 10
82.94479149501319
 20
-137.2250521879157
 30
0.0
  0
SEQEND
  5
76
330
73
100
AcDbEntity
  8
_U+30EC_U+30A4_U+30E4_U+30FC 1
 62
   179
420
  2234388
370
    25
  0
POLYLINE
  5
77
330
1F
100
AcDbEntity
  8
_U+30EC_U+30A4_U+30E4_U+30FC 1
 62
   179
420
  2234388
370
    25
100
AcDb2dPolyline
 66
     1
 10
0.0
 20
0.0
 30
0.0
  0
VERTEX
  5
78
330
77
100
AcDbEntity
  8
_U+30EC_U+30A4_U+30E4_U+30FC 1
 62
   179
420
  2234388
370
    25
100
AcDbVertex
100
AcDb2dVertex
 10
83.94491646949787
 20
-127.7255227458464
 30
0.0
  0
VERTEX
  5
79
330
77
100
AcDbEntity
  8
_U+30EC_U+30A4_U+30E4_U+30FC 1
 62
   179
420
  2234388
370
    25
100
AcDbVertex
100
AcDb2dVertex
 10
83.94491646949787
 20
-136.2252799659439
 30
0.0
  0
SEQEND
  5
7A
330
77
100
AcDbEntity
  8
_U+30EC_U+30A4_U+30E4_U+30FC 1
 62
   179
420
  2234388
370
    25
  0
POLYLINE
  5
7B
330
1F
100
AcDbEntity
  8
_U+30EC_U+30A4_U+30E4_U+30FC 1
 62
   179
420
  2234388
370
    25
100
AcDb2dPolyline
 66
     1
 10
0.0
 20
0.0
 30
0.0
  0
VERTEX
  5
7C
330
7B
100
AcDbEntity
  8
_U+30EC_U+30A4_U+30E4_U+30FC 1
 62
   179
420
  2234388
370
    25
100
AcDbVertex
100
AcDb2dVertex
 10
77.44470385755433
 20
-128.7252949678186
 30
0.0
  0
VERTEX
  5
7D
330
7B
100
AcDbEntity
  8
_U+30EC_U+30A4_U+30E4_U+30FC 1
 62
   179
420
  2234388
370
    25
100
AcDbVertex
100
AcDb2dVertex
 10
77.44470385755433
 20
-129.2255338565826
 30
0.0
  0
SEQEND
  5
7E
330
7B
100
AcDbEntity
  8
_U+30EC_U+30A4_U+30E4_U+30FC 1
 62
   179
420
  2234388
370
    25
  0
POLYLINE
  5
7F
330
1F
100
AcDbEntity
  8
_U+30EC_U+30A4_U+30E4_U+30FC 1
 62
   179
420
  2234388
370
    25
100
AcDb2dPolyline
 66
     1
 10
0.0
 20
0.0
 30
0.0
  0
VERTEX
  5
80
330
7F
100
AcDbEntity
  8
_U+30EC_U+30A4_U+30E4_U+30FC 1
 62
   179
420
  2234388
370
    25
100
AcDbVertex
100
AcDb2dVertex
 10
82.94479149501319
 20
-128.7252949678186
 30
0.0
  0
VERTEX
  5
81
330
7F
100
AcDbEntity
  8
_U+30EC_U+30A4_U+30E4_U+30FC 1
 62
   179
420
  2234388
370
    25
100
AcDbVertex
100
AcDb2dVertex
 10
77.44470385755433
 20
-128.7252949678186
 30
0.0
  0
SEQEND
  5
82
330
7F
100
AcDbEntity
  8
_U+30EC_U+30A4_U+30E4_U+30FC 1
 62
   179
420
  2234388
370
    25
  0
POLYLINE
  5
83
330
1F
100
AcDbEntity
  8
_U+30EC_U+30A4_U+30E4_U+30FC 1
 62
   179
420
  2234388
370
    25
100
AcDb2dPolyline
 66
     1
 10
0.0
 20
0.0
 30
0.0
  0
VERTEX
  5
84
330
83
100
AcDbEntity
  8
_U+30EC_U+30A4_U+30E4_U+30FC 1
 62
   179
420
  2234388
370
    25
100
AcDbVertex
100
AcDb2dVertex
 10
83.94491646949787
 20
-127.7255227458464
 30
0.0
  0
VERTEX
  5
85
330
83
100
AcDbEntity
  8
_U+30EC_U+30A4_U+30E4_U+30FC 1
 62
   179
420
  2234388
370
    25
100
AcDbVertex
100
AcDb2dVertex
 10
76.94481775919638
 20
-127.7255227458464
 30
0.0
  0
SEQEND
  5
86
330
83
100
AcDbEntity
  8
_U+30EC_U+30A4_U+30E4_U+30FC 1
 62
   179
420
  2234388
370
    25
  0
POLYLINE
  5
87
330
1F
100
AcDbEntity
  8
_U+30EC_U+30A4_U+30E4_U+30FC 1
 62
   179
420
  2234388
370
    25
100
AcDb2dPolyline
 66
     1
 10
0.0
 20
0.0
 30
0.0
  0
VERTEX
  5
88
330
87
100
AcDbEntity
  8
_U+30EC_U+30A4_U+30E4_U+30FC 1
 62
   179
420
  2234388
370
    25
100
AcDbVertex
100
AcDb2dVertex
 10
77.44470385755433
 20
-129.2255338565826
 30
0.0
  0
VERTEX
  5
89
330
87
100
AcDbEntity
  8
_U+30EC_U+30A4_U+30E4_U+30FC 1
 62
   179
420
  2234388
370
    25
100
AcDbVertex
100
AcDb2dVertex
 10
75.94472806248857
 20
-129.2255338565826
 30
0.0
  0
SEQEND
  5
8A
330
87
100
AcDbEntity
  8
_U+30EC_U+30A4_U+30E4_U+30FC 1
 62
   179
420
  2234388
370
    25
  0
POLYLINE
  5
8B
330
1F
100
AcDbEntity
  8
_U+30EC_U+30A4_U+30E4_U+30FC 1
 62
   179
420
  2234388
370
    25
100
AcDb2dPolyline
 66
     1
 10
0.0
 20
0.0
 30
0.0
  0
VERTEX
  5
8C
330
8B
100
AcDbEntity
  8
_U+30EC_U+30A4_U+30E4_U+30FC 1
 62
   179
420
  2234388
370
    25
100
AcDbVertex
100
AcDb2dVertex
 10
75.94472806248857
 20
-128.7252949678186
 30
0.0
  0
VERTEX
  5
8D
330
8B
100
AcDbEntity
  8
_U+30EC_U+30A4_U+30E4_U+30FC 1
 62
   179
420
  2234388
370
    25
100
AcDbVertex
100
AcDb2dVertex
 10
75.94472806248857
 20
-129.2255338565826
 30
0.0
  0
SEQEND
  5
8E
330
8B
100
AcDbEntity
  8
_U+30EC_U+30A4_U+30E4_U+30FC 1
 62
   179
420
  2234388
370
    25
  0
SPLINE
  5
8F
330
1F
100
AcDbEntity
  8
_U+30EC_U+30A4_U+30E4_U+30FC 1
 62
   179
420
  2234388
370
    25
100
AcDbSpline
210
0.0
220
0.0
230
1.0
 70
     8
 71
     3
 72
     8
 73
     4
 74
     0
 42
0.0000000001
 43
0.0000000001
 12
1.0
 22
0.0
 32
0.0
 13
1.0
 23
0.0
 33
0.0
 40
0.0
 40
0.0
 40
0.0
 40
0.0
 40
1.0
 40
1.0
 40
1.0
 40
1.0
 10
99.9446230057558
 20
-128.7252949678186
 30
0.0
 10
99.9446230057558
 20
-128.1734094124012
 30
0.0
 10
99.49712440606133
 20
-127.7255227458464
 30
0.0
 10
98.94485080903989
 20
-127.7255227458464
 30
0.0
  0
SPLINE
  5
90
330
1F
100
AcDbEntity
  8
_U+30EC_U+30A4_U+30E4_U+30FC 1
 62
   179
420
  2234388
370
    25
100
AcDbSpline
210
0.0
220
0.0
230
1.0
 70
     8
 71
     3
 72
     8
 73
     4
 74
     0
 42
0.0000000001
 43
0.0000000001
 12
1.0
 22
0.0
 32
0.0
 13
1.0
 23
0.0
 33
0.0
 40
0.0
 40
0.0
 40
0.0
 40
0.0
 40
1.0
 40
1.0
 40
1.0
 40
1.0
 10
76.94481775919638
 20
-127.7255227458464
 30
0.0
 10
76.39257943995182
 20
-127.7255227458464
 30
0.0
 10
75.94472806248857
 20
-128.1734094124012
 30
0.0
 10
75.94472806248857
 20
-128.7252949678186
 30
0.0
  0
SPLINE
  5
91
330
1F
100
AcDbEntity
  8
_U+30EC_U+30A4_U+30E4_U+30FC 1
 62
   179
420
  2234388
370
     9
100
AcDbSpline
210
0.0
220
0.0
230
1.0
 70
    11
 71
     3
 72
    17
 73
    13
 74
     0
 42
0.0000000001
 43
0.0000000001
 12
1.0
 22
0.0
 32
0.0
 13
1.0
 23
0.0
 33
0.0
 40
0.0
 40
0.0
 40
0.0
 40
0.0
 40
1.0
 40
1.0
 40
1.0
 40
2.0
 40
2.0
 40
2.0
 40
3.0
 40
3.0
 40
3.0
 40
4.0
 40
4.0
 40
4.0
 40
4.0
 10
76.0446347266064
 20
-123.7257988579573
 30
0.0
 10
76.0446347266064
 20
-123.669954135749
 30
0.0
 10
75.99983194997165
 20
-123.6251866357605
 30
0.0
 10
75.94472806248857
 20
-123.6251866357605
 30
0.0
 10
75.88958889722862
 20
-123.6251866357605
 30
0.0
 10
75.84482139837074
 20
-123.669954135749
 30
0.0
 10
75.84482139837074
 20
-123.7257988579573
 30
0.0
 10
75.84482139837074
 20
-123.7809027468326
 30
0.0
 10
75.88958889722862
 20
-123.8257055245993
 30
0.0
 10
75.94472806248857
 20
-123.8257055245993
 30
0.0
 10
75.99983194997165
 20
-123.8257055245993
 30
0.0
 10
76.0446347266064
 20
-123.7809027468326
 30
0.0
 10
76.0446347266064
 20
-123.7257988579573
 30
0.0
  0
SPLINE
  5
92
330
1F
100
AcDbEntity
  8
_U+30EC_U+30A4_U+30E4_U+30FC 1
 62
   179
420
  2234388
370
     9
100
AcDbSpline
210
0.0
220
0.0
230
1.0
 70
    11
 71
     3
 72
    17
 73
    13
 74
     0
 42
0.0000000001
 43
0.0000000001
 12
1.0
 22
0.0
 32
0.0
 13
1.0
 23
0.0
 33
0.0
 40
0.0
 40
0.0
 40
0.0
 40
0.0
 40
1.0
 40
1.0
 40
1.0
 40
2.0
 40
2.0
 40
2.0
 40
3.0
 40
3.0
 40
3.0
 40
4.0
 40
4.0
 40
4.0
 40
4.0
 10
84.04482313361571
 20
-123.7257988579573
 30
0.0
 10
84.04482313361571
 20
-123.669954135749
 30
0.0
 10
84.00005563475783
 20
-123.6251866357605
 30
0.0
 10
83.94491646949787
 20
-123.6251866357605
 30
0.0
 10
83.8898125820148
 20
-123.6251866357605
 30
0.0
 10
83.84500980538003
 20
-123.669954135749
 30
0.0
 10
83.84500980538003
 20
-123.7257988579573
 30
0.0
 10
83.84500980538003
 20
-123.7809027468326
 30
0.0
 10
83.8898125820148
 20
-123.8257055245993
 30
0.0
 10
83.94491646949787
 20
-123.8257055245993
 30
0.0
 10
84.00005563475783
 20
-123.8257055245993
 30
0.0
 10
84.04482313361571
 20
-123.7809027468326
 30
0.0
 10
84.04482313361571
 20
-123.7257988579573
 30
0.0
  0
SPLINE
  5
93
330
1F
100
AcDbEntity
  8
_U+30EC_U+30A4_U+30E4_U+30FC 1
 62
   179
420
  2234388
370
     9
100
AcDbSpline
210
0.0
220
0.0
230
1.0
 70
    11
 71
     3
 72
    17
 73
    13
 74
     0
 42
0.0000000001
 43
0.0000000001
 12
1.0
 22
0.0
 32
0.0
 13
1.0
 23
0.0
 33
0.0
 40
0.0
 40
0.0
 40
0.0
 40
0.0
 40
1.0
 40
1.0
 40
1.0
 40
2.0
 40
2.0
 40
2.0
 40
3.0
 40
3.0
 40
3.0
 40
4.0
 40
4.0
 40
4.0
 40
4.0
 10
92.0446940406331
 20
-123.7257988579573
 30
0.0
 10
92.0446940406331
 20
-123.669954135749
 30
0.0
 10
91.99989126399835
 20
-123.6251866357605
 30
0.0
 10
91.94478737651528
 20
-123.6251866357605
 30
0.0
 10
91.88964821125532
 20
-123.6251866357605
 30
0.0
 10
91.84488071239744
 20
-123.669954135749
 30
0.0
 10
91.84488071239744
 20
-123.7257988579573
 30
0.0
 10
91.84488071239744
 20
-123.7809027468326
 30
0.0
 10
91.88964821125532
 20
-123.8257055245993
 30
0.0
 10
91.94478737651528
 20
-123.8257055245993
 30
0.0
 10
91.99989126399835
 20
-123.8257055245993
 30
0.0
 10
92.0446940406331
 20
-123.7809027468326
 30
0.0
 10
92.0446940406331
 20
-123.7257988579573
 30
0.0
  0
SPLINE
  5
94
330
1F
100
AcDbEntity
  8
_U+30EC_U+30A4_U+30E4_U+30FC 1
 62
   179
420
  2234388
370
     9
100
AcDbSpline
210
0.0
220
0.0
230
1.0
 70
    11
 71
     3
 72
    17
 73
    13
 74
     0
 42
0.0000000001
 43
0.0000000001
 12
1.0
 22
0.0
 32
0.0
 13
1.0
 23
0.0
 33
0.0
 40
0.0
 40
0.0
 40
0.0
 40
0.0
 40
1.0
 40
1.0
 40
1.0
 40
2.0
 40
2.0
 40
2.0
 40
3.0
 40
3.0
 40
3.0
 40
4.0
 40
4.0
 40
4.0
 40
4.0
 10
100.0448824476424
 20
-123.7257988579573
 30
0.0
 10
100.0448824476424
 20
-123.669954135749
 30
0.0
 10
100.0000796710076
 20
-123.6251866357605
 30
0.0
 10
99.9446230057558
 20
-123.6251866357605
 30
0.0
 10
99.88951911827273
 20
-123.6251866357605
 30
0.0
 10
99.84471634163796
 20
-123.669954135749
 30
0.0
 10
99.84471634163796
 20
-123.7257988579573
 30
0.0
 10
99.84471634163796
 20
-123.7809027468326
 30
0.0
 10
99.88951911827273
 20
-123.8257055245993
 30
0.0
 10
99.9446230057558
 20
-123.8257055245993
 30
0.0
 10
100.0000796710076
 20
-123.8257055245993
 30
0.0
 10
100.0448824476424
 20
-123.7809027468326
 30
0.0
 10
100.0448824476424
 20
-123.7257988579573
 30
0.0
  0
SPLINE
  5
95
330
1F
100
AcDbEntity
  8
_U+30EC_U+30A4_U+30E4_U+30FC 1
 62
   179
420
  2234388
370
     9
100
AcDbSpline
210
0.0
220
0.0
230
1.0
 70
    11
 71
     3
 72
    17
 73
    13
 74
     0
 42
0.0000000001
 43
0.0000000001
 12
1.0
 22
0.0
 32
0.0
 13
1.0
 23
0.0
 33
0.0
 40
0.0
 40
0.0
 40
0.0
 40
0.0
 40
1.0
 40
1.0
 40
1.0
 40
2.0
 40
2.0
 40
2.0
 40
3.0
 40
3.0
 40
3.0
 40
4.0
 40
4.0
 40
4.0
 40
4.0
 10
104.0446415122667
 20
-127.7255227458464
 30
0.0
 10
104.0446415122667
 20
-127.6704188569715
 30
0.0
 10
103.999838735632
 20
-127.6256160792047
 30
0.0
 10
103.9447348481489
 20
-127.6256160792047
 30
0.0
 10
103.8895956828889
 20
-127.6256160792047
 30
0.0
 10
103.844828184031
 20
-127.6704188569715
 30
0.0
 10
103.844828184031
 20
-127.7255227458464
 30
0.0
 10
103.844828184031
 20
-127.7806619124994
 30
0.0
 10
103.8895956828889
 20
-127.825429412488
 30
0.0
 10
103.9447348481489
 20
-127.825429412488
 30
0.0
 10
103.999838735632
 20
-127.825429412488
 30
0.0
 10
104.0446415122667
 20
-127.7806619124994
 30
0.0
 10
104.0446415122667
 20
-127.7255227458464
 30
0.0
  0
SPLINE
  5
96
330
1F
100
AcDbEntity
  8
_U+30EC_U+30A4_U+30E4_U+30FC 1
 62
   179
420
  2234388
370
     9
100
AcDbSpline
210
0.0
220
0.0
230
1.0
 70
    11
 71
     3
 72
    17
 73
    13
 74
     0
 42
0.0000000001
 43
0.0000000001
 12
1.0
 22
0.0
 32
0.0
 13
1.0
 23
0.0
 33
0.0
 40
0.0
 40
0.0
 40
0.0
 40
0.0
 40
1.0
 40
1.0
 40
1.0
 40
2.0
 40
2.0
 40
2.0
 40
3.0
 40
3.0
 40
3.0
 40
4.0
 40
4.0
 40
4.0
 40
4.0
 10
104.0446415122667
 20
-129.2255338565826
 30
0.0
 10
104.0446415122667
 20
-129.1703946899295
 30
0.0
 10
103.999838735632
 20
-129.125627189941
 30
0.0
 10
103.9447348481489
 20
-129.125627189941
 30
0.0
 10
103.8895956828889
 20
-129.125627189941
 30
0.0
 10
103.844828184031
 20
-129.1703946899295
 30
0.0
 10
103.844828184031
 20
-129.2255338565826
 30
0.0
 10
103.844828184031
 20
-129.2806377454575
 30
0.0
 10
103.8895956828889
 20
-129.3254405232242
 30
0.0
 10
103.9447348481489
 20
-129.3254405232242
 30
0.0
 10
103.999838735632
 20
-129.3254405232242
 30
0.0
 10
104.0446415122667
 20
-129.2806377454575
 30
0.0
 10
104.0446415122667
 20
-129.2255338565826
 30
0.0
  0
SPLINE
  5
97
330
1F
100
AcDbEntity
  8
_U+30EC_U+30A4_U+30E4_U+30FC 1
 62
   179
420
  2234388
370
     9
100
AcDbSpline
210
0.0
220
0.0
230
1.0
 70
    11
 71
     3
 72
    17
 73
    13
 74
     0
 42
0.0000000001
 43
0.0000000001
 12
1.0
 22
0.0
 32
0.0
 13
1.0
 23
0.0
 33
0.0
 40
0.0
 40
0.0
 40
0.0
 40
0.0
 40
1.0
 40
1.0
 40
1.0
 40
2.0
 40
2.0
 40
2.0
 40
3.0
 40
3.0
 40
3.0
 40
4.0
 40
4.0
 40
4.0
 40
4.0
 10
104.0446415122667
 20
-137.2250521879157
 30
0.0
 10
104.0446415122667
 20
-137.1699130212633
 30
0.0
 10
103.999838735632
 20
-137.1251455212741
 30
0.0
 10
103.9447348481489
 20
-137.1251455212741
 30
0.0
 10
103.8895956828889
 20
-137.1251455212741
 30
0.0
 10
103.844828184031
 20
-137.1699130212633
 30
0.0
 10
103.844828184031
 20
-137.2250521879157
 30
0.0
 10
103.844828184031
 20
-137.2808616323462
 30
0.0
 10
103.8895956828889
 20
-137.3256291323354
 30
0.0
 10
103.9447348481489
 20
-137.3256291323354
 30
0.0
 10
103.999838735632
 20
-137.3256291323354
 30
0.0
 10
104.0446415122667
 20
-137.2808616323462
 30
0.0
 10
104.0446415122667
 20
-137.2250521879157
 30
0.0
  0
SPLINE
  5
98
330
1F
100
AcDbEntity
  8
_U+30EC_U+30A4_U+30E4_U+30FC 1
 62
   179
420
  2234388
370
     9
100
AcDbSpline
210
0.0
220
0.0
230
1.0
 70
    11
 71
     3
 72
    17
 73
    13
 74
     0
 42
0.0000000001
 43
0.0000000001
 12
1.0
 22
0.0
 32
0.0
 13
1.0
 23
0.0
 33
0.0
 40
0.0
 40
0.0
 40
0.0
 40
0.0
 40
1.0
 40
1.0
 40
1.0
 40
2.0
 40
2.0
 40
2.0
 40
3.0
 40
3.0
 40
3.0
 40
4.0
 40
4.0
 40
4.0
 40
4.0
 10
83.04469815913102
 20
-132.225520800277
 30
0.0
 10
83.04469815913102
 20
-132.170416911402
 30
0.0
 10
82.99993066027314
 20
-132.1256141336353
 30
0.0
 10
82.94479149501319
 20
-132.1256141336353
 30
0.0
 10
82.88933482976134
 20
-132.1256141336353
 30
0.0
 10
82.84456942373332
 20
-132.170416911402
 30
0.0
 10
82.84456942373332
 20
-132.225520800277
 30
0.0
 10
82.84456942373332
 20
-132.28065996693
 30
0.0
 10
82.88933482976134
 20
-132.3254274669186
 30
0.0
 10
82.94479149501319
 20
-132.3254274669186
 30
0.0
 10
82.99993066027314
 20
-132.3254274669186
 30
0.0
 10
83.04469815913102
 20
-132.28065996693
 30
0.0
 10
83.04469815913102
 20
-132.225520800277
 30
0.0
  0
SPLINE
  5
99
330
1F
100
AcDbEntity
  8
_U+30EC_U+30A4_U+30E4_U+30FC 1
 62
   179
420
  2234388
370
     9
100
AcDbSpline
210
0.0
220
0.0
230
1.0
 70
    11
 71
     3
 72
    17
 73
    13
 74
     0
 42
0.0000000001
 43
0.0000000001
 12
1.0
 22
0.0
 32
0.0
 13
1.0
 23
0.0
 33
0.0
 40
0.0
 40
0.0
 40
0.0
 40
0.0
 40
1.0
 40
1.0
 40
1.0
 40
2.0
 40
2.0
 40
2.0
 40
3.0
 40
3.0
 40
3.0
 40
4.0
 40
4.0
 40
4.0
 40
4.0
 10
84.04482313361571
 20
-132.225520800277
 30
0.0
 10
84.04482313361571
 20
-132.170416911402
 30
0.0
 10
84.00005563475783
 20
-132.1256141336353
 30
0.0
 10
83.94491646949787
 20
-132.1256141336353
 30
0.0
 10
83.8898125820148
 20
-132.1256141336353
 30
0.0
 10
83.84500980538003
 20
-132.170416911402
 30
0.0
 10
83.84500980538003
 20
-132.225520800277
 30
0.0
 10
83.84500980538003
 20
-132.28065996693
 30
0.0
 10
83.8898125820148
 20
-132.3254274669186
 30
0.0
 10
83.94491646949787
 20
-132.3254274669186
 30
0.0
 10
84.00005563475783
 20
-132.3254274669186
 30
0.0
 10
84.04482313361571
 20
-132.28065996693
 30
0.0
 10
84.04482313361571
 20
-132.225520800277
 30
0.0
  0
POLYLINE
  5
9A
330
1F
100
AcDbEntity
  8
_U+30EC_U+30A4_U+30E4_U+30FC 1
 62
   179
420
  2234388
370
     9
100
AcDb2dPolyline
 66
     1
 10
0.0
 20
0.0
 30
0.0
  0
VERTEX
  5
9B
330
9A
100
AcDbEntity
  8
_U+30EC_U+30A4_U+30E4_U+30FC 1
 62
   179
420
  2234388
370
     9
100
AcDbVertex
100
AcDb2dVertex
 10
75.94472806248857
 20
-123.7257988579573
 30
0.0
  0
VERTEX
  5
9C
330
9A
100
AcDbEntity
  8
_U+30EC_U+30A4_U+30E4_U+30FC 1
 62
   179
420
  2234388
370
     9
100
AcDbVertex
100
AcDb2dVertex
 10
83.94491646949787
 20
-123.7257988579573
 30
0.0
  0
SEQEND
  5
9D
330
9A
100
AcDbEntity
  8
_U+30EC_U+30A4_U+30E4_U+30FC 1
 62
   179
420
  2234388
370
     9
  0
POLYLINE
  5
9E
330
1F
100
AcDbEntity
  8
_U+30EC_U+30A4_U+30E4_U+30FC 1
 62
   179
420
  2234388
370
     9
100
AcDb2dPolyline
 66
     1
 10
0.0
 20
0.0
 30
0.0
  0
VERTEX
  5
9F
330
9E
100
AcDbEntity
  8
_U+30EC_U+30A4_U+30E4_U+30FC 1
 62
   179
420
  2234388
370
     9
100
AcDbVertex
100
AcDb2dVertex
 10
75.94472806248857
 20
-126.1855771906757
 30
0.0
  0
VERTEX
  5
A0
330
9E
100
AcDbEntity
  8
_U+30EC_U+30A4_U+30E4_U+30FC 1
 62
   179
420
  2234388
370
     9
100
AcDbVertex
100
AcDb2dVertex
 10
75.94472806248857
 20
-122.7253210804299
 30
0.0
  0
SEQEND
  5
A1
330
9E
100
AcDbEntity
  8
_U+30EC_U+30A4_U+30E4_U+30FC 1
 62
   179
420
  2234388
370
     9
  0
POLYLINE
  5
A2
330
1F
100
AcDbEntity
  8
_U+30EC_U+30A4_U+30E4_U+30FC 1
 62
   179
420
  2234388
370
     9
100
AcDb2dPolyline
 66
     1
 10
0.0
 20
0.0
 30
0.0
  0
VERTEX
  5
A3
330
A2
100
AcDbEntity
  8
_U+30EC_U+30A4_U+30E4_U+30FC 1
 62
   179
420
  2234388
370
     9
100
AcDbVertex
100
AcDb2dVertex
 10
83.94491646949787
 20
-125.1851346909258
 30
0.0
  0
VERTEX
  5
A4
330
A2
100
AcDbEntity
  8
_U+30EC_U+30A4_U+30E4_U+30FC 1
 62
   179
420
  2234388
370
     9
100
AcDbVertex
100
AcDb2dVertex
 10
83.94491646949787
 20
-122.7253210804299
 30
0.0
  0
SEQEND
  5
A5
330
A2
100
AcDbEntity
  8
_U+30EC_U+30A4_U+30E4_U+30FC 1
 62
   179
420
  2234388
370
     9
  0
INSERT
  5
A7
330
1F
100
AcDbEntity
  8
_U+30EC_U+30A4_U+30E4_U+30FC 1
100
AcDbBlockReference
  2
block 2
 10
0.0
 20
0.0
 30
0.0
  0
POLYLINE
  5
AE
330
1F
100
AcDbEntity
  8
_U+30EC_U+30A4_U+30E4_U+30FC 1
 62
   179
420
  2234388
370
     9
100
AcDb2dPolyline
 66
     1
 10
0.0
 20
0.0
 30
0.0
  0
VERTEX
  5
AF
330
AE
100
AcDbEntity
  8
_U+30EC_U+30A4_U+30E4_U+30FC 1
 62
   179
420
  2234388
370
     9
100
AcDbVertex
100
AcDb2dVertex
 10
83.94491646949787
 20
-123.7257988579573
 30
0.0
  0
VERTEX
  5
B0
330
AE
100
AcDbEntity
  8
_U+30EC_U+30A4_U+30E4_U+30FC 1
 62
   179
420
  2234388
370
     9
100
AcDbVertex
100
AcDb2dVertex
 10
91.94478737651528
 20
-123.7257988579573
 30
0.0
  0
SEQEND
  5
B1
330
AE
100
AcDbEntity
  8
_U+30EC_U+30A4_U+30E4_U+30FC 1
 62
   179
420
  2234388
370
     9
  0
POLYLINE
  5
B2
330
1F
100
AcDbEntity
  8
_U+30EC_U+30A4_U+30E4_U+30FC 1
 62
   179
420
  2234388
370
     9
100
AcDb2dPolyline
 66
     1
 10
0.0
 20
0.0
 30
0.0
  0
VERTEX
  5
B3
330
B2
100
AcDbEntity
  8
_U+30EC_U+30A4_U+30E4_U+30FC 1
 62
   179
420
  2234388
370
     9
100
AcDbVertex
100
AcDb2dVertex
 10
91.94478737651528
 20
-125.1851346909258
 30
0.0
  0
VERTEX
  5
B4
330
B2
100
AcDbEntity
  8
_U+30EC_U+30A4_U+30E4_U+30FC 1
 62
   179
420
  2234388
370
     9
100
AcDbVertex
100
AcDb2dVertex
 10
91.94478737651528
 20
-122.7253210804299
 30
0.0
  0
SEQEND
  5
B5
330
B2
100
AcDbEntity
  8
_U+30EC_U+30A4_U+30E4_U+30FC 1
 62
   179
420
  2234388
370
     9
  0
INSERT
  5
B7
330
1F
100
AcDbEntity
  8
_U+30EC_U+30A4_U+30E4_U+30FC 1
100
AcDbBlockReference
  2
block 3
 10
0.0
 20
0.0
 30
0.0
  0
POLYLINE
  5
BE
330
1F
100
AcDbEntity
  8
_U+30EC_U+30A4_U+30E4_U+30FC 1
 62
   179
420
  2234388
370
     9
100
AcDb2dPolyline
 66
     1
 10
0.0
 20
0.0
 30
0.0
  0
VERTEX
  5
BF
330
BE
100
AcDbEntity
  8
_U+30EC_U+30A4_U+30E4_U+30FC 1
 62
   179
420
  2234388
370
     9
100
AcDbVertex
100
AcDb2dVertex
 10
91.94478737651528
 20
-123.7257988579573
 30
0.0
  0
VERTEX
  5
C0
330
BE
100
AcDbEntity
  8
_U+30EC_U+30A4_U+30E4_U+30FC 1
 62
   179
420
  2234388
370
     9
100
AcDbVertex
100
AcDb2dVertex
 10
99.9446230057558
 20
-123.7257988579573
 30
0.0
  0
SEQEND
  5
C1
330
BE
100
AcDbEntity
  8
_U+30EC_U+30A4_U+30E4_U+30FC 1
 62
   179
420
  2234388
370
     9
  0
POLYLINE
  5
C2
330
1F
100
AcDbEntity
  8
_U+30EC_U+30A4_U+30E4_U+30FC 1
 62
   179
420
  2234388
370
     9
100
AcDb2dPolyline
 66
     1
 10
0.0
 20
0.0
 30
0.0
  0
VERTEX
  5
C3
330
C2
100
AcDbEntity
  8
_U+30EC_U+30A4_U+30E4_U+30FC 1
 62
   179
420
  2234388
370
     9
100
AcDbVertex
100
AcDb2dVertex
 10
99.9446230057558
 20
-126.1855771906757
 30
0.0
  0
VERTEX
  5
C4
330
C2
100
AcDbEntity
  8
_U+30EC_U+30A4_U+30E4_U+30FC 1
 62
   179
420
  2234388
370
     9
100
AcDbVertex
100
AcDb2dVertex
 10
99.9446230057558
 20
-122.7253210804299
 30
0.0
  0
SEQEND
  5
C5
330
C2
100
AcDbEntity
  8
_U+30EC_U+30A4_U+30E4_U+30FC 1
 62
   179
420
  2234388
370
     9
  0
INSERT
  5
C7
330
1F
100
AcDbEntity
  8
_U+30EC_U+30A4_U+30E4_U+30FC 1
100
AcDbBlockReference
  2
block 4
 10
0.0
 20
0.0
 30
0.0
  0
POLYLINE
  5
CE
330
1F
100
AcDbEntity
  8
_U+30EC_U+30A4_U+30E4_U+30FC 1
 62
   179
420
  2234388
370
     9
100
AcDb2dPolyline
 66
     1
 10
0.0
 20
0.0
 30
0.0
  0
VERTEX
  5
CF
330
CE
100
AcDbEntity
  8
_U+30EC_U+30A4_U+30E4_U+30FC 1
 62
   179
420
  2234388
370
     9
100
AcDbVertex
100
AcDb2dVertex
 10
103.9447348481489
 20
-127.7255227458464
 30
0.0
  0
VERTEX
  5
D0
330
CE
100
AcDbEntity
  8
_U+30EC_U+30A4_U+30E4_U+30FC 1
 62
   179
420
  2234388
370
     9
100
AcDbVertex
100
AcDb2dVertex
 10
103.9447348481489
 20
-122.4676169138275
 30
0.0
  0
SEQEND
  5
D1
330
CE
100
AcDbEntity
  8
_U+30EC_U+30A4_U+30E4_U+30FC 1
 62
   179
420
  2234388
370
     9
  0
POLYLINE
  5
D2
330
1F
100
AcDbEntity
  8
_U+30EC_U+30A4_U+30E4_U+30FC 1
 62
   179
420
  2234388
370
     9
100
AcDb2dPolyline
 66
     1
 10
0.0
 20
0.0
 30
0.0
  0
VERTEX
  5
D3
330
D2
100
AcDbEntity
  8
_U+30EC_U+30A4_U+30E4_U+30FC 1
 62
   179
420
  2234388
370
     9
100
AcDbVertex
100
AcDb2dVertex
 10
103.9447348481489
 20
-127.7255227458464
 30
0.0
  0
VERTEX
  5
D4
330
D2
100
AcDbEntity
  8
_U+30EC_U+30A4_U+30E4_U+30FC 1
 62
   179
420
  2234388
370
     9
100
AcDbVertex
100
AcDb2dVertex
 10
103.9447348481489
 20
-129.2255338565826
 30
0.0
  0
SEQEND
  5
D5
330
D2
100
AcDbEntity
  8
_U+30EC_U+30A4_U+30E4_U+30FC 1
 62
   179
420
  2234388
370
     9
  0
POLYLINE
  5
D6
330
1F
100
AcDbEntity
  8
_U+30EC_U+30A4_U+30E4_U+30FC 1
 62
   179
420
  2234388
370
     9
100
AcDb2dPolyline
 66
     1
 10
0.0
 20
0.0
 30
0.0
  0
VERTEX
  5
D7
330
D6
100
AcDbEntity
  8
_U+30EC_U+30A4_U+30E4_U+30FC 1
 62
   179
420
  2234388
370
     9
100
AcDbVertex
100
AcDb2dVertex
 10
101.4849212997928
 20
-127.7255227458464
 30
0.0
  0
VERTEX
  5
D8
330
D6
100
AcDbEntity
  8
_U+30EC_U+30A4_U+30E4_U+30FC 1
 62
   179
420
  2234388
370
     9
100
AcDbVertex
100
AcDb2dVertex
 10
104.9448245448567
 20
-127.7255227458464
 30
0.0
  0
SEQEND
  5
D9
330
D6
100
AcDbEntity
  8
_U+30EC_U+30A4_U+30E4_U+30FC 1
 62
   179
420
  2234388
370
     9
  0
POLYLINE
  5
DA
330
1F
100
AcDbEntity
  8
_U+30EC_U+30A4_U+30E4_U+30FC 1
 62
   179
420
  2234388
370
     9
100
AcDb2dPolyline
 66
     1
 10
0.0
 20
0.0
 30
0.0
  0
VERTEX
  5
DB
330
DA
100
AcDbEntity
  8
_U+30EC_U+30A4_U+30E4_U+30FC 1
 62
   179
420
  2234388
370
     9
100
AcDbVertex
100
AcDb2dVertex
 10
102.4846934965088
 20
-129.2255338565826
 30
0.0
  0
VERTEX
  5
DC
330
DA
100
AcDbEntity
  8
_U+30EC_U+30A4_U+30E4_U+30FC 1
 62
   179
420
  2234388
370
     9
100
AcDbVertex
100
AcDb2dVertex
 10
104.9448245448567
 20
-129.2255338565826
 30
0.0
  0
SEQEND
  5
DD
330
DA
100
AcDbEntity
  8
_U+30EC_U+30A4_U+30E4_U+30FC 1
 62
   179
420
  2234388
370
     9
  0
INSERT
  5
DF
330
1F
100
AcDbEntity
  8
_U+30EC_U+30A4_U+30E4_U+30FC 1
100
AcDbBlockReference
  2
block 5
 10
0.0
 20
0.0
 30
0.0
  0
POLYLINE
  5
EE
330
1F
100
AcDbEntity
  8
_U+30EC_U+30A4_U+30E4_U+30FC 1
 62
   179
420
  2234388
370
     9
100
AcDb2dPolyline
 66
     1
 10
0.0
 20
0.0
 30
0.0
  0
VERTEX
  5
EF
330
EE
100
AcDbEntity
  8
_U+30EC_U+30A4_U+30E4_U+30FC 1
 62
   179
420
  2234388
370
     9
100
AcDbVertex
100
AcDb2dVertex
 10
83.94491646949787
 20
-132.225520800277
 30
0.0
  0
VERTEX
  5
F0
330
EE
100
AcDbEntity
  8
_U+30EC_U+30A4_U+30E4_U+30FC 1
 62
   179
420
  2234388
370
     9
100
AcDbVertex
100
AcDb2dVertex
 10
87.71522887330919
 20
-132.225520800277
 30
0.0
  0
SEQEND
  5
F1
330
EE
100
AcDbEntity
  8
_U+30EC_U+30A4_U+30E4_U+30FC 1
 62
   179
420
  2234388
370
     9
  0
POLYLINE
  5
F2
330
1F
100
AcDbEntity
  8
_U+30EC_U+30A4_U+30E4_U+30FC 1
 62
   179
420
  2234388
370
     9
100
AcDb2dPolyline
 66
     1
 10
0.0
 20
0.0
 30
0.0
  0
VERTEX
  5
F3
330
F2
100
AcDbEntity
  8
_U+30EC_U+30A4_U+30E4_U+30FC 1
 62
   179
420
  2234388
370
     9
100
AcDbVertex
100
AcDb2dVertex
 10
81.94470179830537
 20
-132.225520800277
 30
0.0
  0
VERTEX
  5
F4
330
F2
100
AcDbEntity
  8
_U+30EC_U+30A4_U+30E4_U+30FC 1
 62
   179
420
  2234388
370
     9
100
AcDbVertex
100
AcDb2dVertex
 10
83.94491646949787
 20
-132.225520800277
 30
0.0
  0
SEQEND
  5
F5
330
F2
100
AcDbEntity
  8
_U+30EC_U+30A4_U+30E4_U+30FC 1
 62
   179
420
  2234388
370
     9
  0
INSERT
  5
F7
330
1F
100
AcDbEntity
  8
_U+30EC_U+30A4_U+30E4_U+30FC 1
100
AcDbBlockReference
  2
block 6
 10
0.0
 20
0.0
 30
0.0
  0
POLYLINE
  5
FC
330
1F
100
AcDbEntity
  8
_U+30EC_U+30A4_U+30E4_U+30FC 1
 62
   179
420
  2234388
370
     9
100
AcDb2dPolyline
 66
     1
 10
0.0
 20
0.0
 30
0.0
  0
VERTEX
  5
FD
330
FC
100
AcDbEntity
  8
_U+30EC_U+30A4_U+30E4_U+30FC 1
 62
   179
420
  2234388
370
     9
100
AcDbVertex
100
AcDb2dVertex
 10
103.9447348481489
 20
-137.2250521879157
 30
0.0
  0
VERTEX
  5
FE
330
FC
100
AcDbEntity
  8
_U+30EC_U+30A4_U+30E4_U+30FC 1
 62
   179
420
  2234388
370
     9
100
AcDbVertex
100
AcDb2dVertex
 10
103.9447348481489
 20
-129.2255338565826
 30
0.0
  0
SEQEND
  5
FF
330
FC
100
AcDbEntity
  8
_U+30EC_U+30A4_U+30E4_U+30FC 1
 62
   179
420
  2234388
370
     9
  0
POLYLINE
  5
100
330
1F
100
AcDbEntity
  8
_U+30EC_U+30A4_U+30E4_U+30FC 1
 62
   179
420
  2234388
370
     9
100
AcDb2dPolyline
 66
     1
 10
0.0
 20
0.0
 30
0.0
  0
VERTEX
  5
101
330
100
100
AcDbEntity
  8
_U+30EC_U+30A4_U+30E4_U+30FC 1
 62
   179
420
  2234388
370
     9
100
AcDbVertex
100
AcDb2dVertex
 10
95.48459719835138
 20
-137.2250521879157
 30
0.0
  0
VERTEX
  5
102
330
100
100
AcDbEntity
  8
_U+30EC_U+30A4_U+30E4_U+30FC 1
 62
   179
420
  2234388
370
     9
100
AcDbVertex
100
AcDb2dVertex
 10
104.9448245448567
 20
-137.2250521879157
 30
0.0
  0
SEQEND
  5
103
330
100
100
AcDbEntity
  8
_U+30EC_U+30A4_U+30E4_U+30FC 1
 62
   179
420
  2234388
370
     9
  0
INSERT
  5
105
330
1F
100
AcDbEntity
  8
_U+30EC_U+30A4_U+30E4_U+30FC 1
100
AcDbBlockReference
  2
block 7
 10
0.0
 20
0.0
 30
0.0
  0
ENDSEC
  0
SECTION
  2
OBJECTS
  0
DICTIONARY
  5
C
330
0
100
AcDbDictionary
281
     1
  3
ACAD_GROUP
350
D
  3
ACAD_LAYOUT
350
1A
  3
ACAD_MATERIAL
350
3B
  3
ACAD_MLEADERSTYLE
350
10D
  3
ACAD_MLINESTYLE
350
17
  3
ACAD_PLOTSETTINGS
350
19
  3
ACAD_PLOTSTYLENAME
350
E
  3
ACAD_TABLESTYLE
350
10C
  3
ACAD_VISUALSTYLE
350
2A
  0
SUN
  5
3F
330
29
100
AcDbSun
 90
        1
290
     0
 63
     7
421
 16777215
 40
1.0
291
     1
 91
  2455826
 92
 54000000
292
     0
 70
     2
 71
   256
280
     1
  0
DICTIONARY
  5
D
102
{ACAD_REACTORS
330
C
102
}
330
C
100
AcDbDictionary
281
     1
  0
DICTIONARY
  5
1A
102
{ACAD_REACTORS
330
C
102
}
330
C
100
AcDbDictionary
281
     1
  3
Layout1
350
1E
  3
Layout2
350
26
  3
Model
350
22
  0
DICTIONARY
  5
3B
102
{ACAD_REACTORS
330
C
102
}
330
C
100
AcDbDictionary
281
     1
  3
ByBlock
350
3D
  3
ByLayer
350
3C
  3
Global
350
3E
  0
DICTIONARY
  5
10D
102
{ACAD_REACTORS
330
C
102
}
330
C
100
AcDbDictionary
281
     1
  0
DICTIONARY
  5
17
102
{ACAD_REACTORS
330
C
102
}
330
C
100
AcDbDictionary
281
     1
  3
Standard
350
18
  0
DICTIONARY
  5
19
102
{ACAD_REACTORS
330
C
102
}
330
C
100
AcDbDictionary
281
     1
  0
ACDBDICTIONARYWDFLT
  5
E
102
{ACAD_REACTORS
330
C
102
}
330
C
100
AcDbDictionary
281
     1
  3
Normal
350
F
100
AcDbDictionaryWithDefault
340
F
  0
DICTIONARY
  5
10C
102
{ACAD_REACTORS
330
C
102
}
330
C
100
AcDbDictionary
281
     1
  0
DICTIONARY
  5
2A
102
{ACAD_REACTORS
330
C
102
}
330
C
100
AcDbDictionary
281
     1
  3
2dWireframe
350
2F
  3
3D Hidden
350
31
  3
3dWireframe
350
30
  3
Basic
350
32
  3
Brighten
350
36
  3
ColorChange
350
3A
  3
Conceptual
350
34
  3
Dim
350
35
  3
Facepattern
350
39
  3
Flat
350
2B
  3
FlatWithEdges
350
2C
  3
Gouraud
350
2D
  3
GouraudWithEdges
350
2E
  3
Linepattern
350
38
  3
Realistic
350
33
  3
Thicken
350
37
  0
LAYOUT
  5
1E
102
{ACAD_REACTORS
330
1A
102
}
330
1A
100
AcDbPlotSettings
  1

  2
none_device
  4

  6

 40
0.0
 41
0.0
 42
0.0
 43
0.0
 44
0.0
 45
0.0
 46
0.0
 47
0.0
 48
0.0
 49
0.0
140
0.0
141
0.0
142
1.0
143
1.0
 70
   688
 72
     0
 73
     0
 74
     5
  7

 75
    16
 76
     0
 77
     2
 78
   300
147
1.0
148
0.0
149
0.0
100
AcDbLayout
  1
Layout1
 70
     1
 71
     1
 10
0.0
 20
0.0
 11
12.0
 21
9.0
 12
0.0
 22
0.0
 32
0.0
 14
1.000000000000000E+20
 24
1.000000000000000E+20
 34
1.000000000000000E+20
 15
-1.000000000000000E+20
 25
-1.000000000000000E+20
 35
-1.000000000000000E+20
146
0.0
 13
0.0
 23
0.0
 33
0.0
 16
1.0
 26
0.0
 36
0.0
 17
0.0
 27
1.0
 37
0.0
 76
     0
330
1B
  0
LAYOUT
  5
26
102
{ACAD_REACTORS
330
1A
102
}
330
1A
100
AcDbPlotSettings
  1

  2
none_device
  4

  6

 40
0.0
 41
0.0
 42
0.0
 43
0.0
 44
0.0
 45
0.0
 46
0.0
 47
0.0
 48
0.0
 49
0.0
140
0.0
141
0.0
142
1.0
143
1.0
 70
   688
 72
     0
 73
     0
 74
     5
  7

 75
    16
 76
     0
 77
     2
 78
   300
147
1.0
148
0.0
149
0.0
100
AcDbLayout
  1
Layout2
 70
     1
 71
     2
 10
0.0
 20
0.0
 11
0.0
 21
0.0
 12
0.0
 22
0.0
 32
0.0
 14
0.0
 24
0.0
 34
0.0
 15
0.0
 25
0.0
 35
0.0
146
0.0
 13
0.0
 23
0.0
 33
0.0
 16
1.0
 26
0.0
 36
0.0
 17
0.0
 27
1.0
 37
0.0
 76
     0
330
23
  0
LAYOUT
  5
22
102
{ACAD_REACTORS
330
1A
102
}
330
1A
100
AcDbPlotSettings
  1

  2
none_device
  4

  6

 40
0.0
 41
0.0
 42
0.0
 43
0.0
 44
0.0
 45
0.0
 46
0.0
 47
0.0
 48
0.0
 49
0.0
140
0.0
141
0.0
142
1.0
143
1.0
 70
  1712
 72
     0
 73
     0
 74
     0
  7

 75
     0
 76
     0
 77
     2
 78
   300
147
1.0
148
0.0
149
0.0
100
AcDbLayout
  1
Model
 70
     1
 71
     0
 10
0.0
 20
0.0
 11
12.0
 21
9.0
 12
0.0
 22
0.0
 32
0.0
 14
1.000000000000000E+20
 24
1.000000000000000E+20
 34
1.000000000000000E+20
 15
-1.000000000000000E+20
 25
-1.000000000000000E+20
 35
-1.000000000000000E+20
146
0.0
 13
0.0
 23
0.0
 33
0.0
 16
1.0
 26
0.0
 36
0.0
 17
0.0
 27
1.0
 37
0.0
 76
     0
330
1F
331
29
  0
MATERIAL
  5
3D
102
{ACAD_REACTORS
330
3B
102
}
330
3B
100
AcDbMaterial
  1
ByBlock
 72
     1
 94
      127
  0
MATERIAL
  5
3C
102
{ACAD_REACTORS
330
3B
102
}
330
3B
100
AcDbMaterial
  1
ByLayer
 72
     1
 94
      127
  0
MATERIAL
  5
3E
102
{ACAD_REACTORS
330
3B
102
}
330
3B
100
AcDbMaterial
  1
Global
 72
     1
 94
      127
  0
MLINESTYLE
  5
18
102
{ACAD_REACTORS
330
17
102
}
330
17
100
AcDbMlineStyle
  2
Standard
 70
     0
  3

 62
   256
 51
90.0
 52
90.0
 71
     2
 49
0.5
 62
   256
  6
BYLAYER
 49
-0.5
 62
   256
  6
BYLAYER
  0
ACDBPLACEHOLDER
  5
F
102
{ACAD_REACTORS
330
E
102
}
330
E
  0
VISUALSTYLE
  5
2F
102
{ACAD_REACTORS
330
2A
102
}
330
2A
100
AcDbVisualStyle
  2
2dWireframe
 70
     4
177
     2
291
     0
 71
     0
176
     1
 72
     2
176
     1
 73
     0
176
     1
 90
        0
176
     1
 40
-0.6
176
     1
 41
-30.0
176
     1
 62
     5
 63
     7
421
 16777215
176
     1
 74
     1
176
     1
 91
        4
176
     1
 64
     7
176
     1
 65
   257
176
     1
 75
     1
176
     1
175
     1
176
     1
 42
1.0
176
     1
 92
        0
176
     1
 66
   257
176
     1
 43
1.0
176
     1
 76
     1
176
     1
 77
     6
176
     1
 78
     2
176
     1
 67
     7
176
     1
 79
     5
176
     1
170
     0
176
     1
171
     0
176
     1
290
     0
176
     1
 93
        1
176
     1
 44
0.0
176
     1
173
     0
176
     1
  0
VISUALSTYLE
  5
31
102
{ACAD_REACTORS
330
2A
102
}
330
2A
100
AcDbVisualStyle
  2
3D Hidden
 70
     6
177
     2
291
     0
 71
     1
176
     1
 72
     2
176
     1
 73
     2
176
     1
 90
        0
176
     1
 40
-0.6
176
     1
 41
-30.0
176
     1
 62
     5
 63
     7
421
 16777215
176
     1
 74
     2
176
     1
 91
        2
176
     1
 64
     7
176
     1
 65
   257
176
     1
 75
     2
176
     1
175
     1
176
     1
 42
40.0
176
     1
 92
        0
176
     1
 66
   257
176
     1
 43
1.0
176
     1
 76
     1
176
     1
 77
     6
176
     1
 78
     2
176
     1
 67
     7
176
     1
 79
     3
176
     1
170
     0
176
     1
171
     0
176
     1
290
     0
176
     1
 93
        1
176
     1
 44
0.0
176
     1
173
     0
176
     1
  0
VISUALSTYLE
  5
30
102
{ACAD_REACTORS
330
2A
102
}
330
2A
100
AcDbVisualStyle
  2
3dWireframe
 70
     5
177
     2
291
     0
 71
     0
176
     1
 72
     2
176
     1
 73
     0
176
     1
 90
        0
176
     1
 40
-0.6
176
     1
 41
-30.0
176
     1
 62
     5
 63
     7
421
 16777215
176
     1
 74
     1
176
     1
 91
        4
176
     1
 64
     7
176
     1
 65
   257
176
     1
 75
     1
176
     1
175
     1
176
     1
 42
1.0
176
     1
 92
        0
176
     1
 66
   257
176
     1
 43
1.0
176
     1
 76
     1
176
     1
 77
     6
176
     1
 78
     2
176
     1
 67
     7
176
     1
 79
     5
176
     1
170
     0
176
     1
171
     0
176
     1
290
     0
176
     1
 93
        1
176
     1
 44
0.0
176
     1
173
     0
176
     1
  0
VISUALSTYLE
  5
32
102
{ACAD_REACTORS
330
2A
102
}
330
2A
100
AcDbVisualStyle
  2
Basic
 70
     7
177
     2
291
     1
 71
     1
176
     1
 72
     0
176
     1
 73
     1
176
     1
 90
        0
176
     1
 40
-0.6
176
     1
 41
-30.0
176
     1
 62
     5
 63
     7
421
 16777215
176
     1
 74
     0
176
     1
 91
        4
176
     1
 64
     7
176
     1
 65
   257
176
     1
 75
     1
176
     1
175
     1
176
     1
 42
1.0
176
     1
 92
        8
176
     1
 66
     7
176
     1
 43
1.0
176
     1
 76
     1
176
     1
 77
     6
176
     1
 78
     2
176
     1
 67
     7
176
     1
 79
     5
176
     1
170
     0
176
     1
171
     0
176
     1
290
     0
176
     1
 93
        1
176
     1
 44
0.0
176
     1
173
     0
176
     1
  0
VISUALSTYLE
  5
36
102
{ACAD_REACTORS
330
2A
102
}
330
2A
100
AcDbVisualStyle
  2
Brighten
 70
    12
177
     2
291
     1
 71
     2
176
     1
 72
     2
176
     1
 73
     0
176
     1
 90
        0
176
     1
 40
-0.6
176
     1
 41
-30.0
176
     1
 62
     5
 63
     7
421
 16777215
176
     1
 74
     1
176
     1
 91
        4
176
     1
 64
     7
176
     1
 65
   257
176
     1
 75
     1
176
     1
175
     1
176
     1
 42
1.0
176
     1
 92
        8
176
     1
 66
     7
176
     1
 43
1.0
176
     1
 76
     1
176
     1
 77
     6
176
     1
 78
     2
176
     1
 67
     7
176
     1
 79
     5
176
     1
170
     0
176
     1
171
     0
176
     1
290
     0
176
     1
 93
        1
176
     1
 44
50.0
176
     1
173
     0
176
     1
  0
VISUALSTYLE
  5
3A
102
{ACAD_REACTORS
330
2A
102
}
330
2A
100
AcDbVisualStyle
  2
ColorChange
 70
    16
177
     2
291
     1
 71
     2
176
     1
 72
     2
176
     1
 73
     3
176
     1
 90
        0
176
     1
 40
-0.6
176
     1
 41
-30.0
176
     1
 62
     5
 63
     8
421
  8421504
176
     1
 74
     1
176
     1
 91
        4
176
     1
 64
     7
176
     1
 65
   257
176
     1
 75
     1
176
     1
175
     1
176
     1
 42
1.0
176
     1
 92
        8
176
     1
 66
     8
424
  8421504
176
     1
 43
1.0
176
     1
 76
     1
176
     1
 77
     6
176
     1
 78
     2
176
     1
 67
     7
176
     1
 79
     5
176
     1
170
     0
176
     1
171
     0
176
     1
290
     0
176
     1
 93
        1
176
     1
 44
0.0
176
     1
173
     0
176
     1
  0
VISUALSTYLE
  5
34
102
{ACAD_REACTORS
330
2A
102
}
330
2A
100
AcDbVisualStyle
  2
Conceptual
 70
     9
177
     2
291
     0
 71
     3
176
     1
 72
     2
176
     1
 73
     0
176
     1
 90
        0
176
     1
 40
-0.6
176
     1
 41
-30.0
176
     1
 62
     5
 63
     7
421
 16777215
176
     1
 74
     2
176
     1
 91
        2
176
     1
 64
     7
176
     1
 65
   257
176
     1
 75
     1
176
     1
175
     1
176
     1
 42
40.0
176
     1
 92
        8
176
     1
 66
     7
176
     1
 43
1.0
176
     1
 76
     1
176
     1
 77
     6
176
     1
 78
     2
176
     1
 67
     7
176
     1
 79
     3
176
     1
170
     0
176
     1
171
     0
176
     1
290
     0
176
     1
 93
        1
176
     1
 44
0.0
176
     1
173
     0
176
     1
  0
VISUALSTYLE
  5
35
102
{ACAD_REACTORS
330
2A
102
}
330
2A
100
AcDbVisualStyle
  2
Dim
 70
    11
177
     2
291
     1
 71
     2
176
     1
 72
     2
176
     1
 73
     0
176
     1
 90
        0
176
     1
 40
-0.6
176
     1
 41
-30.0
176
     1
 62
     5
 63
     7
421
 16777215
176
     1
 74
     1
176
     1
 91
        4
176
     1
 64
     7
176
     1
 65
   257
176
     1
 75
     1
176
     1
175
     1
176
     1
 42
1.0
176
     1
 92
        8
176
     1
 66
     7
176
     1
 43
1.0
176
     1
 76
     1
176
     1
 77
     6
176
     1
 78
     2
176
     1
 67
     7
176
     1
 79
     5
176
     1
170
     0
176
     1
171
     0
176
     1
290
     0
176
     1
 93
        1
176
     1
 44
-50.0
176
     1
173
     0
176
     1
  0
VISUALSTYLE
  5
39
102
{ACAD_REACTORS
330
2A
102
}
330
2A
100
AcDbVisualStyle
  2
Facepattern
 70
    15
177
     2
291
     1
 71
     2
176
     1
 72
     2
176
     1
 73
     0
176
     1
 90
        0
176
     1
 40
-0.6
176
     1
 41
-30.0
176
     1
 62
     5
 63
     7
421
 16777215
176
     1
 74
     1
176
     1
 91
        4
176
     1
 64
     7
176
     1
 65
   257
176
     1
 75
     1
176
     1
175
     1
176
     1
 42
1.0
176
     1
 92
        8
176
     1
 66
     7
176
     1
 43
1.0
176
     1
 76
     1
176
     1
 77
     6
176
     1
 78
     2
176
     1
 67
     7
176
     1
 79
     5
176
     1
170
     0
176
     1
171
     0
176
     1
290
     0
176
     1
 93
        1
176
     1
 44
0.0
176
     1
173
     0
176
     1
  0
VISUALSTYLE
  5
2B
102
{ACAD_REACTORS
330
2A
102
}
330
2A
100
AcDbVisualStyle
  2
Flat
 70
     0
177
     2
291
     1
 71
     2
176
     1
 72
     1
176
     1
 73
     1
176
     1
 90
        2
176
     1
 40
-0.6
176
     1
 41
30.0
176
     1
 62
     5
 63
     7
421
 16777215
176
     1
 74
     0
176
     1
 91
        4
176
     1
 64
     7
176
     1
 65
   257
176
     1
 75
     1
176
     1
175
     1
176
     1
 42
1.0
176
     1
 92
        8
176
     1
 66
     7
176
     1
 43
1.0
176
     1
 76
     1
176
     1
 77
     6
176
     1
 78
     2
176
     1
 67
     7
176
     1
 79
     5
176
     1
170
     0
176
     1
171
     0
176
     1
290
     0
176
     1
 93
       13
176
     1
 44
0.0
176
     1
173
     0
176
     1
  0
VISUALSTYLE
  5
2C
102
{ACAD_REACTORS
330
2A
102
}
330
2A
100
AcDbVisualStyle
  2
FlatWithEdges
 70
     1
177
     2
291
     1
 71
     2
176
     1
 72
     1
176
     1
 73
     1
176
     1
 90
        2
176
     1
 40
-0.6
176
     1
 41
30.0
176
     1
 62
     5
 63
     7
421
 16777215
176
     1
 74
     1
176
     1
 91
        4
176
     1
 64
     7
176
     1
 65
   257
176
     1
 75
     1
176
     1
175
     1
176
     1
 42
1.0
176
     1
 92
        0
176
     1
 66
   257
176
     1
 43
1.0
176
     1
 76
     1
176
     1
 77
     6
176
     1
 78
     2
176
     1
 67
     7
176
     1
 79
     5
176
     1
170
     0
176
     1
171
     0
176
     1
290
     0
176
     1
 93
       13
176
     1
 44
0.0
176
     1
173
     0
176
     1
  0
VISUALSTYLE
  5
2D
102
{ACAD_REACTORS
330
2A
102
}
330
2A
100
AcDbVisualStyle
  2
Gouraud
 70
     2
177
     2
291
     1
 71
     2
176
     1
 72
     2
176
     1
 73
     1
176
     1
 90
        2
176
     1
 40
-0.6
176
     1
 41
30.0
176
     1
 62
     5
 63
     7
421
 16777215
176
     1
 74
     0
176
     1
 91
        4
176
     1
 64
     7
176
     1
 65
   257
176
     1
 75
     1
176
     1
175
     1
176
     1
 42
1.0
176
     1
 92
        0
176
     1
 66
     7
176
     1
 43
1.0
176
     1
 76
     1
176
     1
 77
     6
176
     1
 78
     2
176
     1
 67
     7
176
     1
 79
     5
176
     1
170
     0
176
     1
171
     0
176
     1
290
     0
176
     1
 93
       13
176
     1
 44
0.0
176
     1
173
     0
176
     1
  0
VISUALSTYLE
  5
2E
102
{ACAD_REACTORS
330
2A
102
}
330
2A
100
AcDbVisualStyle
  2
GouraudWithEdges
 70
     3
177
     2
291
     1
 71
     2
176
     1
 72
     2
176
     1
 73
     1
176
     1
 90
        2
176
     1
 40
-0.6
176
     1
 41
30.0
176
     1
 62
     5
 63
     7
421
 16777215
176
     1
 74
     1
176
     1
 91
        4
176
     1
 64
     7
176
     1
 65
   257
176
     1
 75
     1
176
     1
175
     1
176
     1
 42
1.0
176
     1
 92
        0
176
     1
 66
   257
176
     1
 43
1.0
176
     1
 76
     1
176
     1
 77
     6
176
     1
 78
     2
176
     1
 67
     7
176
     1
 79
     5
176
     1
170
     0
176
     1
171
     0
176
     1
290
     0
176
     1
 93
       13
176
     1
 44
0.0
176
     1
173
     0
176
     1
  0
VISUALSTYLE
  5
38
102
{ACAD_REACTORS
330
2A
102
}
330
2A
100
AcDbVisualStyle
  2
Linepattern
 70
    14
177
     2
291
     1
 71
     2
176
     1
 72
     2
176
     1
 73
     0
176
     1
 90
        0
176
     1
 40
-0.6
176
     1
 41
-30.0
176
     1
 62
     5
 63
     7
421
 16777215
176
     1
 74
     1
176
     1
 91
        4
176
     1
 64
     7
176
     1
 65
   257
176
     1
 75
     7
176
     1
175
     7
176
     1
 42
1.0
176
     1
 92
        8
176
     1
 66
     7
176
     1
 43
1.0
176
     1
 76
     1
176
     1
 77
     6
176
     1
 78
     2
176
     1
 67
     7
176
     1
 79
     5
176
     1
170
     0
176
     1
171
     0
176
     1
290
     0
176
     1
 93
        1
176
     1
 44
0.0
176
     1
173
     0
176
     1
  0
VISUALSTYLE
  5
33
102
{ACAD_REACTORS
330
2A
102
}
330
2A
100
AcDbVisualStyle
  2
Realistic
 70
     8
177
     2
291
     0
 71
     2
176
     1
 72
     2
176
     1
 73
     0
176
     1
 90
        0
176
     1
 40
-0.6
176
     1
 41
-30.0
176
     1
 62
     5
 63
     7
421
 16777215
176
     1
 74
     1
176
     1
 91
        0
176
     1
 64
     7
176
     1
 65
   257
176
     1
 75
     1
176
     1
175
     1
176
     1
 42
1.0
176
     1
 92
        8
176
     1
 66
     8
424
  7895160
176
     1
 43
1.0
176
     1
 76
     1
176
     1
 77
     6
176
     1
 78
     2
176
     1
 67
     7
176
     1
 79
     5
176
     1
170
     0
176
     1
171
     0
176
     1
290
     0
176
     1
 93
       13
176
     1
 44
0.0
176
     1
173
     0
176
     1
  0
VISUALSTYLE
  5
37
102
{ACAD_REACTORS
330
2A
102
}
330
2A
100
AcDbVisualStyle
  2
Thicken
 70
    13
177
     2
291
     1
 71
     2
176
     1
 72
     2
176
     1
 73
     0
176
     1
 90
        0
176
     1
 40
-0.6
176
     1
 41
-30.0
176
     1
 62
     5
 63
     7
421
 16777215
176
     1
 74
     1
176
     1
 91
        4
176
     1
 64
     7
176
     1
 65
   257
176
     1
 75
     1
176
     1
175
     1
176
     1
 42
1.0
176
     1
 92
       12
176
     1
 66
     7
176
     1
 43
1.0
176
     1
 76
     1
176
     1
 77
     6
176
     1
 78
     2
176
     1
 67
     7
176
     1
 79
     5
176
     1
170
     0
176
     1
171
     0
176
     1
290
     0
176
     1
 93
        1
176
     1
 44
0.0
176
     1
173
     0
176
     1
  0
ENDSEC
  0
EOF
