  0
SECTION
  2
HEADER
  9
$ACADVER
  1
AC1024
  9
$ACADMAINTVER
 70
     6
  9
$DWGCODEPAGE
  3
UNDEFINED
  9
$INSBASE
 10
0.0
 20
0.0
 30
0.0
  9
$EXTMIN
 10
1.000000000000000E+20
 20
1.000000000000000E+20
 30
1.000000000000000E+20
  9
$EXTMAX
 10
-1.000000000000000E+20
 20
-1.000000000000000E+20
 30
-1.000000000000000E+20
  9
$LIMMIN
 10
0.0
 20
0.0
  9
$LIMMAX
 10
12.0
 20
9.0
  9
$ORTHOMODE
 70
     0
  9
$REGENMODE
 70
     1
  9
$FILLMODE
 70
     1
  9
$QTEXTMODE
 70
     0
  9
$MIRRTEXT
 70
     1
  9
$LTSCALE
 40
1.0
  9
$ATTMODE
 70
     1
  9
$TEXTSIZE
 40
0.2
  9
$TRACEWID
 40
0.05
  9
$TEXTSTYLE
  7
Standard
  9
$CLAYER
  8
0
  9
$CELTYPE
  6
ByLayer
  9
$CECOLOR
 62
   256
  9
$CELTSCALE
 40
1.0
  9
$DISPSILH
 70
     0
  9
$DIMSCALE
 40
1.0
  9
$DIMASZ
 40
0.18
  9
$DIMEXO
 40
0.0625
  9
$DIMDLI
 40
0.38
  9
$DIMRND
 40
0.0
  9
$DIMDLE
 40
0.0
  9
$DIMEXE
 40
0.18
  9
$DIMTP
 40
0.0
  9
$DIMTM
 40
0.0
  9
$DIMTXT
 40
0.18
  9
$DIMCEN
 40
0.09
  9
$DIMTSZ
 40
0.0
  9
$DIMTOL
 70
     0
  9
$DIMLIM
 70
     0
  9
$DIMTIH
 70
     1
  9
$DIMTOH
 70
     1
  9
$DIMSE1
 70
     0
  9
$DIMSE2
 70
     0
  9
$DIMTAD
 70
     0
  9
$DIMZIN
 70
     0
  9
$DIMBLK
  1

  9
$DIMASO
 70
     1
  9
$DIMSHO
 70
     1
  9
$DIMPOST
  1

  9
$DIMAPOST
  1

  9
$DIMALT
 70
     0
  9
$DIMALTD
 70
     2
  9
$DIMALTF
 40
25.4
  9
$DIMLFAC
 40
1.0
  9
$DIMTOFL
 70
     0
  9
$DIMTVP
 40
0.0
  9
$DIMTIX
 70
     0
  9
$DIMSOXD
 70
     0
  9
$DIMSAH
 70
     0
  9
$DIMBLK1
  1

  9
$DIMBLK2
  1

  9
$DIMSTYLE
  2
Standard
  9
$DIMCLRD
 70
     0
  9
$DIMCLRE
 70
     0
  9
$DIMCLRT
 70
     0
  9
$DIMTFAC
 40
1.0
  9
$DIMGAP
 40
0.09
  9
$DIMJUST
 70
     0
  9
$DIMSD1
 70
     0
  9
$DIMSD2
 70
     0
  9
$DIMTOLJ
 70
     1
  9
$DIMTZIN
 70
     0
  9
$DIMALTZ
 70
     0
  9
$DIMALTTZ
 70
     0
  9
$DIMUPT
 70
     0
  9
$DIMDEC
 70
     4
  9
$DIMTDEC
 70
     4
  9
$DIMALTU
 70
     2
  9
$DIMALTTD
 70
     2
  9
$DIMTXSTY
  7
Standard
  9
$DIMAUNIT
 70
     0
  9
$DIMADEC
 70
     0
  9
$DIMALTRND
 40
0.0
  9
$DIMAZIN
 70
     0
  9
$DIMDSEP
 70
    46
  9
$DIMATFIT
 70
     3
  9
$DIMFRAC
 70
     0
  9
$DIMLDRBLK
  1

  9
$DIMLUNIT
 70
     2
  9
$DIMLWD
 70
    -2
  9
$DIMLWE
 70
    -2
  9
$DIMTMOVE
 70
     0
  9
$DIMFXL
 40
1.0
  9
$DIMFXLON
 70
     0
  9
$DIMJOGANG
 40
0.7853981633974483
  9
$DIMTFILL
 70
     0
  9
$DIMTFILLCLR
 70
     0
  9
$DIMARCSYM
 70
     0
  9
$DIMLTYPE
  6

  9
$DIMLTEX1
  6

  9
$DIMLTEX2
  6

  9
$DIMTXTDIRECTION
 70
     0
  9
$LUNITS
 70
     2
  9
$LUPREC
 70
     4
  9
$SKETCHINC
 40
0.1
  9
$FILLETRAD
 40
0.5
  9
$AUNITS
 70
     0
  9
$AUPREC
 70
     0
  9
$MENU
  1
.
  9
$ELEVATION
 40
0.0
  9
$PELEVATION
 40
0.0
  9
$THICKNESS
 40
0.0
  9
$LIMCHECK
 70
     0
  9
$CHAMFERA
 40
0.5
  9
$CHAMFERB
 40
0.5
  9
$CHAMFERC
 40
1.0
  9
$CHAMFERD
 40
0.0
  9
$SKPOLY
 70
     0
  9
$TDCREATE
 40
2457917.623414352
  9
$TDUCREATE
 40
2457917.248414352
  9
$TDUPDATE
 40
2457917.623414352
  9
$TDUUPDATE
 40
2457917.248414352
  9
$TDINDWG
 40
0.0000000116
  9
$TDUSRTIMER
 40
0.0000000116
  9
$USRTIMER
 70
     1
  9
$ANGBASE
 50
0.0
  9
$ANGDIR
 70
     0
  9
$PDMODE
 70
     0
  9
$PDSIZE
 40
0.0
  9
$PLINEWID
 40
0.0
  9
$SPLFRAME
 70
     0
  9
$SPLINETYPE
 70
     6
  9
$SPLINESEGS
 70
     8
  9
$HANDSEED
  5
10D
  9
$SURFTAB1
 70
     6
  9
$SURFTAB2
 70
     6
  9
$SURFTYPE
 70
     6
  9
$SURFU
 70
     6
  9
$SURFV
 70
     6
  9
$UCSBASE
  2

  9
$UCSNAME
  2

  9
$UCSORG
 10
0.0
 20
0.0
 30
0.0
  9
$UCSXDIR
 10
1.0
 20
0.0
 30
0.0
  9
$UCSYDIR
 10
0.0
 20
1.0
 30
0.0
  9
$UCSORTHOREF
  2

  9
$UCSORTHOVIEW
 70
     0
  9
$UCSORGTOP
 10
0.0
 20
0.0
 30
0.0
  9
$UCSORGBOTTOM
 10
0.0
 20
0.0
 30
0.0
  9
$UCSORGLEFT
 10
0.0
 20
0.0
 30
0.0
  9
$UCSORGRIGHT
 10
0.0
 20
0.0
 30
0.0
  9
$UCSORGFRONT
 10
0.0
 20
0.0
 30
0.0
  9
$UCSORGBACK
 10
0.0
 20
0.0
 30
0.0
  9
$PUCSBASE
  2

  9
$PUCSNAME
  2

  9
$PUCSORG
 10
0.0
 20
0.0
 30
0.0
  9
$PUCSXDIR
 10
1.0
 20
0.0
 30
0.0
  9
$PUCSYDIR
 10
0.0
 20
1.0
 30
0.0
  9
$PUCSORTHOREF
  2

  9
$PUCSORTHOVIEW
 70
     0
  9
$PUCSORGTOP
 10
0.0
 20
0.0
 30
0.0
  9
$PUCSORGBOTTOM
 10
0.0
 20
0.0
 30
0.0
  9
$PUCSORGLEFT
 10
0.0
 20
0.0
 30
0.0
  9
$PUCSORGRIGHT
 10
0.0
 20
0.0
 30
0.0
  9
$PUCSORGFRONT
 10
0.0
 20
0.0
 30
0.0
  9
$PUCSORGBACK
 10
0.0
 20
0.0
 30
0.0
  9
$USERI1
 70
     0
  9
$USERI2
 70
     0
  9
$USERI3
 70
     0
  9
$USERI4
 70
     0
  9
$USERI5
 70
     0
  9
$USERR1
 40
0.0
  9
$USERR2
 40
0.0
  9
$USERR3
 40
0.0
  9
$USERR4
 40
0.0
  9
$USERR5
 40
0.0
  9
$WORLDVIEW
 70
     1
  9
$SHADEDGE
 70
     3
  9
$SHADEDIF
 70
    70
  9
$TILEMODE
 70
     1
  9
$MAXACTVP
 70
    64
  9
$PINSBASE
 10
0.0
 20
0.0
 30
0.0
  9
$PLIMCHECK
 70
     0
  9
$PEXTMIN
 10
1.000000000000000E+20
 20
1.000000000000000E+20
 30
1.000000000000000E+20
  9
$PEXTMAX
 10
-1.000000000000000E+20
 20
-1.000000000000000E+20
 30
-1.000000000000000E+20
  9
$PLIMMIN
 10
0.0
 20
0.0
  9
$PLIMMAX
 10
12.0
 20
9.0
  9
$UNITMODE
 70
     0
  9
$VISRETAIN
 70
     1
  9
$PLINEGEN
 70
     0
  9
$PSLTSCALE
 70
     1
  9
$TREEDEPTH
 70
  3020
  9
$CMLSTYLE
  2
Standard
  9
$CMLJUST
 70
     0
  9
$CMLSCALE
 40
1.0
  9
$PROXYGRAPHICS
 70
     1
  9
$MEASUREMENT
 70
     0
  9
$CELWEIGHT
370
    -1
  9
$ENDCAPS
280
     0
  9
$JOINSTYLE
280
     0
  9
$LWDISPLAY
290
     1
  9
$INSUNITS
 70
     1
  9
$HYPERLINKBASE
  1

  9
$STYLESHEET
  1

  9
$XEDIT
290
     1
  9
$CEPSNTYPE
380
     0
  9
$PSTYLEMODE
290
     1
  9
$FINGERPRINTGUID
  2
{BA5DCC8E-BB25-EBFA-33F4-561B7109EC9C}
  9
$VERSIONGUID
  2
{FAEB1C32-E019-11D5-929B-00C0DF256EC4}
  9
$EXTNAMES
290
     1
  9
$PSVPSCALE
 40
0.0
  9
$OLESTARTUP
290
     0
  9
$SORTENTS
280
   127
  9
$INDEXCTL
280
     0
  9
$HIDETEXT
280
     1
  9
$XCLIPFRAME
280
     2
  9
$HALOGAP
280
     0
  9
$OBSCOLOR
 70
   257
  9
$OBSLTYPE
280
     0
  9
$INTERSECTIONDISPLAY
280
     0
  9
$INTERSECTIONCOLOR
 70
   257
  9
$DIMASSOC
280
     2
  9
$PROJECTNAME
  1

  9
$CAMERADISPLAY
290
     0
  9
$LENSLENGTH
 40
50.0
  9
$CAMERAHEIGHT
 40
0.0
  9
$STEPSPERSEC
 40
2.0
  9
$STEPSIZE
 40
6.0
  9
$3DDWFPREC
 40
2.0
  9
$PSOLWIDTH
 40
0.25
  9
$PSOLHEIGHT
 40
4.0
  9
$LOFTANG1
 40
1.570796326794897
  9
$LOFTANG2
 40
1.570796326794897
  9
$LOFTMAG1
 40
0.0
  9
$LOFTMAG2
 40
0.0
  9
$LOFTPARAM
 70
     7
  9
$LOFTNORMALS
280
     1
  9
$LATITUDE
 40
37.795
  9
$LONGITUDE
 40
-122.394
  9
$NORTHDIRECTION
 40
0.0
  9
$TIMEZONE
 70
 -8000
  9
$LIGHTGLYPHDISPLAY
280
     1
  9
$TILEMODELIGHTSYNCH
280
     1
  9
$CMATERIAL
347
3C
  9
$SOLIDHIST
280
     1
  9
$SHOWHIST
280
     1
  9
$DWFFRAME
280
     2
  9
$DGNFRAME
280
     2
  9
$REALWORLDSCALE
290
     1
  9
$INTERFERECOLOR
 62
   256
  9
$CSHADOW
280
     0
  9
$SHADOWPLANELOCATION
 40
0.0
  0
ENDSEC
  0
SECTION
  2
CLASSES
  0
CLASS
  1
ACDBDICTIONARYWDFLT
  2
AcDbDictionaryWithDefault
  3
ObjectDBX Classes
 90
        0
 91
        4
280
     0
281
     0
  0
CLASS
  1
VISUALSTYLE
  2
AcDbVisualStyle
  3
ObjectDBX Classes
 90
     4095
 91
        4
280
     0
281
     0
  0
CLASS
  1
MATERIAL
  2
AcDbMaterial
  3
ObjectDBX Classes
 90
     1153
 91
        4
280
     0
281
     0
  0
CLASS
  1
SUN
  2
AcDbSun
  3
SCENEOE
 90
     1024
 91
        4
280
     0
281
     0
  0
ENDSEC
  0
SECTION
  2
TABLES
  0
TABLE
  2
VPORT
  5
8
330
0
100
AcDbSymbolTable
 70
     1
  0
VPORT
  5
29
330
8
100
AcDbSymbolTableRecord
100
AcDbViewportTableRecord
  2
*Active
 70
     0
 10
0.0
 20
0.0
 11
1.0
 21
1.0
 12
0.0
 22
0.0
 13
0.0
 23
0.0
 14
0.5
 24
0.5
 15
0.5
 25
0.5
 16
0.0
 26
0.0
 36
1.0
 17
91.00082462281999
 27
-128.4993055234307
 37
0.0
 40
256.9986110468615
 41
0.7081814508812795
 42
50.0
 43
0.0
 44
0.0
 50
0.0
 51
0.0
 71
     0
 72
   100
 73
     1
 74
     3
 75
     0
 76
     0
 77
     0
 78
     0
281
     0
 65
     1
110
0.0
120
0.0
130
0.0
111
1.0
121
0.0
131
0.0
112
0.0
122
1.0
132
0.0
 79
     0
146
0.0
 60
     3
 61
     5
292
     1
282
     1
141
0.0
142
0.0
 63
   250
361
3F
  0
ENDTAB
  0
TABLE
  2
LTYPE
  5
5
330
0
100
AcDbSymbolTable
 70
     1
  0
LTYPE
  5
14
330
5
100
AcDbSymbolTableRecord
100
AcDbLinetypeTableRecord
  2
ByBlock
 70
     0
  3

 72
    65
 73
     0
 40
0.0
  0
LTYPE
  5
15
330
5
100
AcDbSymbolTableRecord
100
AcDbLinetypeTableRecord
  2
ByLayer
 70
     0
  3

 72
    65
 73
     0
 40
0.0
  0
LTYPE
  5
16
330
5
100
AcDbSymbolTableRecord
100
AcDbLinetypeTableRecord
  2
Continuous
 70
     0
  3
Solid line
 72
    65
 73
     0
 40
0.0
  0
ENDTAB
  0
TABLE
  2
LAYER
  5
2
330
0
100
AcDbSymbolTable
 70
     2
  0
LAYER
  5
10
330
2
100
AcDbSymbolTableRecord
100
AcDbLayerTableRecord
  2
0
 70
     0
 62
     7
  6
Continuous
370
    -3
390
F
347
3E
  0
LAYER
  5
40
330
2
100
AcDbSymbolTableRecord
100
AcDbLayerTableRecord
  2
_U+30EC_U+30A4_U+30E4_U+30FC 1
 70
     0
 62
     7
  6
Continuous
370
    -3
390
F
347
3E
  0
ENDTAB
  0
TABLE
  2
STYLE
  5
3
330
0
100
AcDbSymbolTable
 70
     1
  0
STYLE
  5
11
330
3
100
AcDbSymbolTableRecord
100
AcDbTextStyleTableRecord
  2
Standard
 70
     0
 40
0.0
 41
1.0
 50
0.0
 71
     0
 42
0.2
  3
txt
  4

  0
ENDTAB
  0
TABLE
  2
VIEW
  5
6
330
0
100
AcDbSymbolTable
 70
     0
  0
ENDTAB
  0
TABLE
  2
UCS
  5
7
330
0
100
AcDbSymbolTable
 70
     0
  0
ENDTAB
  0
TABLE
  2
APPID
  5
9
330
0
100
AcDbSymbolTable
 70
     1
  0
APPID
  5
12
330
9
100
AcDbSymbolTableRecord
100
AcDbRegAppTableRecord
  2
ACAD
 70
     0
  0
ENDTAB
  0
TABLE
  2
DIMSTYLE
  5
A
330
0
100
AcDbSymbolTable
 70
     1
100
AcDbDimStyleTable
  0
DIMSTYLE
105
27
330
A
100
AcDbSymbolTableRecord
100
AcDbDimStyleTableRecord
  2
Standard
 70
     0
178
     0
340
11
  0
ENDTAB
  0
TABLE
  2
BLOCK_RECORD
  5
1
330
0
100
AcDbSymbolTable
 70
     7
  0
BLOCK_RECORD
  5
1F
330
1
100
AcDbSymbolTableRecord
100
AcDbBlockTableRecord
  2
*Model_Space
340
22
 70
     0
280
     1
281
     0
  0
BLOCK_RECORD
  5
1B
330
1
100
AcDbSymbolTableRecord
100
AcDbBlockTableRecord
  2
*Paper_Space
340
1E
 70
     0
280
     1
281
     0
  0
BLOCK_RECORD
  5
23
330
1
100
AcDbSymbolTableRecord
100
AcDbBlockTableRecord
  2
*Paper_Space0
340
26
 70
     0
280
     1
281
     0
  0
BLOCK_RECORD
  5
A6
330
1
100
AcDbSymbolTableRecord
100
AcDbBlockTableRecord
  2
block 2
340
0
102
{BLKREFS
331
A7
102
}
 70
     0
280
     1
281
     0
  0
BLOCK_RECORD
  5
B6
330
1
100
AcDbSymbolTableRecord
100
AcDbBlockTableRecord
  2
block 3
340
0
102
{BLKREFS
331
B7
102
}
 70
     0
280
     1
281
     0
  0
BLOCK_RECORD
  5
C6
330
1
100
AcDbSymbolTableRecord
100
AcDbBlockTableRecord
  2
block 4
340
0
102
{BLKREFS
331
C7
102
}
 70
     0
280
     1
281
     0
  0
BLOCK_RECORD
  5
DE
330
1
100
AcDbSymbolTableRecord
100
AcDbBlockTableRecord
  2
block 5
340
0
102
{BLKREFS
331
DF
102
}
 70
     0
280
     1
281
     0
  0
BLOCK_RECORD
  5
F6
330
1
100
AcDbSymbolTableRecord
100
AcDbBlockTableRecord
  2
block 6
340
0
102
{BLKREFS
331
F7
102
}
 70
     0
280
     1
281
     0
  0
BLOCK_RECORD
  5
105
330
1
100
AcDbSymbolTableRecord
100
AcDbBlockTableRecord
  2
block 7
340
0
102
{BLKREFS
331
106
102
}
 70
     0
280
     1
281
     0
  0
ENDTAB
  0
ENDSEC
  0
SECTION
  2
BLOCKS
  0
BLOCK
  5
20
330
1F
100
AcDbEntity
  8
0
100
AcDbBlockBegin
  2
*Model_Space
 70
     0
 10
0.0
 20
0.0
 30
0.0
  3
*Model_Space
  1

  0
ENDBLK
  5
21
330
1F
100
AcDbEntity
  8
0
100
AcDbBlockEnd
  0
BLOCK
  5
1C
330
1B
100
AcDbEntity
 67
     1
  8
0
100
AcDbBlockBegin
  2
*Paper_Space
 70
     0
 10
0.0
 20
0.0
 30
0.0
  3
*Paper_Space
  1

  0
ENDBLK
  5
1D
330
1B
100
AcDbEntity
 67
     1
  8
0
100
AcDbBlockEnd
  0
BLOCK
  5
24
330
23
100
AcDbEntity
  8
0
100
AcDbBlockBegin
  2
*Paper_Space0
 70
     0
 10
0.0
 20
0.0
 30
0.0
  3
*Paper_Space0
  1

  0
ENDBLK
  5
25
330
23
100
AcDbEntity
  8
0
100
AcDbBlockEnd
  0
BLOCK
  5
A8
330
A6
100
AcDbEntity
  8
0
100
AcDbBlockBegin
  2
block 2
 70
     0
 10
0.0
 20
0.0
 30
0.0
  3
block 2
  1

  0
SPLINE
  5
AA
330
A6
100
AcDbEntity
  8
_U+30EC_U+30A4_U+30E4_U+30FC 1
370
     0
100
AcDbSpline
210
0.0
220
0.0
230
1.0
 70
    11
 71
     3
 72
    29
 73
    25
 74
     0
 42
0.0000000001
 43
0.0000000001
 12
1.0
 22
0.0
 32
0.0
 13
1.0
 23
0.0
 33
0.0
 40
0.0
 40
0.0
 40
0.0
 40
0.0
 40
1.0
 40
1.0
 40
1.0
 40
2.0
 40
2.0
 40
2.0
 40
3.0
 40
3.0
 40
3.0
 40
4.0
 40
4.0
 40
4.0
 40
5.0
 40
5.0
 40
5.0
 40
6.0
 40
6.0
 40
6.0
 40
7.0
 40
7.0
 40
7.0
 40
8.0
 40
8.0
 40
8.0
 40
8.0
 10
80.00338539666582
 20
-124.3322902792468
 30
0.0
 10
79.71847600003566
 20
-124.3322902792468
 30
0.0
 10
79.44717473057224
 20
-124.1946587146111
 30
0.0
 10
79.44717473057224
 20
-123.8456705419553
 30
0.0
 10
79.44717473057224
 20
-123.5896999474012
 30
0.0
 10
79.59858667714897
 20
-123.494443057234
 30
0.0
 10
79.71175806383943
 20
-123.4331203575966
 30
0.0
 10
79.578260613786
 20
-123.3738647152503
 30
0.0
 10
79.4969563603341
 20
-123.2596597999143
 30
0.0
 10
79.4969563603341
 20
-123.0989460955274
 30
0.0
 10
79.4969563603341
 20
-122.8238552210302
 30
0.0
 10
79.70951875177401
 20
-122.6884629684598
 30
0.0
 10
80.00338539666582
 20
-122.6884629684598
 30
0.0
 10
80.30620928981928
 20
-122.6884629684598
 30
0.0
 10
80.50981443299754
 20
-122.832295704969
 30
0.0
 10
80.50981443299754
 20
-123.0989460955274
 30
0.0
 10
80.50981443299754
 20
-123.2596597999143
 30
0.0
 10
80.42609861270599
 20
-123.3738647152503
 30
0.0
 10
80.29277341742682
 20
-123.4331203575966
 30
0.0
 10
80.38768579804544
 20
-123.483935516004
 30
0.0
 10
80.55718449591974
 20
-123.5791924061712
 30
0.0
 10
80.55718449591974
 20
-123.841536427373
 30
0.0
 10
80.55718449591974
 20
-124.2158460518453
 30
0.0
 10
80.2588392268971
 20
-124.3322902792468
 30
0.0
 10
80.00338539666582
 20
-124.3322902792468
 30
0.0
  0
SPLINE
  5
AB
330
A6
100
AcDbEntity
  8
_U+30EC_U+30A4_U+30E4_U+30FC 1
370
     0
100
AcDbSpline
210
0.0
220
0.0
230
1.0
 70
    11
 71
     3
 72
    17
 73
    13
 74
     0
 42
0.0000000001
 43
0.0000000001
 12
1.0
 22
0.0
 32
0.0
 13
1.0
 23
0.0
 33
0.0
 40
0.0
 40
0.0
 40
0.0
 40
0.0
 40
1.0
 40
1.0
 40
1.0
 40
2.0
 40
2.0
 40
2.0
 40
3.0
 40
3.0
 40
3.0
 40
4.0
 40
4.0
 40
4.0
 40
4.0
 10
80.00338539666582
 20
-123.5411241010592
 30
0.0
 10
79.84956188324942
 20
-123.5411241010592
 30
0.0
 10
79.68678112157136
 20
-123.6277682525132
 30
0.0
 10
79.68678112157136
 20
-123.8308566313687
 30
0.0
 10
79.68678112157136
 20
-124.0360120675153
 30
0.0
 10
79.82251788369021
 20
-124.1376423843302
 30
0.0
 10
80.00338539666582
 20
-124.1376423843302
 30
0.0
 10
80.202339660939
 20
-124.1376423843302
 30
0.0
 10
80.31981741698603
 20
-124.0149969850553
 30
0.0
 10
80.31981741698603
 20
-123.8372300580164
 30
0.0
 10
80.31981741698603
 20
-123.6150213992178
 30
0.0
 10
80.14584009498091
 20
-123.5411241010592
 30
0.0
 10
80.00338539666582
 20
-123.5411241010592
 30
0.0
  0
SPLINE
  5
AC
330
A6
100
AcDbEntity
  8
_U+30EC_U+30A4_U+30E4_U+30FC 1
370
     0
100
AcDbSpline
210
0.0
220
0.0
230
1.0
 70
    11
 71
     3
 72
    17
 73
    13
 74
     0
 42
0.0000000001
 43
0.0000000001
 12
1.0
 22
0.0
 32
0.0
 13
1.0
 23
0.0
 33
0.0
 40
0.0
 40
0.0
 40
0.0
 40
0.0
 40
1.0
 40
1.0
 40
1.0
 40
2.0
 40
2.0
 40
2.0
 40
3.0
 40
3.0
 40
3.0
 40
4.0
 40
4.0
 40
4.0
 40
4.0
 10
80.00338539666582
 20
-122.8810438060853
 30
0.0
 10
79.82699650782104
 20
-122.8810438060853
 30
0.0
 10
79.73656275133322
 20
-122.9761284414782
 30
0.0
 10
79.73656275133322
 20
-123.1115206940485
 30
0.0
 10
79.73656275133322
 20
-123.2343383480977
 30
0.0
 10
79.8133883806543
 20
-123.3528496327903
 30
0.0
 10
80.00338539666582
 20
-123.3528496327903
 30
0.0
 10
80.1932101579031
 20
-123.3528496327903
 30
0.0
 10
80.27003578722416
 20
-123.2343383480977
 30
0.0
 10
80.27003578722416
 20
-123.1115206940485
 30
0.0
 10
80.27003578722416
 20
-122.9761284414782
 30
0.0
 10
80.17736271867093
 20
-122.8810438060853
 30
0.0
 10
80.00338539666582
 20
-122.8810438060853
 30
0.0
  0
HATCH
  5
AD
330
A6
100
AcDbEntity
  8
_U+30EC_U+30A4_U+30E4_U+30FC 1
 62
   179
420
  2234388
100
AcDbHatch
 10
0.0
 20
0.0
 30
0.0
210
0.0
220
0.0
230
1.0
  2
SOLID
 70
     1
 71
     0
 91
        3
 92
        1
 93
        1
 72
     4
 94
        3
 73
     0
 74
     1
 95
       29
 96
       25
 40
0.0
 40
0.0
 40
0.0
 40
0.0
 40
1.0
 40
1.0
 40
1.0
 40
2.0
 40
2.0
 40
2.0
 40
3.0
 40
3.0
 40
3.0
 40
4.0
 40
4.0
 40
4.0
 40
5.0
 40
5.0
 40
5.0
 40
6.0
 40
6.0
 40
6.0
 40
7.0
 40
7.0
 40
7.0
 40
8.0
 40
8.0
 40
8.0
 40
8.0
 10
80.00338539666582
 20
-124.3322902792468
 10
79.71847600003566
 20
-124.3322902792468
 10
79.44717473057224
 20
-124.1946587146111
 10
79.44717473057224
 20
-123.8456705419553
 10
79.44717473057224
 20
-123.5896999474012
 10
79.59858667714897
 20
-123.494443057234
 10
79.71175806383943
 20
-123.4331203575966
 10
79.578260613786
 20
-123.3738647152503
 10
79.4969563603341
 20
-123.2596597999143
 10
79.4969563603341
 20
-123.0989460955274
 10
79.4969563603341
 20
-122.8238552210302
 10
79.70951875177401
 20
-122.6884629684598
 10
80.00338539666582
 20
-122.6884629684598
 10
80.30620928981928
 20
-122.6884629684598
 10
80.50981443299754
 20
-122.832295704969
 10
80.50981443299754
 20
-123.0989460955274
 10
80.50981443299754
 20
-123.2596597999143
 10
80.42609861270599
 20
-123.3738647152503
 10
80.29277341742682
 20
-123.4331203575966
 10
80.38768579804544
 20
-123.483935516004
 10
80.55718449591974
 20
-123.5791924061712
 10
80.55718449591974
 20
-123.841536427373
 10
80.55718449591974
 20
-124.2158460518453
 10
80.2588392268971
 20
-124.3322902792468
 10
80.00338539666582
 20
-124.3322902792468
 97
        0
 97
        0
 92
        1
 93
        1
 72
     4
 94
        3
 73
     0
 74
     1
 95
       17
 96
       13
 40
0.0
 40
0.0
 40
0.0
 40
0.0
 40
1.0
 40
1.0
 40
1.0
 40
2.0
 40
2.0
 40
2.0
 40
3.0
 40
3.0
 40
3.0
 40
4.0
 40
4.0
 40
4.0
 40
4.0
 10
80.00338539666582
 20
-123.5411241010592
 10
79.84956188324942
 20
-123.5411241010592
 10
79.68678112157136
 20
-123.6277682525132
 10
79.68678112157136
 20
-123.8308566313687
 10
79.68678112157136
 20
-124.0360120675153
 10
79.82251788369021
 20
-124.1376423843302
 10
80.00338539666582
 20
-124.1376423843302
 10
80.202339660939
 20
-124.1376423843302
 10
80.31981741698603
 20
-124.0149969850553
 10
80.31981741698603
 20
-123.8372300580164
 10
80.31981741698603
 20
-123.6150213992178
 10
80.14584009498091
 20
-123.5411241010592
 10
80.00338539666582
 20
-123.5411241010592
 97
        0
 97
        0
 92
        1
 93
        1
 72
     4
 94
        3
 73
     0
 74
     1
 95
       17
 96
       13
 40
0.0
 40
0.0
 40
0.0
 40
0.0
 40
1.0
 40
1.0
 40
1.0
 40
2.0
 40
2.0
 40
2.0
 40
3.0
 40
3.0
 40
3.0
 40
4.0
 40
4.0
 40
4.0
 40
4.0
 10
80.00338539666582
 20
-122.8810438060853
 10
79.82699650782104
 20
-122.8810438060853
 10
79.73656275133322
 20
-122.9761284414782
 10
79.73656275133322
 20
-123.1115206940485
 10
79.73656275133322
 20
-123.2343383480977
 10
79.8133883806543
 20
-123.3528496327903
 10
80.00338539666582
 20
-123.3528496327903
 10
80.1932101579031
 20
-123.3528496327903
 10
80.27003578722416
 20
-123.2343383480977
 10
80.27003578722416
 20
-123.1115206940485
 10
80.27003578722416
 20
-122.9761284414782
 10
80.17736271867093
 20
-122.8810438060853
 10
80.00338539666582
 20
-122.8810438060853
 97
        0
 97
        0
 75
     2
 76
     1
 98
        0
  0
ENDBLK
  5
A9
330
A6
100
AcDbEntity
  8
0
100
AcDbBlockEnd
  0
BLOCK
  5
B8
330
B6
100
AcDbEntity
  8
0
100
AcDbBlockBegin
  2
block 3
 70
     0
 10
0.0
 20
0.0
 30
0.0
  3
block 3
  1

  0
SPLINE
  5
BA
330
B6
100
AcDbEntity
  8
_U+30EC_U+30A4_U+30E4_U+30FC 1
370
     0
100
AcDbSpline
210
0.0
220
0.0
230
1.0
 70
    11
 71
     3
 72
    29
 73
    25
 74
     0
 42
0.0000000001
 43
0.0000000001
 12
1.0
 22
0.0
 32
0.0
 13
1.0
 23
0.0
 33
0.0
 40
0.0
 40
0.0
 40
0.0
 40
0.0
 40
1.0
 40
1.0
 40
1.0
 40
2.0
 40
2.0
 40
2.0
 40
3.0
 40
3.0
 40
3.0
 40
4.0
 40
4.0
 40
4.0
 40
5.0
 40
5.0
 40
5.0
 40
6.0
 40
6.0
 40
6.0
 40
7.0
 40
7.0
 40
7.0
 40
8.0
 40
8.0
 40
8.0
 40
8.0
 10
88.00324162296447
 20
-124.3322902792468
 30
0.0
 10
87.71833222633431
 20
-124.3322902792468
 30
0.0
 10
87.44720321164515
 20
-124.1946587146111
 30
0.0
 10
87.44720321164515
 20
-123.8456705419553
 30
0.0
 10
87.44720321164515
 20
-123.5896999474012
 30
0.0
 10
87.59878741299615
 20
-123.494443057234
 30
0.0
 10
87.71178654491233
 20
-123.4331203575966
 30
0.0
 10
87.57846134963317
 20
-123.3738647152503
 30
0.0
 10
87.49681258663274
 20
-123.2596597999143
 30
0.0
 10
87.49681258663274
 20
-123.0989460955274
 30
0.0
 10
87.49681258663274
 20
-122.8238552210302
 30
0.0
 10
87.70937497807266
 20
-122.6884629684598
 30
0.0
 10
88.00324162296447
 20
-122.6884629684598
 30
0.0
 10
88.30641002566645
 20
-122.6884629684598
 30
0.0
 10
88.50967065929619
 20
-122.832295704969
 30
0.0
 10
88.50967065929619
 20
-123.0989460955274
 30
0.0
 10
88.50967065929619
 20
-123.2596597999143
 30
0.0
 10
88.42629934855316
 20
-123.3738647152503
 30
0.0
 10
88.29262964372546
 20
-123.4331203575966
 30
0.0
 10
88.38771427911836
 20
-123.483935516004
 30
0.0
 10
88.55721297699264
 20
-123.5791924061712
 30
0.0
 10
88.55721297699264
 20
-123.841536427373
 30
0.0
 10
88.55721297699264
 20
-124.2158460518453
 30
0.0
 10
88.25886770797001
 20
-124.3322902792468
 30
0.0
 10
88.00324162296447
 20
-124.3322902792468
 30
0.0
  0
SPLINE
  5
BB
330
B6
100
AcDbEntity
  8
_U+30EC_U+30A4_U+30E4_U+30FC 1
370
     0
100
AcDbSpline
210
0.0
220
0.0
230
1.0
 70
    11
 71
     3
 72
    17
 73
    13
 74
     0
 42
0.0000000001
 43
0.0000000001
 12
1.0
 22
0.0
 32
0.0
 13
1.0
 23
0.0
 33
0.0
 40
0.0
 40
0.0
 40
0.0
 40
0.0
 40
1.0
 40
1.0
 40
1.0
 40
2.0
 40
2.0
 40
2.0
 40
3.0
 40
3.0
 40
3.0
 40
4.0
 40
4.0
 40
4.0
 40
4.0
 10
88.00324162296447
 20
-123.5411241010592
 30
0.0
 10
87.84959036432232
 20
-123.5411241010592
 30
0.0
 10
87.68698185741853
 20
-123.6277682525132
 30
0.0
 10
87.68698185741853
 20
-123.8308566313687
 30
0.0
 10
87.68698185741853
 20
-124.0360120675153
 30
0.0
 10
87.82237410998886
 20
-124.1376423843302
 30
0.0
 10
88.00324162296447
 20
-124.1376423843302
 30
0.0
 10
88.2023681420119
 20
-124.1376423843302
 30
0.0
 10
88.31984589805893
 20
-124.0149969850553
 30
0.0
 10
88.31984589805893
 20
-123.8372300580164
 30
0.0
 10
88.31984589805893
 20
-123.6150213992178
 30
0.0
 10
88.14586857605381
 20
-123.5411241010592
 30
0.0
 10
88.00324162296447
 20
-123.5411241010592
 30
0.0
  0
SPLINE
  5
BC
330
B6
100
AcDbEntity
  8
_U+30EC_U+30A4_U+30E4_U+30FC 1
370
     0
100
AcDbSpline
210
0.0
220
0.0
230
1.0
 70
    11
 71
     3
 72
    17
 73
    13
 74
     0
 42
0.0000000001
 43
0.0000000001
 12
1.0
 22
0.0
 32
0.0
 13
1.0
 23
0.0
 33
0.0
 40
0.0
 40
0.0
 40
0.0
 40
0.0
 40
1.0
 40
1.0
 40
1.0
 40
2.0
 40
2.0
 40
2.0
 40
3.0
 40
3.0
 40
3.0
 40
4.0
 40
4.0
 40
4.0
 40
4.0
 10
88.00324162296447
 20
-122.8810438060853
 30
0.0
 10
87.82719724366821
 20
-122.8810438060853
 30
0.0
 10
87.73659123240613
 20
-122.9761284414782
 30
0.0
 10
87.73659123240613
 20
-123.1115206940485
 30
0.0
 10
87.73659123240613
 20
-123.2343383480977
 30
0.0
 10
87.8134168617272
 20
-123.3528496327903
 30
0.0
 10
88.00324162296447
 20
-123.3528496327903
 30
0.0
 10
88.19341089375027
 20
-123.3528496327903
 30
0.0
 10
88.27023652307133
 20
-123.2343383480977
 30
0.0
 10
88.27023652307133
 20
-123.1115206940485
 30
0.0
 10
88.27023652307133
 20
-122.9761284414782
 30
0.0
 10
88.17756345451811
 20
-122.8810438060853
 30
0.0
 10
88.00324162296447
 20
-122.8810438060853
 30
0.0
  0
HATCH
  5
BD
330
B6
100
AcDbEntity
  8
_U+30EC_U+30A4_U+30E4_U+30FC 1
 62
   179
420
  2234388
100
AcDbHatch
 10
0.0
 20
0.0
 30
0.0
210
0.0
220
0.0
230
1.0
  2
SOLID
 70
     1
 71
     0
 91
        3
 92
        1
 93
        1
 72
     4
 94
        3
 73
     0
 74
     1
 95
       29
 96
       25
 40
0.0
 40
0.0
 40
0.0
 40
0.0
 40
1.0
 40
1.0
 40
1.0
 40
2.0
 40
2.0
 40
2.0
 40
3.0
 40
3.0
 40
3.0
 40
4.0
 40
4.0
 40
4.0
 40
5.0
 40
5.0
 40
5.0
 40
6.0
 40
6.0
 40
6.0
 40
7.0
 40
7.0
 40
7.0
 40
8.0
 40
8.0
 40
8.0
 40
8.0
 10
88.00324162296447
 20
-124.3322902792468
 10
87.71833222633431
 20
-124.3322902792468
 10
87.44720321164515
 20
-124.1946587146111
 10
87.44720321164515
 20
-123.8456705419553
 10
87.44720321164515
 20
-123.5896999474012
 10
87.59878741299615
 20
-123.494443057234
 10
87.71178654491233
 20
-123.4331203575966
 10
87.57846134963317
 20
-123.3738647152503
 10
87.49681258663274
 20
-123.2596597999143
 10
87.49681258663274
 20
-123.0989460955274
 10
87.49681258663274
 20
-122.8238552210302
 10
87.70937497807266
 20
-122.6884629684598
 10
88.00324162296447
 20
-122.6884629684598
 10
88.30641002566645
 20
-122.6884629684598
 10
88.50967065929619
 20
-122.832295704969
 10
88.50967065929619
 20
-123.0989460955274
 10
88.50967065929619
 20
-123.2596597999143
 10
88.42629934855316
 20
-123.3738647152503
 10
88.29262964372546
 20
-123.4331203575966
 10
88.38771427911836
 20
-123.483935516004
 10
88.55721297699264
 20
-123.5791924061712
 10
88.55721297699264
 20
-123.841536427373
 10
88.55721297699264
 20
-124.2158460518453
 10
88.25886770797001
 20
-124.3322902792468
 10
88.00324162296447
 20
-124.3322902792468
 97
        0
 97
        0
 92
        1
 93
        1
 72
     4
 94
        3
 73
     0
 74
     1
 95
       17
 96
       13
 40
0.0
 40
0.0
 40
0.0
 40
0.0
 40
1.0
 40
1.0
 40
1.0
 40
2.0
 40
2.0
 40
2.0
 40
3.0
 40
3.0
 40
3.0
 40
4.0
 40
4.0
 40
4.0
 40
4.0
 10
88.00324162296447
 20
-123.5411241010592
 10
87.84959036432232
 20
-123.5411241010592
 10
87.68698185741853
 20
-123.6277682525132
 10
87.68698185741853
 20
-123.8308566313687
 10
87.68698185741853
 20
-124.0360120675153
 10
87.82237410998886
 20
-124.1376423843302
 10
88.00324162296447
 20
-124.1376423843302
 10
88.2023681420119
 20
-124.1376423843302
 10
88.31984589805893
 20
-124.0149969850553
 10
88.31984589805893
 20
-123.8372300580164
 10
88.31984589805893
 20
-123.6150213992178
 10
88.14586857605381
 20
-123.5411241010592
 10
88.00324162296447
 20
-123.5411241010592
 97
        0
 97
        0
 92
        1
 93
        1
 72
     4
 94
        3
 73
     0
 74
     1
 95
       17
 96
       13
 40
0.0
 40
0.0
 40
0.0
 40
0.0
 40
1.0
 40
1.0
 40
1.0
 40
2.0
 40
2.0
 40
2.0
 40
3.0
 40
3.0
 40
3.0
 40
4.0
 40
4.0
 40
4.0
 40
4.0
 10
88.00324162296447
 20
-122.8810438060853
 10
87.82719724366821
 20
-122.8810438060853
 10
87.73659123240613
 20
-122.9761284414782
 10
87.73659123240613
 20
-123.1115206940485
 10
87.73659123240613
 20
-123.2343383480977
 10
87.8134168617272
 20
-123.3528496327903
 10
88.00324162296447
 20
-123.3528496327903
 10
88.19341089375027
 20
-123.3528496327903
 10
88.27023652307133
 20
-123.2343383480977
 10
88.27023652307133
 20
-123.1115206940485
 10
88.27023652307133
 20
-122.9761284414782
 10
88.17756345451811
 20
-122.8810438060853
 10
88.00324162296447
 20
-122.8810438060853
 97
        0
 97
        0
 75
     2
 76
     1
 98
        0
  0
ENDBLK
  5
B9
330
B6
100
AcDbEntity
  8
0
100
AcDbBlockEnd
  0
BLOCK
  5
C8
330
C6
100
AcDbEntity
  8
0
100
AcDbBlockBegin
  2
block 4
 70
     0
 10
0.0
 20
0.0
 30
0.0
  3
block 4
  1

  0
SPLINE
  5
CA
330
C6
100
AcDbEntity
  8
_U+30EC_U+30A4_U+30E4_U+30FC 1
370
     0
100
AcDbSpline
210
0.0
220
0.0
230
1.0
 70
    11
 71
     3
 72
    29
 73
    25
 74
     0
 42
0.0000000001
 43
0.0000000001
 12
1.0
 22
0.0
 32
0.0
 13
1.0
 23
0.0
 33
0.0
 40
0.0
 40
0.0
 40
0.0
 40
0.0
 40
1.0
 40
1.0
 40
1.0
 40
2.0
 40
2.0
 40
2.0
 40
3.0
 40
3.0
 40
3.0
 40
4.0
 40
4.0
 40
4.0
 40
5.0
 40
5.0
 40
5.0
 40
6.0
 40
6.0
 40
6.0
 40
7.0
 40
7.0
 40
7.0
 40
8.0
 40
8.0
 40
8.0
 40
8.0
 10
96.00309784926311
 20
-124.3322902792468
 30
0.0
 10
95.71853296218148
 20
-124.3322902792468
 30
0.0
 10
95.44705943794379
 20
-124.1946587146111
 30
0.0
 10
95.44705943794379
 20
-123.8456705419553
 30
0.0
 10
95.44705943794379
 20
-123.5896999474012
 30
0.0
 10
95.59864363929479
 20
-123.494443057234
 30
0.0
 10
95.71164277121099
 20
-123.4331203575966
 30
0.0
 10
95.57831757593182
 20
-123.3738647152503
 30
0.0
 10
95.49666881293139
 20
-123.2596597999143
 30
0.0
 10
95.49666881293139
 20
-123.0989460955274
 30
0.0
 10
95.49666881293139
 20
-122.8238552210302
 30
0.0
 10
95.7092312043713
 20
-122.6884629684598
 30
0.0
 10
96.00309784926311
 20
-122.6884629684598
 30
0.0
 10
96.3062662519651
 20
-122.6884629684598
 30
0.0
 10
96.50952688559485
 20
-122.832295704969
 30
0.0
 10
96.50952688559485
 20
-123.0989460955274
 30
0.0
 10
96.50952688559485
 20
-123.2596597999143
 30
0.0
 10
96.4261555748518
 20
-123.3738647152503
 30
0.0
 10
96.29248587002411
 20
-123.4331203575966
 30
0.0
 10
96.387570505417
 20
-123.483935516004
 30
0.0
 10
96.55706920329129
 20
-123.5791924061712
 30
0.0
 10
96.55706920329129
 20
-123.841536427373
 30
0.0
 10
96.55706920329129
 20
-124.2158460518453
 30
0.0
 10
96.25872393426866
 20
-124.3322902792468
 30
0.0
 10
96.00309784926311
 20
-124.3322902792468
 30
0.0
  0
SPLINE
  5
CB
330
C6
100
AcDbEntity
  8
_U+30EC_U+30A4_U+30E4_U+30FC 1
370
     0
100
AcDbSpline
210
0.0
220
0.0
230
1.0
 70
    11
 71
     3
 72
    17
 73
    13
 74
     0
 42
0.0000000001
 43
0.0000000001
 12
1.0
 22
0.0
 32
0.0
 13
1.0
 23
0.0
 33
0.0
 40
0.0
 40
0.0
 40
0.0
 40
0.0
 40
1.0
 40
1.0
 40
1.0
 40
2.0
 40
2.0
 40
2.0
 40
3.0
 40
3.0
 40
3.0
 40
4.0
 40
4.0
 40
4.0
 40
4.0
 10
96.00309784926311
 20
-123.5411241010592
 30
0.0
 10
95.84944659062097
 20
-123.5411241010592
 30
0.0
 10
95.68683808371718
 20
-123.6277682525132
 30
0.0
 10
95.68683808371718
 20
-123.8308566313687
 30
0.0
 10
95.68683808371718
 20
-124.0360120675153
 30
0.0
 10
95.8222303362875
 20
-124.1376423843302
 30
0.0
 10
96.00309784926311
 20
-124.1376423843302
 30
0.0
 10
96.20222436831055
 20
-124.1376423843302
 30
0.0
 10
96.31970212435758
 20
-124.0149969850553
 30
0.0
 10
96.31970212435758
 20
-123.8372300580164
 30
0.0
 10
96.31970212435758
 20
-123.6150213992178
 30
0.0
 10
96.14572480235246
 20
-123.5411241010592
 30
0.0
 10
96.00309784926311
 20
-123.5411241010592
 30
0.0
  0
SPLINE
  5
CC
330
C6
100
AcDbEntity
  8
_U+30EC_U+30A4_U+30E4_U+30FC 1
370
     0
100
AcDbSpline
210
0.0
220
0.0
230
1.0
 70
    11
 71
     3
 72
    17
 73
    13
 74
     0
 42
0.0000000001
 43
0.0000000001
 12
1.0
 22
0.0
 32
0.0
 13
1.0
 23
0.0
 33
0.0
 40
0.0
 40
0.0
 40
0.0
 40
0.0
 40
1.0
 40
1.0
 40
1.0
 40
2.0
 40
2.0
 40
2.0
 40
3.0
 40
3.0
 40
3.0
 40
4.0
 40
4.0
 40
4.0
 40
4.0
 10
96.00309784926311
 20
-122.8810438060853
 30
0.0
 10
95.82670896041833
 20
-122.8810438060853
 30
0.0
 10
95.73644745870479
 20
-122.9761284414782
 30
0.0
 10
95.73644745870479
 20
-123.1115206940485
 30
0.0
 10
95.73644745870479
 20
-123.2343383480977
 30
0.0
 10
95.81327308802585
 20
-123.3528496327903
 30
0.0
 10
96.00309784926311
 20
-123.3528496327903
 30
0.0
 10
96.19326712004892
 20
-123.3528496327903
 30
0.0
 10
96.27009274936998
 20
-123.2343383480977
 30
0.0
 10
96.27009274936998
 20
-123.1115206940485
 30
0.0
 10
96.27009274936998
 20
-122.9761284414782
 30
0.0
 10
96.17741968081675
 20
-122.8810438060853
 30
0.0
 10
96.00309784926311
 20
-122.8810438060853
 30
0.0
  0
HATCH
  5
CD
330
C6
100
AcDbEntity
  8
_U+30EC_U+30A4_U+30E4_U+30FC 1
 62
   179
420
  2234388
100
AcDbHatch
 10
0.0
 20
0.0
 30
0.0
210
0.0
220
0.0
230
1.0
  2
SOLID
 70
     1
 71
     0
 91
        3
 92
        1
 93
        1
 72
     4
 94
        3
 73
     0
 74
     1
 95
       29
 96
       25
 40
0.0
 40
0.0
 40
0.0
 40
0.0
 40
1.0
 40
1.0
 40
1.0
 40
2.0
 40
2.0
 40
2.0
 40
3.0
 40
3.0
 40
3.0
 40
4.0
 40
4.0
 40
4.0
 40
5.0
 40
5.0
 40
5.0
 40
6.0
 40
6.0
 40
6.0
 40
7.0
 40
7.0
 40
7.0
 40
8.0
 40
8.0
 40
8.0
 40
8.0
 10
96.00309784926311
 20
-124.3322902792468
 10
95.71853296218148
 20
-124.3322902792468
 10
95.44705943794379
 20
-124.1946587146111
 10
95.44705943794379
 20
-123.8456705419553
 10
95.44705943794379
 20
-123.5896999474012
 10
95.59864363929479
 20
-123.494443057234
 10
95.71164277121099
 20
-123.4331203575966
 10
95.57831757593182
 20
-123.3738647152503
 10
95.49666881293139
 20
-123.2596597999143
 10
95.49666881293139
 20
-123.0989460955274
 10
95.49666881293139
 20
-122.8238552210302
 10
95.7092312043713
 20
-122.6884629684598
 10
96.00309784926311
 20
-122.6884629684598
 10
96.3062662519651
 20
-122.6884629684598
 10
96.50952688559485
 20
-122.832295704969
 10
96.50952688559485
 20
-123.0989460955274
 10
96.50952688559485
 20
-123.2596597999143
 10
96.4261555748518
 20
-123.3738647152503
 10
96.29248587002411
 20
-123.4331203575966
 10
96.387570505417
 20
-123.483935516004
 10
96.55706920329129
 20
-123.5791924061712
 10
96.55706920329129
 20
-123.841536427373
 10
96.55706920329129
 20
-124.2158460518453
 10
96.25872393426866
 20
-124.3322902792468
 10
96.00309784926311
 20
-124.3322902792468
 97
        0
 97
        0
 92
        1
 93
        1
 72
     4
 94
        3
 73
     0
 74
     1
 95
       17
 96
       13
 40
0.0
 40
0.0
 40
0.0
 40
0.0
 40
1.0
 40
1.0
 40
1.0
 40
2.0
 40
2.0
 40
2.0
 40
3.0
 40
3.0
 40
3.0
 40
4.0
 40
4.0
 40
4.0
 40
4.0
 10
96.00309784926311
 20
-123.5411241010592
 10
95.84944659062097
 20
-123.5411241010592
 10
95.68683808371718
 20
-123.6277682525132
 10
95.68683808371718
 20
-123.8308566313687
 10
95.68683808371718
 20
-124.0360120675153
 10
95.8222303362875
 20
-124.1376423843302
 10
96.00309784926311
 20
-124.1376423843302
 10
96.20222436831055
 20
-124.1376423843302
 10
96.31970212435758
 20
-124.0149969850553
 10
96.31970212435758
 20
-123.8372300580164
 10
96.31970212435758
 20
-123.6150213992178
 10
96.14572480235246
 20
-123.5411241010592
 10
96.00309784926311
 20
-123.5411241010592
 97
        0
 97
        0
 92
        1
 93
        1
 72
     4
 94
        3
 73
     0
 74
     1
 95
       17
 96
       13
 40
0.0
 40
0.0
 40
0.0
 40
0.0
 40
1.0
 40
1.0
 40
1.0
 40
2.0
 40
2.0
 40
2.0
 40
3.0
 40
3.0
 40
3.0
 40
4.0
 40
4.0
 40
4.0
 40
4.0
 10
96.00309784926311
 20
-122.8810438060853
 10
95.82670896041833
 20
-122.8810438060853
 10
95.73644745870479
 20
-122.9761284414782
 10
95.73644745870479
 20
-123.1115206940485
 10
95.73644745870479
 20
-123.2343383480977
 10
95.81327308802585
 20
-123.3528496327903
 10
96.00309784926311
 20
-123.3528496327903
 10
96.19326712004892
 20
-123.3528496327903
 10
96.27009274936998
 20
-123.2343383480977
 10
96.27009274936998
 20
-123.1115206940485
 10
96.27009274936998
 20
-122.9761284414782
 10
96.17741968081675
 20
-122.8810438060853
 10
96.00309784926311
 20
-122.8810438060853
 97
        0
 97
        0
 75
     2
 76
     1
 98
        0
  0
ENDBLK
  5
C9
330
C6
100
AcDbEntity
  8
0
100
AcDbBlockEnd
  0
BLOCK
  5
E0
330
DE
100
AcDbEntity
  8
0
100
AcDbBlockBegin
  2
block 5
 70
     0
 10
0.0
 20
0.0
 30
0.0
  3
block 5
  1

  0
SPLINE
  5
E2
330
DE
100
AcDbEntity
  8
_U+30EC_U+30A4_U+30E4_U+30FC 1
370
     0
100
AcDbSpline
210
0.0
220
0.0
230
1.0
 70
    11
 71
     3
 72
    26
 73
    22
 74
     0
 42
0.0000000001
 43
0.0000000001
 12
1.0
 22
0.0
 32
0.0
 13
1.0
 23
0.0
 33
0.0
 40
0.0
 40
0.0
 40
0.0
 40
0.0
 40
1.0
 40
1.0
 40
1.0
 40
2.0
 40
2.0
 40
2.0
 40
3.0
 40
3.0
 40
3.0
 40
4.0
 40
4.0
 40
4.0
 40
5.0
 40
5.0
 40
5.0
 40
6.0
 40
6.0
 40
6.0
 40
7.0
 40
7.0
 40
7.0
 40
7.0
 10
103.3576876911745
 20
-126.902848275566
 30
0.0
 10
103.3576876911745
 20
-126.902848275566
 30
0.0
 10
102.2535345881519
 20
-126.902848275566
 30
0.0
 10
102.2535345881519
 20
-126.902848275566
 30
0.0
 10
102.2535345881519
 20
-126.902848275566
 30
0.0
 10
102.2535345881519
 20
-127.255281543707
 30
0.0
 10
102.2535345881519
 20
-127.255281543707
 30
0.0
 10
102.2535345881519
 20
-127.255281543707
 30
0.0
 10
102.1053954822862
 20
-127.255281543707
 30
0.0
 10
102.1053954822862
 20
-127.255281543707
 30
0.0
 10
102.0905815716996
 20
-126.9004367087263
 30
0.0
 10
101.9276285552473
 20
-126.8508273337387
 30
0.0
 10
101.813251385137
 20
-126.8191324552744
 30
0.0
 10
101.813251385137
 20
-126.8191324552744
 30
0.0
 10
101.813251385137
 20
-126.6630696297926
 30
0.0
 10
101.813251385137
 20
-126.6630696297926
 30
0.0
 10
101.813251385137
 20
-126.6630696297926
 30
0.0
 10
103.3576876911745
 20
-126.6630696297926
 30
0.0
 10
103.3576876911745
 20
-126.6630696297926
 30
0.0
 10
103.3576876911745
 20
-126.6630696297926
 30
0.0
 10
103.3576876911745
 20
-126.902848275566
 30
0.0
 10
103.3576876911745
 20
-126.902848275566
 30
0.0
  0
HATCH
  5
E3
330
DE
100
AcDbEntity
  8
_U+30EC_U+30A4_U+30E4_U+30FC 1
 62
   179
420
  2234388
100
AcDbHatch
 10
0.0
 20
0.0
 30
0.0
210
0.0
220
0.0
230
1.0
  2
SOLID
 70
     1
 71
     0
 91
        1
 92
        1
 93
        1
 72
     4
 94
        3
 73
     0
 74
     1
 95
       26
 96
       22
 40
0.0
 40
0.0
 40
0.0
 40
0.0
 40
1.0
 40
1.0
 40
1.0
 40
2.0
 40
2.0
 40
2.0
 40
3.0
 40
3.0
 40
3.0
 40
4.0
 40
4.0
 40
4.0
 40
5.0
 40
5.0
 40
5.0
 40
6.0
 40
6.0
 40
6.0
 40
7.0
 40
7.0
 40
7.0
 40
7.0
 10
103.3576876911745
 20
-126.902848275566
 10
103.3576876911745
 20
-126.902848275566
 10
102.2535345881519
 20
-126.902848275566
 10
102.2535345881519
 20
-126.902848275566
 10
102.2535345881519
 20
-126.902848275566
 10
102.2535345881519
 20
-127.255281543707
 10
102.2535345881519
 20
-127.255281543707
 10
102.2535345881519
 20
-127.255281543707
 10
102.1053954822862
 20
-127.255281543707
 10
102.1053954822862
 20
-127.255281543707
 10
102.0905815716996
 20
-126.9004367087263
 10
101.9276285552473
 20
-126.8508273337387
 10
101.813251385137
 20
-126.8191324552744
 10
101.813251385137
 20
-126.8191324552744
 10
101.813251385137
 20
-126.6630696297926
 10
101.813251385137
 20
-126.6630696297926
 10
101.813251385137
 20
-126.6630696297926
 10
103.3576876911745
 20
-126.6630696297926
 10
103.3576876911745
 20
-126.6630696297926
 10
103.3576876911745
 20
-126.6630696297926
 10
103.3576876911745
 20
-126.902848275566
 10
103.3576876911745
 20
-126.902848275566
 97
        0
 97
        0
 75
     2
 76
     1
 98
        0
  0
POLYLINE
  5
E4
330
DE
100
AcDbEntity
  8
_U+30EC_U+30A4_U+30E4_U+30FC 1
370
     0
100
AcDb2dPolyline
 66
     1
 10
0.0
 20
0.0
 30
0.0
  0
VERTEX
  5
E5
330
E4
100
AcDbEntity
  8
_U+30EC_U+30A4_U+30E4_U+30FC 1
370
     0
100
AcDbVertex
100
AcDb2dVertex
 10
103.3576876911745
 20
-126.0632785058106
 30
0.0
  0
VERTEX
  5
E6
330
E4
100
AcDbEntity
  8
_U+30EC_U+30A4_U+30E4_U+30FC 1
370
     0
100
AcDbVertex
100
AcDb2dVertex
 10
103.1058512112027
 20
-126.0632785058106
 30
0.0
  0
VERTEX
  5
E7
330
E4
100
AcDbEntity
  8
_U+30EC_U+30A4_U+30E4_U+30FC 1
370
     0
100
AcDbVertex
100
AcDb2dVertex
 10
103.1058512112027
 20
-125.7942165484126
 30
0.0
  0
VERTEX
  5
E8
330
E4
100
AcDbEntity
  8
_U+30EC_U+30A4_U+30E4_U+30FC 1
370
     0
100
AcDbVertex
100
AcDb2dVertex
 10
103.3576876911745
 20
-125.7942165484126
 30
0.0
  0
VERTEX
  5
E9
330
E4
100
AcDbEntity
  8
_U+30EC_U+30A4_U+30E4_U+30FC 1
370
     0
100
AcDbVertex
100
AcDb2dVertex
 10
103.3576876911745
 20
-126.0632785058106
 30
0.0
  0
SEQEND
  5
EA
330
E4
100
AcDbEntity
  8
_U+30EC_U+30A4_U+30E4_U+30FC 1
370
     0
  0
HATCH
  5
EB
330
DE
100
AcDbEntity
  8
_U+30EC_U+30A4_U+30E4_U+30FC 1
 62
   179
420
  2234388
100
AcDbHatch
 10
0.0
 20
0.0
 30
0.0
210
0.0
220
0.0
230
1.0
  2
SOLID
 70
     1
 71
     0
 91
        1
 92
        1
 93
        4
 72
     1
 10
103.3576876911745
 20
-126.0632785058106
 11
103.1058512112027
 21
-126.0632785058106
 72
     1
 10
103.1058512112027
 20
-126.0632785058106
 11
103.1058512112027
 21
-125.7942165484126
 72
     1
 10
103.1058512112027
 20
-125.7942165484126
 11
103.3576876911745
 21
-125.7942165484126
 72
     1
 10
103.3576876911745
 20
-125.7942165484126
 11
103.3576876911745
 21
-126.0632785058106
 97
        0
 75
     2
 76
     1
 98
        0
  0
SPLINE
  5
EC
330
DE
100
AcDbEntity
  8
_U+30EC_U+30A4_U+30E4_U+30FC 1
370
     0
100
AcDbSpline
210
0.0
220
0.0
230
1.0
 70
    11
 71
     3
 72
    53
 73
    49
 74
     0
 42
0.0000000001
 43
0.0000000001
 12
1.0
 22
0.0
 32
0.0
 13
1.0
 23
0.0
 33
0.0
 40
0.0
 40
0.0
 40
0.0
 40
0.0
 40
1.0
 40
1.0
 40
1.0
 40
2.0
 40
2.0
 40
2.0
 40
3.0
 40
3.0
 40
3.0
 40
4.0
 40
4.0
 40
4.0
 40
5.0
 40
5.0
 40
5.0
 40
6.0
 40
6.0
 40
6.0
 40
7.0
 40
7.0
 40
7.0
 40
8.0
 40
8.0
 40
8.0
 40
9.0
 40
9.0
 40
9.0
 40
10.0
 40
10.0
 40
10.0
 40
11.0
 40
11.0
 40
11.0
 40
12.0
 40
12.0
 40
12.0
 40
13.0
 40
13.0
 40
13.0
 40
14.0
 40
14.0
 40
14.0
 40
15.0
 40
15.0
 40
15.0
 40
16.0
 40
16.0
 40
16.0
 40
16.0
 10
103.4083305948076
 20
-125.0273382933959
 30
0.0
 10
103.4083305948076
 20
-125.110709604139
 30
0.0
 10
103.3914496269299
 20
-125.2195746214729
 30
0.0
 10
103.3280598700013
 20
-125.3277506197097
 30
0.0
 10
103.2181613240218
 20
-125.5134412663647
 30
0.0
 10
103.0869031860338
 20
-125.5358343870188
 30
0.0
 10
102.9790716973455
 20
-125.5561604503818
 30
0.0
 10
102.9790716973455
 20
-125.5561604503818
 30
0.0
 10
102.9790716973455
 20
-125.3187933714481
 30
0.0
 10
102.9790716973455
 20
-125.3187933714481
 30
0.0
 10
103.1778537068444
 20
-125.2602267481988
 30
0.0
 10
103.2074815280176
 20
-125.12448998608
 30
0.0
 10
103.2074815280176
 20
-125.0249267265563
 30
0.0
 10
103.2074815280176
 20
-124.875754092045
 30
0.0
 10
103.1079182684939
 20
-124.7131455851412
 30
0.0
 10
102.8753743232395
 20
-124.7131455851412
 30
0.0
 10
102.6194037286854
 20
-124.7131455851412
 30
0.0
 10
102.5494682903349
 20
-124.9050374036696
 30
0.0
 10
102.5494682903349
 20
-125.0338839748179
 30
0.0
 10
102.5494682903349
 20
-125.0679904201219
 30
0.0
 10
102.5494682903349
 20
-125.2195746214729
 30
0.0
 10
102.6786593710317
 20
-125.3143147473173
 30
0.0
 10
102.6786593710317
 20
-125.3143147473173
 30
0.0
 10
102.6597113458629
 20
-125.5020724512634
 30
0.0
 10
102.6597113458629
 20
-125.5020724512634
 30
0.0
 10
102.6597113458629
 20
-125.5020724512634
 30
0.0
 10
101.813251385137
 20
-125.373225880115
 30
0.0
 10
101.813251385137
 20
-125.373225880115
 30
0.0
 10
101.813251385137
 20
-125.373225880115
 30
0.0
 10
101.813251385137
 20
-124.5412353204272
 30
0.0
 10
101.813251385137
 20
-124.5412353204272
 30
0.0
 10
101.813251385137
 20
-124.5412353204272
 30
0.0
 10
102.0078992800536
 20
-124.5412353204272
 30
0.0
 10
102.0078992800536
 20
-124.5412353204272
 30
0.0
 10
102.0078992800536
 20
-124.5412353204272
 30
0.0
 10
102.0078992800536
 20
-125.1989040485614
 30
0.0
 10
102.0078992800536
 20
-125.1989040485614
 30
0.0
 10
102.0078992800536
 20
-125.1989040485614
 30
0.0
 10
102.4309570056423
 20
-125.2691839964605
 30
0.0
 10
102.4309570056423
 20
-125.2691839964605
 30
0.0
 10
102.3971950698868
 20
-125.2037271822407
 30
0.0
 10
102.3568874527094
 20
-125.1155327378183
 30
0.0
 10
102.3568874527094
 20
-124.9887532239612
 30
0.0
 10
102.3568874527094
 20
-124.717624209272
 30
0.0
 10
102.5432671184614
 20
-124.4644096911061
 30
0.0
 10
102.8564262980706
 20
-124.4644096911061
 30
0.0
 10
103.1737195922621
 20
-124.4644096911061
 30
0.0
 10
103.4083305948076
 20
-124.703843827331
 30
0.0
 10
103.4083305948076
 20
-125.0273382933959
 30
0.0
  0
HATCH
  5
ED
330
DE
100
AcDbEntity
  8
_U+30EC_U+30A4_U+30E4_U+30FC 1
 62
   179
420
  2234388
100
AcDbHatch
 10
0.0
 20
0.0
 30
0.0
210
0.0
220
0.0
230
1.0
  2
SOLID
 70
     1
 71
     0
 91
        1
 92
        1
 93
        1
 72
     4
 94
        3
 73
     0
 74
     1
 95
       53
 96
       49
 40
0.0
 40
0.0
 40
0.0
 40
0.0
 40
1.0
 40
1.0
 40
1.0
 40
2.0
 40
2.0
 40
2.0
 40
3.0
 40
3.0
 40
3.0
 40
4.0
 40
4.0
 40
4.0
 40
5.0
 40
5.0
 40
5.0
 40
6.0
 40
6.0
 40
6.0
 40
7.0
 40
7.0
 40
7.0
 40
8.0
 40
8.0
 40
8.0
 40
9.0
 40
9.0
 40
9.0
 40
10.0
 40
10.0
 40
10.0
 40
11.0
 40
11.0
 40
11.0
 40
12.0
 40
12.0
 40
12.0
 40
13.0
 40
13.0
 40
13.0
 40
14.0
 40
14.0
 40
14.0
 40
15.0
 40
15.0
 40
15.0
 40
16.0
 40
16.0
 40
16.0
 40
16.0
 10
103.4083305948076
 20
-125.0273382933959
 10
103.4083305948076
 20
-125.110709604139
 10
103.3914496269299
 20
-125.2195746214729
 10
103.3280598700013
 20
-125.3277506197097
 10
103.2181613240218
 20
-125.5134412663647
 10
103.0869031860338
 20
-125.5358343870188
 10
102.9790716973455
 20
-125.5561604503818
 10
102.9790716973455
 20
-125.5561604503818
 10
102.9790716973455
 20
-125.3187933714481
 10
102.9790716973455
 20
-125.3187933714481
 10
103.1778537068444
 20
-125.2602267481988
 10
103.2074815280176
 20
-125.12448998608
 10
103.2074815280176
 20
-125.0249267265563
 10
103.2074815280176
 20
-124.875754092045
 10
103.1079182684939
 20
-124.7131455851412
 10
102.8753743232395
 20
-124.7131455851412
 10
102.6194037286854
 20
-124.7131455851412
 10
102.5494682903349
 20
-124.9050374036696
 10
102.5494682903349
 20
-125.0338839748179
 10
102.5494682903349
 20
-125.0679904201219
 10
102.5494682903349
 20
-125.2195746214729
 10
102.6786593710317
 20
-125.3143147473173
 10
102.6786593710317
 20
-125.3143147473173
 10
102.6597113458629
 20
-125.5020724512634
 10
102.6597113458629
 20
-125.5020724512634
 10
102.6597113458629
 20
-125.5020724512634
 10
101.813251385137
 20
-125.373225880115
 10
101.813251385137
 20
-125.373225880115
 10
101.813251385137
 20
-125.373225880115
 10
101.813251385137
 20
-124.5412353204272
 10
101.813251385137
 20
-124.5412353204272
 10
101.813251385137
 20
-124.5412353204272
 10
102.0078992800536
 20
-124.5412353204272
 10
102.0078992800536
 20
-124.5412353204272
 10
102.0078992800536
 20
-124.5412353204272
 10
102.0078992800536
 20
-125.1989040485614
 10
102.0078992800536
 20
-125.1989040485614
 10
102.0078992800536
 20
-125.1989040485614
 10
102.4309570056423
 20
-125.2691839964605
 10
102.4309570056423
 20
-125.2691839964605
 10
102.3971950698868
 20
-125.2037271822407
 10
102.3568874527094
 20
-125.1155327378183
 10
102.3568874527094
 20
-124.9887532239612
 10
102.3568874527094
 20
-124.717624209272
 10
102.5432671184614
 20
-124.4644096911061
 10
102.8564262980706
 20
-124.4644096911061
 10
103.1737195922621
 20
-124.4644096911061
 10
103.4083305948076
 20
-124.703843827331
 10
103.4083305948076
 20
-125.0273382933959
 97
        0
 97
        0
 75
     2
 76
     1
 98
        0
  0
ENDBLK
  5
E1
330
DE
100
AcDbEntity
  8
0
100
AcDbBlockEnd
  0
BLOCK
  5
F8
330
F6
100
AcDbEntity
  8
0
100
AcDbBlockBegin
  2
block 6
 70
     0
 10
0.0
 20
0.0
 30
0.0
  3
block 6
  1

  0
SPLINE
  5
FA
330
F6
100
AcDbEntity
  8
_U+30EC_U+30A4_U+30E4_U+30FC 1
370
     0
100
AcDbSpline
210
0.0
220
0.0
230
1.0
 70
    11
 71
     3
 72
    32
 73
    28
 74
     0
 42
0.0000000001
 43
0.0000000001
 12
1.0
 22
0.0
 32
0.0
 13
1.0
 23
0.0
 33
0.0
 40
0.0
 40
0.0
 40
0.0
 40
0.0
 40
1.0
 40
1.0
 40
1.0
 40
2.0
 40
2.0
 40
2.0
 40
3.0
 40
3.0
 40
3.0
 40
4.0
 40
4.0
 40
4.0
 40
5.0
 40
5.0
 40
5.0
 40
6.0
 40
6.0
 40
6.0
 40
7.0
 40
7.0
 40
7.0
 40
8.0
 40
8.0
 40
8.0
 40
9.0
 40
9.0
 40
9.0
 40
9.0
 10
103.4083305948076
 20
-133.4244140291439
 30
0.0
 10
103.4083305948076
 20
-133.9763183258809
 30
0.0
 10
102.8543592407795
 20
-133.9852755741426
 30
0.0
 10
102.6404188111455
 20
-133.9852755741426
 30
0.0
 10
102.4099419231822
 20
-133.9852755741426
 30
0.0
 10
101.7626084815038
 20
-133.9649495107796
 30
0.0
 10
101.7626084815038
 20
-133.3837619024179
 30
0.0
 10
101.7626084815038
 20
-133.1984157653115
 30
0.0
 10
101.8325439198544
 20
-132.936243998884
 30
0.0
 10
102.1646511246325
 20
-132.8955918721581
 30
0.0
 10
102.1646511246325
 20
-132.8955918721581
 30
0.0
 10
102.1646511246325
 20
-133.1240017028301
 30
0.0
 10
102.1646511246325
 20
-133.1240017028301
 30
0.0
 10
102.1074625395773
 20
-133.1350260083829
 30
0.0
 10
101.9593234337116
 20
-133.1691324536869
 30
0.0
 10
101.9593234337116
 20
-133.3861734692576
 30
0.0
 10
101.9593234337116
 20
-133.6982991202213
 30
0.0
 10
102.2872965239073
 20
-133.7410183042384
 30
0.0
 10
102.4922797052797
 20
-133.7547986861794
 30
0.0
 10
102.4140760377645
 20
-133.6552354266557
 30
0.0
 10
102.3548203954182
 20
-133.5828884214654
 30
0.0
 10
102.3548203954182
 20
-133.3885850360973
 30
0.0
 10
102.3548203954182
 20
-133.1963487080204
 30
0.0
 10
102.4629963936551
 20
-132.8728542419554
 30
0.0
 10
102.869173151366
 20
-132.8728542419554
 30
0.0
 10
103.1885335028487
 20
-132.8728542419554
 30
0.0
 10
103.4083305948076
 20
-133.0854166333953
 30
0.0
 10
103.4083305948076
 20
-133.4244140291439
 30
0.0
  0
SPLINE
  5
FB
330
F6
100
AcDbEntity
  8
_U+30EC_U+30A4_U+30E4_U+30FC 1
370
     0
100
AcDbSpline
210
0.0
220
0.0
230
1.0
 70
    11
 71
     3
 72
    17
 73
    13
 74
     0
 42
0.0000000001
 43
0.0000000001
 12
1.0
 22
0.0
 32
0.0
 13
1.0
 23
0.0
 33
0.0
 40
0.0
 40
0.0
 40
0.0
 40
0.0
 40
1.0
 40
1.0
 40
1.0
 40
2.0
 40
2.0
 40
2.0
 40
3.0
 40
3.0
 40
3.0
 40
4.0
 40
4.0
 40
4.0
 40
4.0
 10
102.5494682903349
 20
-133.4064995326206
 30
0.0
 10
102.5494682903349
 20
-133.6869303051199
 30
0.0
 10
102.7609971531292
 20
-133.7275824318459
 30
0.0
 10
102.8774413805306
 20
-133.7275824318459
 30
0.0
 10
103.0531412502784
 20
-133.7275824318459
 30
0.0
 10
103.2160942667307
 20
-133.625952115031
 30
0.0
 10
103.2160942667307
 20
-133.4292371628233
 30
0.0
 10
103.2160942667307
 20
-133.3003905916749
 30
0.0
 10
103.1568386243844
 20
-133.1126328877288
 30
0.0
 10
102.8712402086572
 20
-133.1126328877288
 30
0.0
 10
102.6469644925674
 20
-133.1126328877288
 30
0.0
 10
102.5494682903349
 20
-133.2618055222401
 30
0.0
 10
102.5494682903349
 20
-133.4064995326206
 30
0.0
  0
HATCH
  5
FC
330
F6
100
AcDbEntity
  8
_U+30EC_U+30A4_U+30E4_U+30FC 1
 62
   179
420
  2234388
100
AcDbHatch
 10
0.0
 20
0.0
 30
0.0
210
0.0
220
0.0
230
1.0
  2
SOLID
 70
     1
 71
     0
 91
        2
 92
        1
 93
        1
 72
     4
 94
        3
 73
     0
 74
     1
 95
       32
 96
       28
 40
0.0
 40
0.0
 40
0.0
 40
0.0
 40
1.0
 40
1.0
 40
1.0
 40
2.0
 40
2.0
 40
2.0
 40
3.0
 40
3.0
 40
3.0
 40
4.0
 40
4.0
 40
4.0
 40
5.0
 40
5.0
 40
5.0
 40
6.0
 40
6.0
 40
6.0
 40
7.0
 40
7.0
 40
7.0
 40
8.0
 40
8.0
 40
8.0
 40
9.0
 40
9.0
 40
9.0
 40
9.0
 10
103.4083305948076
 20
-133.4244140291439
 10
103.4083305948076
 20
-133.9763183258809
 10
102.8543592407795
 20
-133.9852755741426
 10
102.6404188111455
 20
-133.9852755741426
 10
102.4099419231822
 20
-133.9852755741426
 10
101.7626084815038
 20
-133.9649495107796
 10
101.7626084815038
 20
-133.3837619024179
 10
101.7626084815038
 20
-133.1984157653115
 10
101.8325439198544
 20
-132.936243998884
 10
102.1646511246325
 20
-132.8955918721581
 10
102.1646511246325
 20
-132.8955918721581
 10
102.1646511246325
 20
-133.1240017028301
 10
102.1646511246325
 20
-133.1240017028301
 10
102.1074625395773
 20
-133.1350260083829
 10
101.9593234337116
 20
-133.1691324536869
 10
101.9593234337116
 20
-133.3861734692576
 10
101.9593234337116
 20
-133.6982991202213
 10
102.2872965239073
 20
-133.7410183042384
 10
102.4922797052797
 20
-133.7547986861794
 10
102.4140760377645
 20
-133.6552354266557
 10
102.3548203954182
 20
-133.5828884214654
 10
102.3548203954182
 20
-133.3885850360973
 10
102.3548203954182
 20
-133.1963487080204
 10
102.4629963936551
 20
-132.8728542419554
 10
102.869173151366
 20
-132.8728542419554
 10
103.1885335028487
 20
-132.8728542419554
 10
103.4083305948076
 20
-133.0854166333953
 10
103.4083305948076
 20
-133.4244140291439
 97
        0
 97
        0
 92
        1
 93
        1
 72
     4
 94
        3
 73
     0
 74
     1
 95
       17
 96
       13
 40
0.0
 40
0.0
 40
0.0
 40
0.0
 40
1.0
 40
1.0
 40
1.0
 40
2.0
 40
2.0
 40
2.0
 40
3.0
 40
3.0
 40
3.0
 40
4.0
 40
4.0
 40
4.0
 40
4.0
 10
102.5494682903349
 20
-133.4064995326206
 10
102.5494682903349
 20
-133.6869303051199
 10
102.7609971531292
 20
-133.7275824318459
 10
102.8774413805306
 20
-133.7275824318459
 10
103.0531412502784
 20
-133.7275824318459
 10
103.2160942667307
 20
-133.625952115031
 10
103.2160942667307
 20
-133.4292371628233
 10
103.2160942667307
 20
-133.3003905916749
 10
103.1568386243844
 20
-133.1126328877288
 10
102.8712402086572
 20
-133.1126328877288
 10
102.6469644925674
 20
-133.1126328877288
 10
102.5494682903349
 20
-133.2618055222401
 10
102.5494682903349
 20
-133.4064995326206
 97
        0
 97
        0
 75
     2
 76
     1
 98
        0
  0
ENDBLK
  5
F9
330
F6
100
AcDbEntity
  8
0
100
AcDbBlockEnd
  0
BLOCK
  5
107
330
105
100
AcDbEntity
  8
0
100
AcDbBlockBegin
  2
block 7
 70
     0
 10
0.0
 20
0.0
 30
0.0
  3
block 7
  1

  0
SPLINE
  5
109
330
105
100
AcDbEntity
  8
_U+30EC_U+30A4_U+30E4_U+30FC 1
370
     0
100
AcDbSpline
210
0.0
220
0.0
230
1.0
 70
    11
 71
     3
 72
    26
 73
    22
 74
     0
 42
0.0000000001
 43
0.0000000001
 12
1.0
 22
0.0
 32
0.0
 13
1.0
 23
0.0
 33
0.0
 40
0.0
 40
0.0
 40
0.0
 40
0.0
 40
1.0
 40
1.0
 40
1.0
 40
2.0
 40
2.0
 40
2.0
 40
3.0
 40
3.0
 40
3.0
 40
4.0
 40
4.0
 40
4.0
 40
5.0
 40
5.0
 40
5.0
 40
6.0
 40
6.0
 40
6.0
 40
7.0
 40
7.0
 40
7.0
 40
7.0
 10
86.95110946176916
 20
-130.7813367728602
 30
0.0
 10
86.95110946176916
 20
-130.7813367728602
 30
0.0
 10
86.95110946176916
 20
-129.6768391602891
 30
0.0
 10
86.95110946176916
 20
-129.6768391602891
 30
0.0
 10
86.95110946176916
 20
-129.6768391602891
 30
0.0
 10
86.59850393885385
 20
-129.6768391602891
 30
0.0
 10
86.59850393885385
 20
-129.6768391602891
 30
0.0
 10
86.59850393885385
 20
-129.6768391602891
 30
0.0
 10
86.59850393885385
 20
-129.5290445639719
 30
0.0
 10
86.59850393885385
 20
-129.5290445639719
 30
0.0
 10
86.95352102860885
 20
-129.5142306533853
 30
0.0
 10
87.00313040359644
 20
-129.351277636933
 30
0.0
 10
87.03482528206074
 20
-129.2369004668227
 30
0.0
 10
87.03482528206074
 20
-129.2369004668227
 30
0.0
 10
87.19088810754256
 20
-129.2369004668227
 30
0.0
 10
87.19088810754256
 20
-129.2369004668227
 30
0.0
 10
87.19088810754256
 20
-129.2369004668227
 30
0.0
 10
87.19088810754256
 20
-130.7813367728602
 30
0.0
 10
87.19088810754256
 20
-130.7813367728602
 30
0.0
 10
87.19088810754256
 20
-130.7813367728602
 30
0.0
 10
86.95110946176916
 20
-130.7813367728602
 30
0.0
 10
86.95110946176916
 20
-130.7813367728602
 30
0.0
  0
HATCH
  5
10A
330
105
100
AcDbEntity
  8
_U+30EC_U+30A4_U+30E4_U+30FC 1
 62
   179
420
  2234388
100
AcDbHatch
 10
0.0
 20
0.0
 30
0.0
210
0.0
220
0.0
230
1.0
  2
SOLID
 70
     1
 71
     0
 91
        1
 92
        1
 93
        1
 72
     4
 94
        3
 73
     0
 74
     1
 95
       26
 96
       22
 40
0.0
 40
0.0
 40
0.0
 40
0.0
 40
1.0
 40
1.0
 40
1.0
 40
2.0
 40
2.0
 40
2.0
 40
3.0
 40
3.0
 40
3.0
 40
4.0
 40
4.0
 40
4.0
 40
5.0
 40
5.0
 40
5.0
 40
6.0
 40
6.0
 40
6.0
 40
7.0
 40
7.0
 40
7.0
 40
7.0
 10
86.95110946176916
 20
-130.7813367728602
 10
86.95110946176916
 20
-130.7813367728602
 10
86.95110946176916
 20
-129.6768391602891
 10
86.95110946176916
 20
-129.6768391602891
 10
86.95110946176916
 20
-129.6768391602891
 10
86.59850393885385
 20
-129.6768391602891
 10
86.59850393885385
 20
-129.6768391602891
 10
86.59850393885385
 20
-129.6768391602891
 10
86.59850393885385
 20
-129.5290445639719
 10
86.59850393885385
 20
-129.5290445639719
 10
86.95352102860885
 20
-129.5142306533853
 10
87.00313040359644
 20
-129.351277636933
 10
87.03482528206074
 20
-129.2369004668227
 10
87.03482528206074
 20
-129.2369004668227
 10
87.19088810754256
 20
-129.2369004668227
 10
87.19088810754256
 20
-129.2369004668227
 10
87.19088810754256
 20
-129.2369004668227
 10
87.19088810754256
 20
-130.7813367728602
 10
87.19088810754256
 20
-130.7813367728602
 10
87.19088810754256
 20
-130.7813367728602
 10
86.95110946176916
 20
-130.7813367728602
 10
86.95110946176916
 20
-130.7813367728602
 97
        0
 97
        0
 75
     2
 76
     1
 98
        0
  0
ENDBLK
  5
108
330
105
100
AcDbEntity
  8
0
100
AcDbBlockEnd
  0
ENDSEC
  0
SECTION
  2
ENTITIES
  0
SPLINE
  5
41
330
1F
100
AcDbEntity
  8
_U+30EC_U+30A4_U+30E4_U+30FC 1
370
     0
100
AcDbSpline
210
0.0
220
0.0
230
1.0
 70
    11
 71
     3
 72
    68
 73
    64
 74
     0
 42
0.0000000001
 43
0.0000000001
 12
1.0
 22
0.0
 32
0.0
 13
1.0
 23
0.0
 33
0.0
 40
0.0
 40
0.0
 40
0.0
 40
0.0
 40
1.0
 40
1.0
 40
1.0
 40
2.0
 40
2.0
 40
2.0
 40
3.0
 40
3.0
 40
3.0
 40
4.0
 40
4.0
 40
4.0
 40
5.0
 40
5.0
 40
5.0
 40
6.0
 40
6.0
 40
6.0
 40
7.0
 40
7.0
 40
7.0
 40
8.0
 40
8.0
 40
8.0
 40
9.0
 40
9.0
 40
9.0
 40
10.0
 40
10.0
 40
10.0
 40
11.0
 40
11.0
 40
11.0
 40
12.0
 40
12.0
 40
12.0
 40
13.0
 40
13.0
 40
13.0
 40
14.0
 40
14.0
 40
14.0
 40
15.0
 40
15.0
 40
15.0
 40
16.0
 40
16.0
 40
16.0
 40
17.0
 40
17.0
 40
17.0
 40
18.0
 40
18.0
 40
18.0
 40
19.0
 40
19.0
 40
19.0
 40
20.0
 40
20.0
 40
20.0
 40
21.0
 40
21.0
 40
21.0
 40
21.0
 10
99.00376469642576
 20
-128.9278599677679
 30
0.0
 10
99.00376469642576
 20
-128.9278599677679
 30
0.0
 10
92.00370126390115
 20
-128.9278599677679
 30
0.0
 10
92.00370126390115
 20
-128.9278599677679
 30
0.0
 10
92.00370126390115
 20
-128.9278599677679
 30
0.0
 10
92.00370126390115
 20
-135.4277199661432
 30
0.0
 10
92.00370126390115
 20
-135.4277199661432
 30
0.0
 10
92.00370126390115
 20
-135.4277199661432
 30
0.0
 10
88.40769635564287
 20
-135.4277199661432
 30
0.0
 10
88.40769635564287
 20
-135.4277199661432
 30
0.0
 10
88.40769635564287
 20
-135.4277199661432
 30
0.0
 10
88.00359164466572
 20
-136.1277721881902
 30
0.0
 10
88.00359164466572
 20
-136.1277721881902
 30
0.0
 10
88.00359164466572
 20
-136.1277721881902
 30
0.0
 10
87.59948248737324
 20
-135.4277199661432
 30
0.0
 10
87.59948248737324
 20
-135.4277199661432
 30
0.0
 10
87.59948248737324
 20
-135.4277199661432
 30
0.0
 10
84.00383035688374
 20
-135.4277199661432
 30
0.0
 10
84.00383035688374
 20
-135.4277199661432
 30
0.0
 10
84.00383035688374
 20
-135.4277199661432
 30
0.0
 10
84.00383035688374
 20
-128.9278599677679
 30
0.0
 10
84.00383035688374
 20
-128.9278599677679
 30
0.0
 10
84.00383035688374
 20
-128.9278599677679
 30
0.0
 10
77.00373164658225
 20
-128.9278599677679
 30
0.0
 10
77.00373164658225
 20
-128.9278599677679
 30
0.0
 10
76.45149332733769
 20
-128.9278599677679
 30
0.0
 10
76.00364194987444
 20
-129.3753938565447
 30
0.0
 10
76.00364194987444
 20
-129.9276321897405
 30
0.0
 10
76.00364194987444
 20
-129.9276321897405
 30
0.0
 10
76.00364194987444
 20
-130.4278710785042
 30
0.0
 10
76.00364194987444
 20
-130.4278710785042
 30
0.0
 10
76.00364194987444
 20
-130.4278710785042
 30
0.0
 10
77.5036177449402
 20
-130.4278710785042
 30
0.0
 10
77.5036177449402
 20
-130.4278710785042
 30
0.0
 10
77.5036177449402
 20
-130.4278710785042
 30
0.0
 10
77.5036177449402
 20
-129.9276321897405
 30
0.0
 10
77.5036177449402
 20
-129.9276321897405
 30
0.0
 10
77.5036177449402
 20
-129.9276321897405
 30
0.0
 10
83.00370538239906
 20
-129.9276321897405
 30
0.0
 10
83.00370538239906
 20
-129.9276321897405
 30
0.0
 10
83.00370538239906
 20
-129.9276321897405
 30
0.0
 10
83.00370538239906
 20
-136.4274921881151
 30
0.0
 10
83.00370538239906
 20
-136.4274921881151
 30
0.0
 10
83.00370538239906
 20
-136.4274921881151
 30
0.0
 10
93.00379096060895
 20
-136.4274921881151
 30
0.0
 10
93.00379096060895
 20
-136.4274921881151
 30
0.0
 10
93.00379096060895
 20
-136.4274921881151
 30
0.0
 10
93.00379096060895
 20
-129.9276321897405
 30
0.0
 10
93.00379096060895
 20
-129.9276321897405
 30
0.0
 10
93.00379096060895
 20
-129.9276321897405
 30
0.0
 10
98.5035610980759
 20
-129.9276321897405
 30
0.0
 10
98.5035610980759
 20
-129.9276321897405
 30
0.0
 10
98.5035610980759
 20
-129.9276321897405
 30
0.0
 10
98.5035610980759
 20
-130.4278710785042
 30
0.0
 10
98.5035610980759
 20
-130.4278710785042
 30
0.0
 10
98.5035610980759
 20
-130.4278710785042
 30
0.0
 10
100.0035368931417
 20
-130.4278710785042
 30
0.0
 10
100.0035368931417
 20
-130.4278710785042
 30
0.0
 10
100.0035368931417
 20
-130.4278710785042
 30
0.0
 10
100.0035368931417
 20
-129.9276321897405
 30
0.0
 10
100.0035368931417
 20
-129.9276321897405
 30
0.0
 10
100.0035368931417
 20
-129.3753938565447
 30
0.0
 10
99.5560382934472
 20
-128.9278599677679
 30
0.0
 10
99.00376469642576
 20
-128.9278599677679
 30
0.0
  0
HATCH
  5
42
330
1F
100
AcDbEntity
  8
_U+30EC_U+30A4_U+30E4_U+30FC 1
 62
   253
420
 11711154
100
AcDbHatch
 10
0.0
 20
0.0
 30
0.0
210
0.0
220
0.0
230
1.0
  2
SOLID
 70
     1
 71
     0
 91
        1
 92
        1
 93
        1
 72
     4
 94
        3
 73
     0
 74
     1
 95
       68
 96
       64
 40
0.0
 40
0.0
 40
0.0
 40
0.0
 40
1.0
 40
1.0
 40
1.0
 40
2.0
 40
2.0
 40
2.0
 40
3.0
 40
3.0
 40
3.0
 40
4.0
 40
4.0
 40
4.0
 40
5.0
 40
5.0
 40
5.0
 40
6.0
 40
6.0
 40
6.0
 40
7.0
 40
7.0
 40
7.0
 40
8.0
 40
8.0
 40
8.0
 40
9.0
 40
9.0
 40
9.0
 40
10.0
 40
10.0
 40
10.0
 40
11.0
 40
11.0
 40
11.0
 40
12.0
 40
12.0
 40
12.0
 40
13.0
 40
13.0
 40
13.0
 40
14.0
 40
14.0
 40
14.0
 40
15.0
 40
15.0
 40
15.0
 40
16.0
 40
16.0
 40
16.0
 40
17.0
 40
17.0
 40
17.0
 40
18.0
 40
18.0
 40
18.0
 40
19.0
 40
19.0
 40
19.0
 40
20.0
 40
20.0
 40
20.0
 40
21.0
 40
21.0
 40
21.0
 40
21.0
 10
99.00376469642576
 20
-128.9278599677679
 10
99.00376469642576
 20
-128.9278599677679
 10
92.00370126390115
 20
-128.9278599677679
 10
92.00370126390115
 20
-128.9278599677679
 10
92.00370126390115
 20
-128.9278599677679
 10
92.00370126390115
 20
-135.4277199661432
 10
92.00370126390115
 20
-135.4277199661432
 10
92.00370126390115
 20
-135.4277199661432
 10
88.40769635564287
 20
-135.4277199661432
 10
88.40769635564287
 20
-135.4277199661432
 10
88.40769635564287
 20
-135.4277199661432
 10
88.00359164466572
 20
-136.1277721881902
 10
88.00359164466572
 20
-136.1277721881902
 10
88.00359164466572
 20
-136.1277721881902
 10
87.59948248737324
 20
-135.4277199661432
 10
87.59948248737324
 20
-135.4277199661432
 10
87.59948248737324
 20
-135.4277199661432
 10
84.00383035688374
 20
-135.4277199661432
 10
84.00383035688374
 20
-135.4277199661432
 10
84.00383035688374
 20
-135.4277199661432
 10
84.00383035688374
 20
-128.9278599677679
 10
84.00383035688374
 20
-128.9278599677679
 10
84.00383035688374
 20
-128.9278599677679
 10
77.00373164658225
 20
-128.9278599677679
 10
77.00373164658225
 20
-128.9278599677679
 10
76.45149332733769
 20
-128.9278599677679
 10
76.00364194987444
 20
-129.3753938565447
 10
76.00364194987444
 20
-129.9276321897405
 10
76.00364194987444
 20
-129.9276321897405
 10
76.00364194987444
 20
-130.4278710785042
 10
76.00364194987444
 20
-130.4278710785042
 10
76.00364194987444
 20
-130.4278710785042
 10
77.5036177449402
 20
-130.4278710785042
 10
77.5036177449402
 20
-130.4278710785042
 10
77.5036177449402
 20
-130.4278710785042
 10
77.5036177449402
 20
-129.9276321897405
 10
77.5036177449402
 20
-129.9276321897405
 10
77.5036177449402
 20
-129.9276321897405
 10
83.00370538239906
 20
-129.9276321897405
 10
83.00370538239906
 20
-129.9276321897405
 10
83.00370538239906
 20
-129.9276321897405
 10
83.00370538239906
 20
-136.4274921881151
 10
83.00370538239906
 20
-136.4274921881151
 10
83.00370538239906
 20
-136.4274921881151
 10
93.00379096060895
 20
-136.4274921881151
 10
93.00379096060895
 20
-136.4274921881151
 10
93.00379096060895
 20
-136.4274921881151
 10
93.00379096060895
 20
-129.9276321897405
 10
93.00379096060895
 20
-129.9276321897405
 10
93.00379096060895
 20
-129.9276321897405
 10
98.5035610980759
 20
-129.9276321897405
 10
98.5035610980759
 20
-129.9276321897405
 10
98.5035610980759
 20
-129.9276321897405
 10
98.5035610980759
 20
-130.4278710785042
 10
98.5035610980759
 20
-130.4278710785042
 10
98.5035610980759
 20
-130.4278710785042
 10
100.0035368931417
 20
-130.4278710785042
 10
100.0035368931417
 20
-130.4278710785042
 10
100.0035368931417
 20
-130.4278710785042
 10
100.0035368931417
 20
-129.9276321897405
 10
100.0035368931417
 20
-129.9276321897405
 10
100.0035368931417
 20
-129.3753938565447
 10
99.5560382934472
 20
-128.9278599677679
 10
99.00376469642576
 20
-128.9278599677679
 97
        0
 97
        0
 75
     2
 76
     1
 98
        0
  0
POLYLINE
  5
43
330
1F
100
AcDbEntity
  8
_U+30EC_U+30A4_U+30E4_U+30FC 1
 62
   179
420
  2234388
370
    25
100
AcDb2dPolyline
 66
     1
 10
0.0
 20
0.0
 30
0.0
  0
VERTEX
  5
44
330
43
100
AcDbEntity
  8
_U+30EC_U+30A4_U+30E4_U+30FC 1
 62
   179
420
  2234388
370
    25
100
AcDbVertex
100
AcDb2dVertex
 10
83.00370538239906
 20
-136.4274921881151
 30
0.0
  0
VERTEX
  5
45
330
43
100
AcDbEntity
  8
_U+30EC_U+30A4_U+30E4_U+30FC 1
 62
   179
420
  2234388
370
    25
100
AcDbVertex
100
AcDb2dVertex
 10
93.00379096060895
 20
-136.4274921881151
 30
0.0
  0
SEQEND
  5
46
330
43
100
AcDbEntity
  8
_U+30EC_U+30A4_U+30E4_U+30FC 1
 62
   179
420
  2234388
370
    25
  0
POLYLINE
  5
47
330
1F
100
AcDbEntity
  8
_U+30EC_U+30A4_U+30E4_U+30FC 1
 62
   179
420
  2234388
370
    25
100
AcDb2dPolyline
 66
     1
 10
0.0
 20
0.0
 30
0.0
  0
VERTEX
  5
48
330
47
100
AcDbEntity
  8
_U+30EC_U+30A4_U+30E4_U+30FC 1
 62
   179
420
  2234388
370
    25
100
AcDbVertex
100
AcDb2dVertex
 10
88.40769635564287
 20
-135.4277199661432
 30
0.0
  0
VERTEX
  5
49
330
47
100
AcDbEntity
  8
_U+30EC_U+30A4_U+30E4_U+30FC 1
 62
   179
420
  2234388
370
    25
100
AcDbVertex
100
AcDb2dVertex
 10
92.00370126390115
 20
-135.4277199661432
 30
0.0
  0
SEQEND
  5
4A
330
47
100
AcDbEntity
  8
_U+30EC_U+30A4_U+30E4_U+30FC 1
 62
   179
420
  2234388
370
    25
  0
POLYLINE
  5
4B
330
1F
100
AcDbEntity
  8
_U+30EC_U+30A4_U+30E4_U+30FC 1
 62
   179
420
  2234388
370
    25
100
AcDb2dPolyline
 66
     1
 10
0.0
 20
0.0
 30
0.0
  0
VERTEX
  5
4C
330
4B
100
AcDbEntity
  8
_U+30EC_U+30A4_U+30E4_U+30FC 1
 62
   179
420
  2234388
370
    25
100
AcDbVertex
100
AcDb2dVertex
 10
92.00370126390115
 20
-128.9278599677679
 30
0.0
  0
VERTEX
  5
4D
330
4B
100
AcDbEntity
  8
_U+30EC_U+30A4_U+30E4_U+30FC 1
 62
   179
420
  2234388
370
    25
100
AcDbVertex
100
AcDb2dVertex
 10
92.00370126390115
 20
-135.4277199661432
 30
0.0
  0
SEQEND
  5
4E
330
4B
100
AcDbEntity
  8
_U+30EC_U+30A4_U+30E4_U+30FC 1
 62
   179
420
  2234388
370
    25
  0
POLYLINE
  5
4F
330
1F
100
AcDbEntity
  8
_U+30EC_U+30A4_U+30E4_U+30FC 1
 62
   179
420
  2234388
370
    25
100
AcDb2dPolyline
 66
     1
 10
0.0
 20
0.0
 30
0.0
  0
VERTEX
  5
50
330
4F
100
AcDbEntity
  8
_U+30EC_U+30A4_U+30E4_U+30FC 1
 62
   179
420
  2234388
370
    25
100
AcDbVertex
100
AcDb2dVertex
 10
93.00379096060895
 20
-129.9276321897405
 30
0.0
  0
VERTEX
  5
51
330
4F
100
AcDbEntity
  8
_U+30EC_U+30A4_U+30E4_U+30FC 1
 62
   179
420
  2234388
370
    25
100
AcDbVertex
100
AcDb2dVertex
 10
93.00379096060895
 20
-136.4274921881151
 30
0.0
  0
SEQEND
  5
52
330
4F
100
AcDbEntity
  8
_U+30EC_U+30A4_U+30E4_U+30FC 1
 62
   179
420
  2234388
370
    25
  0
POLYLINE
  5
53
330
1F
100
AcDbEntity
  8
_U+30EC_U+30A4_U+30E4_U+30FC 1
 62
   179
420
  2234388
370
    25
100
AcDb2dPolyline
 66
     1
 10
0.0
 20
0.0
 30
0.0
  0
VERTEX
  5
54
330
53
100
AcDbEntity
  8
_U+30EC_U+30A4_U+30E4_U+30FC 1
 62
   179
420
  2234388
370
    25
100
AcDbVertex
100
AcDb2dVertex
 10
100.0035368931417
 20
-129.9276321897405
 30
0.0
  0
VERTEX
  5
55
330
53
100
AcDbEntity
  8
_U+30EC_U+30A4_U+30E4_U+30FC 1
 62
   179
420
  2234388
370
    25
100
AcDbVertex
100
AcDb2dVertex
 10
100.0035368931417
 20
-130.4278710785042
 30
0.0
  0
SEQEND
  5
56
330
53
100
AcDbEntity
  8
_U+30EC_U+30A4_U+30E4_U+30FC 1
 62
   179
420
  2234388
370
    25
  0
POLYLINE
  5
57
330
1F
100
AcDbEntity
  8
_U+30EC_U+30A4_U+30E4_U+30FC 1
 62
   179
420
  2234388
370
    25
100
AcDb2dPolyline
 66
     1
 10
0.0
 20
0.0
 30
0.0
  0
VERTEX
  5
58
330
57
100
AcDbEntity
  8
_U+30EC_U+30A4_U+30E4_U+30FC 1
 62
   179
420
  2234388
370
    25
100
AcDbVertex
100
AcDb2dVertex
 10
98.5035610980759
 20
-130.4278710785042
 30
0.0
  0
VERTEX
  5
59
330
57
100
AcDbEntity
  8
_U+30EC_U+30A4_U+30E4_U+30FC 1
 62
   179
420
  2234388
370
    25
100
AcDbVertex
100
AcDb2dVertex
 10
100.0035368931417
 20
-130.4278710785042
 30
0.0
  0
SEQEND
  5
5A
330
57
100
AcDbEntity
  8
_U+30EC_U+30A4_U+30E4_U+30FC 1
 62
   179
420
  2234388
370
    25
  0
POLYLINE
  5
5B
330
1F
100
AcDbEntity
  8
_U+30EC_U+30A4_U+30E4_U+30FC 1
 62
   179
420
  2234388
370
    25
100
AcDb2dPolyline
 66
     1
 10
0.0
 20
0.0
 30
0.0
  0
VERTEX
  5
5C
330
5B
100
AcDbEntity
  8
_U+30EC_U+30A4_U+30E4_U+30FC 1
 62
   179
420
  2234388
370
    25
100
AcDbVertex
100
AcDb2dVertex
 10
92.00370126390115
 20
-128.9278599677679
 30
0.0
  0
VERTEX
  5
5D
330
5B
100
AcDbEntity
  8
_U+30EC_U+30A4_U+30E4_U+30FC 1
 62
   179
420
  2234388
370
    25
100
AcDbVertex
100
AcDb2dVertex
 10
99.00376469642576
 20
-128.9278599677679
 30
0.0
  0
SEQEND
  5
5E
330
5B
100
AcDbEntity
  8
_U+30EC_U+30A4_U+30E4_U+30FC 1
 62
   179
420
  2234388
370
    25
  0
POLYLINE
  5
5F
330
1F
100
AcDbEntity
  8
_U+30EC_U+30A4_U+30E4_U+30FC 1
 62
   179
420
  2234388
370
    25
100
AcDb2dPolyline
 66
     1
 10
0.0
 20
0.0
 30
0.0
  0
VERTEX
  5
60
330
5F
100
AcDbEntity
  8
_U+30EC_U+30A4_U+30E4_U+30FC 1
 62
   179
420
  2234388
370
    25
100
AcDbVertex
100
AcDb2dVertex
 10
93.00379096060895
 20
-129.9276321897405
 30
0.0
  0
VERTEX
  5
61
330
5F
100
AcDbEntity
  8
_U+30EC_U+30A4_U+30E4_U+30FC 1
 62
   179
420
  2234388
370
    25
100
AcDbVertex
100
AcDb2dVertex
 10
98.5035610980759
 20
-129.9276321897405
 30
0.0
  0
SEQEND
  5
62
330
5F
100
AcDbEntity
  8
_U+30EC_U+30A4_U+30E4_U+30FC 1
 62
   179
420
  2234388
370
    25
  0
POLYLINE
  5
63
330
1F
100
AcDbEntity
  8
_U+30EC_U+30A4_U+30E4_U+30FC 1
 62
   179
420
  2234388
370
    25
100
AcDb2dPolyline
 66
     1
 10
0.0
 20
0.0
 30
0.0
  0
VERTEX
  5
64
330
63
100
AcDbEntity
  8
_U+30EC_U+30A4_U+30E4_U+30FC 1
 62
   179
420
  2234388
370
    25
100
AcDbVertex
100
AcDb2dVertex
 10
98.5035610980759
 20
-129.9276321897405
 30
0.0
  0
VERTEX
  5
65
330
63
100
AcDbEntity
  8
_U+30EC_U+30A4_U+30E4_U+30FC 1
 62
   179
420
  2234388
370
    25
100
AcDbVertex
100
AcDb2dVertex
 10
98.5035610980759
 20
-130.4278710785042
 30
0.0
  0
SEQEND
  5
66
330
63
100
AcDbEntity
  8
_U+30EC_U+30A4_U+30E4_U+30FC 1
 62
   179
420
  2234388
370
    25
  0
POLYLINE
  5
67
330
1F
100
AcDbEntity
  8
_U+30EC_U+30A4_U+30E4_U+30FC 1
 62
   179
420
  2234388
370
    25
100
AcDb2dPolyline
 66
     1
 10
0.0
 20
0.0
 30
0.0
  0
VERTEX
  5
68
330
67
100
AcDbEntity
  8
_U+30EC_U+30A4_U+30E4_U+30FC 1
 62
   179
420
  2234388
370
    25
100
AcDbVertex
100
AcDb2dVertex
 10
88.00359164466572
 20
-136.1277721881902
 30
0.0
  0
VERTEX
  5
69
330
67
100
AcDbEntity
  8
_U+30EC_U+30A4_U+30E4_U+30FC 1
 62
   179
420
  2234388
370
    25
100
AcDbVertex
100
AcDb2dVertex
 10
88.40769635564287
 20
-135.4277199661432
 30
0.0
  0
SEQEND
  5
6A
330
67
100
AcDbEntity
  8
_U+30EC_U+30A4_U+30E4_U+30FC 1
 62
   179
420
  2234388
370
    25
  0
POLYLINE
  5
6B
330
1F
100
AcDbEntity
  8
_U+30EC_U+30A4_U+30E4_U+30FC 1
 62
   179
420
  2234388
370
    25
100
AcDb2dPolyline
 66
     1
 10
0.0
 20
0.0
 30
0.0
  0
VERTEX
  5
6C
330
6B
100
AcDbEntity
  8
_U+30EC_U+30A4_U+30E4_U+30FC 1
 62
   179
420
  2234388
370
    25
100
AcDbVertex
100
AcDb2dVertex
 10
88.00359164466572
 20
-136.1277721881902
 30
0.0
  0
VERTEX
  5
6D
330
6B
100
AcDbEntity
  8
_U+30EC_U+30A4_U+30E4_U+30FC 1
 62
   179
420
  2234388
370
    25
100
AcDbVertex
100
AcDb2dVertex
 10
87.59948248737324
 20
-135.4277199661432
 30
0.0
  0
SEQEND
  5
6E
330
6B
100
AcDbEntity
  8
_U+30EC_U+30A4_U+30E4_U+30FC 1
 62
   179
420
  2234388
370
    25
  0
POLYLINE
  5
6F
330
1F
100
AcDbEntity
  8
_U+30EC_U+30A4_U+30E4_U+30FC 1
 62
   179
420
  2234388
370
    25
100
AcDb2dPolyline
 66
     1
 10
0.0
 20
0.0
 30
0.0
  0
VERTEX
  5
70
330
6F
100
AcDbEntity
  8
_U+30EC_U+30A4_U+30E4_U+30FC 1
 62
   179
420
  2234388
370
    25
100
AcDbVertex
100
AcDb2dVertex
 10
87.59948248737324
 20
-135.4277199661432
 30
0.0
  0
VERTEX
  5
71
330
6F
100
AcDbEntity
  8
_U+30EC_U+30A4_U+30E4_U+30FC 1
 62
   179
420
  2234388
370
    25
100
AcDbVertex
100
AcDb2dVertex
 10
84.00383035688374
 20
-135.4277199661432
 30
0.0
  0
SEQEND
  5
72
330
6F
100
AcDbEntity
  8
_U+30EC_U+30A4_U+30E4_U+30FC 1
 62
   179
420
  2234388
370
    25
  0
POLYLINE
  5
73
330
1F
100
AcDbEntity
  8
_U+30EC_U+30A4_U+30E4_U+30FC 1
 62
   179
420
  2234388
370
    25
100
AcDb2dPolyline
 66
     1
 10
0.0
 20
0.0
 30
0.0
  0
VERTEX
  5
74
330
73
100
AcDbEntity
  8
_U+30EC_U+30A4_U+30E4_U+30FC 1
 62
   179
420
  2234388
370
    25
100
AcDbVertex
100
AcDb2dVertex
 10
83.00370538239906
 20
-129.9276321897405
 30
0.0
  0
VERTEX
  5
75
330
73
100
AcDbEntity
  8
_U+30EC_U+30A4_U+30E4_U+30FC 1
 62
   179
420
  2234388
370
    25
100
AcDbVertex
100
AcDb2dVertex
 10
83.00370538239906
 20
-136.4274921881151
 30
0.0
  0
SEQEND
  5
76
330
73
100
AcDbEntity
  8
_U+30EC_U+30A4_U+30E4_U+30FC 1
 62
   179
420
  2234388
370
    25
  0
POLYLINE
  5
77
330
1F
100
AcDbEntity
  8
_U+30EC_U+30A4_U+30E4_U+30FC 1
 62
   179
420
  2234388
370
    25
100
AcDb2dPolyline
 66
     1
 10
0.0
 20
0.0
 30
0.0
  0
VERTEX
  5
78
330
77
100
AcDbEntity
  8
_U+30EC_U+30A4_U+30E4_U+30FC 1
 62
   179
420
  2234388
370
    25
100
AcDbVertex
100
AcDb2dVertex
 10
84.00383035688374
 20
-128.9278599677679
 30
0.0
  0
VERTEX
  5
79
330
77
100
AcDbEntity
  8
_U+30EC_U+30A4_U+30E4_U+30FC 1
 62
   179
420
  2234388
370
    25
100
AcDbVertex
100
AcDb2dVertex
 10
84.00383035688374
 20
-135.4277199661432
 30
0.0
  0
SEQEND
  5
7A
330
77
100
AcDbEntity
  8
_U+30EC_U+30A4_U+30E4_U+30FC 1
 62
   179
420
  2234388
370
    25
  0
POLYLINE
  5
7B
330
1F
100
AcDbEntity
  8
_U+30EC_U+30A4_U+30E4_U+30FC 1
 62
   179
420
  2234388
370
    25
100
AcDb2dPolyline
 66
     1
 10
0.0
 20
0.0
 30
0.0
  0
VERTEX
  5
7C
330
7B
100
AcDbEntity
  8
_U+30EC_U+30A4_U+30E4_U+30FC 1
 62
   179
420
  2234388
370
    25
100
AcDbVertex
100
AcDb2dVertex
 10
77.5036177449402
 20
-129.9276321897405
 30
0.0
  0
VERTEX
  5
7D
330
7B
100
AcDbEntity
  8
_U+30EC_U+30A4_U+30E4_U+30FC 1
 62
   179
420
  2234388
370
    25
100
AcDbVertex
100
AcDb2dVertex
 10
77.5036177449402
 20
-130.4278710785042
 30
0.0
  0
SEQEND
  5
7E
330
7B
100
AcDbEntity
  8
_U+30EC_U+30A4_U+30E4_U+30FC 1
 62
   179
420
  2234388
370
    25
  0
POLYLINE
  5
7F
330
1F
100
AcDbEntity
  8
_U+30EC_U+30A4_U+30E4_U+30FC 1
 62
   179
420
  2234388
370
    25
100
AcDb2dPolyline
 66
     1
 10
0.0
 20
0.0
 30
0.0
  0
VERTEX
  5
80
330
7F
100
AcDbEntity
  8
_U+30EC_U+30A4_U+30E4_U+30FC 1
 62
   179
420
  2234388
370
    25
100
AcDbVertex
100
AcDb2dVertex
 10
83.00370538239906
 20
-129.9276321897405
 30
0.0
  0
VERTEX
  5
81
330
7F
100
AcDbEntity
  8
_U+30EC_U+30A4_U+30E4_U+30FC 1
 62
   179
420
  2234388
370
    25
100
AcDbVertex
100
AcDb2dVertex
 10
77.5036177449402
 20
-129.9276321897405
 30
0.0
  0
SEQEND
  5
82
330
7F
100
AcDbEntity
  8
_U+30EC_U+30A4_U+30E4_U+30FC 1
 62
   179
420
  2234388
370
    25
  0
POLYLINE
  5
83
330
1F
100
AcDbEntity
  8
_U+30EC_U+30A4_U+30E4_U+30FC 1
 62
   179
420
  2234388
370
    25
100
AcDb2dPolyline
 66
     1
 10
0.0
 20
0.0
 30
0.0
  0
VERTEX
  5
84
330
83
100
AcDbEntity
  8
_U+30EC_U+30A4_U+30E4_U+30FC 1
 62
   179
420
  2234388
370
    25
100
AcDbVertex
100
AcDb2dVertex
 10
84.00383035688374
 20
-128.9278599677679
 30
0.0
  0
VERTEX
  5
85
330
83
100
AcDbEntity
  8
_U+30EC_U+30A4_U+30E4_U+30FC 1
 62
   179
420
  2234388
370
    25
100
AcDbVertex
100
AcDb2dVertex
 10
77.00373164658225
 20
-128.9278599677679
 30
0.0
  0
SEQEND
  5
86
330
83
100
AcDbEntity
  8
_U+30EC_U+30A4_U+30E4_U+30FC 1
 62
   179
420
  2234388
370
    25
  0
POLYLINE
  5
87
330
1F
100
AcDbEntity
  8
_U+30EC_U+30A4_U+30E4_U+30FC 1
 62
   179
420
  2234388
370
    25
100
AcDb2dPolyline
 66
     1
 10
0.0
 20
0.0
 30
0.0
  0
VERTEX
  5
88
330
87
100
AcDbEntity
  8
_U+30EC_U+30A4_U+30E4_U+30FC 1
 62
   179
420
  2234388
370
    25
100
AcDbVertex
100
AcDb2dVertex
 10
77.5036177449402
 20
-130.4278710785042
 30
0.0
  0
VERTEX
  5
89
330
87
100
AcDbEntity
  8
_U+30EC_U+30A4_U+30E4_U+30FC 1
 62
   179
420
  2234388
370
    25
100
AcDbVertex
100
AcDb2dVertex
 10
76.00364194987444
 20
-130.4278710785042
 30
0.0
  0
SEQEND
  5
8A
330
87
100
AcDbEntity
  8
_U+30EC_U+30A4_U+30E4_U+30FC 1
 62
   179
420
  2234388
370
    25
  0
POLYLINE
  5
8B
330
1F
100
AcDbEntity
  8
_U+30EC_U+30A4_U+30E4_U+30FC 1
 62
   179
420
  2234388
370
    25
100
AcDb2dPolyline
 66
     1
 10
0.0
 20
0.0
 30
0.0
  0
VERTEX
  5
8C
330
8B
100
AcDbEntity
  8
_U+30EC_U+30A4_U+30E4_U+30FC 1
 62
   179
420
  2234388
370
    25
100
AcDbVertex
100
AcDb2dVertex
 10
76.00364194987444
 20
-129.9276321897405
 30
0.0
  0
VERTEX
  5
8D
330
8B
100
AcDbEntity
  8
_U+30EC_U+30A4_U+30E4_U+30FC 1
 62
   179
420
  2234388
370
    25
100
AcDbVertex
100
AcDb2dVertex
 10
76.00364194987444
 20
-130.4278710785042
 30
0.0
  0
SEQEND
  5
8E
330
8B
100
AcDbEntity
  8
_U+30EC_U+30A4_U+30E4_U+30FC 1
 62
   179
420
  2234388
370
    25
  0
SPLINE
  5
8F
330
1F
100
AcDbEntity
  8
_U+30EC_U+30A4_U+30E4_U+30FC 1
 62
   179
420
  2234388
370
    25
100
AcDbSpline
210
0.0
220
0.0
230
1.0
 70
     8
 71
     3
 72
     8
 73
     4
 74
     0
 42
0.0000000001
 43
0.0000000001
 12
1.0
 22
0.0
 32
0.0
 13
1.0
 23
0.0
 33
0.0
 40
0.0
 40
0.0
 40
0.0
 40
0.0
 40
1.0
 40
1.0
 40
1.0
 40
1.0
 10
100.0035368931417
 20
-129.9276321897405
 30
0.0
 10
100.0035368931417
 20
-129.3753938565447
 30
0.0
 10
99.5560382934472
 20
-128.9278599677679
 30
0.0
 10
99.00376469642576
 20
-128.9278599677679
 30
0.0
  0
SPLINE
  5
90
330
1F
100
AcDbEntity
  8
_U+30EC_U+30A4_U+30E4_U+30FC 1
 62
   179
420
  2234388
370
    25
100
AcDbSpline
210
0.0
220
0.0
230
1.0
 70
     8
 71
     3
 72
     8
 73
     4
 74
     0
 42
0.0000000001
 43
0.0000000001
 12
1.0
 22
0.0
 32
0.0
 13
1.0
 23
0.0
 33
0.0
 40
0.0
 40
0.0
 40
0.0
 40
0.0
 40
1.0
 40
1.0
 40
1.0
 40
1.0
 10
77.00373164658225
 20
-128.9278599677679
 30
0.0
 10
76.45149332733769
 20
-128.9278599677679
 30
0.0
 10
76.00364194987444
 20
-129.3753938565447
 30
0.0
 10
76.00364194987444
 20
-129.9276321897405
 30
0.0
  0
SPLINE
  5
91
330
1F
100
AcDbEntity
  8
_U+30EC_U+30A4_U+30E4_U+30FC 1
 62
   179
420
  2234388
370
     9
100
AcDbSpline
210
0.0
220
0.0
230
1.0
 70
    11
 71
     3
 72
    17
 73
    13
 74
     0
 42
0.0000000001
 43
0.0000000001
 12
1.0
 22
0.0
 32
0.0
 13
1.0
 23
0.0
 33
0.0
 40
0.0
 40
0.0
 40
0.0
 40
0.0
 40
1.0
 40
1.0
 40
1.0
 40
2.0
 40
2.0
 40
2.0
 40
3.0
 40
3.0
 40
3.0
 40
4.0
 40
4.0
 40
4.0
 40
4.0
 10
76.10354861399227
 20
-124.9274305243237
 30
0.0
 10
76.10354861399227
 20
-124.8723266354485
 30
0.0
 10
76.05874583735752
 20
-124.8275238576821
 30
0.0
 10
76.00364194987444
 20
-124.8275238576821
 30
0.0
 10
75.94850278461449
 20
-124.8275238576821
 30
0.0
 10
75.90373528575661
 20
-124.8723266354485
 30
0.0
 10
75.90373528575661
 20
-124.9274305243237
 30
0.0
 10
75.90373528575661
 20
-124.9828871909764
 30
0.0
 10
75.94850278461449
 20
-125.0276899687431
 30
0.0
 10
76.00364194987444
 20
-125.0276899687431
 30
0.0
 10
76.05874583735752
 20
-125.0276899687431
 30
0.0
 10
76.10354861399227
 20
-124.9828871909764
 30
0.0
 10
76.10354861399227
 20
-124.9274305243237
 30
0.0
  0
SPLINE
  5
92
330
1F
100
AcDbEntity
  8
_U+30EC_U+30A4_U+30E4_U+30FC 1
 62
   179
420
  2234388
370
     9
100
AcDbSpline
210
0.0
220
0.0
230
1.0
 70
    11
 71
     3
 72
    17
 73
    13
 74
     0
 42
0.0000000001
 43
0.0000000001
 12
1.0
 22
0.0
 32
0.0
 13
1.0
 23
0.0
 33
0.0
 40
0.0
 40
0.0
 40
0.0
 40
0.0
 40
1.0
 40
1.0
 40
1.0
 40
2.0
 40
2.0
 40
2.0
 40
3.0
 40
3.0
 40
3.0
 40
4.0
 40
4.0
 40
4.0
 40
4.0
 10
84.10373702100158
 20
-124.9274305243237
 30
0.0
 10
84.10373702100158
 20
-124.8723266354485
 30
0.0
 10
84.05893424436681
 20
-124.8275238576821
 30
0.0
 10
84.00383035688374
 20
-124.8275238576821
 30
0.0
 10
83.9486911916238
 20
-124.8275238576821
 30
0.0
 10
83.90392369276591
 20
-124.8723266354485
 30
0.0
 10
83.90392369276591
 20
-124.9274305243237
 30
0.0
 10
83.90392369276591
 20
-124.9828871909764
 30
0.0
 10
83.9486911916238
 20
-125.0276899687431
 30
0.0
 10
84.00383035688374
 20
-125.0276899687431
 30
0.0
 10
84.05893424436681
 20
-125.0276899687431
 30
0.0
 10
84.10373702100158
 20
-124.9828871909764
 30
0.0
 10
84.10373702100158
 20
-124.9274305243237
 30
0.0
  0
SPLINE
  5
93
330
1F
100
AcDbEntity
  8
_U+30EC_U+30A4_U+30E4_U+30FC 1
 62
   179
420
  2234388
370
     9
100
AcDbSpline
210
0.0
220
0.0
230
1.0
 70
    11
 71
     3
 72
    17
 73
    13
 74
     0
 42
0.0000000001
 43
0.0000000001
 12
1.0
 22
0.0
 32
0.0
 13
1.0
 23
0.0
 33
0.0
 40
0.0
 40
0.0
 40
0.0
 40
0.0
 40
1.0
 40
1.0
 40
1.0
 40
2.0
 40
2.0
 40
2.0
 40
3.0
 40
3.0
 40
3.0
 40
4.0
 40
4.0
 40
4.0
 40
4.0
 10
92.10360792801897
 20
-124.9274305243237
 30
0.0
 10
92.10360792801897
 20
-124.8723266354485
 30
0.0
 10
92.05880515138422
 20
-124.8275238576821
 30
0.0
 10
92.00370126390115
 20
-124.8275238576821
 30
0.0
 10
91.94856209864119
 20
-124.8275238576821
 30
0.0
 10
91.90375932200644
 20
-124.8723266354485
 30
0.0
 10
91.90375932200644
 20
-124.9274305243237
 30
0.0
 10
91.90375932200644
 20
-124.9828871909764
 30
0.0
 10
91.94856209864119
 20
-125.0276899687431
 30
0.0
 10
92.00370126390115
 20
-125.0276899687431
 30
0.0
 10
92.05880515138422
 20
-125.0276899687431
 30
0.0
 10
92.10360792801897
 20
-124.9828871909764
 30
0.0
 10
92.10360792801897
 20
-124.9274305243237
 30
0.0
  0
SPLINE
  5
94
330
1F
100
AcDbEntity
  8
_U+30EC_U+30A4_U+30E4_U+30FC 1
 62
   179
420
  2234388
370
     9
100
AcDbSpline
210
0.0
220
0.0
230
1.0
 70
    11
 71
     3
 72
    17
 73
    13
 74
     0
 42
0.0000000001
 43
0.0000000001
 12
1.0
 22
0.0
 32
0.0
 13
1.0
 23
0.0
 33
0.0
 40
0.0
 40
0.0
 40
0.0
 40
0.0
 40
1.0
 40
1.0
 40
1.0
 40
2.0
 40
2.0
 40
2.0
 40
3.0
 40
3.0
 40
3.0
 40
4.0
 40
4.0
 40
4.0
 40
4.0
 10
100.1037963350283
 20
-124.9274305243237
 30
0.0
 10
100.1037963350283
 20
-124.8723266354485
 30
0.0
 10
100.0589935583935
 20
-124.8275238576821
 30
0.0
 10
100.0035368931417
 20
-124.8275238576821
 30
0.0
 10
99.9484330056586
 20
-124.8275238576821
 30
0.0
 10
99.90363022902383
 20
-124.8723266354485
 30
0.0
 10
99.90363022902383
 20
-124.9274305243237
 30
0.0
 10
99.90363022902383
 20
-124.9828871909764
 30
0.0
 10
99.9484330056586
 20
-125.0276899687431
 30
0.0
 10
100.0035368931417
 20
-125.0276899687431
 30
0.0
 10
100.0589935583935
 20
-125.0276899687431
 30
0.0
 10
100.1037963350283
 20
-124.9828871909764
 30
0.0
 10
100.1037963350283
 20
-124.9274305243237
 30
0.0
  0
SPLINE
  5
95
330
1F
100
AcDbEntity
  8
_U+30EC_U+30A4_U+30E4_U+30FC 1
 62
   179
420
  2234388
370
     9
100
AcDbSpline
210
0.0
220
0.0
230
1.0
 70
    11
 71
     3
 72
    17
 73
    13
 74
     0
 42
0.0000000001
 43
0.0000000001
 12
1.0
 22
0.0
 32
0.0
 13
1.0
 23
0.0
 33
0.0
 40
0.0
 40
0.0
 40
0.0
 40
0.0
 40
1.0
 40
1.0
 40
1.0
 40
2.0
 40
2.0
 40
2.0
 40
3.0
 40
3.0
 40
3.0
 40
4.0
 40
4.0
 40
4.0
 40
4.0
 10
104.1035553996526
 20
-128.9278599677679
 30
0.0
 10
104.1035553996526
 20
-128.8724033011153
 30
0.0
 10
104.0587526230178
 20
-128.8276358011267
 30
0.0
 10
104.0036487355348
 20
-128.8276358011267
 30
0.0
 10
103.9485095702748
 20
-128.8276358011267
 30
0.0
 10
103.9037420714169
 20
-128.8724033011153
 30
0.0
 10
103.9037420714169
 20
-128.9278599677679
 30
0.0
 10
103.9037420714169
 20
-128.982999134421
 30
0.0
 10
103.9485095702748
 20
-129.0277666344096
 30
0.0
 10
104.0036487355348
 20
-129.0277666344096
 30
0.0
 10
104.0587526230178
 20
-129.0277666344096
 30
0.0
 10
104.1035553996526
 20
-128.982999134421
 30
0.0
 10
104.1035553996526
 20
-128.9278599677679
 30
0.0
  0
SPLINE
  5
96
330
1F
100
AcDbEntity
  8
_U+30EC_U+30A4_U+30E4_U+30FC 1
 62
   179
420
  2234388
370
     9
100
AcDbSpline
210
0.0
220
0.0
230
1.0
 70
    11
 71
     3
 72
    17
 73
    13
 74
     0
 42
0.0000000001
 43
0.0000000001
 12
1.0
 22
0.0
 32
0.0
 13
1.0
 23
0.0
 33
0.0
 40
0.0
 40
0.0
 40
0.0
 40
0.0
 40
1.0
 40
1.0
 40
1.0
 40
2.0
 40
2.0
 40
2.0
 40
3.0
 40
3.0
 40
3.0
 40
4.0
 40
4.0
 40
4.0
 40
4.0
 10
104.1035553996526
 20
-130.4278710785042
 30
0.0
 10
104.1035553996526
 20
-130.3724144118515
 30
0.0
 10
104.0587526230178
 20
-130.3276116340848
 30
0.0
 10
104.0036487355348
 20
-130.3276116340848
 30
0.0
 10
103.9485095702748
 20
-130.3276116340848
 30
0.0
 10
103.9037420714169
 20
-130.3724144118515
 30
0.0
 10
103.9037420714169
 20
-130.4278710785042
 30
0.0
 10
103.9037420714169
 20
-130.4829749673791
 30
0.0
 10
103.9485095702748
 20
-130.5277777451458
 30
0.0
 10
104.0036487355348
 20
-130.5277777451458
 30
0.0
 10
104.0587526230178
 20
-130.5277777451458
 30
0.0
 10
104.1035553996526
 20
-130.4829749673791
 30
0.0
 10
104.1035553996526
 20
-130.4278710785042
 30
0.0
  0
SPLINE
  5
97
330
1F
100
AcDbEntity
  8
_U+30EC_U+30A4_U+30E4_U+30FC 1
 62
   179
420
  2234388
370
     9
100
AcDbSpline
210
0.0
220
0.0
230
1.0
 70
    11
 71
     3
 72
    17
 73
    13
 74
     0
 42
0.0000000001
 43
0.0000000001
 12
1.0
 22
0.0
 32
0.0
 13
1.0
 23
0.0
 33
0.0
 40
0.0
 40
0.0
 40
0.0
 40
0.0
 40
1.0
 40
1.0
 40
1.0
 40
2.0
 40
2.0
 40
2.0
 40
3.0
 40
3.0
 40
3.0
 40
4.0
 40
4.0
 40
4.0
 40
4.0
 10
104.1035553996526
 20
-136.4274921881151
 30
0.0
 10
104.1035553996526
 20
-136.3723882992402
 30
0.0
 10
104.0587526230178
 20
-136.3275855214735
 30
0.0
 10
104.0036487355348
 20
-136.3275855214735
 30
0.0
 10
103.9485095702748
 20
-136.3275855214735
 30
0.0
 10
103.9037420714169
 20
-136.3723882992402
 30
0.0
 10
103.9037420714169
 20
-136.4274921881151
 30
0.0
 10
103.9037420714169
 20
-136.482984132546
 30
0.0
 10
103.9485095702748
 20
-136.5277516325345
 30
0.0
 10
104.0036487355348
 20
-136.5277516325345
 30
0.0
 10
104.0587526230178
 20
-136.5277516325345
 30
0.0
 10
104.1035553996526
 20
-136.482984132546
 30
0.0
 10
104.1035553996526
 20
-136.4274921881151
 30
0.0
  0
SPLINE
  5
98
330
1F
100
AcDbEntity
  8
_U+30EC_U+30A4_U+30E4_U+30FC 1
 62
   179
420
  2234388
370
     9
100
AcDbSpline
210
0.0
220
0.0
230
1.0
 70
    11
 71
     3
 72
    17
 73
    13
 74
     0
 42
0.0000000001
 43
0.0000000001
 12
1.0
 22
0.0
 32
0.0
 13
1.0
 23
0.0
 33
0.0
 40
0.0
 40
0.0
 40
0.0
 40
0.0
 40
1.0
 40
1.0
 40
1.0
 40
2.0
 40
2.0
 40
2.0
 40
3.0
 40
3.0
 40
3.0
 40
4.0
 40
4.0
 40
4.0
 40
4.0
 10
83.10361204651689
 20
-131.4276433004767
 30
0.0
 10
83.10361204651689
 20
-131.3725041338237
 30
0.0
 10
83.058844547659
 20
-131.3277366338345
 30
0.0
 10
83.00370538239906
 20
-131.3277366338345
 30
0.0
 10
82.94824871714721
 20
-131.3277366338345
 30
0.0
 10
82.9034833126076
 20
-131.3725041338237
 30
0.0
 10
82.9034833126076
 20
-131.4276433004767
 30
0.0
 10
82.9034833126076
 20
-131.4827471893517
 30
0.0
 10
82.94824871714721
 20
-131.5275499671184
 30
0.0
 10
83.00370538239906
 20
-131.5275499671184
 30
0.0
 10
83.058844547659
 20
-131.5275499671184
 30
0.0
 10
83.10361204651689
 20
-131.4827471893517
 30
0.0
 10
83.10361204651689
 20
-131.4276433004767
 30
0.0
  0
SPLINE
  5
99
330
1F
100
AcDbEntity
  8
_U+30EC_U+30A4_U+30E4_U+30FC 1
 62
   179
420
  2234388
370
     9
100
AcDbSpline
210
0.0
220
0.0
230
1.0
 70
    11
 71
     3
 72
    17
 73
    13
 74
     0
 42
0.0000000001
 43
0.0000000001
 12
1.0
 22
0.0
 32
0.0
 13
1.0
 23
0.0
 33
0.0
 40
0.0
 40
0.0
 40
0.0
 40
0.0
 40
1.0
 40
1.0
 40
1.0
 40
2.0
 40
2.0
 40
2.0
 40
3.0
 40
3.0
 40
3.0
 40
4.0
 40
4.0
 40
4.0
 40
4.0
 10
84.10373702100158
 20
-131.4276433004767
 30
0.0
 10
84.10373702100158
 20
-131.3725041338237
 30
0.0
 10
84.05893424436681
 20
-131.3277366338345
 30
0.0
 10
84.00383035688374
 20
-131.3277366338345
 30
0.0
 10
83.9486911916238
 20
-131.3277366338345
 30
0.0
 10
83.90392369276591
 20
-131.3725041338237
 30
0.0
 10
83.90392369276591
 20
-131.4276433004767
 30
0.0
 10
83.90392369276591
 20
-131.4827471893517
 30
0.0
 10
83.9486911916238
 20
-131.5275499671184
 30
0.0
 10
84.00383035688374
 20
-131.5275499671184
 30
0.0
 10
84.05893424436681
 20
-131.5275499671184
 30
0.0
 10
84.10373702100158
 20
-131.4827471893517
 30
0.0
 10
84.10373702100158
 20
-131.4276433004767
 30
0.0
  0
POLYLINE
  5
9A
330
1F
100
AcDbEntity
  8
_U+30EC_U+30A4_U+30E4_U+30FC 1
 62
   179
420
  2234388
370
     9
100
AcDb2dPolyline
 66
     1
 10
0.0
 20
0.0
 30
0.0
  0
VERTEX
  5
9B
330
9A
100
AcDbEntity
  8
_U+30EC_U+30A4_U+30E4_U+30FC 1
 62
   179
420
  2234388
370
     9
100
AcDbVertex
100
AcDb2dVertex
 10
76.00364194987444
 20
-124.9274305243237
 30
0.0
  0
VERTEX
  5
9C
330
9A
100
AcDbEntity
  8
_U+30EC_U+30A4_U+30E4_U+30FC 1
 62
   179
420
  2234388
370
     9
100
AcDbVertex
100
AcDb2dVertex
 10
84.00383035688374
 20
-124.9274305243237
 30
0.0
  0
SEQEND
  5
9D
330
9A
100
AcDbEntity
  8
_U+30EC_U+30A4_U+30E4_U+30FC 1
 62
   179
420
  2234388
370
     9
  0
POLYLINE
  5
9E
330
1F
100
AcDbEntity
  8
_U+30EC_U+30A4_U+30E4_U+30FC 1
 62
   179
420
  2234388
370
     9
100
AcDb2dPolyline
 66
     1
 10
0.0
 20
0.0
 30
0.0
  0
VERTEX
  5
9F
330
9E
100
AcDbEntity
  8
_U+30EC_U+30A4_U+30E4_U+30FC 1
 62
   179
420
  2234388
370
     9
100
AcDbVertex
100
AcDb2dVertex
 10
76.00364194987444
 20
-127.3879144125973
 30
0.0
  0
VERTEX
  5
A0
330
9E
100
AcDbEntity
  8
_U+30EC_U+30A4_U+30E4_U+30FC 1
 62
   179
420
  2234388
370
     9
100
AcDbVertex
100
AcDb2dVertex
 10
76.00364194987444
 20
-123.9276583023515
 30
0.0
  0
SEQEND
  5
A1
330
9E
100
AcDbEntity
  8
_U+30EC_U+30A4_U+30E4_U+30FC 1
 62
   179
420
  2234388
370
     9
  0
POLYLINE
  5
A2
330
1F
100
AcDbEntity
  8
_U+30EC_U+30A4_U+30E4_U+30FC 1
 62
   179
420
  2234388
370
     9
100
AcDb2dPolyline
 66
     1
 10
0.0
 20
0.0
 30
0.0
  0
VERTEX
  5
A3
330
A2
100
AcDbEntity
  8
_U+30EC_U+30A4_U+30E4_U+30FC 1
 62
   179
420
  2234388
370
     9
100
AcDbVertex
100
AcDb2dVertex
 10
84.00383035688374
 20
-126.3874719128477
 30
0.0
  0
VERTEX
  5
A4
330
A2
100
AcDbEntity
  8
_U+30EC_U+30A4_U+30E4_U+30FC 1
 62
   179
420
  2234388
370
     9
100
AcDbVertex
100
AcDb2dVertex
 10
84.00383035688374
 20
-123.9276583023515
 30
0.0
  0
SEQEND
  5
A5
330
A2
100
AcDbEntity
  8
_U+30EC_U+30A4_U+30E4_U+30FC 1
 62
   179
420
  2234388
370
     9
  0
INSERT
  5
A7
330
1F
100
AcDbEntity
  8
_U+30EC_U+30A4_U+30E4_U+30FC 1
100
AcDbBlockReference
  2
block 2
 10
0.0
 20
0.0
 30
0.0
  0
POLYLINE
  5
AE
330
1F
100
AcDbEntity
  8
_U+30EC_U+30A4_U+30E4_U+30FC 1
 62
   179
420
  2234388
370
     9
100
AcDb2dPolyline
 66
     1
 10
0.0
 20
0.0
 30
0.0
  0
VERTEX
  5
AF
330
AE
100
AcDbEntity
  8
_U+30EC_U+30A4_U+30E4_U+30FC 1
 62
   179
420
  2234388
370
     9
100
AcDbVertex
100
AcDb2dVertex
 10
84.00383035688374
 20
-124.9274305243237
 30
0.0
  0
VERTEX
  5
B0
330
AE
100
AcDbEntity
  8
_U+30EC_U+30A4_U+30E4_U+30FC 1
 62
   179
420
  2234388
370
     9
100
AcDbVertex
100
AcDb2dVertex
 10
92.00370126390115
 20
-124.9274305243237
 30
0.0
  0
SEQEND
  5
B1
330
AE
100
AcDbEntity
  8
_U+30EC_U+30A4_U+30E4_U+30FC 1
 62
   179
420
  2234388
370
     9
  0
POLYLINE
  5
B2
330
1F
100
AcDbEntity
  8
_U+30EC_U+30A4_U+30E4_U+30FC 1
 62
   179
420
  2234388
370
     9
100
AcDb2dPolyline
 66
     1
 10
0.0
 20
0.0
 30
0.0
  0
VERTEX
  5
B3
330
B2
100
AcDbEntity
  8
_U+30EC_U+30A4_U+30E4_U+30FC 1
 62
   179
420
  2234388
370
     9
100
AcDbVertex
100
AcDb2dVertex
 10
92.00370126390115
 20
-126.3874719128477
 30
0.0
  0
VERTEX
  5
B4
330
B2
100
AcDbEntity
  8
_U+30EC_U+30A4_U+30E4_U+30FC 1
 62
   179
420
  2234388
370
     9
100
AcDbVertex
100
AcDb2dVertex
 10
92.00370126390115
 20
-123.9276583023515
 30
0.0
  0
SEQEND
  5
B5
330
B2
100
AcDbEntity
  8
_U+30EC_U+30A4_U+30E4_U+30FC 1
 62
   179
420
  2234388
370
     9
  0
INSERT
  5
B7
330
1F
100
AcDbEntity
  8
_U+30EC_U+30A4_U+30E4_U+30FC 1
100
AcDbBlockReference
  2
block 3
 10
0.0
 20
0.0
 30
0.0
  0
POLYLINE
  5
BE
330
1F
100
AcDbEntity
  8
_U+30EC_U+30A4_U+30E4_U+30FC 1
 62
   179
420
  2234388
370
     9
100
AcDb2dPolyline
 66
     1
 10
0.0
 20
0.0
 30
0.0
  0
VERTEX
  5
BF
330
BE
100
AcDbEntity
  8
_U+30EC_U+30A4_U+30E4_U+30FC 1
 62
   179
420
  2234388
370
     9
100
AcDbVertex
100
AcDb2dVertex
 10
92.00370126390115
 20
-124.9274305243237
 30
0.0
  0
VERTEX
  5
C0
330
BE
100
AcDbEntity
  8
_U+30EC_U+30A4_U+30E4_U+30FC 1
 62
   179
420
  2234388
370
     9
100
AcDbVertex
100
AcDb2dVertex
 10
100.0035368931417
 20
-124.9274305243237
 30
0.0
  0
SEQEND
  5
C1
330
BE
100
AcDbEntity
  8
_U+30EC_U+30A4_U+30E4_U+30FC 1
 62
   179
420
  2234388
370
     9
  0
POLYLINE
  5
C2
330
1F
100
AcDbEntity
  8
_U+30EC_U+30A4_U+30E4_U+30FC 1
 62
   179
420
  2234388
370
     9
100
AcDb2dPolyline
 66
     1
 10
0.0
 20
0.0
 30
0.0
  0
VERTEX
  5
C3
330
C2
100
AcDbEntity
  8
_U+30EC_U+30A4_U+30E4_U+30FC 1
 62
   179
420
  2234388
370
     9
100
AcDbVertex
100
AcDb2dVertex
 10
100.0035368931417
 20
-127.3879144125973
 30
0.0
  0
VERTEX
  5
C4
330
C2
100
AcDbEntity
  8
_U+30EC_U+30A4_U+30E4_U+30FC 1
 62
   179
420
  2234388
370
     9
100
AcDbVertex
100
AcDb2dVertex
 10
100.0035368931417
 20
-123.9276583023515
 30
0.0
  0
SEQEND
  5
C5
330
C2
100
AcDbEntity
  8
_U+30EC_U+30A4_U+30E4_U+30FC 1
 62
   179
420
  2234388
370
     9
  0
INSERT
  5
C7
330
1F
100
AcDbEntity
  8
_U+30EC_U+30A4_U+30E4_U+30FC 1
100
AcDbBlockReference
  2
block 4
 10
0.0
 20
0.0
 30
0.0
  0
POLYLINE
  5
CE
330
1F
100
AcDbEntity
  8
_U+30EC_U+30A4_U+30E4_U+30FC 1
 62
   179
420
  2234388
370
     9
100
AcDb2dPolyline
 66
     1
 10
0.0
 20
0.0
 30
0.0
  0
VERTEX
  5
CF
330
CE
100
AcDbEntity
  8
_U+30EC_U+30A4_U+30E4_U+30FC 1
 62
   179
420
  2234388
370
     9
100
AcDbVertex
100
AcDb2dVertex
 10
104.0036487355348
 20
-128.9278599677679
 30
0.0
  0
VERTEX
  5
D0
330
CE
100
AcDbEntity
  8
_U+30EC_U+30A4_U+30E4_U+30FC 1
 62
   179
420
  2234388
370
     9
100
AcDbVertex
100
AcDb2dVertex
 10
104.0036487355348
 20
-123.669954135749
 30
0.0
  0
SEQEND
  5
D1
330
CE
100
AcDbEntity
  8
_U+30EC_U+30A4_U+30E4_U+30FC 1
 62
   179
420
  2234388
370
     9
  0
POLYLINE
  5
D2
330
1F
100
AcDbEntity
  8
_U+30EC_U+30A4_U+30E4_U+30FC 1
 62
   179
420
  2234388
370
     9
100
AcDb2dPolyline
 66
     1
 10
0.0
 20
0.0
 30
0.0
  0
VERTEX
  5
D3
330
D2
100
AcDbEntity
  8
_U+30EC_U+30A4_U+30E4_U+30FC 1
 62
   179
420
  2234388
370
     9
100
AcDbVertex
100
AcDb2dVertex
 10
104.0036487355348
 20
-128.9278599677679
 30
0.0
  0
VERTEX
  5
D4
330
D2
100
AcDbEntity
  8
_U+30EC_U+30A4_U+30E4_U+30FC 1
 62
   179
420
  2234388
370
     9
100
AcDbVertex
100
AcDb2dVertex
 10
104.0036487355348
 20
-130.4278710785042
 30
0.0
  0
SEQEND
  5
D5
330
D2
100
AcDbEntity
  8
_U+30EC_U+30A4_U+30E4_U+30FC 1
 62
   179
420
  2234388
370
     9
  0
POLYLINE
  5
D6
330
1F
100
AcDbEntity
  8
_U+30EC_U+30A4_U+30E4_U+30FC 1
 62
   179
420
  2234388
370
     9
100
AcDb2dPolyline
 66
     1
 10
0.0
 20
0.0
 30
0.0
  0
VERTEX
  5
D7
330
D6
100
AcDbEntity
  8
_U+30EC_U+30A4_U+30E4_U+30FC 1
 62
   179
420
  2234388
370
     9
100
AcDbVertex
100
AcDb2dVertex
 10
101.5438351871787
 20
-128.9278599677679
 30
0.0
  0
VERTEX
  5
D8
330
D6
100
AcDbEntity
  8
_U+30EC_U+30A4_U+30E4_U+30FC 1
 62
   179
420
  2234388
370
     9
100
AcDbVertex
100
AcDb2dVertex
 10
105.0037384322426
 20
-128.9278599677679
 30
0.0
  0
SEQEND
  5
D9
330
D6
100
AcDbEntity
  8
_U+30EC_U+30A4_U+30E4_U+30FC 1
 62
   179
420
  2234388
370
     9
  0
POLYLINE
  5
DA
330
1F
100
AcDbEntity
  8
_U+30EC_U+30A4_U+30E4_U+30FC 1
 62
   179
420
  2234388
370
     9
100
AcDb2dPolyline
 66
     1
 10
0.0
 20
0.0
 30
0.0
  0
VERTEX
  5
DB
330
DA
100
AcDbEntity
  8
_U+30EC_U+30A4_U+30E4_U+30FC 1
 62
   179
420
  2234388
370
     9
100
AcDbVertex
100
AcDb2dVertex
 10
102.5436073838946
 20
-130.4278710785042
 30
0.0
  0
VERTEX
  5
DC
330
DA
100
AcDbEntity
  8
_U+30EC_U+30A4_U+30E4_U+30FC 1
 62
   179
420
  2234388
370
     9
100
AcDbVertex
100
AcDb2dVertex
 10
105.0037384322426
 20
-130.4278710785042
 30
0.0
  0
SEQEND
  5
DD
330
DA
100
AcDbEntity
  8
_U+30EC_U+30A4_U+30E4_U+30FC 1
 62
   179
420
  2234388
370
     9
  0
INSERT
  5
DF
330
1F
100
AcDbEntity
  8
_U+30EC_U+30A4_U+30E4_U+30FC 1
100
AcDbBlockReference
  2
block 5
 10
0.0
 20
0.0
 30
0.0
  0
POLYLINE
  5
EE
330
1F
100
AcDbEntity
  8
_U+30EC_U+30A4_U+30E4_U+30FC 1
 62
   179
420
  2234388
370
     9
100
AcDb2dPolyline
 66
     1
 10
0.0
 20
0.0
 30
0.0
  0
VERTEX
  5
EF
330
EE
100
AcDbEntity
  8
_U+30EC_U+30A4_U+30E4_U+30FC 1
 62
   179
420
  2234388
370
     9
100
AcDbVertex
100
AcDb2dVertex
 10
104.0036487355348
 20
-136.4274921881151
 30
0.0
  0
VERTEX
  5
F0
330
EE
100
AcDbEntity
  8
_U+30EC_U+30A4_U+30E4_U+30FC 1
 62
   179
420
  2234388
370
     9
100
AcDbVertex
100
AcDb2dVertex
 10
104.0036487355348
 20
-130.4278710785042
 30
0.0
  0
SEQEND
  5
F1
330
EE
100
AcDbEntity
  8
_U+30EC_U+30A4_U+30E4_U+30FC 1
 62
   179
420
  2234388
370
     9
  0
POLYLINE
  5
F2
330
1F
100
AcDbEntity
  8
_U+30EC_U+30A4_U+30E4_U+30FC 1
 62
   179
420
  2234388
370
     9
100
AcDb2dPolyline
 66
     1
 10
0.0
 20
0.0
 30
0.0
  0
VERTEX
  5
F3
330
F2
100
AcDbEntity
  8
_U+30EC_U+30A4_U+30E4_U+30FC 1
 62
   179
420
  2234388
370
     9
100
AcDbVertex
100
AcDb2dVertex
 10
95.54351108722535
 20
-136.4274921881151
 30
0.0
  0
VERTEX
  5
F4
330
F2
100
AcDbEntity
  8
_U+30EC_U+30A4_U+30E4_U+30FC 1
 62
   179
420
  2234388
370
     9
100
AcDbVertex
100
AcDb2dVertex
 10
105.0037384322426
 20
-136.4274921881151
 30
0.0
  0
SEQEND
  5
F5
330
F2
100
AcDbEntity
  8
_U+30EC_U+30A4_U+30E4_U+30FC 1
 62
   179
420
  2234388
370
     9
  0
INSERT
  5
F7
330
1F
100
AcDbEntity
  8
_U+30EC_U+30A4_U+30E4_U+30FC 1
100
AcDbBlockReference
  2
block 6
 10
0.0
 20
0.0
 30
0.0
  0
POLYLINE
  5
FD
330
1F
100
AcDbEntity
  8
_U+30EC_U+30A4_U+30E4_U+30FC 1
 62
   179
420
  2234388
370
     9
100
AcDb2dPolyline
 66
     1
 10
0.0
 20
0.0
 30
0.0
  0
VERTEX
  5
FE
330
FD
100
AcDbEntity
  8
_U+30EC_U+30A4_U+30E4_U+30FC 1
 62
   179
420
  2234388
370
     9
100
AcDbVertex
100
AcDb2dVertex
 10
84.00383035688374
 20
-131.4276433004767
 30
0.0
  0
VERTEX
  5
FF
330
FD
100
AcDbEntity
  8
_U+30EC_U+30A4_U+30E4_U+30FC 1
 62
   179
420
  2234388
370
     9
100
AcDbVertex
100
AcDb2dVertex
 10
87.77414276069506
 20
-131.4276433004767
 30
0.0
  0
SEQEND
  5
100
330
FD
100
AcDbEntity
  8
_U+30EC_U+30A4_U+30E4_U+30FC 1
 62
   179
420
  2234388
370
     9
  0
POLYLINE
  5
101
330
1F
100
AcDbEntity
  8
_U+30EC_U+30A4_U+30E4_U+30FC 1
 62
   179
420
  2234388
370
     9
100
AcDb2dPolyline
 66
     1
 10
0.0
 20
0.0
 30
0.0
  0
VERTEX
  5
102
330
101
100
AcDbEntity
  8
_U+30EC_U+30A4_U+30E4_U+30FC 1
 62
   179
420
  2234388
370
     9
100
AcDbVertex
100
AcDb2dVertex
 10
82.00361568569124
 20
-131.4276433004767
 30
0.0
  0
VERTEX
  5
103
330
101
100
AcDbEntity
  8
_U+30EC_U+30A4_U+30E4_U+30FC 1
 62
   179
420
  2234388
370
     9
100
AcDbVertex
100
AcDb2dVertex
 10
84.00383035688374
 20
-131.4276433004767
 30
0.0
  0
SEQEND
  5
104
330
101
100
AcDbEntity
  8
_U+30EC_U+30A4_U+30E4_U+30FC 1
 62
   179
420
  2234388
370
     9
  0
INSERT
  5
106
330
1F
100
AcDbEntity
  8
_U+30EC_U+30A4_U+30E4_U+30FC 1
100
AcDbBlockReference
  2
block 7
 10
0.0
 20
0.0
 30
0.0
  0
ENDSEC
  0
SECTION
  2
OBJECTS
  0
DICTIONARY
  5
C
330
0
100
AcDbDictionary
281
     1
  3
ACAD_GROUP
350
D
  3
ACAD_LAYOUT
350
1A
  3
ACAD_MATERIAL
350
3B
  3
ACAD_MLEADERSTYLE
350
10C
  3
ACAD_MLINESTYLE
350
17
  3
ACAD_PLOTSETTINGS
350
19
  3
ACAD_PLOTSTYLENAME
350
E
  3
ACAD_TABLESTYLE
350
10B
  3
ACAD_VISUALSTYLE
350
2A
  0
SUN
  5
3F
330
29
100
AcDbSun
 90
        1
290
     0
 63
     7
421
 16777215
 40
1.0
291
     1
 91
  2455826
 92
 54000000
292
     0
 70
     2
 71
   256
280
     1
  0
DICTIONARY
  5
D
102
{ACAD_REACTORS
330
C
102
}
330
C
100
AcDbDictionary
281
     1
  0
DICTIONARY
  5
1A
102
{ACAD_REACTORS
330
C
102
}
330
C
100
AcDbDictionary
281
     1
  3
Layout1
350
1E
  3
Layout2
350
26
  3
Model
350
22
  0
DICTIONARY
  5
3B
102
{ACAD_REACTORS
330
C
102
}
330
C
100
AcDbDictionary
281
     1
  3
ByBlock
350
3D
  3
ByLayer
350
3C
  3
Global
350
3E
  0
DICTIONARY
  5
10C
102
{ACAD_REACTORS
330
C
102
}
330
C
100
AcDbDictionary
281
     1
  0
DICTIONARY
  5
17
102
{ACAD_REACTORS
330
C
102
}
330
C
100
AcDbDictionary
281
     1
  3
Standard
350
18
  0
DICTIONARY
  5
19
102
{ACAD_REACTORS
330
C
102
}
330
C
100
AcDbDictionary
281
     1
  0
ACDBDICTIONARYWDFLT
  5
E
102
{ACAD_REACTORS
330
C
102
}
330
C
100
AcDbDictionary
281
     1
  3
Normal
350
F
100
AcDbDictionaryWithDefault
340
F
  0
DICTIONARY
  5
10B
102
{ACAD_REACTORS
330
C
102
}
330
C
100
AcDbDictionary
281
     1
  0
DICTIONARY
  5
2A
102
{ACAD_REACTORS
330
C
102
}
330
C
100
AcDbDictionary
281
     1
  3
2dWireframe
350
2F
  3
3D Hidden
350
31
  3
3dWireframe
350
30
  3
Basic
350
32
  3
Brighten
350
36
  3
ColorChange
350
3A
  3
Conceptual
350
34
  3
Dim
350
35
  3
Facepattern
350
39
  3
Flat
350
2B
  3
FlatWithEdges
350
2C
  3
Gouraud
350
2D
  3
GouraudWithEdges
350
2E
  3
Linepattern
350
38
  3
Realistic
350
33
  3
Thicken
350
37
  0
LAYOUT
  5
1E
102
{ACAD_REACTORS
330
1A
102
}
330
1A
100
AcDbPlotSettings
  1

  2
none_device
  4

  6

 40
0.0
 41
0.0
 42
0.0
 43
0.0
 44
0.0
 45
0.0
 46
0.0
 47
0.0
 48
0.0
 49
0.0
140
0.0
141
0.0
142
1.0
143
1.0
 70
   688
 72
     0
 73
     0
 74
     5
  7

 75
    16
 76
     0
 77
     2
 78
   300
147
1.0
148
0.0
149
0.0
100
AcDbLayout
  1
Layout1
 70
     1
 71
     1
 10
0.0
 20
0.0
 11
12.0
 21
9.0
 12
0.0
 22
0.0
 32
0.0
 14
1.000000000000000E+20
 24
1.000000000000000E+20
 34
1.000000000000000E+20
 15
-1.000000000000000E+20
 25
-1.000000000000000E+20
 35
-1.000000000000000E+20
146
0.0
 13
0.0
 23
0.0
 33
0.0
 16
1.0
 26
0.0
 36
0.0
 17
0.0
 27
1.0
 37
0.0
 76
     0
330
1B
  0
LAYOUT
  5
26
102
{ACAD_REACTORS
330
1A
102
}
330
1A
100
AcDbPlotSettings
  1

  2
none_device
  4

  6

 40
0.0
 41
0.0
 42
0.0
 43
0.0
 44
0.0
 45
0.0
 46
0.0
 47
0.0
 48
0.0
 49
0.0
140
0.0
141
0.0
142
1.0
143
1.0
 70
   688
 72
     0
 73
     0
 74
     5
  7

 75
    16
 76
     0
 77
     2
 78
   300
147
1.0
148
0.0
149
0.0
100
AcDbLayout
  1
Layout2
 70
     1
 71
     2
 10
0.0
 20
0.0
 11
0.0
 21
0.0
 12
0.0
 22
0.0
 32
0.0
 14
0.0
 24
0.0
 34
0.0
 15
0.0
 25
0.0
 35
0.0
146
0.0
 13
0.0
 23
0.0
 33
0.0
 16
1.0
 26
0.0
 36
0.0
 17
0.0
 27
1.0
 37
0.0
 76
     0
330
23
  0
LAYOUT
  5
22
102
{ACAD_REACTORS
330
1A
102
}
330
1A
100
AcDbPlotSettings
  1

  2
none_device
  4

  6

 40
0.0
 41
0.0
 42
0.0
 43
0.0
 44
0.0
 45
0.0
 46
0.0
 47
0.0
 48
0.0
 49
0.0
140
0.0
141
0.0
142
1.0
143
1.0
 70
  1712
 72
     0
 73
     0
 74
     0
  7

 75
     0
 76
     0
 77
     2
 78
   300
147
1.0
148
0.0
149
0.0
100
AcDbLayout
  1
Model
 70
     1
 71
     0
 10
0.0
 20
0.0
 11
12.0
 21
9.0
 12
0.0
 22
0.0
 32
0.0
 14
1.000000000000000E+20
 24
1.000000000000000E+20
 34
1.000000000000000E+20
 15
-1.000000000000000E+20
 25
-1.000000000000000E+20
 35
-1.000000000000000E+20
146
0.0
 13
0.0
 23
0.0
 33
0.0
 16
1.0
 26
0.0
 36
0.0
 17
0.0
 27
1.0
 37
0.0
 76
     0
330
1F
331
29
  0
MATERIAL
  5
3D
102
{ACAD_REACTORS
330
3B
102
}
330
3B
100
AcDbMaterial
  1
ByBlock
 72
     1
 94
      127
  0
MATERIAL
  5
3C
102
{ACAD_REACTORS
330
3B
102
}
330
3B
100
AcDbMaterial
  1
ByLayer
 72
     1
 94
      127
  0
MATERIAL
  5
3E
102
{ACAD_REACTORS
330
3B
102
}
330
3B
100
AcDbMaterial
  1
Global
 72
     1
 94
      127
  0
MLINESTYLE
  5
18
102
{ACAD_REACTORS
330
17
102
}
330
17
100
AcDbMlineStyle
  2
Standard
 70
     0
  3

 62
   256
 51
90.0
 52
90.0
 71
     2
 49
0.5
 62
   256
  6
BYLAYER
 49
-0.5
 62
   256
  6
BYLAYER
  0
ACDBPLACEHOLDER
  5
F
102
{ACAD_REACTORS
330
E
102
}
330
E
  0
VISUALSTYLE
  5
2F
102
{ACAD_REACTORS
330
2A
102
}
330
2A
100
AcDbVisualStyle
  2
2dWireframe
 70
     4
177
     2
291
     0
 71
     0
176
     1
 72
     2
176
     1
 73
     0
176
     1
 90
        0
176
     1
 40
-0.6
176
     1
 41
-30.0
176
     1
 62
     5
 63
     7
421
 16777215
176
     1
 74
     1
176
     1
 91
        4
176
     1
 64
     7
176
     1
 65
   257
176
     1
 75
     1
176
     1
175
     1
176
     1
 42
1.0
176
     1
 92
        0
176
     1
 66
   257
176
     1
 43
1.0
176
     1
 76
     1
176
     1
 77
     6
176
     1
 78
     2
176
     1
 67
     7
176
     1
 79
     5
176
     1
170
     0
176
     1
171
     0
176
     1
290
     0
176
     1
 93
        1
176
     1
 44
0.0
176
     1
173
     0
176
     1
  0
VISUALSTYLE
  5
31
102
{ACAD_REACTORS
330
2A
102
}
330
2A
100
AcDbVisualStyle
  2
3D Hidden
 70
     6
177
     2
291
     0
 71
     1
176
     1
 72
     2
176
     1
 73
     2
176
     1
 90
        0
176
     1
 40
-0.6
176
     1
 41
-30.0
176
     1
 62
     5
 63
     7
421
 16777215
176
     1
 74
     2
176
     1
 91
        2
176
     1
 64
     7
176
     1
 65
   257
176
     1
 75
     2
176
     1
175
     1
176
     1
 42
40.0
176
     1
 92
        0
176
     1
 66
   257
176
     1
 43
1.0
176
     1
 76
     1
176
     1
 77
     6
176
     1
 78
     2
176
     1
 67
     7
176
     1
 79
     3
176
     1
170
     0
176
     1
171
     0
176
     1
290
     0
176
     1
 93
        1
176
     1
 44
0.0
176
     1
173
     0
176
     1
  0
VISUALSTYLE
  5
30
102
{ACAD_REACTORS
330
2A
102
}
330
2A
100
AcDbVisualStyle
  2
3dWireframe
 70
     5
177
     2
291
     0
 71
     0
176
     1
 72
     2
176
     1
 73
     0
176
     1
 90
        0
176
     1
 40
-0.6
176
     1
 41
-30.0
176
     1
 62
     5
 63
     7
421
 16777215
176
     1
 74
     1
176
     1
 91
        4
176
     1
 64
     7
176
     1
 65
   257
176
     1
 75
     1
176
     1
175
     1
176
     1
 42
1.0
176
     1
 92
        0
176
     1
 66
   257
176
     1
 43
1.0
176
     1
 76
     1
176
     1
 77
     6
176
     1
 78
     2
176
     1
 67
     7
176
     1
 79
     5
176
     1
170
     0
176
     1
171
     0
176
     1
290
     0
176
     1
 93
        1
176
     1
 44
0.0
176
     1
173
     0
176
     1
  0
VISUALSTYLE
  5
32
102
{ACAD_REACTORS
330
2A
102
}
330
2A
100
AcDbVisualStyle
  2
Basic
 70
     7
177
     2
291
     1
 71
     1
176
     1
 72
     0
176
     1
 73
     1
176
     1
 90
        0
176
     1
 40
-0.6
176
     1
 41
-30.0
176
     1
 62
     5
 63
     7
421
 16777215
176
     1
 74
     0
176
     1
 91
        4
176
     1
 64
     7
176
     1
 65
   257
176
     1
 75
     1
176
     1
175
     1
176
     1
 42
1.0
176
     1
 92
        8
176
     1
 66
     7
176
     1
 43
1.0
176
     1
 76
     1
176
     1
 77
     6
176
     1
 78
     2
176
     1
 67
     7
176
     1
 79
     5
176
     1
170
     0
176
     1
171
     0
176
     1
290
     0
176
     1
 93
        1
176
     1
 44
0.0
176
     1
173
     0
176
     1
  0
VISUALSTYLE
  5
36
102
{ACAD_REACTORS
330
2A
102
}
330
2A
100
AcDbVisualStyle
  2
Brighten
 70
    12
177
     2
291
     1
 71
     2
176
     1
 72
     2
176
     1
 73
     0
176
     1
 90
        0
176
     1
 40
-0.6
176
     1
 41
-30.0
176
     1
 62
     5
 63
     7
421
 16777215
176
     1
 74
     1
176
     1
 91
        4
176
     1
 64
     7
176
     1
 65
   257
176
     1
 75
     1
176
     1
175
     1
176
     1
 42
1.0
176
     1
 92
        8
176
     1
 66
     7
176
     1
 43
1.0
176
     1
 76
     1
176
     1
 77
     6
176
     1
 78
     2
176
     1
 67
     7
176
     1
 79
     5
176
     1
170
     0
176
     1
171
     0
176
     1
290
     0
176
     1
 93
        1
176
     1
 44
50.0
176
     1
173
     0
176
     1
  0
VISUALSTYLE
  5
3A
102
{ACAD_REACTORS
330
2A
102
}
330
2A
100
AcDbVisualStyle
  2
ColorChange
 70
    16
177
     2
291
     1
 71
     2
176
     1
 72
     2
176
     1
 73
     3
176
     1
 90
        0
176
     1
 40
-0.6
176
     1
 41
-30.0
176
     1
 62
     5
 63
     8
421
  8421504
176
     1
 74
     1
176
     1
 91
        4
176
     1
 64
     7
176
     1
 65
   257
176
     1
 75
     1
176
     1
175
     1
176
     1
 42
1.0
176
     1
 92
        8
176
     1
 66
     8
424
  8421504
176
     1
 43
1.0
176
     1
 76
     1
176
     1
 77
     6
176
     1
 78
     2
176
     1
 67
     7
176
     1
 79
     5
176
     1
170
     0
176
     1
171
     0
176
     1
290
     0
176
     1
 93
        1
176
     1
 44
0.0
176
     1
173
     0
176
     1
  0
VISUALSTYLE
  5
34
102
{ACAD_REACTORS
330
2A
102
}
330
2A
100
AcDbVisualStyle
  2
Conceptual
 70
     9
177
     2
291
     0
 71
     3
176
     1
 72
     2
176
     1
 73
     0
176
     1
 90
        0
176
     1
 40
-0.6
176
     1
 41
-30.0
176
     1
 62
     5
 63
     7
421
 16777215
176
     1
 74
     2
176
     1
 91
        2
176
     1
 64
     7
176
     1
 65
   257
176
     1
 75
     1
176
     1
175
     1
176
     1
 42
40.0
176
     1
 92
        8
176
     1
 66
     7
176
     1
 43
1.0
176
     1
 76
     1
176
     1
 77
     6
176
     1
 78
     2
176
     1
 67
     7
176
     1
 79
     3
176
     1
170
     0
176
     1
171
     0
176
     1
290
     0
176
     1
 93
        1
176
     1
 44
0.0
176
     1
173
     0
176
     1
  0
VISUALSTYLE
  5
35
102
{ACAD_REACTORS
330
2A
102
}
330
2A
100
AcDbVisualStyle
  2
Dim
 70
    11
177
     2
291
     1
 71
     2
176
     1
 72
     2
176
     1
 73
     0
176
     1
 90
        0
176
     1
 40
-0.6
176
     1
 41
-30.0
176
     1
 62
     5
 63
     7
421
 16777215
176
     1
 74
     1
176
     1
 91
        4
176
     1
 64
     7
176
     1
 65
   257
176
     1
 75
     1
176
     1
175
     1
176
     1
 42
1.0
176
     1
 92
        8
176
     1
 66
     7
176
     1
 43
1.0
176
     1
 76
     1
176
     1
 77
     6
176
     1
 78
     2
176
     1
 67
     7
176
     1
 79
     5
176
     1
170
     0
176
     1
171
     0
176
     1
290
     0
176
     1
 93
        1
176
     1
 44
-50.0
176
     1
173
     0
176
     1
  0
VISUALSTYLE
  5
39
102
{ACAD_REACTORS
330
2A
102
}
330
2A
100
AcDbVisualStyle
  2
Facepattern
 70
    15
177
     2
291
     1
 71
     2
176
     1
 72
     2
176
     1
 73
     0
176
     1
 90
        0
176
     1
 40
-0.6
176
     1
 41
-30.0
176
     1
 62
     5
 63
     7
421
 16777215
176
     1
 74
     1
176
     1
 91
        4
176
     1
 64
     7
176
     1
 65
   257
176
     1
 75
     1
176
     1
175
     1
176
     1
 42
1.0
176
     1
 92
        8
176
     1
 66
     7
176
     1
 43
1.0
176
     1
 76
     1
176
     1
 77
     6
176
     1
 78
     2
176
     1
 67
     7
176
     1
 79
     5
176
     1
170
     0
176
     1
171
     0
176
     1
290
     0
176
     1
 93
        1
176
     1
 44
0.0
176
     1
173
     0
176
     1
  0
VISUALSTYLE
  5
2B
102
{ACAD_REACTORS
330
2A
102
}
330
2A
100
AcDbVisualStyle
  2
Flat
 70
     0
177
     2
291
     1
 71
     2
176
     1
 72
     1
176
     1
 73
     1
176
     1
 90
        2
176
     1
 40
-0.6
176
     1
 41
30.0
176
     1
 62
     5
 63
     7
421
 16777215
176
     1
 74
     0
176
     1
 91
        4
176
     1
 64
     7
176
     1
 65
   257
176
     1
 75
     1
176
     1
175
     1
176
     1
 42
1.0
176
     1
 92
        8
176
     1
 66
     7
176
     1
 43
1.0
176
     1
 76
     1
176
     1
 77
     6
176
     1
 78
     2
176
     1
 67
     7
176
     1
 79
     5
176
     1
170
     0
176
     1
171
     0
176
     1
290
     0
176
     1
 93
       13
176
     1
 44
0.0
176
     1
173
     0
176
     1
  0
VISUALSTYLE
  5
2C
102
{ACAD_REACTORS
330
2A
102
}
330
2A
100
AcDbVisualStyle
  2
FlatWithEdges
 70
     1
177
     2
291
     1
 71
     2
176
     1
 72
     1
176
     1
 73
     1
176
     1
 90
        2
176
     1
 40
-0.6
176
     1
 41
30.0
176
     1
 62
     5
 63
     7
421
 16777215
176
     1
 74
     1
176
     1
 91
        4
176
     1
 64
     7
176
     1
 65
   257
176
     1
 75
     1
176
     1
175
     1
176
     1
 42
1.0
176
     1
 92
        0
176
     1
 66
   257
176
     1
 43
1.0
176
     1
 76
     1
176
     1
 77
     6
176
     1
 78
     2
176
     1
 67
     7
176
     1
 79
     5
176
     1
170
     0
176
     1
171
     0
176
     1
290
     0
176
     1
 93
       13
176
     1
 44
0.0
176
     1
173
     0
176
     1
  0
VISUALSTYLE
  5
2D
102
{ACAD_REACTORS
330
2A
102
}
330
2A
100
AcDbVisualStyle
  2
Gouraud
 70
     2
177
     2
291
     1
 71
     2
176
     1
 72
     2
176
     1
 73
     1
176
     1
 90
        2
176
     1
 40
-0.6
176
     1
 41
30.0
176
     1
 62
     5
 63
     7
421
 16777215
176
     1
 74
     0
176
     1
 91
        4
176
     1
 64
     7
176
     1
 65
   257
176
     1
 75
     1
176
     1
175
     1
176
     1
 42
1.0
176
     1
 92
        0
176
     1
 66
     7
176
     1
 43
1.0
176
     1
 76
     1
176
     1
 77
     6
176
     1
 78
     2
176
     1
 67
     7
176
     1
 79
     5
176
     1
170
     0
176
     1
171
     0
176
     1
290
     0
176
     1
 93
       13
176
     1
 44
0.0
176
     1
173
     0
176
     1
  0
VISUALSTYLE
  5
2E
102
{ACAD_REACTORS
330
2A
102
}
330
2A
100
AcDbVisualStyle
  2
GouraudWithEdges
 70
     3
177
     2
291
     1
 71
     2
176
     1
 72
     2
176
     1
 73
     1
176
     1
 90
        2
176
     1
 40
-0.6
176
     1
 41
30.0
176
     1
 62
     5
 63
     7
421
 16777215
176
     1
 74
     1
176
     1
 91
        4
176
     1
 64
     7
176
     1
 65
   257
176
     1
 75
     1
176
     1
175
     1
176
     1
 42
1.0
176
     1
 92
        0
176
     1
 66
   257
176
     1
 43
1.0
176
     1
 76
     1
176
     1
 77
     6
176
     1
 78
     2
176
     1
 67
     7
176
     1
 79
     5
176
     1
170
     0
176
     1
171
     0
176
     1
290
     0
176
     1
 93
       13
176
     1
 44
0.0
176
     1
173
     0
176
     1
  0
VISUALSTYLE
  5
38
102
{ACAD_REACTORS
330
2A
102
}
330
2A
100
AcDbVisualStyle
  2
Linepattern
 70
    14
177
     2
291
     1
 71
     2
176
     1
 72
     2
176
     1
 73
     0
176
     1
 90
        0
176
     1
 40
-0.6
176
     1
 41
-30.0
176
     1
 62
     5
 63
     7
421
 16777215
176
     1
 74
     1
176
     1
 91
        4
176
     1
 64
     7
176
     1
 65
   257
176
     1
 75
     7
176
     1
175
     7
176
     1
 42
1.0
176
     1
 92
        8
176
     1
 66
     7
176
     1
 43
1.0
176
     1
 76
     1
176
     1
 77
     6
176
     1
 78
     2
176
     1
 67
     7
176
     1
 79
     5
176
     1
170
     0
176
     1
171
     0
176
     1
290
     0
176
     1
 93
        1
176
     1
 44
0.0
176
     1
173
     0
176
     1
  0
VISUALSTYLE
  5
33
102
{ACAD_REACTORS
330
2A
102
}
330
2A
100
AcDbVisualStyle
  2
Realistic
 70
     8
177
     2
291
     0
 71
     2
176
     1
 72
     2
176
     1
 73
     0
176
     1
 90
        0
176
     1
 40
-0.6
176
     1
 41
-30.0
176
     1
 62
     5
 63
     7
421
 16777215
176
     1
 74
     1
176
     1
 91
        0
176
     1
 64
     7
176
     1
 65
   257
176
     1
 75
     1
176
     1
175
     1
176
     1
 42
1.0
176
     1
 92
        8
176
     1
 66
     8
424
  7895160
176
     1
 43
1.0
176
     1
 76
     1
176
     1
 77
     6
176
     1
 78
     2
176
     1
 67
     7
176
     1
 79
     5
176
     1
170
     0
176
     1
171
     0
176
     1
290
     0
176
     1
 93
       13
176
     1
 44
0.0
176
     1
173
     0
176
     1
  0
VISUALSTYLE
  5
37
102
{ACAD_REACTORS
330
2A
102
}
330
2A
100
AcDbVisualStyle
  2
Thicken
 70
    13
177
     2
291
     1
 71
     2
176
     1
 72
     2
176
     1
 73
     0
176
     1
 90
        0
176
     1
 40
-0.6
176
     1
 41
-30.0
176
     1
 62
     5
 63
     7
421
 16777215
176
     1
 74
     1
176
     1
 91
        4
176
     1
 64
     7
176
     1
 65
   257
176
     1
 75
     1
176
     1
175
     1
176
     1
 42
1.0
176
     1
 92
       12
176
     1
 66
     7
176
     1
 43
1.0
176
     1
 76
     1
176
     1
 77
     6
176
     1
 78
     2
176
     1
 67
     7
176
     1
 79
     5
176
     1
170
     0
176
     1
171
     0
176
     1
290
     0
176
     1
 93
        1
176
     1
 44
0.0
176
     1
173
     0
176
     1
  0
ENDSEC
  0
EOF
