  0
SECTION
  2
HEADER
  9
$ACADVER
  1
AC1024
  9
$ACADMAINTVER
 70
     6
  9
$DWGCODEPAGE
  3
UNDEFINED
  9
$INSBASE
 10
0.0
 20
0.0
 30
0.0
  9
$EXTMIN
 10
1.000000000000000E+20
 20
1.000000000000000E+20
 30
1.000000000000000E+20
  9
$EXTMAX
 10
-1.000000000000000E+20
 20
-1.000000000000000E+20
 30
-1.000000000000000E+20
  9
$LIMMIN
 10
0.0
 20
0.0
  9
$LIMMAX
 10
12.0
 20
9.0
  9
$ORTHOMODE
 70
     0
  9
$REGENMODE
 70
     1
  9
$FILLMODE
 70
     1
  9
$QTEXTMODE
 70
     0
  9
$MIRRTEXT
 70
     1
  9
$LTSCALE
 40
1.0
  9
$ATTMODE
 70
     1
  9
$TEXTSIZE
 40
0.2
  9
$TRACEWID
 40
0.05
  9
$TEXTSTYLE
  7
Standard
  9
$CLAYER
  8
0
  9
$CELTYPE
  6
ByLayer
  9
$CECOLOR
 62
   256
  9
$CELTSCALE
 40
1.0
  9
$DISPSILH
 70
     0
  9
$DIMSCALE
 40
1.0
  9
$DIMASZ
 40
0.18
  9
$DIMEXO
 40
0.0625
  9
$DIMDLI
 40
0.38
  9
$DIMRND
 40
0.0
  9
$DIMDLE
 40
0.0
  9
$DIMEXE
 40
0.18
  9
$DIMTP
 40
0.0
  9
$DIMTM
 40
0.0
  9
$DIMTXT
 40
0.18
  9
$DIMCEN
 40
0.09
  9
$DIMTSZ
 40
0.0
  9
$DIMTOL
 70
     0
  9
$DIMLIM
 70
     0
  9
$DIMTIH
 70
     1
  9
$DIMTOH
 70
     1
  9
$DIMSE1
 70
     0
  9
$DIMSE2
 70
     0
  9
$DIMTAD
 70
     0
  9
$DIMZIN
 70
     0
  9
$DIMBLK
  1

  9
$DIMASO
 70
     1
  9
$DIMSHO
 70
     1
  9
$DIMPOST
  1

  9
$DIMAPOST
  1

  9
$DIMALT
 70
     0
  9
$DIMALTD
 70
     2
  9
$DIMALTF
 40
25.4
  9
$DIMLFAC
 40
1.0
  9
$DIMTOFL
 70
     0
  9
$DIMTVP
 40
0.0
  9
$DIMTIX
 70
     0
  9
$DIMSOXD
 70
     0
  9
$DIMSAH
 70
     0
  9
$DIMBLK1
  1

  9
$DIMBLK2
  1

  9
$DIMSTYLE
  2
Standard
  9
$DIMCLRD
 70
     0
  9
$DIMCLRE
 70
     0
  9
$DIMCLRT
 70
     0
  9
$DIMTFAC
 40
1.0
  9
$DIMGAP
 40
0.09
  9
$DIMJUST
 70
     0
  9
$DIMSD1
 70
     0
  9
$DIMSD2
 70
     0
  9
$DIMTOLJ
 70
     1
  9
$DIMTZIN
 70
     0
  9
$DIMALTZ
 70
     0
  9
$DIMALTTZ
 70
     0
  9
$DIMUPT
 70
     0
  9
$DIMDEC
 70
     4
  9
$DIMTDEC
 70
     4
  9
$DIMALTU
 70
     2
  9
$DIMALTTD
 70
     2
  9
$DIMTXSTY
  7
Standard
  9
$DIMAUNIT
 70
     0
  9
$DIMADEC
 70
     0
  9
$DIMALTRND
 40
0.0
  9
$DIMAZIN
 70
     0
  9
$DIMDSEP
 70
    46
  9
$DIMATFIT
 70
     3
  9
$DIMFRAC
 70
     0
  9
$DIMLDRBLK
  1

  9
$DIMLUNIT
 70
     2
  9
$DIMLWD
 70
    -2
  9
$DIMLWE
 70
    -2
  9
$DIMTMOVE
 70
     0
  9
$DIMFXL
 40
1.0
  9
$DIMFXLON
 70
     0
  9
$DIMJOGANG
 40
0.7853981633974483
  9
$DIMTFILL
 70
     0
  9
$DIMTFILLCLR
 70
     0
  9
$DIMARCSYM
 70
     0
  9
$DIMLTYPE
  6

  9
$DIMLTEX1
  6

  9
$DIMLTEX2
  6

  9
$DIMTXTDIRECTION
 70
     0
  9
$LUNITS
 70
     2
  9
$LUPREC
 70
     4
  9
$SKETCHINC
 40
0.1
  9
$FILLETRAD
 40
0.5
  9
$AUNITS
 70
     0
  9
$AUPREC
 70
     0
  9
$MENU
  1
.
  9
$ELEVATION
 40
0.0
  9
$PELEVATION
 40
0.0
  9
$THICKNESS
 40
0.0
  9
$LIMCHECK
 70
     0
  9
$CHAMFERA
 40
0.5
  9
$CHAMFERB
 40
0.5
  9
$CHAMFERC
 40
1.0
  9
$CHAMFERD
 40
0.0
  9
$SKPOLY
 70
     0
  9
$TDCREATE
 40
2457917.623391192
  9
$TDUCREATE
 40
2457917.248391204
  9
$TDUPDATE
 40
2457917.623391192
  9
$TDUUPDATE
 40
2457917.248391204
  9
$TDINDWG
 40
0.0000000116
  9
$TDUSRTIMER
 40
0.0000000116
  9
$USRTIMER
 70
     1
  9
$ANGBASE
 50
0.0
  9
$ANGDIR
 70
     0
  9
$PDMODE
 70
     0
  9
$PDSIZE
 40
0.0
  9
$PLINEWID
 40
0.0
  9
$SPLFRAME
 70
     0
  9
$SPLINETYPE
 70
     6
  9
$SPLINESEGS
 70
     8
  9
$HANDSEED
  5
108
  9
$SURFTAB1
 70
     6
  9
$SURFTAB2
 70
     6
  9
$SURFTYPE
 70
     6
  9
$SURFU
 70
     6
  9
$SURFV
 70
     6
  9
$UCSBASE
  2

  9
$UCSNAME
  2

  9
$UCSORG
 10
0.0
 20
0.0
 30
0.0
  9
$UCSXDIR
 10
1.0
 20
0.0
 30
0.0
  9
$UCSYDIR
 10
0.0
 20
1.0
 30
0.0
  9
$UCSORTHOREF
  2

  9
$UCSORTHOVIEW
 70
     0
  9
$UCSORGTOP
 10
0.0
 20
0.0
 30
0.0
  9
$UCSORGBOTTOM
 10
0.0
 20
0.0
 30
0.0
  9
$UCSORGLEFT
 10
0.0
 20
0.0
 30
0.0
  9
$UCSORGRIGHT
 10
0.0
 20
0.0
 30
0.0
  9
$UCSORGFRONT
 10
0.0
 20
0.0
 30
0.0
  9
$UCSORGBACK
 10
0.0
 20
0.0
 30
0.0
  9
$PUCSBASE
  2

  9
$PUCSNAME
  2

  9
$PUCSORG
 10
0.0
 20
0.0
 30
0.0
  9
$PUCSXDIR
 10
1.0
 20
0.0
 30
0.0
  9
$PUCSYDIR
 10
0.0
 20
1.0
 30
0.0
  9
$PUCSORTHOREF
  2

  9
$PUCSORTHOVIEW
 70
     0
  9
$PUCSORGTOP
 10
0.0
 20
0.0
 30
0.0
  9
$PUCSORGBOTTOM
 10
0.0
 20
0.0
 30
0.0
  9
$PUCSORGLEFT
 10
0.0
 20
0.0
 30
0.0
  9
$PUCSORGRIGHT
 10
0.0
 20
0.0
 30
0.0
  9
$PUCSORGFRONT
 10
0.0
 20
0.0
 30
0.0
  9
$PUCSORGBACK
 10
0.0
 20
0.0
 30
0.0
  9
$USERI1
 70
     0
  9
$USERI2
 70
     0
  9
$USERI3
 70
     0
  9
$USERI4
 70
     0
  9
$USERI5
 70
     0
  9
$USERR1
 40
0.0
  9
$USERR2
 40
0.0
  9
$USERR3
 40
0.0
  9
$USERR4
 40
0.0
  9
$USERR5
 40
0.0
  9
$WORLDVIEW
 70
     1
  9
$SHADEDGE
 70
     3
  9
$SHADEDIF
 70
    70
  9
$TILEMODE
 70
     1
  9
$MAXACTVP
 70
    64
  9
$PINSBASE
 10
0.0
 20
0.0
 30
0.0
  9
$PLIMCHECK
 70
     0
  9
$PEXTMIN
 10
1.000000000000000E+20
 20
1.000000000000000E+20
 30
1.000000000000000E+20
  9
$PEXTMAX
 10
-1.000000000000000E+20
 20
-1.000000000000000E+20
 30
-1.000000000000000E+20
  9
$PLIMMIN
 10
0.0
 20
0.0
  9
$PLIMMAX
 10
12.0
 20
9.0
  9
$UNITMODE
 70
     0
  9
$VISRETAIN
 70
     1
  9
$PLINEGEN
 70
     0
  9
$PSLTSCALE
 70
     1
  9
$TREEDEPTH
 70
  3020
  9
$CMLSTYLE
  2
Standard
  9
$CMLJUST
 70
     0
  9
$CMLSCALE
 40
1.0
  9
$PROXYGRAPHICS
 70
     1
  9
$MEASUREMENT
 70
     0
  9
$CELWEIGHT
370
    -1
  9
$ENDCAPS
280
     0
  9
$JOINSTYLE
280
     0
  9
$LWDISPLAY
290
     1
  9
$INSUNITS
 70
     1
  9
$HYPERLINKBASE
  1

  9
$STYLESHEET
  1

  9
$XEDIT
290
     1
  9
$CEPSNTYPE
380
     0
  9
$PSTYLEMODE
290
     1
  9
$FINGERPRINTGUID
  2
{36EE4D26-BB56-B349-6F14-41E9F8FAFE13}
  9
$VERSIONGUID
  2
{FAEB1C32-E019-11D5-929B-00C0DF256EC4}
  9
$EXTNAMES
290
     1
  9
$PSVPSCALE
 40
0.0
  9
$OLESTARTUP
290
     0
  9
$SORTENTS
280
   127
  9
$INDEXCTL
280
     0
  9
$HIDETEXT
280
     1
  9
$XCLIPFRAME
280
     2
  9
$HALOGAP
280
     0
  9
$OBSCOLOR
 70
   257
  9
$OBSLTYPE
280
     0
  9
$INTERSECTIONDISPLAY
280
     0
  9
$INTERSECTIONCOLOR
 70
   257
  9
$DIMASSOC
280
     2
  9
$PROJECTNAME
  1

  9
$CAMERADISPLAY
290
     0
  9
$LENSLENGTH
 40
50.0
  9
$CAMERAHEIGHT
 40
0.0
  9
$STEPSPERSEC
 40
2.0
  9
$STEPSIZE
 40
6.0
  9
$3DDWFPREC
 40
2.0
  9
$PSOLWIDTH
 40
0.25
  9
$PSOLHEIGHT
 40
4.0
  9
$LOFTANG1
 40
1.570796326794897
  9
$LOFTANG2
 40
1.570796326794897
  9
$LOFTMAG1
 40
0.0
  9
$LOFTMAG2
 40
0.0
  9
$LOFTPARAM
 70
     7
  9
$LOFTNORMALS
280
     1
  9
$LATITUDE
 40
37.795
  9
$LONGITUDE
 40
-122.394
  9
$NORTHDIRECTION
 40
0.0
  9
$TIMEZONE
 70
 -8000
  9
$LIGHTGLYPHDISPLAY
280
     1
  9
$TILEMODELIGHTSYNCH
280
     1
  9
$CMATERIAL
347
3C
  9
$SOLIDHIST
280
     1
  9
$SHOWHIST
280
     1
  9
$DWFFRAME
280
     2
  9
$DGNFRAME
280
     2
  9
$REALWORLDSCALE
290
     1
  9
$INTERFERECOLOR
 62
   256
  9
$CSHADOW
280
     0
  9
$SHADOWPLANELOCATION
 40
0.0
  0
ENDSEC
  0
SECTION
  2
CLASSES
  0
CLASS
  1
ACDBDICTIONARYWDFLT
  2
AcDbDictionaryWithDefault
  3
ObjectDBX Classes
 90
        0
 91
        4
280
     0
281
     0
  0
CLASS
  1
VISUALSTYLE
  2
AcDbVisualStyle
  3
ObjectDBX Classes
 90
     4095
 91
        4
280
     0
281
     0
  0
CLASS
  1
MATERIAL
  2
AcDbMaterial
  3
ObjectDBX Classes
 90
     1153
 91
        4
280
     0
281
     0
  0
CLASS
  1
SUN
  2
AcDbSun
  3
SCENEOE
 90
     1024
 91
        4
280
     0
281
     0
  0
ENDSEC
  0
SECTION
  2
TABLES
  0
TABLE
  2
VPORT
  5
8
330
0
100
AcDbSymbolTable
 70
     1
  0
VPORT
  5
29
330
8
100
AcDbSymbolTableRecord
100
AcDbViewportTableRecord
  2
*Active
 70
     0
 10
0.0
 20
0.0
 11
1.0
 21
1.0
 12
0.0
 22
0.0
 13
0.0
 23
0.0
 14
0.5
 24
0.5
 15
0.5
 25
0.5
 16
0.0
 26
0.0
 36
1.0
 17
91.00082462281999
 27
-128.4993055234307
 37
0.0
 40
256.9986110468615
 41
0.7081814508812795
 42
50.0
 43
0.0
 44
0.0
 50
0.0
 51
0.0
 71
     0
 72
   100
 73
     1
 74
     3
 75
     0
 76
     0
 77
     0
 78
     0
281
     0
 65
     1
110
0.0
120
0.0
130
0.0
111
1.0
121
0.0
131
0.0
112
0.0
122
1.0
132
0.0
 79
     0
146
0.0
 60
     3
 61
     5
292
     1
282
     1
141
0.0
142
0.0
 63
   250
361
3F
  0
ENDTAB
  0
TABLE
  2
LTYPE
  5
5
330
0
100
AcDbSymbolTable
 70
     1
  0
LTYPE
  5
14
330
5
100
AcDbSymbolTableRecord
100
AcDbLinetypeTableRecord
  2
ByBlock
 70
     0
  3

 72
    65
 73
     0
 40
0.0
  0
LTYPE
  5
15
330
5
100
AcDbSymbolTableRecord
100
AcDbLinetypeTableRecord
  2
ByLayer
 70
     0
  3

 72
    65
 73
     0
 40
0.0
  0
LTYPE
  5
16
330
5
100
AcDbSymbolTableRecord
100
AcDbLinetypeTableRecord
  2
Continuous
 70
     0
  3
Solid line
 72
    65
 73
     0
 40
0.0
  0
ENDTAB
  0
TABLE
  2
LAYER
  5
2
330
0
100
AcDbSymbolTable
 70
     2
  0
LAYER
  5
10
330
2
100
AcDbSymbolTableRecord
100
AcDbLayerTableRecord
  2
0
 70
     0
 62
     7
  6
Continuous
370
    -3
390
F
347
3E
  0
LAYER
  5
40
330
2
100
AcDbSymbolTableRecord
100
AcDbLayerTableRecord
  2
_U+30EC_U+30A4_U+30E4_U+30FC 1
 70
     0
 62
     7
  6
Continuous
370
    -3
390
F
347
3E
  0
ENDTAB
  0
TABLE
  2
STYLE
  5
3
330
0
100
AcDbSymbolTable
 70
     1
  0
STYLE
  5
11
330
3
100
AcDbSymbolTableRecord
100
AcDbTextStyleTableRecord
  2
Standard
 70
     0
 40
0.0
 41
1.0
 50
0.0
 71
     0
 42
0.2
  3
txt
  4

  0
ENDTAB
  0
TABLE
  2
VIEW
  5
6
330
0
100
AcDbSymbolTable
 70
     0
  0
ENDTAB
  0
TABLE
  2
UCS
  5
7
330
0
100
AcDbSymbolTable
 70
     0
  0
ENDTAB
  0
TABLE
  2
APPID
  5
9
330
0
100
AcDbSymbolTable
 70
     1
  0
APPID
  5
12
330
9
100
AcDbSymbolTableRecord
100
AcDbRegAppTableRecord
  2
ACAD
 70
     0
  0
ENDTAB
  0
TABLE
  2
DIMSTYLE
  5
A
330
0
100
AcDbSymbolTable
 70
     1
100
AcDbDimStyleTable
  0
DIMSTYLE
105
27
330
A
100
AcDbSymbolTableRecord
100
AcDbDimStyleTableRecord
  2
Standard
 70
     0
178
     0
340
11
  0
ENDTAB
  0
TABLE
  2
BLOCK_RECORD
  5
1
330
0
100
AcDbSymbolTable
 70
     7
  0
BLOCK_RECORD
  5
1F
330
1
100
AcDbSymbolTableRecord
100
AcDbBlockTableRecord
  2
*Model_Space
340
22
 70
     0
280
     1
281
     0
  0
BLOCK_RECORD
  5
1B
330
1
100
AcDbSymbolTableRecord
100
AcDbBlockTableRecord
  2
*Paper_Space
340
1E
 70
     0
280
     1
281
     0
  0
BLOCK_RECORD
  5
23
330
1
100
AcDbSymbolTableRecord
100
AcDbBlockTableRecord
  2
*Paper_Space0
340
26
 70
     0
280
     1
281
     0
  0
BLOCK_RECORD
  5
A4
330
1
100
AcDbSymbolTableRecord
100
AcDbBlockTableRecord
  2
block 2
340
0
102
{BLKREFS
331
A5
102
}
 70
     0
280
     1
281
     0
  0
BLOCK_RECORD
  5
B4
330
1
100
AcDbSymbolTableRecord
100
AcDbBlockTableRecord
  2
block 3
340
0
102
{BLKREFS
331
B5
102
}
 70
     0
280
     1
281
     0
  0
BLOCK_RECORD
  5
C4
330
1
100
AcDbSymbolTableRecord
100
AcDbBlockTableRecord
  2
block 4
340
0
102
{BLKREFS
331
C5
102
}
 70
     0
280
     1
281
     0
  0
BLOCK_RECORD
  5
DC
330
1
100
AcDbSymbolTableRecord
100
AcDbBlockTableRecord
  2
block 5
340
0
102
{BLKREFS
331
DD
102
}
 70
     0
280
     1
281
     0
  0
BLOCK_RECORD
  5
F4
330
1
100
AcDbSymbolTableRecord
100
AcDbBlockTableRecord
  2
block 6
340
0
102
{BLKREFS
331
F5
102
}
 70
     0
280
     1
281
     0
  0
BLOCK_RECORD
  5
100
330
1
100
AcDbSymbolTableRecord
100
AcDbBlockTableRecord
  2
block 7
340
0
102
{BLKREFS
331
101
102
}
 70
     0
280
     1
281
     0
  0
ENDTAB
  0
ENDSEC
  0
SECTION
  2
BLOCKS
  0
BLOCK
  5
20
330
1F
100
AcDbEntity
  8
0
100
AcDbBlockBegin
  2
*Model_Space
 70
     0
 10
0.0
 20
0.0
 30
0.0
  3
*Model_Space
  1

  0
ENDBLK
  5
21
330
1F
100
AcDbEntity
  8
0
100
AcDbBlockEnd
  0
BLOCK
  5
1C
330
1B
100
AcDbEntity
 67
     1
  8
0
100
AcDbBlockBegin
  2
*Paper_Space
 70
     0
 10
0.0
 20
0.0
 30
0.0
  3
*Paper_Space
  1

  0
ENDBLK
  5
1D
330
1B
100
AcDbEntity
 67
     1
  8
0
100
AcDbBlockEnd
  0
BLOCK
  5
24
330
23
100
AcDbEntity
  8
0
100
AcDbBlockBegin
  2
*Paper_Space0
 70
     0
 10
0.0
 20
0.0
 30
0.0
  3
*Paper_Space0
  1

  0
ENDBLK
  5
25
330
23
100
AcDbEntity
  8
0
100
AcDbBlockEnd
  0
BLOCK
  5
A6
330
A4
100
AcDbEntity
  8
0
100
AcDbBlockBegin
  2
block 2
 70
     0
 10
0.0
 20
0.0
 30
0.0
  3
block 2
  1

  0
SPLINE
  5
A8
330
A4
100
AcDbEntity
  8
_U+30EC_U+30A4_U+30E4_U+30FC 1
370
     0
100
AcDbSpline
210
0.0
220
0.0
230
1.0
 70
    11
 71
     3
 72
    29
 73
    25
 74
     0
 42
0.0000000001
 43
0.0000000001
 12
1.0
 22
0.0
 32
0.0
 13
1.0
 23
0.0
 33
0.0
 40
0.0
 40
0.0
 40
0.0
 40
0.0
 40
1.0
 40
1.0
 40
1.0
 40
2.0
 40
2.0
 40
2.0
 40
3.0
 40
3.0
 40
3.0
 40
4.0
 40
4.0
 40
4.0
 40
5.0
 40
5.0
 40
5.0
 40
6.0
 40
6.0
 40
6.0
 40
7.0
 40
7.0
 40
7.0
 40
8.0
 40
8.0
 40
8.0
 40
8.0
 10
80.01027558763633
 20
-124.6265014336871
 30
0.0
 10
79.72536619100616
 20
-124.6265014336871
 30
0.0
 10
79.45406492154274
 20
-124.4888698690514
 30
0.0
 10
79.45406492154274
 20
-124.1398816963956
 30
0.0
 10
79.45406492154274
 20
-123.8839111018415
 30
0.0
 10
79.60547686811947
 20
-123.7886542116744
 30
0.0
 10
79.71864825480992
 20
-123.7273315120369
 30
0.0
 10
79.5851508047565
 20
-123.6680758696906
 30
0.0
 10
79.50384655130459
 20
-123.5538709543546
 30
0.0
 10
79.50384655130459
 20
-123.3931572499677
 30
0.0
 10
79.50384655130459
 20
-123.1180663754705
 30
0.0
 10
79.71640894274451
 20
-122.9826741229002
 30
0.0
 10
80.01027558763633
 20
-122.9826741229002
 30
0.0
 10
80.31309948078979
 20
-122.9826741229002
 30
0.0
 10
80.51670462396805
 20
-123.1265068594093
 30
0.0
 10
80.51670462396805
 20
-123.3931572499677
 30
0.0
 10
80.51670462396805
 20
-123.5538709543546
 30
0.0
 10
80.43298880367648
 20
-123.6680758696906
 30
0.0
 10
80.29966360839731
 20
-123.7273315120369
 30
0.0
 10
80.39457598901595
 20
-123.7781466704444
 30
0.0
 10
80.56407468689024
 20
-123.8734035606115
 30
0.0
 10
80.56407468689024
 20
-124.1357475818133
 30
0.0
 10
80.56407468689024
 20
-124.5100572062857
 30
0.0
 10
80.2657294178676
 20
-124.6265014336871
 30
0.0
 10
80.01027558763633
 20
-124.6265014336871
 30
0.0
  0
SPLINE
  5
A9
330
A4
100
AcDbEntity
  8
_U+30EC_U+30A4_U+30E4_U+30FC 1
370
     0
100
AcDbSpline
210
0.0
220
0.0
230
1.0
 70
    11
 71
     3
 72
    17
 73
    13
 74
     0
 42
0.0000000001
 43
0.0000000001
 12
1.0
 22
0.0
 32
0.0
 13
1.0
 23
0.0
 33
0.0
 40
0.0
 40
0.0
 40
0.0
 40
0.0
 40
1.0
 40
1.0
 40
1.0
 40
2.0
 40
2.0
 40
2.0
 40
3.0
 40
3.0
 40
3.0
 40
4.0
 40
4.0
 40
4.0
 40
4.0
 10
80.01027558763633
 20
-123.8353352554995
 30
0.0
 10
79.85645207421992
 20
-123.8353352554995
 30
0.0
 10
79.69367131254187
 20
-123.9219794069535
 30
0.0
 10
79.69367131254187
 20
-124.125067785809
 30
0.0
 10
79.69367131254187
 20
-124.3302232219556
 30
0.0
 10
79.8294080746607
 20
-124.4318535387705
 30
0.0
 10
80.01027558763633
 20
-124.4318535387705
 30
0.0
 10
80.2092298519095
 20
-124.4318535387705
 30
0.0
 10
80.32670760795652
 20
-124.3092081394956
 30
0.0
 10
80.32670760795652
 20
-124.1314412124567
 30
0.0
 10
80.32670760795652
 20
-123.9092325536581
 30
0.0
 10
80.1527302859514
 20
-123.8353352554995
 30
0.0
 10
80.01027558763633
 20
-123.8353352554995
 30
0.0
  0
SPLINE
  5
AA
330
A4
100
AcDbEntity
  8
_U+30EC_U+30A4_U+30E4_U+30FC 1
370
     0
100
AcDbSpline
210
0.0
220
0.0
230
1.0
 70
    11
 71
     3
 72
    17
 73
    13
 74
     0
 42
0.0000000001
 43
0.0000000001
 12
1.0
 22
0.0
 32
0.0
 13
1.0
 23
0.0
 33
0.0
 40
0.0
 40
0.0
 40
0.0
 40
0.0
 40
1.0
 40
1.0
 40
1.0
 40
2.0
 40
2.0
 40
2.0
 40
3.0
 40
3.0
 40
3.0
 40
4.0
 40
4.0
 40
4.0
 40
4.0
 10
80.01027558763633
 20
-123.1752549605256
 30
0.0
 10
79.83388669879153
 20
-123.1752549605256
 30
0.0
 10
79.74345294230372
 20
-123.2703395959185
 30
0.0
 10
79.74345294230372
 20
-123.4057318484889
 30
0.0
 10
79.74345294230372
 20
-123.528549502538
 30
0.0
 10
79.8202785716248
 20
-123.6470607872306
 30
0.0
 10
80.01027558763633
 20
-123.6470607872306
 30
0.0
 10
80.20010034887359
 20
-123.6470607872306
 30
0.0
 10
80.27692597819465
 20
-123.528549502538
 30
0.0
 10
80.27692597819465
 20
-123.4057318484889
 30
0.0
 10
80.27692597819465
 20
-123.2703395959185
 30
0.0
 10
80.18425290964144
 20
-123.1752549605256
 30
0.0
 10
80.01027558763633
 20
-123.1752549605256
 30
0.0
  0
HATCH
  5
AB
330
A4
100
AcDbEntity
  8
_U+30EC_U+30A4_U+30E4_U+30FC 1
 62
   179
420
  2234388
100
AcDbHatch
 10
0.0
 20
0.0
 30
0.0
210
0.0
220
0.0
230
1.0
  2
SOLID
 70
     1
 71
     0
 91
        3
 92
        1
 93
        1
 72
     4
 94
        3
 73
     0
 74
     1
 95
       29
 96
       25
 40
0.0
 40
0.0
 40
0.0
 40
0.0
 40
1.0
 40
1.0
 40
1.0
 40
2.0
 40
2.0
 40
2.0
 40
3.0
 40
3.0
 40
3.0
 40
4.0
 40
4.0
 40
4.0
 40
5.0
 40
5.0
 40
5.0
 40
6.0
 40
6.0
 40
6.0
 40
7.0
 40
7.0
 40
7.0
 40
8.0
 40
8.0
 40
8.0
 40
8.0
 10
80.01027558763633
 20
-124.6265014336871
 10
79.72536619100616
 20
-124.6265014336871
 10
79.45406492154274
 20
-124.4888698690514
 10
79.45406492154274
 20
-124.1398816963956
 10
79.45406492154274
 20
-123.8839111018415
 10
79.60547686811947
 20
-123.7886542116744
 10
79.71864825480992
 20
-123.7273315120369
 10
79.5851508047565
 20
-123.6680758696906
 10
79.50384655130459
 20
-123.5538709543546
 10
79.50384655130459
 20
-123.3931572499677
 10
79.50384655130459
 20
-123.1180663754705
 10
79.71640894274451
 20
-122.9826741229002
 10
80.01027558763633
 20
-122.9826741229002
 10
80.31309948078979
 20
-122.9826741229002
 10
80.51670462396805
 20
-123.1265068594093
 10
80.51670462396805
 20
-123.3931572499677
 10
80.51670462396805
 20
-123.5538709543546
 10
80.43298880367648
 20
-123.6680758696906
 10
80.29966360839731
 20
-123.7273315120369
 10
80.39457598901595
 20
-123.7781466704444
 10
80.56407468689024
 20
-123.8734035606115
 10
80.56407468689024
 20
-124.1357475818133
 10
80.56407468689024
 20
-124.5100572062857
 10
80.2657294178676
 20
-124.6265014336871
 10
80.01027558763633
 20
-124.6265014336871
 97
        0
 97
        0
 92
        1
 93
        1
 72
     4
 94
        3
 73
     0
 74
     1
 95
       17
 96
       13
 40
0.0
 40
0.0
 40
0.0
 40
0.0
 40
1.0
 40
1.0
 40
1.0
 40
2.0
 40
2.0
 40
2.0
 40
3.0
 40
3.0
 40
3.0
 40
4.0
 40
4.0
 40
4.0
 40
4.0
 10
80.01027558763633
 20
-123.8353352554995
 10
79.85645207421992
 20
-123.8353352554995
 10
79.69367131254187
 20
-123.9219794069535
 10
79.69367131254187
 20
-124.125067785809
 10
79.69367131254187
 20
-124.3302232219556
 10
79.8294080746607
 20
-124.4318535387705
 10
80.01027558763633
 20
-124.4318535387705
 10
80.2092298519095
 20
-124.4318535387705
 10
80.32670760795652
 20
-124.3092081394956
 10
80.32670760795652
 20
-124.1314412124567
 10
80.32670760795652
 20
-123.9092325536581
 10
80.1527302859514
 20
-123.8353352554995
 10
80.01027558763633
 20
-123.8353352554995
 97
        0
 97
        0
 92
        1
 93
        1
 72
     4
 94
        3
 73
     0
 74
     1
 95
       17
 96
       13
 40
0.0
 40
0.0
 40
0.0
 40
0.0
 40
1.0
 40
1.0
 40
1.0
 40
2.0
 40
2.0
 40
2.0
 40
3.0
 40
3.0
 40
3.0
 40
4.0
 40
4.0
 40
4.0
 40
4.0
 10
80.01027558763633
 20
-123.1752549605256
 10
79.83388669879153
 20
-123.1752549605256
 10
79.74345294230372
 20
-123.2703395959185
 10
79.74345294230372
 20
-123.4057318484889
 10
79.74345294230372
 20
-123.528549502538
 10
79.8202785716248
 20
-123.6470607872306
 10
80.01027558763633
 20
-123.6470607872306
 10
80.20010034887359
 20
-123.6470607872306
 10
80.27692597819465
 20
-123.528549502538
 10
80.27692597819465
 20
-123.4057318484889
 10
80.27692597819465
 20
-123.2703395959185
 10
80.18425290964144
 20
-123.1752549605256
 10
80.01027558763633
 20
-123.1752549605256
 97
        0
 97
        0
 75
     2
 76
     1
 98
        0
  0
ENDBLK
  5
A7
330
A4
100
AcDbEntity
  8
0
100
AcDbBlockEnd
  0
BLOCK
  5
B6
330
B4
100
AcDbEntity
  8
0
100
AcDbBlockBegin
  2
block 3
 70
     0
 10
0.0
 20
0.0
 30
0.0
  3
block 3
  1

  0
SPLINE
  5
B8
330
B4
100
AcDbEntity
  8
_U+30EC_U+30A4_U+30E4_U+30FC 1
370
     0
100
AcDbSpline
210
0.0
220
0.0
230
1.0
 70
    11
 71
     3
 72
    29
 73
    25
 74
     0
 42
0.0000000001
 43
0.0000000001
 12
1.0
 22
0.0
 32
0.0
 13
1.0
 23
0.0
 33
0.0
 40
0.0
 40
0.0
 40
0.0
 40
0.0
 40
1.0
 40
1.0
 40
1.0
 40
2.0
 40
2.0
 40
2.0
 40
3.0
 40
3.0
 40
3.0
 40
4.0
 40
4.0
 40
4.0
 40
5.0
 40
5.0
 40
5.0
 40
6.0
 40
6.0
 40
6.0
 40
7.0
 40
7.0
 40
7.0
 40
8.0
 40
8.0
 40
8.0
 40
8.0
 10
88.01013181393498
 20
-124.6265014336871
 30
0.0
 10
87.7252224173048
 20
-124.6265014336871
 30
0.0
 10
87.45409340261564
 20
-124.4888698690514
 30
0.0
 10
87.45409340261564
 20
-124.1398816963956
 30
0.0
 10
87.45409340261564
 20
-123.8839111018415
 30
0.0
 10
87.60567760396664
 20
-123.7886542116744
 30
0.0
 10
87.71867673588284
 20
-123.7273315120369
 30
0.0
 10
87.58535154060367
 20
-123.6680758696906
 30
0.0
 10
87.50370277760325
 20
-123.5538709543546
 30
0.0
 10
87.50370277760325
 20
-123.3931572499677
 30
0.0
 10
87.50370277760325
 20
-123.1180663754705
 30
0.0
 10
87.71626516904315
 20
-122.9826741229002
 30
0.0
 10
88.01013181393498
 20
-122.9826741229002
 30
0.0
 10
88.31330021663696
 20
-122.9826741229002
 30
0.0
 10
88.5165608502667
 20
-123.1265068594093
 30
0.0
 10
88.5165608502667
 20
-123.3931572499677
 30
0.0
 10
88.5165608502667
 20
-123.5538709543546
 30
0.0
 10
88.43318953952365
 20
-123.6680758696906
 30
0.0
 10
88.29951983469596
 20
-123.7273315120369
 30
0.0
 10
88.39460447008885
 20
-123.7781466704444
 30
0.0
 10
88.56410316796314
 20
-123.8734035606115
 30
0.0
 10
88.56410316796314
 20
-124.1357475818133
 30
0.0
 10
88.56410316796314
 20
-124.5100572062857
 30
0.0
 10
88.2657578989405
 20
-124.6265014336871
 30
0.0
 10
88.01013181393498
 20
-124.6265014336871
 30
0.0
  0
SPLINE
  5
B9
330
B4
100
AcDbEntity
  8
_U+30EC_U+30A4_U+30E4_U+30FC 1
370
     0
100
AcDbSpline
210
0.0
220
0.0
230
1.0
 70
    11
 71
     3
 72
    17
 73
    13
 74
     0
 42
0.0000000001
 43
0.0000000001
 12
1.0
 22
0.0
 32
0.0
 13
1.0
 23
0.0
 33
0.0
 40
0.0
 40
0.0
 40
0.0
 40
0.0
 40
1.0
 40
1.0
 40
1.0
 40
2.0
 40
2.0
 40
2.0
 40
3.0
 40
3.0
 40
3.0
 40
4.0
 40
4.0
 40
4.0
 40
4.0
 10
88.01013181393498
 20
-123.8353352554995
 30
0.0
 10
87.85648055529283
 20
-123.8353352554995
 30
0.0
 10
87.69387204838904
 20
-123.9219794069535
 30
0.0
 10
87.69387204838904
 20
-124.125067785809
 30
0.0
 10
87.69387204838904
 20
-124.3302232219556
 30
0.0
 10
87.82926430095935
 20
-124.4318535387705
 30
0.0
 10
88.01013181393498
 20
-124.4318535387705
 30
0.0
 10
88.20925833298242
 20
-124.4318535387705
 30
0.0
 10
88.32673608902942
 20
-124.3092081394956
 30
0.0
 10
88.32673608902942
 20
-124.1314412124567
 30
0.0
 10
88.32673608902942
 20
-123.9092325536581
 30
0.0
 10
88.15275876702431
 20
-123.8353352554995
 30
0.0
 10
88.01013181393498
 20
-123.8353352554995
 30
0.0
  0
SPLINE
  5
BA
330
B4
100
AcDbEntity
  8
_U+30EC_U+30A4_U+30E4_U+30FC 1
370
     0
100
AcDbSpline
210
0.0
220
0.0
230
1.0
 70
    11
 71
     3
 72
    17
 73
    13
 74
     0
 42
0.0000000001
 43
0.0000000001
 12
1.0
 22
0.0
 32
0.0
 13
1.0
 23
0.0
 33
0.0
 40
0.0
 40
0.0
 40
0.0
 40
0.0
 40
1.0
 40
1.0
 40
1.0
 40
2.0
 40
2.0
 40
2.0
 40
3.0
 40
3.0
 40
3.0
 40
4.0
 40
4.0
 40
4.0
 40
4.0
 10
88.01013181393498
 20
-123.1752549605256
 30
0.0
 10
87.8340874346387
 20
-123.1752549605256
 30
0.0
 10
87.74348142337664
 20
-123.2703395959185
 30
0.0
 10
87.74348142337664
 20
-123.4057318484889
 30
0.0
 10
87.74348142337664
 20
-123.528549502538
 30
0.0
 10
87.8203070526977
 20
-123.6470607872306
 30
0.0
 10
88.01013181393498
 20
-123.6470607872306
 30
0.0
 10
88.20030108472076
 20
-123.6470607872306
 30
0.0
 10
88.27712671404183
 20
-123.528549502538
 30
0.0
 10
88.27712671404183
 20
-123.4057318484889
 30
0.0
 10
88.27712671404183
 20
-123.2703395959185
 30
0.0
 10
88.18445364548862
 20
-123.1752549605256
 30
0.0
 10
88.01013181393498
 20
-123.1752549605256
 30
0.0
  0
HATCH
  5
BB
330
B4
100
AcDbEntity
  8
_U+30EC_U+30A4_U+30E4_U+30FC 1
 62
   179
420
  2234388
100
AcDbHatch
 10
0.0
 20
0.0
 30
0.0
210
0.0
220
0.0
230
1.0
  2
SOLID
 70
     1
 71
     0
 91
        3
 92
        1
 93
        1
 72
     4
 94
        3
 73
     0
 74
     1
 95
       29
 96
       25
 40
0.0
 40
0.0
 40
0.0
 40
0.0
 40
1.0
 40
1.0
 40
1.0
 40
2.0
 40
2.0
 40
2.0
 40
3.0
 40
3.0
 40
3.0
 40
4.0
 40
4.0
 40
4.0
 40
5.0
 40
5.0
 40
5.0
 40
6.0
 40
6.0
 40
6.0
 40
7.0
 40
7.0
 40
7.0
 40
8.0
 40
8.0
 40
8.0
 40
8.0
 10
88.01013181393498
 20
-124.6265014336871
 10
87.7252224173048
 20
-124.6265014336871
 10
87.45409340261564
 20
-124.4888698690514
 10
87.45409340261564
 20
-124.1398816963956
 10
87.45409340261564
 20
-123.8839111018415
 10
87.60567760396664
 20
-123.7886542116744
 10
87.71867673588284
 20
-123.7273315120369
 10
87.58535154060367
 20
-123.6680758696906
 10
87.50370277760325
 20
-123.5538709543546
 10
87.50370277760325
 20
-123.3931572499677
 10
87.50370277760325
 20
-123.1180663754705
 10
87.71626516904315
 20
-122.9826741229002
 10
88.01013181393498
 20
-122.9826741229002
 10
88.31330021663696
 20
-122.9826741229002
 10
88.5165608502667
 20
-123.1265068594093
 10
88.5165608502667
 20
-123.3931572499677
 10
88.5165608502667
 20
-123.5538709543546
 10
88.43318953952365
 20
-123.6680758696906
 10
88.29951983469596
 20
-123.7273315120369
 10
88.39460447008885
 20
-123.7781466704444
 10
88.56410316796314
 20
-123.8734035606115
 10
88.56410316796314
 20
-124.1357475818133
 10
88.56410316796314
 20
-124.5100572062857
 10
88.2657578989405
 20
-124.6265014336871
 10
88.01013181393498
 20
-124.6265014336871
 97
        0
 97
        0
 92
        1
 93
        1
 72
     4
 94
        3
 73
     0
 74
     1
 95
       17
 96
       13
 40
0.0
 40
0.0
 40
0.0
 40
0.0
 40
1.0
 40
1.0
 40
1.0
 40
2.0
 40
2.0
 40
2.0
 40
3.0
 40
3.0
 40
3.0
 40
4.0
 40
4.0
 40
4.0
 40
4.0
 10
88.01013181393498
 20
-123.8353352554995
 10
87.85648055529283
 20
-123.8353352554995
 10
87.69387204838904
 20
-123.9219794069535
 10
87.69387204838904
 20
-124.125067785809
 10
87.69387204838904
 20
-124.3302232219556
 10
87.82926430095935
 20
-124.4318535387705
 10
88.01013181393498
 20
-124.4318535387705
 10
88.20925833298242
 20
-124.4318535387705
 10
88.32673608902942
 20
-124.3092081394956
 10
88.32673608902942
 20
-124.1314412124567
 10
88.32673608902942
 20
-123.9092325536581
 10
88.15275876702431
 20
-123.8353352554995
 10
88.01013181393498
 20
-123.8353352554995
 97
        0
 97
        0
 92
        1
 93
        1
 72
     4
 94
        3
 73
     0
 74
     1
 95
       17
 96
       13
 40
0.0
 40
0.0
 40
0.0
 40
0.0
 40
1.0
 40
1.0
 40
1.0
 40
2.0
 40
2.0
 40
2.0
 40
3.0
 40
3.0
 40
3.0
 40
4.0
 40
4.0
 40
4.0
 40
4.0
 10
88.01013181393498
 20
-123.1752549605256
 10
87.8340874346387
 20
-123.1752549605256
 10
87.74348142337664
 20
-123.2703395959185
 10
87.74348142337664
 20
-123.4057318484889
 10
87.74348142337664
 20
-123.528549502538
 10
87.8203070526977
 20
-123.6470607872306
 10
88.01013181393498
 20
-123.6470607872306
 10
88.20030108472076
 20
-123.6470607872306
 10
88.27712671404183
 20
-123.528549502538
 10
88.27712671404183
 20
-123.4057318484889
 10
88.27712671404183
 20
-123.2703395959185
 10
88.18445364548862
 20
-123.1752549605256
 10
88.01013181393498
 20
-123.1752549605256
 97
        0
 97
        0
 75
     2
 76
     1
 98
        0
  0
ENDBLK
  5
B7
330
B4
100
AcDbEntity
  8
0
100
AcDbBlockEnd
  0
BLOCK
  5
C6
330
C4
100
AcDbEntity
  8
0
100
AcDbBlockBegin
  2
block 4
 70
     0
 10
0.0
 20
0.0
 30
0.0
  3
block 4
  1

  0
SPLINE
  5
C8
330
C4
100
AcDbEntity
  8
_U+30EC_U+30A4_U+30E4_U+30FC 1
370
     0
100
AcDbSpline
210
0.0
220
0.0
230
1.0
 70
    11
 71
     3
 72
    29
 73
    25
 74
     0
 42
0.0000000001
 43
0.0000000001
 12
1.0
 22
0.0
 32
0.0
 13
1.0
 23
0.0
 33
0.0
 40
0.0
 40
0.0
 40
0.0
 40
0.0
 40
1.0
 40
1.0
 40
1.0
 40
2.0
 40
2.0
 40
2.0
 40
3.0
 40
3.0
 40
3.0
 40
4.0
 40
4.0
 40
4.0
 40
5.0
 40
5.0
 40
5.0
 40
6.0
 40
6.0
 40
6.0
 40
7.0
 40
7.0
 40
7.0
 40
8.0
 40
8.0
 40
8.0
 40
8.0
 10
96.00998804023362
 20
-124.6265014336871
 30
0.0
 10
95.72542315315198
 20
-124.6265014336871
 30
0.0
 10
95.4539496289143
 20
-124.4888698690514
 30
0.0
 10
95.4539496289143
 20
-124.1398816963956
 30
0.0
 10
95.4539496289143
 20
-123.8839111018415
 30
0.0
 10
95.60553383026529
 20
-123.7886542116744
 30
0.0
 10
95.71853296218148
 20
-123.7273315120369
 30
0.0
 10
95.58520776690231
 20
-123.6680758696906
 30
0.0
 10
95.5035590039019
 20
-123.5538709543546
 30
0.0
 10
95.5035590039019
 20
-123.3931572499677
 30
0.0
 10
95.5035590039019
 20
-123.1180663754705
 30
0.0
 10
95.7161213953418
 20
-122.9826741229002
 30
0.0
 10
96.00998804023362
 20
-122.9826741229002
 30
0.0
 10
96.31315644293561
 20
-122.9826741229002
 30
0.0
 10
96.51641707656535
 20
-123.1265068594093
 30
0.0
 10
96.51641707656535
 20
-123.3931572499677
 30
0.0
 10
96.51641707656535
 20
-123.5538709543546
 30
0.0
 10
96.4330457658223
 20
-123.6680758696906
 30
0.0
 10
96.2993760609946
 20
-123.7273315120369
 30
0.0
 10
96.3944606963875
 20
-123.7781466704444
 30
0.0
 10
96.56395939426179
 20
-123.8734035606115
 30
0.0
 10
96.56395939426179
 20
-124.1357475818133
 30
0.0
 10
96.56395939426179
 20
-124.5100572062857
 30
0.0
 10
96.26561412523915
 20
-124.6265014336871
 30
0.0
 10
96.00998804023362
 20
-124.6265014336871
 30
0.0
  0
SPLINE
  5
C9
330
C4
100
AcDbEntity
  8
_U+30EC_U+30A4_U+30E4_U+30FC 1
370
     0
100
AcDbSpline
210
0.0
220
0.0
230
1.0
 70
    11
 71
     3
 72
    17
 73
    13
 74
     0
 42
0.0000000001
 43
0.0000000001
 12
1.0
 22
0.0
 32
0.0
 13
1.0
 23
0.0
 33
0.0
 40
0.0
 40
0.0
 40
0.0
 40
0.0
 40
1.0
 40
1.0
 40
1.0
 40
2.0
 40
2.0
 40
2.0
 40
3.0
 40
3.0
 40
3.0
 40
4.0
 40
4.0
 40
4.0
 40
4.0
 10
96.00998804023362
 20
-123.8353352554995
 30
0.0
 10
95.85633678159148
 20
-123.8353352554995
 30
0.0
 10
95.69372827468769
 20
-123.9219794069535
 30
0.0
 10
95.69372827468769
 20
-124.125067785809
 30
0.0
 10
95.69372827468769
 20
-124.3302232219556
 30
0.0
 10
95.829120527258
 20
-124.4318535387705
 30
0.0
 10
96.00998804023362
 20
-124.4318535387705
 30
0.0
 10
96.20911455928106
 20
-124.4318535387705
 30
0.0
 10
96.32659231532809
 20
-124.3092081394956
 30
0.0
 10
96.32659231532809
 20
-124.1314412124567
 30
0.0
 10
96.32659231532809
 20
-123.9092325536581
 30
0.0
 10
96.15261499332296
 20
-123.8353352554995
 30
0.0
 10
96.00998804023362
 20
-123.8353352554995
 30
0.0
  0
SPLINE
  5
CA
330
C4
100
AcDbEntity
  8
_U+30EC_U+30A4_U+30E4_U+30FC 1
370
     0
100
AcDbSpline
210
0.0
220
0.0
230
1.0
 70
    11
 71
     3
 72
    17
 73
    13
 74
     0
 42
0.0000000001
 43
0.0000000001
 12
1.0
 22
0.0
 32
0.0
 13
1.0
 23
0.0
 33
0.0
 40
0.0
 40
0.0
 40
0.0
 40
0.0
 40
1.0
 40
1.0
 40
1.0
 40
2.0
 40
2.0
 40
2.0
 40
3.0
 40
3.0
 40
3.0
 40
4.0
 40
4.0
 40
4.0
 40
4.0
 10
96.00998804023362
 20
-123.1752549605256
 30
0.0
 10
95.83359915138882
 20
-123.1752549605256
 30
0.0
 10
95.74333764967528
 20
-123.2703395959185
 30
0.0
 10
95.74333764967528
 20
-123.4057318484889
 30
0.0
 10
95.74333764967528
 20
-123.528549502538
 30
0.0
 10
95.82016327899635
 20
-123.6470607872306
 30
0.0
 10
96.00998804023362
 20
-123.6470607872306
 30
0.0
 10
96.20015731101941
 20
-123.6470607872306
 30
0.0
 10
96.27698294034047
 20
-123.528549502538
 30
0.0
 10
96.27698294034047
 20
-123.4057318484889
 30
0.0
 10
96.27698294034047
 20
-123.2703395959185
 30
0.0
 10
96.18430987178726
 20
-123.1752549605256
 30
0.0
 10
96.00998804023362
 20
-123.1752549605256
 30
0.0
  0
HATCH
  5
CB
330
C4
100
AcDbEntity
  8
_U+30EC_U+30A4_U+30E4_U+30FC 1
 62
   179
420
  2234388
100
AcDbHatch
 10
0.0
 20
0.0
 30
0.0
210
0.0
220
0.0
230
1.0
  2
SOLID
 70
     1
 71
     0
 91
        3
 92
        1
 93
        1
 72
     4
 94
        3
 73
     0
 74
     1
 95
       29
 96
       25
 40
0.0
 40
0.0
 40
0.0
 40
0.0
 40
1.0
 40
1.0
 40
1.0
 40
2.0
 40
2.0
 40
2.0
 40
3.0
 40
3.0
 40
3.0
 40
4.0
 40
4.0
 40
4.0
 40
5.0
 40
5.0
 40
5.0
 40
6.0
 40
6.0
 40
6.0
 40
7.0
 40
7.0
 40
7.0
 40
8.0
 40
8.0
 40
8.0
 40
8.0
 10
96.00998804023362
 20
-124.6265014336871
 10
95.72542315315198
 20
-124.6265014336871
 10
95.4539496289143
 20
-124.4888698690514
 10
95.4539496289143
 20
-124.1398816963956
 10
95.4539496289143
 20
-123.8839111018415
 10
95.60553383026529
 20
-123.7886542116744
 10
95.71853296218148
 20
-123.7273315120369
 10
95.58520776690231
 20
-123.6680758696906
 10
95.5035590039019
 20
-123.5538709543546
 10
95.5035590039019
 20
-123.3931572499677
 10
95.5035590039019
 20
-123.1180663754705
 10
95.7161213953418
 20
-122.9826741229002
 10
96.00998804023362
 20
-122.9826741229002
 10
96.31315644293561
 20
-122.9826741229002
 10
96.51641707656535
 20
-123.1265068594093
 10
96.51641707656535
 20
-123.3931572499677
 10
96.51641707656535
 20
-123.5538709543546
 10
96.4330457658223
 20
-123.6680758696906
 10
96.2993760609946
 20
-123.7273315120369
 10
96.3944606963875
 20
-123.7781466704444
 10
96.56395939426179
 20
-123.8734035606115
 10
96.56395939426179
 20
-124.1357475818133
 10
96.56395939426179
 20
-124.5100572062857
 10
96.26561412523915
 20
-124.6265014336871
 10
96.00998804023362
 20
-124.6265014336871
 97
        0
 97
        0
 92
        1
 93
        1
 72
     4
 94
        3
 73
     0
 74
     1
 95
       17
 96
       13
 40
0.0
 40
0.0
 40
0.0
 40
0.0
 40
1.0
 40
1.0
 40
1.0
 40
2.0
 40
2.0
 40
2.0
 40
3.0
 40
3.0
 40
3.0
 40
4.0
 40
4.0
 40
4.0
 40
4.0
 10
96.00998804023362
 20
-123.8353352554995
 10
95.85633678159148
 20
-123.8353352554995
 10
95.69372827468769
 20
-123.9219794069535
 10
95.69372827468769
 20
-124.125067785809
 10
95.69372827468769
 20
-124.3302232219556
 10
95.829120527258
 20
-124.4318535387705
 10
96.00998804023362
 20
-124.4318535387705
 10
96.20911455928106
 20
-124.4318535387705
 10
96.32659231532809
 20
-124.3092081394956
 10
96.32659231532809
 20
-124.1314412124567
 10
96.32659231532809
 20
-123.9092325536581
 10
96.15261499332296
 20
-123.8353352554995
 10
96.00998804023362
 20
-123.8353352554995
 97
        0
 97
        0
 92
        1
 93
        1
 72
     4
 94
        3
 73
     0
 74
     1
 95
       17
 96
       13
 40
0.0
 40
0.0
 40
0.0
 40
0.0
 40
1.0
 40
1.0
 40
1.0
 40
2.0
 40
2.0
 40
2.0
 40
3.0
 40
3.0
 40
3.0
 40
4.0
 40
4.0
 40
4.0
 40
4.0
 10
96.00998804023362
 20
-123.1752549605256
 10
95.83359915138882
 20
-123.1752549605256
 10
95.74333764967528
 20
-123.2703395959185
 10
95.74333764967528
 20
-123.4057318484889
 10
95.74333764967528
 20
-123.528549502538
 10
95.82016327899635
 20
-123.6470607872306
 10
96.00998804023362
 20
-123.6470607872306
 10
96.20015731101941
 20
-123.6470607872306
 10
96.27698294034047
 20
-123.528549502538
 10
96.27698294034047
 20
-123.4057318484889
 10
96.27698294034047
 20
-123.2703395959185
 10
96.18430987178726
 20
-123.1752549605256
 10
96.00998804023362
 20
-123.1752549605256
 97
        0
 97
        0
 75
     2
 76
     1
 98
        0
  0
ENDBLK
  5
C7
330
C4
100
AcDbEntity
  8
0
100
AcDbBlockEnd
  0
BLOCK
  5
DE
330
DC
100
AcDbEntity
  8
0
100
AcDbBlockBegin
  2
block 5
 70
     0
 10
0.0
 20
0.0
 30
0.0
  3
block 5
  1

  0
SPLINE
  5
E0
330
DC
100
AcDbEntity
  8
_U+30EC_U+30A4_U+30E4_U+30FC 1
370
     0
100
AcDbSpline
210
0.0
220
0.0
230
1.0
 70
    11
 71
     3
 72
    26
 73
    22
 74
     0
 42
0.0000000001
 43
0.0000000001
 12
1.0
 22
0.0
 32
0.0
 13
1.0
 23
0.0
 33
0.0
 40
0.0
 40
0.0
 40
0.0
 40
0.0
 40
1.0
 40
1.0
 40
1.0
 40
2.0
 40
2.0
 40
2.0
 40
3.0
 40
3.0
 40
3.0
 40
4.0
 40
4.0
 40
4.0
 40
5.0
 40
5.0
 40
5.0
 40
6.0
 40
6.0
 40
6.0
 40
7.0
 40
7.0
 40
7.0
 40
7.0
 10
103.364577882145
 20
-127.1974039395548
 30
0.0
 10
103.364577882145
 20
-127.1974039395548
 30
0.0
 10
102.2604247791224
 20
-127.1974039395548
 30
0.0
 10
102.2604247791224
 20
-127.1974039395548
 30
0.0
 10
102.2604247791224
 20
-127.1974039395548
 30
0.0
 10
102.2604247791224
 20
-127.5498372076959
 30
0.0
 10
102.2604247791224
 20
-127.5498372076959
 30
0.0
 10
102.2604247791224
 20
-127.5498372076959
 30
0.0
 10
102.1122856732567
 20
-127.5498372076959
 30
0.0
 10
102.1122856732567
 20
-127.5498372076959
 30
0.0
 10
102.0974717626701
 20
-127.1949923727151
 30
0.0
 10
101.9345187462178
 20
-127.1453829977276
 30
0.0
 10
101.8201415761075
 20
-127.1136881192632
 30
0.0
 10
101.8201415761075
 20
-127.1136881192632
 30
0.0
 10
101.8201415761075
 20
-126.9576252937814
 30
0.0
 10
101.8201415761075
 20
-126.9576252937814
 30
0.0
 10
101.8201415761075
 20
-126.9576252937814
 30
0.0
 10
103.364577882145
 20
-126.9576252937814
 30
0.0
 10
103.364577882145
 20
-126.9576252937814
 30
0.0
 10
103.364577882145
 20
-126.9576252937814
 30
0.0
 10
103.364577882145
 20
-127.1974039395548
 30
0.0
 10
103.364577882145
 20
-127.1974039395548
 30
0.0
  0
HATCH
  5
E1
330
DC
100
AcDbEntity
  8
_U+30EC_U+30A4_U+30E4_U+30FC 1
 62
   179
420
  2234388
100
AcDbHatch
 10
0.0
 20
0.0
 30
0.0
210
0.0
220
0.0
230
1.0
  2
SOLID
 70
     1
 71
     0
 91
        1
 92
        1
 93
        1
 72
     4
 94
        3
 73
     0
 74
     1
 95
       26
 96
       22
 40
0.0
 40
0.0
 40
0.0
 40
0.0
 40
1.0
 40
1.0
 40
1.0
 40
2.0
 40
2.0
 40
2.0
 40
3.0
 40
3.0
 40
3.0
 40
4.0
 40
4.0
 40
4.0
 40
5.0
 40
5.0
 40
5.0
 40
6.0
 40
6.0
 40
6.0
 40
7.0
 40
7.0
 40
7.0
 40
7.0
 10
103.364577882145
 20
-127.1974039395548
 10
103.364577882145
 20
-127.1974039395548
 10
102.2604247791224
 20
-127.1974039395548
 10
102.2604247791224
 20
-127.1974039395548
 10
102.2604247791224
 20
-127.1974039395548
 10
102.2604247791224
 20
-127.5498372076959
 10
102.2604247791224
 20
-127.5498372076959
 10
102.2604247791224
 20
-127.5498372076959
 10
102.1122856732567
 20
-127.5498372076959
 10
102.1122856732567
 20
-127.5498372076959
 10
102.0974717626701
 20
-127.1949923727151
 10
101.9345187462178
 20
-127.1453829977276
 10
101.8201415761075
 20
-127.1136881192632
 10
101.8201415761075
 20
-127.1136881192632
 10
101.8201415761075
 20
-126.9576252937814
 10
101.8201415761075
 20
-126.9576252937814
 10
101.8201415761075
 20
-126.9576252937814
 10
103.364577882145
 20
-126.9576252937814
 10
103.364577882145
 20
-126.9576252937814
 10
103.364577882145
 20
-126.9576252937814
 10
103.364577882145
 20
-127.1974039395548
 10
103.364577882145
 20
-127.1974039395548
 97
        0
 97
        0
 75
     2
 76
     1
 98
        0
  0
POLYLINE
  5
E2
330
DC
100
AcDbEntity
  8
_U+30EC_U+30A4_U+30E4_U+30FC 1
370
     0
100
AcDb2dPolyline
 66
     1
 10
0.0
 20
0.0
 30
0.0
  0
VERTEX
  5
E3
330
E2
100
AcDbEntity
  8
_U+30EC_U+30A4_U+30E4_U+30FC 1
370
     0
100
AcDbVertex
100
AcDb2dVertex
 10
103.364577882145
 20
-126.3578341697994
 30
0.0
  0
VERTEX
  5
E4
330
E2
100
AcDbEntity
  8
_U+30EC_U+30A4_U+30E4_U+30FC 1
370
     0
100
AcDbVertex
100
AcDb2dVertex
 10
103.1127414021732
 20
-126.3578341697994
 30
0.0
  0
VERTEX
  5
E5
330
E2
100
AcDbEntity
  8
_U+30EC_U+30A4_U+30E4_U+30FC 1
370
     0
100
AcDbVertex
100
AcDb2dVertex
 10
103.1127414021732
 20
-126.0887722124014
 30
0.0
  0
VERTEX
  5
E6
330
E2
100
AcDbEntity
  8
_U+30EC_U+30A4_U+30E4_U+30FC 1
370
     0
100
AcDbVertex
100
AcDb2dVertex
 10
103.364577882145
 20
-126.0887722124014
 30
0.0
  0
VERTEX
  5
E7
330
E2
100
AcDbEntity
  8
_U+30EC_U+30A4_U+30E4_U+30FC 1
370
     0
100
AcDbVertex
100
AcDb2dVertex
 10
103.364577882145
 20
-126.3578341697994
 30
0.0
  0
SEQEND
  5
E8
330
E2
100
AcDbEntity
  8
_U+30EC_U+30A4_U+30E4_U+30FC 1
370
     0
  0
HATCH
  5
E9
330
DC
100
AcDbEntity
  8
_U+30EC_U+30A4_U+30E4_U+30FC 1
 62
   179
420
  2234388
100
AcDbHatch
 10
0.0
 20
0.0
 30
0.0
210
0.0
220
0.0
230
1.0
  2
SOLID
 70
     1
 71
     0
 91
        1
 92
        1
 93
        4
 72
     1
 10
103.364577882145
 20
-126.3578341697994
 11
103.1127414021732
 21
-126.3578341697994
 72
     1
 10
103.1127414021732
 20
-126.3578341697994
 11
103.1127414021732
 21
-126.0887722124014
 72
     1
 10
103.1127414021732
 20
-126.0887722124014
 11
103.364577882145
 21
-126.0887722124014
 72
     1
 10
103.364577882145
 20
-126.0887722124014
 11
103.364577882145
 21
-126.3578341697994
 97
        0
 75
     2
 76
     1
 98
        0
  0
SPLINE
  5
EA
330
DC
100
AcDbEntity
  8
_U+30EC_U+30A4_U+30E4_U+30FC 1
370
     0
100
AcDbSpline
210
0.0
220
0.0
230
1.0
 70
    11
 71
     3
 72
    53
 73
    49
 74
     0
 42
0.0000000001
 43
0.0000000001
 12
1.0
 22
0.0
 32
0.0
 13
1.0
 23
0.0
 33
0.0
 40
0.0
 40
0.0
 40
0.0
 40
0.0
 40
1.0
 40
1.0
 40
1.0
 40
2.0
 40
2.0
 40
2.0
 40
3.0
 40
3.0
 40
3.0
 40
4.0
 40
4.0
 40
4.0
 40
5.0
 40
5.0
 40
5.0
 40
6.0
 40
6.0
 40
6.0
 40
7.0
 40
7.0
 40
7.0
 40
8.0
 40
8.0
 40
8.0
 40
9.0
 40
9.0
 40
9.0
 40
10.0
 40
10.0
 40
10.0
 40
11.0
 40
11.0
 40
11.0
 40
12.0
 40
12.0
 40
12.0
 40
13.0
 40
13.0
 40
13.0
 40
14.0
 40
14.0
 40
14.0
 40
15.0
 40
15.0
 40
15.0
 40
16.0
 40
16.0
 40
16.0
 40
16.0
 10
103.4152207857781
 20
-125.3218939573848
 30
0.0
 10
103.4152207857781
 20
-125.4056097776764
 30
0.0
 10
103.3983398179004
 20
-125.5137857759132
 30
0.0
 10
103.3349500609718
 20
-125.6226507932471
 30
0.0
 10
103.2250515149924
 20
-125.8079969303536
 30
0.0
 10
103.0937933770043
 20
-125.8303900510077
 30
0.0
 10
102.985961888316
 20
-125.8507161143707
 30
0.0
 10
102.985961888316
 20
-125.8507161143707
 30
0.0
 10
102.985961888316
 20
-125.6133490354369
 30
0.0
 10
102.985961888316
 20
-125.6133490354369
 30
0.0
 10
103.1847438978149
 20
-125.5547824121877
 30
0.0
 10
103.2143717189881
 20
-125.4190456500689
 30
0.0
 10
103.2143717189881
 20
-125.3194823905451
 30
0.0
 10
103.2143717189881
 20
-125.1703097560338
 30
0.0
 10
103.1148084594644
 20
-125.0073567395815
 30
0.0
 10
102.88226451421
 20
-125.0073567395815
 30
0.0
 10
102.6262939196559
 20
-125.0073567395815
 30
0.0
 10
102.5563584813054
 20
-125.1995930676584
 30
0.0
 10
102.5563584813054
 20
-125.3284396388068
 30
0.0
 10
102.5563584813054
 20
-125.3625460841108
 30
0.0
 10
102.5563584813054
 20
-125.5137857759132
 30
0.0
 10
102.6855495620022
 20
-125.6088704113061
 30
0.0
 10
102.6855495620022
 20
-125.6088704113061
 30
0.0
 10
102.6666015368334
 20
-125.7966281152522
 30
0.0
 10
102.6666015368334
 20
-125.7966281152522
 30
0.0
 10
102.6666015368334
 20
-125.7966281152522
 30
0.0
 10
101.8201415761075
 20
-125.6677815441039
 30
0.0
 10
101.8201415761075
 20
-125.6677815441039
 30
0.0
 10
101.8201415761075
 20
-125.6677815441039
 30
0.0
 10
101.8201415761075
 20
-124.8357909844161
 30
0.0
 10
101.8201415761075
 20
-124.8357909844161
 30
0.0
 10
101.8201415761075
 20
-124.8357909844161
 30
0.0
 10
102.0147894710241
 20
-124.8357909844161
 30
0.0
 10
102.0147894710241
 20
-124.8357909844161
 30
0.0
 10
102.0147894710241
 20
-124.8357909844161
 30
0.0
 10
102.0147894710241
 20
-125.4934597125502
 30
0.0
 10
102.0147894710241
 20
-125.4934597125502
 30
0.0
 10
102.0147894710241
 20
-125.4934597125502
 30
0.0
 10
102.4378471966128
 20
-125.5637396604493
 30
0.0
 10
102.4378471966128
 20
-125.5637396604493
 30
0.0
 10
102.4040852608573
 20
-125.4982828462296
 30
0.0
 10
102.3637776436799
 20
-125.4100884018072
 30
0.0
 10
102.3637776436799
 20
-125.28330888795
 30
0.0
 10
102.3637776436799
 20
-125.0121798732608
 30
0.0
 10
102.5501573094319
 20
-124.758965355095
 30
0.0
 10
102.8633164890411
 20
-124.758965355095
 30
0.0
 10
103.1806097832326
 20
-124.758965355095
 30
0.0
 10
103.4152207857781
 20
-124.9983994913198
 30
0.0
 10
103.4152207857781
 20
-125.3218939573848
 30
0.0
  0
HATCH
  5
EB
330
DC
100
AcDbEntity
  8
_U+30EC_U+30A4_U+30E4_U+30FC 1
 62
   179
420
  2234388
100
AcDbHatch
 10
0.0
 20
0.0
 30
0.0
210
0.0
220
0.0
230
1.0
  2
SOLID
 70
     1
 71
     0
 91
        1
 92
        1
 93
        1
 72
     4
 94
        3
 73
     0
 74
     1
 95
       53
 96
       49
 40
0.0
 40
0.0
 40
0.0
 40
0.0
 40
1.0
 40
1.0
 40
1.0
 40
2.0
 40
2.0
 40
2.0
 40
3.0
 40
3.0
 40
3.0
 40
4.0
 40
4.0
 40
4.0
 40
5.0
 40
5.0
 40
5.0
 40
6.0
 40
6.0
 40
6.0
 40
7.0
 40
7.0
 40
7.0
 40
8.0
 40
8.0
 40
8.0
 40
9.0
 40
9.0
 40
9.0
 40
10.0
 40
10.0
 40
10.0
 40
11.0
 40
11.0
 40
11.0
 40
12.0
 40
12.0
 40
12.0
 40
13.0
 40
13.0
 40
13.0
 40
14.0
 40
14.0
 40
14.0
 40
15.0
 40
15.0
 40
15.0
 40
16.0
 40
16.0
 40
16.0
 40
16.0
 10
103.4152207857781
 20
-125.3218939573848
 10
103.4152207857781
 20
-125.4056097776764
 10
103.3983398179004
 20
-125.5137857759132
 10
103.3349500609718
 20
-125.6226507932471
 10
103.2250515149924
 20
-125.8079969303536
 10
103.0937933770043
 20
-125.8303900510077
 10
102.985961888316
 20
-125.8507161143707
 10
102.985961888316
 20
-125.8507161143707
 10
102.985961888316
 20
-125.6133490354369
 10
102.985961888316
 20
-125.6133490354369
 10
103.1847438978149
 20
-125.5547824121877
 10
103.2143717189881
 20
-125.4190456500689
 10
103.2143717189881
 20
-125.3194823905451
 10
103.2143717189881
 20
-125.1703097560338
 10
103.1148084594644
 20
-125.0073567395815
 10
102.88226451421
 20
-125.0073567395815
 10
102.6262939196559
 20
-125.0073567395815
 10
102.5563584813054
 20
-125.1995930676584
 10
102.5563584813054
 20
-125.3284396388068
 10
102.5563584813054
 20
-125.3625460841108
 10
102.5563584813054
 20
-125.5137857759132
 10
102.6855495620022
 20
-125.6088704113061
 10
102.6855495620022
 20
-125.6088704113061
 10
102.6666015368334
 20
-125.7966281152522
 10
102.6666015368334
 20
-125.7966281152522
 10
102.6666015368334
 20
-125.7966281152522
 10
101.8201415761075
 20
-125.6677815441039
 10
101.8201415761075
 20
-125.6677815441039
 10
101.8201415761075
 20
-125.6677815441039
 10
101.8201415761075
 20
-124.8357909844161
 10
101.8201415761075
 20
-124.8357909844161
 10
101.8201415761075
 20
-124.8357909844161
 10
102.0147894710241
 20
-124.8357909844161
 10
102.0147894710241
 20
-124.8357909844161
 10
102.0147894710241
 20
-124.8357909844161
 10
102.0147894710241
 20
-125.4934597125502
 10
102.0147894710241
 20
-125.4934597125502
 10
102.0147894710241
 20
-125.4934597125502
 10
102.4378471966128
 20
-125.5637396604493
 10
102.4378471966128
 20
-125.5637396604493
 10
102.4040852608573
 20
-125.4982828462296
 10
102.3637776436799
 20
-125.4100884018072
 10
102.3637776436799
 20
-125.28330888795
 10
102.3637776436799
 20
-125.0121798732608
 10
102.5501573094319
 20
-124.758965355095
 10
102.8633164890411
 20
-124.758965355095
 10
103.1806097832326
 20
-124.758965355095
 10
103.4152207857781
 20
-124.9983994913198
 10
103.4152207857781
 20
-125.3218939573848
 97
        0
 97
        0
 75
     2
 76
     1
 98
        0
  0
ENDBLK
  5
DF
330
DC
100
AcDbEntity
  8
0
100
AcDbBlockEnd
  0
BLOCK
  5
F6
330
F4
100
AcDbEntity
  8
0
100
AcDbBlockBegin
  2
block 6
 70
     0
 10
0.0
 20
0.0
 30
0.0
  3
block 6
  1

  0
SPLINE
  5
F8
330
F4
100
AcDbEntity
  8
_U+30EC_U+30A4_U+30E4_U+30FC 1
370
     0
100
AcDbSpline
210
0.0
220
0.0
230
1.0
 70
    11
 71
     3
 72
    53
 73
    49
 74
     0
 42
0.0000000001
 43
0.0000000001
 12
1.0
 22
0.0
 32
0.0
 13
1.0
 23
0.0
 33
0.0
 40
0.0
 40
0.0
 40
0.0
 40
0.0
 40
1.0
 40
1.0
 40
1.0
 40
2.0
 40
2.0
 40
2.0
 40
3.0
 40
3.0
 40
3.0
 40
4.0
 40
4.0
 40
4.0
 40
5.0
 40
5.0
 40
5.0
 40
6.0
 40
6.0
 40
6.0
 40
7.0
 40
7.0
 40
7.0
 40
8.0
 40
8.0
 40
8.0
 40
9.0
 40
9.0
 40
9.0
 40
10.0
 40
10.0
 40
10.0
 40
11.0
 40
11.0
 40
11.0
 40
12.0
 40
12.0
 40
12.0
 40
13.0
 40
13.0
 40
13.0
 40
14.0
 40
14.0
 40
14.0
 40
15.0
 40
15.0
 40
15.0
 40
16.0
 40
16.0
 40
16.0
 40
16.0
 10
103.4152207857781
 20
-133.2438910257168
 30
0.0
 10
103.4152207857781
 20
-133.3272623364599
 30
0.0
 10
103.3983398179004
 20
-133.4361273537938
 30
0.0
 10
103.3349500609718
 20
-133.5443033520306
 30
0.0
 10
103.2250515149924
 20
-133.7299939986856
 30
0.0
 10
103.0937933770043
 20
-133.7523871193397
 30
0.0
 10
102.985961888316
 20
-133.7727131827027
 30
0.0
 10
102.985961888316
 20
-133.7727131827027
 30
0.0
 10
102.985961888316
 20
-133.5353461037689
 30
0.0
 10
102.985961888316
 20
-133.5353461037689
 30
0.0
 10
103.1847438978149
 20
-133.4767794805197
 30
0.0
 10
103.2143717189881
 20
-133.3410427184008
 30
0.0
 10
103.2143717189881
 20
-133.2414794588771
 30
0.0
 10
103.2143717189881
 20
-133.0923068243658
 30
0.0
 10
103.1148084594644
 20
-132.929698317462
 30
0.0
 10
102.88226451421
 20
-132.929698317462
 30
0.0
 10
102.6262939196559
 20
-132.929698317462
 30
0.0
 10
102.5563584813054
 20
-133.1215901359904
 30
0.0
 10
102.5563584813054
 20
-133.2504367071388
 30
0.0
 10
102.5563584813054
 20
-133.2845431524428
 30
0.0
 10
102.5563584813054
 20
-133.4361273537938
 30
0.0
 10
102.6855495620022
 20
-133.5308674796381
 30
0.0
 10
102.6855495620022
 20
-133.5308674796381
 30
0.0
 10
102.6666015368334
 20
-133.7186251835842
 30
0.0
 10
102.6666015368334
 20
-133.7186251835842
 30
0.0
 10
102.6666015368334
 20
-133.7186251835842
 30
0.0
 10
101.8201415761075
 20
-133.5897786124359
 30
0.0
 10
101.8201415761075
 20
-133.5897786124359
 30
0.0
 10
101.8201415761075
 20
-133.5897786124359
 30
0.0
 10
101.8201415761075
 20
-132.7577880527481
 30
0.0
 10
101.8201415761075
 20
-132.7577880527481
 30
0.0
 10
101.8201415761075
 20
-132.7577880527481
 30
0.0
 10
102.0147894710241
 20
-132.7577880527481
 30
0.0
 10
102.0147894710241
 20
-132.7577880527481
 30
0.0
 10
102.0147894710241
 20
-132.7577880527481
 30
0.0
 10
102.0147894710241
 20
-133.4154567808823
 30
0.0
 10
102.0147894710241
 20
-133.4154567808823
 30
0.0
 10
102.0147894710241
 20
-133.4154567808823
 30
0.0
 10
102.4378471966128
 20
-133.4857367287813
 30
0.0
 10
102.4378471966128
 20
-133.4857367287813
 30
0.0
 10
102.4040852608573
 20
-133.4202799145616
 30
0.0
 10
102.3637776436799
 20
-133.3320854701392
 30
0.0
 10
102.3637776436799
 20
-133.205305956282
 30
0.0
 10
102.3637776436799
 20
-132.9341769415929
 30
0.0
 10
102.5501573094319
 20
-132.680962423427
 30
0.0
 10
102.8633164890411
 20
-132.680962423427
 30
0.0
 10
103.1806097832326
 20
-132.680962423427
 30
0.0
 10
103.4152207857781
 20
-132.9203965596519
 30
0.0
 10
103.4152207857781
 20
-133.2438910257168
 30
0.0
  0
HATCH
  5
F9
330
F4
100
AcDbEntity
  8
_U+30EC_U+30A4_U+30E4_U+30FC 1
 62
   179
420
  2234388
100
AcDbHatch
 10
0.0
 20
0.0
 30
0.0
210
0.0
220
0.0
230
1.0
  2
SOLID
 70
     1
 71
     0
 91
        1
 92
        1
 93
        1
 72
     4
 94
        3
 73
     0
 74
     1
 95
       53
 96
       49
 40
0.0
 40
0.0
 40
0.0
 40
0.0
 40
1.0
 40
1.0
 40
1.0
 40
2.0
 40
2.0
 40
2.0
 40
3.0
 40
3.0
 40
3.0
 40
4.0
 40
4.0
 40
4.0
 40
5.0
 40
5.0
 40
5.0
 40
6.0
 40
6.0
 40
6.0
 40
7.0
 40
7.0
 40
7.0
 40
8.0
 40
8.0
 40
8.0
 40
9.0
 40
9.0
 40
9.0
 40
10.0
 40
10.0
 40
10.0
 40
11.0
 40
11.0
 40
11.0
 40
12.0
 40
12.0
 40
12.0
 40
13.0
 40
13.0
 40
13.0
 40
14.0
 40
14.0
 40
14.0
 40
15.0
 40
15.0
 40
15.0
 40
16.0
 40
16.0
 40
16.0
 40
16.0
 10
103.4152207857781
 20
-133.2438910257168
 10
103.4152207857781
 20
-133.3272623364599
 10
103.3983398179004
 20
-133.4361273537938
 10
103.3349500609718
 20
-133.5443033520306
 10
103.2250515149924
 20
-133.7299939986856
 10
103.0937933770043
 20
-133.7523871193397
 10
102.985961888316
 20
-133.7727131827027
 10
102.985961888316
 20
-133.7727131827027
 10
102.985961888316
 20
-133.5353461037689
 10
102.985961888316
 20
-133.5353461037689
 10
103.1847438978149
 20
-133.4767794805197
 10
103.2143717189881
 20
-133.3410427184008
 10
103.2143717189881
 20
-133.2414794588771
 10
103.2143717189881
 20
-133.0923068243658
 10
103.1148084594644
 20
-132.929698317462
 10
102.88226451421
 20
-132.929698317462
 10
102.6262939196559
 20
-132.929698317462
 10
102.5563584813054
 20
-133.1215901359904
 10
102.5563584813054
 20
-133.2504367071388
 10
102.5563584813054
 20
-133.2845431524428
 10
102.5563584813054
 20
-133.4361273537938
 10
102.6855495620022
 20
-133.5308674796381
 10
102.6855495620022
 20
-133.5308674796381
 10
102.6666015368334
 20
-133.7186251835842
 10
102.6666015368334
 20
-133.7186251835842
 10
102.6666015368334
 20
-133.7186251835842
 10
101.8201415761075
 20
-133.5897786124359
 10
101.8201415761075
 20
-133.5897786124359
 10
101.8201415761075
 20
-133.5897786124359
 10
101.8201415761075
 20
-132.7577880527481
 10
101.8201415761075
 20
-132.7577880527481
 10
101.8201415761075
 20
-132.7577880527481
 10
102.0147894710241
 20
-132.7577880527481
 10
102.0147894710241
 20
-132.7577880527481
 10
102.0147894710241
 20
-132.7577880527481
 10
102.0147894710241
 20
-133.4154567808823
 10
102.0147894710241
 20
-133.4154567808823
 10
102.0147894710241
 20
-133.4154567808823
 10
102.4378471966128
 20
-133.4857367287813
 10
102.4378471966128
 20
-133.4857367287813
 10
102.4040852608573
 20
-133.4202799145616
 10
102.3637776436799
 20
-133.3320854701392
 10
102.3637776436799
 20
-133.205305956282
 10
102.3637776436799
 20
-132.9341769415929
 10
102.5501573094319
 20
-132.680962423427
 10
102.8633164890411
 20
-132.680962423427
 10
103.1806097832326
 20
-132.680962423427
 10
103.4152207857781
 20
-132.9203965596519
 10
103.4152207857781
 20
-133.2438910257168
 97
        0
 97
        0
 75
     2
 76
     1
 98
        0
  0
ENDBLK
  5
F7
330
F4
100
AcDbEntity
  8
0
100
AcDbBlockEnd
  0
BLOCK
  5
102
330
100
100
AcDbEntity
  8
0
100
AcDbBlockBegin
  2
block 7
 70
     0
 10
0.0
 20
0.0
 30
0.0
  3
block 7
  1

  0
SPLINE
  5
104
330
100
100
AcDbEntity
  8
_U+30EC_U+30A4_U+30E4_U+30FC 1
370
     0
100
AcDbSpline
210
0.0
220
0.0
230
1.0
 70
    11
 71
     3
 72
    26
 73
    22
 74
     0
 42
0.0000000001
 43
0.0000000001
 12
1.0
 22
0.0
 32
0.0
 13
1.0
 23
0.0
 33
0.0
 40
0.0
 40
0.0
 40
0.0
 40
0.0
 40
1.0
 40
1.0
 40
1.0
 40
2.0
 40
2.0
 40
2.0
 40
3.0
 40
3.0
 40
3.0
 40
4.0
 40
4.0
 40
4.0
 40
5.0
 40
5.0
 40
5.0
 40
6.0
 40
6.0
 40
6.0
 40
7.0
 40
7.0
 40
7.0
 40
7.0
 10
85.28816187103908
 20
-132.0518879878204
 30
0.0
 10
85.28816187103908
 20
-132.0518879878204
 30
0.0
 10
85.28816187103908
 20
-130.9477348847978
 30
0.0
 10
85.28816187103908
 20
-130.9477348847978
 30
0.0
 10
85.28816187103908
 20
-130.9477348847978
 30
0.0
 10
84.93572860289801
 20
-130.9477348847978
 30
0.0
 10
84.93572860289801
 20
-130.9477348847978
 30
0.0
 10
84.93572860289801
 20
-130.9477348847978
 30
0.0
 10
84.93572860289801
 20
-130.7995957789321
 30
0.0
 10
84.93572860289801
 20
-130.7995957789321
 30
0.0
 10
85.29057343787875
 20
-130.7847818683455
 30
0.0
 10
85.34018281286635
 20
-130.6218288518932
 30
0.0
 10
85.37187769133064
 20
-130.5077961913314
 30
0.0
 10
85.37187769133064
 20
-130.5077961913314
 30
0.0
 10
85.52794051681246
 20
-130.5077961913314
 30
0.0
 10
85.52794051681246
 20
-130.5077961913314
 30
0.0
 10
85.52794051681246
 20
-130.5077961913314
 30
0.0
 10
85.52794051681246
 20
-132.0518879878204
 30
0.0
 10
85.52794051681246
 20
-132.0518879878204
 30
0.0
 10
85.52794051681246
 20
-132.0518879878204
 30
0.0
 10
85.28816187103908
 20
-132.0518879878204
 30
0.0
 10
85.28816187103908
 20
-132.0518879878204
 30
0.0
  0
HATCH
  5
105
330
100
100
AcDbEntity
  8
_U+30EC_U+30A4_U+30E4_U+30FC 1
 62
   179
420
  2234388
100
AcDbHatch
 10
0.0
 20
0.0
 30
0.0
210
0.0
220
0.0
230
1.0
  2
SOLID
 70
     1
 71
     0
 91
        1
 92
        1
 93
        1
 72
     4
 94
        3
 73
     0
 74
     1
 95
       26
 96
       22
 40
0.0
 40
0.0
 40
0.0
 40
0.0
 40
1.0
 40
1.0
 40
1.0
 40
2.0
 40
2.0
 40
2.0
 40
3.0
 40
3.0
 40
3.0
 40
4.0
 40
4.0
 40
4.0
 40
5.0
 40
5.0
 40
5.0
 40
6.0
 40
6.0
 40
6.0
 40
7.0
 40
7.0
 40
7.0
 40
7.0
 10
85.28816187103908
 20
-132.0518879878204
 10
85.28816187103908
 20
-132.0518879878204
 10
85.28816187103908
 20
-130.9477348847978
 10
85.28816187103908
 20
-130.9477348847978
 10
85.28816187103908
 20
-130.9477348847978
 10
84.93572860289801
 20
-130.9477348847978
 10
84.93572860289801
 20
-130.9477348847978
 10
84.93572860289801
 20
-130.9477348847978
 10
84.93572860289801
 20
-130.7995957789321
 10
84.93572860289801
 20
-130.7995957789321
 10
85.29057343787875
 20
-130.7847818683455
 10
85.34018281286635
 20
-130.6218288518932
 10
85.37187769133064
 20
-130.5077961913314
 10
85.37187769133064
 20
-130.5077961913314
 10
85.52794051681246
 20
-130.5077961913314
 10
85.52794051681246
 20
-130.5077961913314
 10
85.52794051681246
 20
-130.5077961913314
 10
85.52794051681246
 20
-132.0518879878204
 10
85.52794051681246
 20
-132.0518879878204
 10
85.52794051681246
 20
-132.0518879878204
 10
85.28816187103908
 20
-132.0518879878204
 10
85.28816187103908
 20
-132.0518879878204
 97
        0
 97
        0
 75
     2
 76
     1
 98
        0
  0
ENDBLK
  5
103
330
100
100
AcDbEntity
  8
0
100
AcDbBlockEnd
  0
ENDSEC
  0
SECTION
  2
ENTITIES
  0
SPLINE
  5
41
330
1F
100
AcDbEntity
  8
_U+30EC_U+30A4_U+30E4_U+30FC 1
370
     0
100
AcDbSpline
210
0.0
220
0.0
230
1.0
 70
    11
 71
     3
 72
    68
 73
    64
 74
     0
 42
0.0000000001
 43
0.0000000001
 12
1.0
 22
0.0
 32
0.0
 13
1.0
 23
0.0
 33
0.0
 40
0.0
 40
0.0
 40
0.0
 40
0.0
 40
1.0
 40
1.0
 40
1.0
 40
2.0
 40
2.0
 40
2.0
 40
3.0
 40
3.0
 40
3.0
 40
4.0
 40
4.0
 40
4.0
 40
5.0
 40
5.0
 40
5.0
 40
6.0
 40
6.0
 40
6.0
 40
7.0
 40
7.0
 40
7.0
 40
8.0
 40
8.0
 40
8.0
 40
9.0
 40
9.0
 40
9.0
 40
10.0
 40
10.0
 40
10.0
 40
11.0
 40
11.0
 40
11.0
 40
12.0
 40
12.0
 40
12.0
 40
13.0
 40
13.0
 40
13.0
 40
14.0
 40
14.0
 40
14.0
 40
15.0
 40
15.0
 40
15.0
 40
16.0
 40
16.0
 40
16.0
 40
17.0
 40
17.0
 40
17.0
 40
18.0
 40
18.0
 40
18.0
 40
19.0
 40
19.0
 40
19.0
 40
20.0
 40
20.0
 40
20.0
 40
21.0
 40
21.0
 40
21.0
 40
21.0
 10
99.0106791406938
 20
-129.2220766343613
 30
0.0
 10
99.0106791406938
 20
-129.2220766343613
 30
0.0
 10
92.01058043039231
 20
-129.2220766343613
 30
0.0
 10
92.01058043039231
 20
-129.2220766343613
 30
0.0
 10
92.01058043039231
 20
-129.2220766343613
 30
0.0
 10
92.01058043039231
 20
-134.7221644107641
 30
0.0
 10
92.01058043039231
 20
-134.7221644107641
 30
0.0
 10
92.01058043039231
 20
-134.7221644107641
 30
0.0
 10
88.41457775567406
 20
-134.7221644107641
 30
0.0
 10
88.41457775567406
 20
-134.7221644107641
 30
0.0
 10
88.41457775567406
 20
-134.7221644107641
 30
0.0
 10
88.01046858799921
 20
-135.4222166328111
 30
0.0
 10
88.01046858799921
 20
-135.4222166328111
 30
0.0
 10
88.01046858799921
 20
-135.4222166328111
 30
0.0
 10
87.60636386698717
 20
-134.7221644107641
 30
0.0
 10
87.60636386698717
 20
-134.7221644107641
 30
0.0
 10
87.60636386698717
 20
-134.7221644107641
 30
0.0
 10
84.01070952337491
 20
-134.7221644107641
 30
0.0
 10
84.01070952337491
 20
-134.7221644107641
 30
0.0
 10
84.01070952337491
 20
-134.7221644107641
 30
0.0
 10
84.01070952337491
 20
-129.2220766343613
 30
0.0
 10
84.01070952337491
 20
-129.2220766343613
 30
0.0
 10
84.01070952337491
 20
-129.2220766343613
 30
0.0
 10
77.01064609085029
 20
-129.2220766343613
 30
0.0
 10
77.01064609085029
 20
-129.2220766343613
 30
0.0
 10
76.45837249382886
 20
-129.2220766343613
 30
0.0
 10
76.01052111636561
 20
-129.6699633009159
 30
0.0
 10
76.01052111636561
 20
-130.222201634111
 30
0.0
 10
76.01052111636561
 20
-130.222201634111
 30
0.0
 10
76.01052111636561
 20
-130.7220877450976
 30
0.0
 10
76.01052111636561
 20
-130.7220877450976
 30
0.0
 10
76.01052111636561
 20
-130.7220877450976
 30
0.0
 10
77.51049691143137
 20
-130.7220877450976
 30
0.0
 10
77.51049691143137
 20
-130.7220877450976
 30
0.0
 10
77.51049691143137
 20
-130.7220877450976
 30
0.0
 10
77.51049691143137
 20
-130.222201634111
 30
0.0
 10
77.51049691143137
 20
-130.222201634111
 30
0.0
 10
77.51049691143137
 20
-130.222201634111
 30
0.0
 10
83.0106198266671
 20
-130.222201634111
 30
0.0
 10
83.0106198266671
 20
-130.222201634111
 30
0.0
 10
83.0106198266671
 20
-130.222201634111
 30
0.0
 10
83.0106198266671
 20
-135.7219366327359
 30
0.0
 10
83.0106198266671
 20
-135.7219366327359
 30
0.0
 10
83.0106198266671
 20
-135.7219366327359
 30
0.0
 10
93.01067012710011
 20
-135.7219366327359
 30
0.0
 10
93.01067012710011
 20
-135.7219366327359
 30
0.0
 10
93.01067012710011
 20
-135.7219366327359
 30
0.0
 10
93.01067012710011
 20
-130.222201634111
 30
0.0
 10
93.01067012710011
 20
-130.222201634111
 30
0.0
 10
93.01067012710011
 20
-130.222201634111
 30
0.0
 10
98.51044026456707
 20
-130.222201634111
 30
0.0
 10
98.51044026456707
 20
-130.222201634111
 30
0.0
 10
98.51044026456707
 20
-130.222201634111
 30
0.0
 10
98.51044026456707
 20
-130.7220877450976
 30
0.0
 10
98.51044026456707
 20
-130.7220877450976
 30
0.0
 10
98.51044026456707
 20
-130.7220877450976
 30
0.0
 10
100.0104160596328
 20
-130.7220877450976
 30
0.0
 10
100.0104160596328
 20
-130.7220877450976
 30
0.0
 10
100.0104160596328
 20
-130.7220877450976
 30
0.0
 10
100.0104160596328
 20
-130.222201634111
 30
0.0
 10
100.0104160596328
 20
-130.222201634111
 30
0.0
 10
100.0104160596328
 20
-129.6699633009159
 30
0.0
 10
99.56291745993836
 20
-129.2220766343613
 30
0.0
 10
99.0106791406938
 20
-129.2220766343613
 30
0.0
  0
HATCH
  5
42
330
1F
100
AcDbEntity
  8
_U+30EC_U+30A4_U+30E4_U+30FC 1
 62
   253
420
 11711154
100
AcDbHatch
 10
0.0
 20
0.0
 30
0.0
210
0.0
220
0.0
230
1.0
  2
SOLID
 70
     1
 71
     0
 91
        1
 92
        1
 93
        1
 72
     4
 94
        3
 73
     0
 74
     1
 95
       68
 96
       64
 40
0.0
 40
0.0
 40
0.0
 40
0.0
 40
1.0
 40
1.0
 40
1.0
 40
2.0
 40
2.0
 40
2.0
 40
3.0
 40
3.0
 40
3.0
 40
4.0
 40
4.0
 40
4.0
 40
5.0
 40
5.0
 40
5.0
 40
6.0
 40
6.0
 40
6.0
 40
7.0
 40
7.0
 40
7.0
 40
8.0
 40
8.0
 40
8.0
 40
9.0
 40
9.0
 40
9.0
 40
10.0
 40
10.0
 40
10.0
 40
11.0
 40
11.0
 40
11.0
 40
12.0
 40
12.0
 40
12.0
 40
13.0
 40
13.0
 40
13.0
 40
14.0
 40
14.0
 40
14.0
 40
15.0
 40
15.0
 40
15.0
 40
16.0
 40
16.0
 40
16.0
 40
17.0
 40
17.0
 40
17.0
 40
18.0
 40
18.0
 40
18.0
 40
19.0
 40
19.0
 40
19.0
 40
20.0
 40
20.0
 40
20.0
 40
21.0
 40
21.0
 40
21.0
 40
21.0
 10
99.0106791406938
 20
-129.2220766343613
 10
99.0106791406938
 20
-129.2220766343613
 10
92.01058043039231
 20
-129.2220766343613
 10
92.01058043039231
 20
-129.2220766343613
 10
92.01058043039231
 20
-129.2220766343613
 10
92.01058043039231
 20
-134.7221644107641
 10
92.01058043039231
 20
-134.7221644107641
 10
92.01058043039231
 20
-134.7221644107641
 10
88.41457775567406
 20
-134.7221644107641
 10
88.41457775567406
 20
-134.7221644107641
 10
88.41457775567406
 20
-134.7221644107641
 10
88.01046858799921
 20
-135.4222166328111
 10
88.01046858799921
 20
-135.4222166328111
 10
88.01046858799921
 20
-135.4222166328111
 10
87.60636386698717
 20
-134.7221644107641
 10
87.60636386698717
 20
-134.7221644107641
 10
87.60636386698717
 20
-134.7221644107641
 10
84.01070952337491
 20
-134.7221644107641
 10
84.01070952337491
 20
-134.7221644107641
 10
84.01070952337491
 20
-134.7221644107641
 10
84.01070952337491
 20
-129.2220766343613
 10
84.01070952337491
 20
-129.2220766343613
 10
84.01070952337491
 20
-129.2220766343613
 10
77.01064609085029
 20
-129.2220766343613
 10
77.01064609085029
 20
-129.2220766343613
 10
76.45837249382886
 20
-129.2220766343613
 10
76.01052111636561
 20
-129.6699633009159
 10
76.01052111636561
 20
-130.222201634111
 10
76.01052111636561
 20
-130.222201634111
 10
76.01052111636561
 20
-130.7220877450976
 10
76.01052111636561
 20
-130.7220877450976
 10
76.01052111636561
 20
-130.7220877450976
 10
77.51049691143137
 20
-130.7220877450976
 10
77.51049691143137
 20
-130.7220877450976
 10
77.51049691143137
 20
-130.7220877450976
 10
77.51049691143137
 20
-130.222201634111
 10
77.51049691143137
 20
-130.222201634111
 10
77.51049691143137
 20
-130.222201634111
 10
83.0106198266671
 20
-130.222201634111
 10
83.0106198266671
 20
-130.222201634111
 10
83.0106198266671
 20
-130.222201634111
 10
83.0106198266671
 20
-135.7219366327359
 10
83.0106198266671
 20
-135.7219366327359
 10
83.0106198266671
 20
-135.7219366327359
 10
93.01067012710011
 20
-135.7219366327359
 10
93.01067012710011
 20
-135.7219366327359
 10
93.01067012710011
 20
-135.7219366327359
 10
93.01067012710011
 20
-130.222201634111
 10
93.01067012710011
 20
-130.222201634111
 10
93.01067012710011
 20
-130.222201634111
 10
98.51044026456707
 20
-130.222201634111
 10
98.51044026456707
 20
-130.222201634111
 10
98.51044026456707
 20
-130.222201634111
 10
98.51044026456707
 20
-130.7220877450976
 10
98.51044026456707
 20
-130.7220877450976
 10
98.51044026456707
 20
-130.7220877450976
 10
100.0104160596328
 20
-130.7220877450976
 10
100.0104160596328
 20
-130.7220877450976
 10
100.0104160596328
 20
-130.7220877450976
 10
100.0104160596328
 20
-130.222201634111
 10
100.0104160596328
 20
-130.222201634111
 10
100.0104160596328
 20
-129.6699633009159
 10
99.56291745993836
 20
-129.2220766343613
 10
99.0106791406938
 20
-129.2220766343613
 97
        0
 97
        0
 75
     2
 76
     1
 98
        0
  0
POLYLINE
  5
43
330
1F
100
AcDbEntity
  8
_U+30EC_U+30A4_U+30E4_U+30FC 1
 62
   179
420
  2234388
370
    25
100
AcDb2dPolyline
 66
     1
 10
0.0
 20
0.0
 30
0.0
  0
VERTEX
  5
44
330
43
100
AcDbEntity
  8
_U+30EC_U+30A4_U+30E4_U+30FC 1
 62
   179
420
  2234388
370
    25
100
AcDbVertex
100
AcDb2dVertex
 10
83.0106198266671
 20
-135.7219366327359
 30
0.0
  0
VERTEX
  5
45
330
43
100
AcDbEntity
  8
_U+30EC_U+30A4_U+30E4_U+30FC 1
 62
   179
420
  2234388
370
    25
100
AcDbVertex
100
AcDb2dVertex
 10
93.01067012710011
 20
-135.7219366327359
 30
0.0
  0
SEQEND
  5
46
330
43
100
AcDbEntity
  8
_U+30EC_U+30A4_U+30E4_U+30FC 1
 62
   179
420
  2234388
370
    25
  0
POLYLINE
  5
47
330
1F
100
AcDbEntity
  8
_U+30EC_U+30A4_U+30E4_U+30FC 1
 62
   179
420
  2234388
370
    25
100
AcDb2dPolyline
 66
     1
 10
0.0
 20
0.0
 30
0.0
  0
VERTEX
  5
48
330
47
100
AcDbEntity
  8
_U+30EC_U+30A4_U+30E4_U+30FC 1
 62
   179
420
  2234388
370
    25
100
AcDbVertex
100
AcDb2dVertex
 10
88.41457775567406
 20
-134.7221644107641
 30
0.0
  0
VERTEX
  5
49
330
47
100
AcDbEntity
  8
_U+30EC_U+30A4_U+30E4_U+30FC 1
 62
   179
420
  2234388
370
    25
100
AcDbVertex
100
AcDb2dVertex
 10
92.01058043039231
 20
-134.7221644107641
 30
0.0
  0
SEQEND
  5
4A
330
47
100
AcDbEntity
  8
_U+30EC_U+30A4_U+30E4_U+30FC 1
 62
   179
420
  2234388
370
    25
  0
POLYLINE
  5
4B
330
1F
100
AcDbEntity
  8
_U+30EC_U+30A4_U+30E4_U+30FC 1
 62
   179
420
  2234388
370
    25
100
AcDb2dPolyline
 66
     1
 10
0.0
 20
0.0
 30
0.0
  0
VERTEX
  5
4C
330
4B
100
AcDbEntity
  8
_U+30EC_U+30A4_U+30E4_U+30FC 1
 62
   179
420
  2234388
370
    25
100
AcDbVertex
100
AcDb2dVertex
 10
92.01058043039231
 20
-129.2220766343613
 30
0.0
  0
VERTEX
  5
4D
330
4B
100
AcDbEntity
  8
_U+30EC_U+30A4_U+30E4_U+30FC 1
 62
   179
420
  2234388
370
    25
100
AcDbVertex
100
AcDb2dVertex
 10
92.01058043039231
 20
-134.7221644107641
 30
0.0
  0
SEQEND
  5
4E
330
4B
100
AcDbEntity
  8
_U+30EC_U+30A4_U+30E4_U+30FC 1
 62
   179
420
  2234388
370
    25
  0
POLYLINE
  5
4F
330
1F
100
AcDbEntity
  8
_U+30EC_U+30A4_U+30E4_U+30FC 1
 62
   179
420
  2234388
370
    25
100
AcDb2dPolyline
 66
     1
 10
0.0
 20
0.0
 30
0.0
  0
VERTEX
  5
50
330
4F
100
AcDbEntity
  8
_U+30EC_U+30A4_U+30E4_U+30FC 1
 62
   179
420
  2234388
370
    25
100
AcDbVertex
100
AcDb2dVertex
 10
93.01067012710011
 20
-130.222201634111
 30
0.0
  0
VERTEX
  5
51
330
4F
100
AcDbEntity
  8
_U+30EC_U+30A4_U+30E4_U+30FC 1
 62
   179
420
  2234388
370
    25
100
AcDbVertex
100
AcDb2dVertex
 10
93.01067012710011
 20
-135.7219366327359
 30
0.0
  0
SEQEND
  5
52
330
4F
100
AcDbEntity
  8
_U+30EC_U+30A4_U+30E4_U+30FC 1
 62
   179
420
  2234388
370
    25
  0
POLYLINE
  5
53
330
1F
100
AcDbEntity
  8
_U+30EC_U+30A4_U+30E4_U+30FC 1
 62
   179
420
  2234388
370
    25
100
AcDb2dPolyline
 66
     1
 10
0.0
 20
0.0
 30
0.0
  0
VERTEX
  5
54
330
53
100
AcDbEntity
  8
_U+30EC_U+30A4_U+30E4_U+30FC 1
 62
   179
420
  2234388
370
    25
100
AcDbVertex
100
AcDb2dVertex
 10
100.0104160596328
 20
-130.222201634111
 30
0.0
  0
VERTEX
  5
55
330
53
100
AcDbEntity
  8
_U+30EC_U+30A4_U+30E4_U+30FC 1
 62
   179
420
  2234388
370
    25
100
AcDbVertex
100
AcDb2dVertex
 10
100.0104160596328
 20
-130.7220877450976
 30
0.0
  0
SEQEND
  5
56
330
53
100
AcDbEntity
  8
_U+30EC_U+30A4_U+30E4_U+30FC 1
 62
   179
420
  2234388
370
    25
  0
POLYLINE
  5
57
330
1F
100
AcDbEntity
  8
_U+30EC_U+30A4_U+30E4_U+30FC 1
 62
   179
420
  2234388
370
    25
100
AcDb2dPolyline
 66
     1
 10
0.0
 20
0.0
 30
0.0
  0
VERTEX
  5
58
330
57
100
AcDbEntity
  8
_U+30EC_U+30A4_U+30E4_U+30FC 1
 62
   179
420
  2234388
370
    25
100
AcDbVertex
100
AcDb2dVertex
 10
98.51044026456707
 20
-130.7220877450976
 30
0.0
  0
VERTEX
  5
59
330
57
100
AcDbEntity
  8
_U+30EC_U+30A4_U+30E4_U+30FC 1
 62
   179
420
  2234388
370
    25
100
AcDbVertex
100
AcDb2dVertex
 10
100.0104160596328
 20
-130.7220877450976
 30
0.0
  0
SEQEND
  5
5A
330
57
100
AcDbEntity
  8
_U+30EC_U+30A4_U+30E4_U+30FC 1
 62
   179
420
  2234388
370
    25
  0
POLYLINE
  5
5B
330
1F
100
AcDbEntity
  8
_U+30EC_U+30A4_U+30E4_U+30FC 1
 62
   179
420
  2234388
370
    25
100
AcDb2dPolyline
 66
     1
 10
0.0
 20
0.0
 30
0.0
  0
VERTEX
  5
5C
330
5B
100
AcDbEntity
  8
_U+30EC_U+30A4_U+30E4_U+30FC 1
 62
   179
420
  2234388
370
    25
100
AcDbVertex
100
AcDb2dVertex
 10
92.01058043039231
 20
-129.2220766343613
 30
0.0
  0
VERTEX
  5
5D
330
5B
100
AcDbEntity
  8
_U+30EC_U+30A4_U+30E4_U+30FC 1
 62
   179
420
  2234388
370
    25
100
AcDbVertex
100
AcDb2dVertex
 10
99.0106791406938
 20
-129.2220766343613
 30
0.0
  0
SEQEND
  5
5E
330
5B
100
AcDbEntity
  8
_U+30EC_U+30A4_U+30E4_U+30FC 1
 62
   179
420
  2234388
370
    25
  0
POLYLINE
  5
5F
330
1F
100
AcDbEntity
  8
_U+30EC_U+30A4_U+30E4_U+30FC 1
 62
   179
420
  2234388
370
    25
100
AcDb2dPolyline
 66
     1
 10
0.0
 20
0.0
 30
0.0
  0
VERTEX
  5
60
330
5F
100
AcDbEntity
  8
_U+30EC_U+30A4_U+30E4_U+30FC 1
 62
   179
420
  2234388
370
    25
100
AcDbVertex
100
AcDb2dVertex
 10
93.01067012710011
 20
-130.222201634111
 30
0.0
  0
VERTEX
  5
61
330
5F
100
AcDbEntity
  8
_U+30EC_U+30A4_U+30E4_U+30FC 1
 62
   179
420
  2234388
370
    25
100
AcDbVertex
100
AcDb2dVertex
 10
98.51044026456707
 20
-130.222201634111
 30
0.0
  0
SEQEND
  5
62
330
5F
100
AcDbEntity
  8
_U+30EC_U+30A4_U+30E4_U+30FC 1
 62
   179
420
  2234388
370
    25
  0
POLYLINE
  5
63
330
1F
100
AcDbEntity
  8
_U+30EC_U+30A4_U+30E4_U+30FC 1
 62
   179
420
  2234388
370
    25
100
AcDb2dPolyline
 66
     1
 10
0.0
 20
0.0
 30
0.0
  0
VERTEX
  5
64
330
63
100
AcDbEntity
  8
_U+30EC_U+30A4_U+30E4_U+30FC 1
 62
   179
420
  2234388
370
    25
100
AcDbVertex
100
AcDb2dVertex
 10
98.51044026456707
 20
-130.222201634111
 30
0.0
  0
VERTEX
  5
65
330
63
100
AcDbEntity
  8
_U+30EC_U+30A4_U+30E4_U+30FC 1
 62
   179
420
  2234388
370
    25
100
AcDbVertex
100
AcDb2dVertex
 10
98.51044026456707
 20
-130.7220877450976
 30
0.0
  0
SEQEND
  5
66
330
63
100
AcDbEntity
  8
_U+30EC_U+30A4_U+30E4_U+30FC 1
 62
   179
420
  2234388
370
    25
  0
POLYLINE
  5
67
330
1F
100
AcDbEntity
  8
_U+30EC_U+30A4_U+30E4_U+30FC 1
 62
   179
420
  2234388
370
    25
100
AcDb2dPolyline
 66
     1
 10
0.0
 20
0.0
 30
0.0
  0
VERTEX
  5
68
330
67
100
AcDbEntity
  8
_U+30EC_U+30A4_U+30E4_U+30FC 1
 62
   179
420
  2234388
370
    25
100
AcDbVertex
100
AcDb2dVertex
 10
88.01046858799921
 20
-135.4222166328111
 30
0.0
  0
VERTEX
  5
69
330
67
100
AcDbEntity
  8
_U+30EC_U+30A4_U+30E4_U+30FC 1
 62
   179
420
  2234388
370
    25
100
AcDbVertex
100
AcDb2dVertex
 10
88.41457775567406
 20
-134.7221644107641
 30
0.0
  0
SEQEND
  5
6A
330
67
100
AcDbEntity
  8
_U+30EC_U+30A4_U+30E4_U+30FC 1
 62
   179
420
  2234388
370
    25
  0
POLYLINE
  5
6B
330
1F
100
AcDbEntity
  8
_U+30EC_U+30A4_U+30E4_U+30FC 1
 62
   179
420
  2234388
370
    25
100
AcDb2dPolyline
 66
     1
 10
0.0
 20
0.0
 30
0.0
  0
VERTEX
  5
6C
330
6B
100
AcDbEntity
  8
_U+30EC_U+30A4_U+30E4_U+30FC 1
 62
   179
420
  2234388
370
    25
100
AcDbVertex
100
AcDb2dVertex
 10
88.01046858799921
 20
-135.4222166328111
 30
0.0
  0
VERTEX
  5
6D
330
6B
100
AcDbEntity
  8
_U+30EC_U+30A4_U+30E4_U+30FC 1
 62
   179
420
  2234388
370
    25
100
AcDbVertex
100
AcDb2dVertex
 10
87.60636386698717
 20
-134.7221644107641
 30
0.0
  0
SEQEND
  5
6E
330
6B
100
AcDbEntity
  8
_U+30EC_U+30A4_U+30E4_U+30FC 1
 62
   179
420
  2234388
370
    25
  0
POLYLINE
  5
6F
330
1F
100
AcDbEntity
  8
_U+30EC_U+30A4_U+30E4_U+30FC 1
 62
   179
420
  2234388
370
    25
100
AcDb2dPolyline
 66
     1
 10
0.0
 20
0.0
 30
0.0
  0
VERTEX
  5
70
330
6F
100
AcDbEntity
  8
_U+30EC_U+30A4_U+30E4_U+30FC 1
 62
   179
420
  2234388
370
    25
100
AcDbVertex
100
AcDb2dVertex
 10
87.60636386698717
 20
-134.7221644107641
 30
0.0
  0
VERTEX
  5
71
330
6F
100
AcDbEntity
  8
_U+30EC_U+30A4_U+30E4_U+30FC 1
 62
   179
420
  2234388
370
    25
100
AcDbVertex
100
AcDb2dVertex
 10
84.01070952337491
 20
-134.7221644107641
 30
0.0
  0
SEQEND
  5
72
330
6F
100
AcDbEntity
  8
_U+30EC_U+30A4_U+30E4_U+30FC 1
 62
   179
420
  2234388
370
    25
  0
POLYLINE
  5
73
330
1F
100
AcDbEntity
  8
_U+30EC_U+30A4_U+30E4_U+30FC 1
 62
   179
420
  2234388
370
    25
100
AcDb2dPolyline
 66
     1
 10
0.0
 20
0.0
 30
0.0
  0
VERTEX
  5
74
330
73
100
AcDbEntity
  8
_U+30EC_U+30A4_U+30E4_U+30FC 1
 62
   179
420
  2234388
370
    25
100
AcDbVertex
100
AcDb2dVertex
 10
83.0106198266671
 20
-130.222201634111
 30
0.0
  0
VERTEX
  5
75
330
73
100
AcDbEntity
  8
_U+30EC_U+30A4_U+30E4_U+30FC 1
 62
   179
420
  2234388
370
    25
100
AcDbVertex
100
AcDb2dVertex
 10
83.0106198266671
 20
-135.7219366327359
 30
0.0
  0
SEQEND
  5
76
330
73
100
AcDbEntity
  8
_U+30EC_U+30A4_U+30E4_U+30FC 1
 62
   179
420
  2234388
370
    25
  0
POLYLINE
  5
77
330
1F
100
AcDbEntity
  8
_U+30EC_U+30A4_U+30E4_U+30FC 1
 62
   179
420
  2234388
370
    25
100
AcDb2dPolyline
 66
     1
 10
0.0
 20
0.0
 30
0.0
  0
VERTEX
  5
78
330
77
100
AcDbEntity
  8
_U+30EC_U+30A4_U+30E4_U+30FC 1
 62
   179
420
  2234388
370
    25
100
AcDbVertex
100
AcDb2dVertex
 10
84.01070952337491
 20
-129.2220766343613
 30
0.0
  0
VERTEX
  5
79
330
77
100
AcDbEntity
  8
_U+30EC_U+30A4_U+30E4_U+30FC 1
 62
   179
420
  2234388
370
    25
100
AcDbVertex
100
AcDb2dVertex
 10
84.01070952337491
 20
-134.7221644107641
 30
0.0
  0
SEQEND
  5
7A
330
77
100
AcDbEntity
  8
_U+30EC_U+30A4_U+30E4_U+30FC 1
 62
   179
420
  2234388
370
    25
  0
POLYLINE
  5
7B
330
1F
100
AcDbEntity
  8
_U+30EC_U+30A4_U+30E4_U+30FC 1
 62
   179
420
  2234388
370
    25
100
AcDb2dPolyline
 66
     1
 10
0.0
 20
0.0
 30
0.0
  0
VERTEX
  5
7C
330
7B
100
AcDbEntity
  8
_U+30EC_U+30A4_U+30E4_U+30FC 1
 62
   179
420
  2234388
370
    25
100
AcDbVertex
100
AcDb2dVertex
 10
77.51049691143137
 20
-130.222201634111
 30
0.0
  0
VERTEX
  5
7D
330
7B
100
AcDbEntity
  8
_U+30EC_U+30A4_U+30E4_U+30FC 1
 62
   179
420
  2234388
370
    25
100
AcDbVertex
100
AcDb2dVertex
 10
77.51049691143137
 20
-130.7220877450976
 30
0.0
  0
SEQEND
  5
7E
330
7B
100
AcDbEntity
  8
_U+30EC_U+30A4_U+30E4_U+30FC 1
 62
   179
420
  2234388
370
    25
  0
POLYLINE
  5
7F
330
1F
100
AcDbEntity
  8
_U+30EC_U+30A4_U+30E4_U+30FC 1
 62
   179
420
  2234388
370
    25
100
AcDb2dPolyline
 66
     1
 10
0.0
 20
0.0
 30
0.0
  0
VERTEX
  5
80
330
7F
100
AcDbEntity
  8
_U+30EC_U+30A4_U+30E4_U+30FC 1
 62
   179
420
  2234388
370
    25
100
AcDbVertex
100
AcDb2dVertex
 10
83.0106198266671
 20
-130.222201634111
 30
0.0
  0
VERTEX
  5
81
330
7F
100
AcDbEntity
  8
_U+30EC_U+30A4_U+30E4_U+30FC 1
 62
   179
420
  2234388
370
    25
100
AcDbVertex
100
AcDb2dVertex
 10
77.51049691143137
 20
-130.222201634111
 30
0.0
  0
SEQEND
  5
82
330
7F
100
AcDbEntity
  8
_U+30EC_U+30A4_U+30E4_U+30FC 1
 62
   179
420
  2234388
370
    25
  0
POLYLINE
  5
83
330
1F
100
AcDbEntity
  8
_U+30EC_U+30A4_U+30E4_U+30FC 1
 62
   179
420
  2234388
370
    25
100
AcDb2dPolyline
 66
     1
 10
0.0
 20
0.0
 30
0.0
  0
VERTEX
  5
84
330
83
100
AcDbEntity
  8
_U+30EC_U+30A4_U+30E4_U+30FC 1
 62
   179
420
  2234388
370
    25
100
AcDbVertex
100
AcDb2dVertex
 10
84.01070952337491
 20
-129.2220766343613
 30
0.0
  0
VERTEX
  5
85
330
83
100
AcDbEntity
  8
_U+30EC_U+30A4_U+30E4_U+30FC 1
 62
   179
420
  2234388
370
    25
100
AcDbVertex
100
AcDb2dVertex
 10
77.01064609085029
 20
-129.2220766343613
 30
0.0
  0
SEQEND
  5
86
330
83
100
AcDbEntity
  8
_U+30EC_U+30A4_U+30E4_U+30FC 1
 62
   179
420
  2234388
370
    25
  0
POLYLINE
  5
87
330
1F
100
AcDbEntity
  8
_U+30EC_U+30A4_U+30E4_U+30FC 1
 62
   179
420
  2234388
370
    25
100
AcDb2dPolyline
 66
     1
 10
0.0
 20
0.0
 30
0.0
  0
VERTEX
  5
88
330
87
100
AcDbEntity
  8
_U+30EC_U+30A4_U+30E4_U+30FC 1
 62
   179
420
  2234388
370
    25
100
AcDbVertex
100
AcDb2dVertex
 10
77.51049691143137
 20
-130.7220877450976
 30
0.0
  0
VERTEX
  5
89
330
87
100
AcDbEntity
  8
_U+30EC_U+30A4_U+30E4_U+30FC 1
 62
   179
420
  2234388
370
    25
100
AcDbVertex
100
AcDb2dVertex
 10
76.01052111636561
 20
-130.7220877450976
 30
0.0
  0
SEQEND
  5
8A
330
87
100
AcDbEntity
  8
_U+30EC_U+30A4_U+30E4_U+30FC 1
 62
   179
420
  2234388
370
    25
  0
POLYLINE
  5
8B
330
1F
100
AcDbEntity
  8
_U+30EC_U+30A4_U+30E4_U+30FC 1
 62
   179
420
  2234388
370
    25
100
AcDb2dPolyline
 66
     1
 10
0.0
 20
0.0
 30
0.0
  0
VERTEX
  5
8C
330
8B
100
AcDbEntity
  8
_U+30EC_U+30A4_U+30E4_U+30FC 1
 62
   179
420
  2234388
370
    25
100
AcDbVertex
100
AcDb2dVertex
 10
76.01052111636561
 20
-130.222201634111
 30
0.0
  0
VERTEX
  5
8D
330
8B
100
AcDbEntity
  8
_U+30EC_U+30A4_U+30E4_U+30FC 1
 62
   179
420
  2234388
370
    25
100
AcDbVertex
100
AcDb2dVertex
 10
76.01052111636561
 20
-130.7220877450976
 30
0.0
  0
SEQEND
  5
8E
330
8B
100
AcDbEntity
  8
_U+30EC_U+30A4_U+30E4_U+30FC 1
 62
   179
420
  2234388
370
    25
  0
SPLINE
  5
8F
330
1F
100
AcDbEntity
  8
_U+30EC_U+30A4_U+30E4_U+30FC 1
 62
   179
420
  2234388
370
    25
100
AcDbSpline
210
0.0
220
0.0
230
1.0
 70
     8
 71
     3
 72
     8
 73
     4
 74
     0
 42
0.0000000001
 43
0.0000000001
 12
1.0
 22
0.0
 32
0.0
 13
1.0
 23
0.0
 33
0.0
 40
0.0
 40
0.0
 40
0.0
 40
0.0
 40
1.0
 40
1.0
 40
1.0
 40
1.0
 10
100.0104160596328
 20
-130.222201634111
 30
0.0
 10
100.0104160596328
 20
-129.6699633009159
 30
0.0
 10
99.56291745993836
 20
-129.2220766343613
 30
0.0
 10
99.0106791406938
 20
-129.2220766343613
 30
0.0
  0
SPLINE
  5
90
330
1F
100
AcDbEntity
  8
_U+30EC_U+30A4_U+30E4_U+30FC 1
 62
   179
420
  2234388
370
    25
100
AcDbSpline
210
0.0
220
0.0
230
1.0
 70
     8
 71
     3
 72
     8
 73
     4
 74
     0
 42
0.0000000001
 43
0.0000000001
 12
1.0
 22
0.0
 32
0.0
 13
1.0
 23
0.0
 33
0.0
 40
0.0
 40
0.0
 40
0.0
 40
0.0
 40
1.0
 40
1.0
 40
1.0
 40
1.0
 10
77.01064609085029
 20
-129.2220766343613
 30
0.0
 10
76.45837249382886
 20
-129.2220766343613
 30
0.0
 10
76.01052111636561
 20
-129.6699633009159
 30
0.0
 10
76.01052111636561
 20
-130.222201634111
 30
0.0
  0
SPLINE
  5
91
330
1F
100
AcDbEntity
  8
_U+30EC_U+30A4_U+30E4_U+30FC 1
 62
   179
420
  2234388
370
     9
100
AcDbSpline
210
0.0
220
0.0
230
1.0
 70
    11
 71
     3
 72
    17
 73
    13
 74
     0
 42
0.0000000001
 43
0.0000000001
 12
1.0
 22
0.0
 32
0.0
 13
1.0
 23
0.0
 33
0.0
 40
0.0
 40
0.0
 40
0.0
 40
0.0
 40
1.0
 40
1.0
 40
1.0
 40
2.0
 40
2.0
 40
2.0
 40
3.0
 40
3.0
 40
3.0
 40
4.0
 40
4.0
 40
4.0
 40
4.0
 10
76.11042778048345
 20
-125.2223174686944
 30
0.0
 10
76.11042778048345
 20
-125.1668608020418
 30
0.0
 10
76.06562500384868
 20
-125.1220933020529
 30
0.0
 10
76.01052111636561
 20
-125.1220933020529
 30
0.0
 10
75.95538195110565
 20
-125.1220933020529
 30
0.0
 10
75.91061445224777
 20
-125.1668608020418
 30
0.0
 10
75.91061445224777
 20
-125.2223174686944
 30
0.0
 10
75.91061445224777
 20
-125.2774566353472
 30
0.0
 10
75.95538195110565
 20
-125.3222241353361
 30
0.0
 10
76.01052111636561
 20
-125.3222241353361
 30
0.0
 10
76.06562500384868
 20
-125.3222241353361
 30
0.0
 10
76.11042778048345
 20
-125.2774566353472
 30
0.0
 10
76.11042778048345
 20
-125.2223174686944
 30
0.0
  0
SPLINE
  5
92
330
1F
100
AcDbEntity
  8
_U+30EC_U+30A4_U+30E4_U+30FC 1
 62
   179
420
  2234388
370
     9
100
AcDbSpline
210
0.0
220
0.0
230
1.0
 70
    11
 71
     3
 72
    17
 73
    13
 74
     0
 42
0.0000000001
 43
0.0000000001
 12
1.0
 22
0.0
 32
0.0
 13
1.0
 23
0.0
 33
0.0
 40
0.0
 40
0.0
 40
0.0
 40
0.0
 40
1.0
 40
1.0
 40
1.0
 40
2.0
 40
2.0
 40
2.0
 40
3.0
 40
3.0
 40
3.0
 40
4.0
 40
4.0
 40
4.0
 40
4.0
 10
84.11061618749274
 20
-125.2223174686944
 30
0.0
 10
84.11061618749274
 20
-125.1668608020418
 30
0.0
 10
84.06584868863486
 20
-125.1220933020529
 30
0.0
 10
84.01070952337491
 20
-125.1220933020529
 30
0.0
 10
83.95560563589184
 20
-125.1220933020529
 30
0.0
 10
83.91080285925707
 20
-125.1668608020418
 30
0.0
 10
83.91080285925707
 20
-125.2223174686944
 30
0.0
 10
83.91080285925707
 20
-125.2774566353472
 30
0.0
 10
83.95560563589184
 20
-125.3222241353361
 30
0.0
 10
84.01070952337491
 20
-125.3222241353361
 30
0.0
 10
84.06584868863486
 20
-125.3222241353361
 30
0.0
 10
84.11061618749274
 20
-125.2774566353472
 30
0.0
 10
84.11061618749274
 20
-125.2223174686944
 30
0.0
  0
SPLINE
  5
93
330
1F
100
AcDbEntity
  8
_U+30EC_U+30A4_U+30E4_U+30FC 1
 62
   179
420
  2234388
370
     9
100
AcDbSpline
210
0.0
220
0.0
230
1.0
 70
    11
 71
     3
 72
    17
 73
    13
 74
     0
 42
0.0000000001
 43
0.0000000001
 12
1.0
 22
0.0
 32
0.0
 13
1.0
 23
0.0
 33
0.0
 40
0.0
 40
0.0
 40
0.0
 40
0.0
 40
1.0
 40
1.0
 40
1.0
 40
2.0
 40
2.0
 40
2.0
 40
3.0
 40
3.0
 40
3.0
 40
4.0
 40
4.0
 40
4.0
 40
4.0
 10
92.11048709451015
 20
-125.2223174686944
 30
0.0
 10
92.11048709451015
 20
-125.1668608020418
 30
0.0
 10
92.06568431787538
 20
-125.1220933020529
 30
0.0
 10
92.01058043039231
 20
-125.1220933020529
 30
0.0
 10
91.95544126513236
 20
-125.1220933020529
 30
0.0
 10
91.91067376627447
 20
-125.1668608020418
 30
0.0
 10
91.91067376627447
 20
-125.2223174686944
 30
0.0
 10
91.91067376627447
 20
-125.2774566353472
 30
0.0
 10
91.95544126513236
 20
-125.3222241353361
 30
0.0
 10
92.01058043039231
 20
-125.3222241353361
 30
0.0
 10
92.06568431787538
 20
-125.3222241353361
 30
0.0
 10
92.11048709451015
 20
-125.2774566353472
 30
0.0
 10
92.11048709451015
 20
-125.2223174686944
 30
0.0
  0
SPLINE
  5
94
330
1F
100
AcDbEntity
  8
_U+30EC_U+30A4_U+30E4_U+30FC 1
 62
   179
420
  2234388
370
     9
100
AcDbSpline
210
0.0
220
0.0
230
1.0
 70
    11
 71
     3
 72
    17
 73
    13
 74
     0
 42
0.0000000001
 43
0.0000000001
 12
1.0
 22
0.0
 32
0.0
 13
1.0
 23
0.0
 33
0.0
 40
0.0
 40
0.0
 40
0.0
 40
0.0
 40
1.0
 40
1.0
 40
1.0
 40
2.0
 40
2.0
 40
2.0
 40
3.0
 40
3.0
 40
3.0
 40
4.0
 40
4.0
 40
4.0
 40
4.0
 10
100.1106755015194
 20
-125.2223174686944
 30
0.0
 10
100.1106755015194
 20
-125.1668608020418
 30
0.0
 10
100.0659080026616
 20
-125.1220933020529
 30
0.0
 10
100.0104160596328
 20
-125.1220933020529
 30
0.0
 10
99.95531217214976
 20
-125.1220933020529
 30
0.0
 10
99.91050939551499
 20
-125.1668608020418
 30
0.0
 10
99.91050939551499
 20
-125.2223174686944
 30
0.0
 10
99.91050939551499
 20
-125.2774566353472
 30
0.0
 10
99.95531217214976
 20
-125.3222241353361
 30
0.0
 10
100.0104160596328
 20
-125.3222241353361
 30
0.0
 10
100.0659080026616
 20
-125.3222241353361
 30
0.0
 10
100.1106755015194
 20
-125.2774566353472
 30
0.0
 10
100.1106755015194
 20
-125.2223174686944
 30
0.0
  0
SPLINE
  5
95
330
1F
100
AcDbEntity
  8
_U+30EC_U+30A4_U+30E4_U+30FC 1
 62
   179
420
  2234388
370
     9
100
AcDbSpline
210
0.0
220
0.0
230
1.0
 70
    11
 71
     3
 72
    17
 73
    13
 74
     0
 42
0.0000000001
 43
0.0000000001
 12
1.0
 22
0.0
 32
0.0
 13
1.0
 23
0.0
 33
0.0
 40
0.0
 40
0.0
 40
0.0
 40
0.0
 40
1.0
 40
1.0
 40
1.0
 40
2.0
 40
2.0
 40
2.0
 40
3.0
 40
3.0
 40
3.0
 40
4.0
 40
4.0
 40
4.0
 40
4.0
 10
104.1104345661438
 20
-129.2220766343613
 30
0.0
 10
104.1104345661438
 20
-129.1669727454858
 30
0.0
 10
104.0656670672859
 20
-129.1221699677197
 30
0.0
 10
104.0105305295531
 20
-129.1221699677197
 30
0.0
 10
103.9554240145429
 20
-129.1221699677197
 30
0.0
 10
103.9106212379081
 20
-129.1669727454858
 30
0.0
 10
103.9106212379081
 20
-129.2220766343613
 30
0.0
 10
103.9106212379081
 20
-129.2772158010138
 30
0.0
 10
103.9554240145429
 20
-129.321983301003
 30
0.0
 10
104.0105305295531
 20
-129.321983301003
 30
0.0
 10
104.0656670672859
 20
-129.321983301003
 30
0.0
 10
104.1104345661438
 20
-129.2772158010138
 30
0.0
 10
104.1104345661438
 20
-129.2220766343613
 30
0.0
  0
SPLINE
  5
96
330
1F
100
AcDbEntity
  8
_U+30EC_U+30A4_U+30E4_U+30FC 1
 62
   179
420
  2234388
370
     9
100
AcDbSpline
210
0.0
220
0.0
230
1.0
 70
    11
 71
     3
 72
    17
 73
    13
 74
     0
 42
0.0000000001
 43
0.0000000001
 12
1.0
 22
0.0
 32
0.0
 13
1.0
 23
0.0
 33
0.0
 40
0.0
 40
0.0
 40
0.0
 40
0.0
 40
1.0
 40
1.0
 40
1.0
 40
2.0
 40
2.0
 40
2.0
 40
3.0
 40
3.0
 40
3.0
 40
4.0
 40
4.0
 40
4.0
 40
4.0
 10
104.1104345661438
 20
-130.7220877450976
 30
0.0
 10
104.1104345661438
 20
-130.6669485784445
 30
0.0
 10
104.0656670672859
 20
-130.6221810784553
 30
0.0
 10
104.0105305295531
 20
-130.6221810784553
 30
0.0
 10
103.9554240145429
 20
-130.6221810784553
 30
0.0
 10
103.9106212379081
 20
-130.6669485784445
 30
0.0
 10
103.9106212379081
 20
-130.7220877450976
 30
0.0
 10
103.9106212379081
 20
-130.7771916339725
 30
0.0
 10
103.9554240145429
 20
-130.8219944117392
 30
0.0
 10
104.0105305295531
 20
-130.8219944117392
 30
0.0
 10
104.0656670672859
 20
-130.8219944117392
 30
0.0
 10
104.1104345661438
 20
-130.7771916339725
 30
0.0
 10
104.1104345661438
 20
-130.7220877450976
 30
0.0
  0
SPLINE
  5
97
330
1F
100
AcDbEntity
  8
_U+30EC_U+30A4_U+30E4_U+30FC 1
 62
   179
420
  2234388
370
     9
100
AcDbSpline
210
0.0
220
0.0
230
1.0
 70
    11
 71
     3
 72
    17
 73
    13
 74
     0
 42
0.0000000001
 43
0.0000000001
 12
1.0
 22
0.0
 32
0.0
 13
1.0
 23
0.0
 33
0.0
 40
0.0
 40
0.0
 40
0.0
 40
0.0
 40
1.0
 40
1.0
 40
1.0
 40
2.0
 40
2.0
 40
2.0
 40
3.0
 40
3.0
 40
3.0
 40
4.0
 40
4.0
 40
4.0
 40
4.0
 10
104.1104345661438
 20
-135.7219366327359
 30
0.0
 10
104.1104345661438
 20
-135.6668327438611
 30
0.0
 10
104.0656670672859
 20
-135.6220299660943
 30
0.0
 10
104.0105305295531
 20
-135.6220299660943
 30
0.0
 10
103.9554240145429
 20
-135.6220299660943
 30
0.0
 10
103.9106212379081
 20
-135.6668327438611
 30
0.0
 10
103.9106212379081
 20
-135.7219366327359
 30
0.0
 10
103.9106212379081
 20
-135.7774285771668
 30
0.0
 10
103.9554240145429
 20
-135.8221960771554
 30
0.0
 10
104.0105305295531
 20
-135.8221960771554
 30
0.0
 10
104.0656670672859
 20
-135.8221960771554
 30
0.0
 10
104.1104345661438
 20
-135.7774285771668
 30
0.0
 10
104.1104345661438
 20
-135.7219366327359
 30
0.0
  0
POLYLINE
  5
98
330
1F
100
AcDbEntity
  8
_U+30EC_U+30A4_U+30E4_U+30FC 1
 62
   179
420
  2234388
370
     9
100
AcDb2dPolyline
 66
     1
 10
0.0
 20
0.0
 30
0.0
  0
VERTEX
  5
99
330
98
100
AcDbEntity
  8
_U+30EC_U+30A4_U+30E4_U+30FC 1
 62
   179
420
  2234388
370
     9
100
AcDbVertex
100
AcDb2dVertex
 10
76.01052111636561
 20
-125.2223174686944
 30
0.0
  0
VERTEX
  5
9A
330
98
100
AcDbEntity
  8
_U+30EC_U+30A4_U+30E4_U+30FC 1
 62
   179
420
  2234388
370
     9
100
AcDbVertex
100
AcDb2dVertex
 10
84.01070952337491
 20
-125.2223174686944
 30
0.0
  0
SEQEND
  5
9B
330
98
100
AcDbEntity
  8
_U+30EC_U+30A4_U+30E4_U+30FC 1
 62
   179
420
  2234388
370
     9
  0
POLYLINE
  5
9C
330
1F
100
AcDbEntity
  8
_U+30EC_U+30A4_U+30E4_U+30FC 1
 62
   179
420
  2234388
370
     9
100
AcDb2dPolyline
 66
     1
 10
0.0
 20
0.0
 30
0.0
  0
VERTEX
  5
9D
330
9C
100
AcDbEntity
  8
_U+30EC_U+30A4_U+30E4_U+30FC 1
 62
   179
420
  2234388
370
     9
100
AcDbVertex
100
AcDb2dVertex
 10
76.01052111636561
 20
-127.6821310791907
 30
0.0
  0
VERTEX
  5
9E
330
9C
100
AcDbEntity
  8
_U+30EC_U+30A4_U+30E4_U+30FC 1
 62
   179
420
  2234388
370
     9
100
AcDbVertex
100
AcDb2dVertex
 10
76.01052111636561
 20
-124.2218749689445
 30
0.0
  0
SEQEND
  5
9F
330
9C
100
AcDbEntity
  8
_U+30EC_U+30A4_U+30E4_U+30FC 1
 62
   179
420
  2234388
370
     9
  0
POLYLINE
  5
A0
330
1F
100
AcDbEntity
  8
_U+30EC_U+30A4_U+30E4_U+30FC 1
 62
   179
420
  2234388
370
     9
100
AcDb2dPolyline
 66
     1
 10
0.0
 20
0.0
 30
0.0
  0
VERTEX
  5
A1
330
A0
100
AcDbEntity
  8
_U+30EC_U+30A4_U+30E4_U+30FC 1
 62
   179
420
  2234388
370
     9
100
AcDbVertex
100
AcDb2dVertex
 10
84.01070952337491
 20
-126.6823588572181
 30
0.0
  0
VERTEX
  5
A2
330
A0
100
AcDbEntity
  8
_U+30EC_U+30A4_U+30E4_U+30FC 1
 62
   179
420
  2234388
370
     9
100
AcDbVertex
100
AcDb2dVertex
 10
84.01070952337491
 20
-124.2218749689445
 30
0.0
  0
SEQEND
  5
A3
330
A0
100
AcDbEntity
  8
_U+30EC_U+30A4_U+30E4_U+30FC 1
 62
   179
420
  2234388
370
     9
  0
INSERT
  5
A5
330
1F
100
AcDbEntity
  8
_U+30EC_U+30A4_U+30E4_U+30FC 1
100
AcDbBlockReference
  2
block 2
 10
0.0
 20
0.0
 30
0.0
  0
POLYLINE
  5
AC
330
1F
100
AcDbEntity
  8
_U+30EC_U+30A4_U+30E4_U+30FC 1
 62
   179
420
  2234388
370
     9
100
AcDb2dPolyline
 66
     1
 10
0.0
 20
0.0
 30
0.0
  0
VERTEX
  5
AD
330
AC
100
AcDbEntity
  8
_U+30EC_U+30A4_U+30E4_U+30FC 1
 62
   179
420
  2234388
370
     9
100
AcDbVertex
100
AcDb2dVertex
 10
84.01070952337491
 20
-125.2223174686944
 30
0.0
  0
VERTEX
  5
AE
330
AC
100
AcDbEntity
  8
_U+30EC_U+30A4_U+30E4_U+30FC 1
 62
   179
420
  2234388
370
     9
100
AcDbVertex
100
AcDb2dVertex
 10
92.01058043039231
 20
-125.2223174686944
 30
0.0
  0
SEQEND
  5
AF
330
AC
100
AcDbEntity
  8
_U+30EC_U+30A4_U+30E4_U+30FC 1
 62
   179
420
  2234388
370
     9
  0
POLYLINE
  5
B0
330
1F
100
AcDbEntity
  8
_U+30EC_U+30A4_U+30E4_U+30FC 1
 62
   179
420
  2234388
370
     9
100
AcDb2dPolyline
 66
     1
 10
0.0
 20
0.0
 30
0.0
  0
VERTEX
  5
B1
330
B0
100
AcDbEntity
  8
_U+30EC_U+30A4_U+30E4_U+30FC 1
 62
   179
420
  2234388
370
     9
100
AcDbVertex
100
AcDb2dVertex
 10
92.01058043039231
 20
-126.6823588572181
 30
0.0
  0
VERTEX
  5
B2
330
B0
100
AcDbEntity
  8
_U+30EC_U+30A4_U+30E4_U+30FC 1
 62
   179
420
  2234388
370
     9
100
AcDbVertex
100
AcDb2dVertex
 10
92.01058043039231
 20
-124.2218749689445
 30
0.0
  0
SEQEND
  5
B3
330
B0
100
AcDbEntity
  8
_U+30EC_U+30A4_U+30E4_U+30FC 1
 62
   179
420
  2234388
370
     9
  0
INSERT
  5
B5
330
1F
100
AcDbEntity
  8
_U+30EC_U+30A4_U+30E4_U+30FC 1
100
AcDbBlockReference
  2
block 3
 10
0.0
 20
0.0
 30
0.0
  0
POLYLINE
  5
BC
330
1F
100
AcDbEntity
  8
_U+30EC_U+30A4_U+30E4_U+30FC 1
 62
   179
420
  2234388
370
     9
100
AcDb2dPolyline
 66
     1
 10
0.0
 20
0.0
 30
0.0
  0
VERTEX
  5
BD
330
BC
100
AcDbEntity
  8
_U+30EC_U+30A4_U+30E4_U+30FC 1
 62
   179
420
  2234388
370
     9
100
AcDbVertex
100
AcDb2dVertex
 10
92.01058043039231
 20
-125.2223174686944
 30
0.0
  0
VERTEX
  5
BE
330
BC
100
AcDbEntity
  8
_U+30EC_U+30A4_U+30E4_U+30FC 1
 62
   179
420
  2234388
370
     9
100
AcDbVertex
100
AcDb2dVertex
 10
100.0104160596328
 20
-125.2223174686944
 30
0.0
  0
SEQEND
  5
BF
330
BC
100
AcDbEntity
  8
_U+30EC_U+30A4_U+30E4_U+30FC 1
 62
   179
420
  2234388
370
     9
  0
POLYLINE
  5
C0
330
1F
100
AcDbEntity
  8
_U+30EC_U+30A4_U+30E4_U+30FC 1
 62
   179
420
  2234388
370
     9
100
AcDb2dPolyline
 66
     1
 10
0.0
 20
0.0
 30
0.0
  0
VERTEX
  5
C1
330
C0
100
AcDbEntity
  8
_U+30EC_U+30A4_U+30E4_U+30FC 1
 62
   179
420
  2234388
370
     9
100
AcDbVertex
100
AcDb2dVertex
 10
100.0104160596328
 20
-127.6821310791907
 30
0.0
  0
VERTEX
  5
C2
330
C0
100
AcDbEntity
  8
_U+30EC_U+30A4_U+30E4_U+30FC 1
 62
   179
420
  2234388
370
     9
100
AcDbVertex
100
AcDb2dVertex
 10
100.0104160596328
 20
-124.2218749689445
 30
0.0
  0
SEQEND
  5
C3
330
C0
100
AcDbEntity
  8
_U+30EC_U+30A4_U+30E4_U+30FC 1
 62
   179
420
  2234388
370
     9
  0
INSERT
  5
C5
330
1F
100
AcDbEntity
  8
_U+30EC_U+30A4_U+30E4_U+30FC 1
100
AcDbBlockReference
  2
block 4
 10
0.0
 20
0.0
 30
0.0
  0
POLYLINE
  5
CC
330
1F
100
AcDbEntity
  8
_U+30EC_U+30A4_U+30E4_U+30FC 1
 62
   179
420
  2234388
370
     9
100
AcDb2dPolyline
 66
     1
 10
0.0
 20
0.0
 30
0.0
  0
VERTEX
  5
CD
330
CC
100
AcDbEntity
  8
_U+30EC_U+30A4_U+30E4_U+30FC 1
 62
   179
420
  2234388
370
     9
100
AcDbVertex
100
AcDb2dVertex
 10
104.0105305295531
 20
-129.2220766343613
 30
0.0
  0
VERTEX
  5
CE
330
CC
100
AcDbEntity
  8
_U+30EC_U+30A4_U+30E4_U+30FC 1
 62
   179
420
  2234388
370
     9
100
AcDbVertex
100
AcDb2dVertex
 10
104.0105305295531
 20
-123.9641708023424
 30
0.0
  0
SEQEND
  5
CF
330
CC
100
AcDbEntity
  8
_U+30EC_U+30A4_U+30E4_U+30FC 1
 62
   179
420
  2234388
370
     9
  0
POLYLINE
  5
D0
330
1F
100
AcDbEntity
  8
_U+30EC_U+30A4_U+30E4_U+30FC 1
 62
   179
420
  2234388
370
     9
100
AcDb2dPolyline
 66
     1
 10
0.0
 20
0.0
 30
0.0
  0
VERTEX
  5
D1
330
D0
100
AcDbEntity
  8
_U+30EC_U+30A4_U+30E4_U+30FC 1
 62
   179
420
  2234388
370
     9
100
AcDbVertex
100
AcDb2dVertex
 10
104.0105305295531
 20
-129.2220766343613
 30
0.0
  0
VERTEX
  5
D2
330
D0
100
AcDbEntity
  8
_U+30EC_U+30A4_U+30E4_U+30FC 1
 62
   179
420
  2234388
370
     9
100
AcDbVertex
100
AcDb2dVertex
 10
104.0105305295531
 20
-130.7220877450976
 30
0.0
  0
SEQEND
  5
D3
330
D0
100
AcDbEntity
  8
_U+30EC_U+30A4_U+30E4_U+30FC 1
 62
   179
420
  2234388
370
     9
  0
POLYLINE
  5
D4
330
1F
100
AcDbEntity
  8
_U+30EC_U+30A4_U+30E4_U+30FC 1
 62
   179
420
  2234388
370
     9
100
AcDb2dPolyline
 66
     1
 10
0.0
 20
0.0
 30
0.0
  0
VERTEX
  5
D5
330
D4
100
AcDbEntity
  8
_U+30EC_U+30A4_U+30E4_U+30FC 1
 62
   179
420
  2234388
370
     9
100
AcDbVertex
100
AcDb2dVertex
 10
101.5507496314468
 20
-129.2220766343613
 30
0.0
  0
VERTEX
  5
D6
330
D4
100
AcDbEntity
  8
_U+30EC_U+30A4_U+30E4_U+30FC 1
 62
   179
420
  2234388
370
     9
100
AcDbVertex
100
AcDb2dVertex
 10
105.0106555293028
 20
-129.2220766343613
 30
0.0
  0
SEQEND
  5
D7
330
D4
100
AcDbEntity
  8
_U+30EC_U+30A4_U+30E4_U+30FC 1
 62
   179
420
  2234388
370
     9
  0
POLYLINE
  5
D8
330
1F
100
AcDbEntity
  8
_U+30EC_U+30A4_U+30E4_U+30FC 1
 62
   179
420
  2234388
370
     9
100
AcDb2dPolyline
 66
     1
 10
0.0
 20
0.0
 30
0.0
  0
VERTEX
  5
D9
330
D8
100
AcDbEntity
  8
_U+30EC_U+30A4_U+30E4_U+30FC 1
 62
   179
420
  2234388
370
     9
100
AcDbVertex
100
AcDb2dVertex
 10
102.5504865503858
 20
-130.7220877450976
 30
0.0
  0
VERTEX
  5
DA
330
D8
100
AcDbEntity
  8
_U+30EC_U+30A4_U+30E4_U+30FC 1
 62
   179
420
  2234388
370
     9
100
AcDbVertex
100
AcDb2dVertex
 10
105.0106555293028
 20
-130.7220877450976
 30
0.0
  0
SEQEND
  5
DB
330
D8
100
AcDbEntity
  8
_U+30EC_U+30A4_U+30E4_U+30FC 1
 62
   179
420
  2234388
370
     9
  0
INSERT
  5
DD
330
1F
100
AcDbEntity
  8
_U+30EC_U+30A4_U+30E4_U+30FC 1
100
AcDbBlockReference
  2
block 5
 10
0.0
 20
0.0
 30
0.0
  0
POLYLINE
  5
EC
330
1F
100
AcDbEntity
  8
_U+30EC_U+30A4_U+30E4_U+30FC 1
 62
   179
420
  2234388
370
     9
100
AcDb2dPolyline
 66
     1
 10
0.0
 20
0.0
 30
0.0
  0
VERTEX
  5
ED
330
EC
100
AcDbEntity
  8
_U+30EC_U+30A4_U+30E4_U+30FC 1
 62
   179
420
  2234388
370
     9
100
AcDbVertex
100
AcDb2dVertex
 10
104.0105305295531
 20
-135.7219366327359
 30
0.0
  0
VERTEX
  5
EE
330
EC
100
AcDbEntity
  8
_U+30EC_U+30A4_U+30E4_U+30FC 1
 62
   179
420
  2234388
370
     9
100
AcDbVertex
100
AcDb2dVertex
 10
104.0105305295531
 20
-130.7220877450976
 30
0.0
  0
SEQEND
  5
EF
330
EC
100
AcDbEntity
  8
_U+30EC_U+30A4_U+30E4_U+30FC 1
 62
   179
420
  2234388
370
     9
  0
POLYLINE
  5
F0
330
1F
100
AcDbEntity
  8
_U+30EC_U+30A4_U+30E4_U+30FC 1
 62
   179
420
  2234388
370
     9
100
AcDb2dPolyline
 66
     1
 10
0.0
 20
0.0
 30
0.0
  0
VERTEX
  5
F1
330
F0
100
AcDbEntity
  8
_U+30EC_U+30A4_U+30E4_U+30FC 1
 62
   179
420
  2234388
370
     9
100
AcDbVertex
100
AcDb2dVertex
 10
95.55042311786117
 20
-135.7219366327359
 30
0.0
  0
VERTEX
  5
F2
330
F0
100
AcDbEntity
  8
_U+30EC_U+30A4_U+30E4_U+30FC 1
 62
   179
420
  2234388
370
     9
100
AcDbVertex
100
AcDb2dVertex
 10
105.0106555293028
 20
-135.7219366327359
 30
0.0
  0
SEQEND
  5
F3
330
F0
100
AcDbEntity
  8
_U+30EC_U+30A4_U+30E4_U+30FC 1
 62
   179
420
  2234388
370
     9
  0
INSERT
  5
F5
330
1F
100
AcDbEntity
  8
_U+30EC_U+30A4_U+30E4_U+30FC 1
100
AcDbBlockReference
  2
block 6
 10
0.0
 20
0.0
 30
0.0
  0
SPLINE
  5
FA
330
1F
100
AcDbEntity
  8
_U+30EC_U+30A4_U+30E4_U+30FC 1
 62
   179
420
  2234388
370
     9
100
AcDbSpline
210
0.0
220
0.0
230
1.0
 70
    11
 71
     3
 72
    17
 73
    13
 74
     0
 42
0.0000000001
 43
0.0000000001
 12
1.0
 22
0.0
 32
0.0
 13
1.0
 23
0.0
 33
0.0
 40
0.0
 40
0.0
 40
0.0
 40
0.0
 40
1.0
 40
1.0
 40
1.0
 40
2.0
 40
2.0
 40
2.0
 40
3.0
 40
3.0
 40
3.0
 40
4.0
 40
4.0
 40
4.0
 40
4.0
 10
83.1115495463144
 20
-132.4680555224386
 30
0.0
 10
83.1115495463144
 20
-132.4129516335636
 30
0.0
 10
83.06674676967963
 20
-132.3681488557969
 30
0.0
 10
83.01164288219655
 20
-132.3681488557969
 30
0.0
 10
82.95650371693661
 20
-132.3681488557969
 30
0.0
 10
82.91173621807872
 20
-132.4129516335636
 30
0.0
 10
82.91173621807872
 20
-132.4680555224386
 30
0.0
 10
82.91173621807872
 20
-132.5231946890916
 30
0.0
 10
82.95650371693661
 20
-132.5679621890802
 30
0.0
 10
83.01164288219655
 20
-132.5679621890802
 30
0.0
 10
83.06674676967963
 20
-132.5679621890802
 30
0.0
 10
83.1115495463144
 20
-132.5231946890916
 30
0.0
 10
83.1115495463144
 20
-132.4680555224386
 30
0.0
  0
SPLINE
  5
FB
330
1F
100
AcDbEntity
  8
_U+30EC_U+30A4_U+30E4_U+30FC 1
 62
   179
420
  2234388
370
     9
100
AcDbSpline
210
0.0
220
0.0
230
1.0
 70
    11
 71
     3
 72
    17
 73
    13
 74
     0
 42
0.0000000001
 43
0.0000000001
 12
1.0
 22
0.0
 32
0.0
 13
1.0
 23
0.0
 33
0.0
 40
0.0
 40
0.0
 40
0.0
 40
0.0
 40
1.0
 40
1.0
 40
1.0
 40
2.0
 40
2.0
 40
2.0
 40
3.0
 40
3.0
 40
3.0
 40
4.0
 40
4.0
 40
4.0
 40
4.0
 10
84.11167452079907
 20
-132.4680555224386
 30
0.0
 10
84.11167452079907
 20
-132.4129516335636
 30
0.0
 10
84.06687174416432
 20
-132.3681488557969
 30
0.0
 10
84.01176785668125
 20
-132.3681488557969
 30
0.0
 10
83.95662869142129
 20
-132.3681488557969
 30
0.0
 10
83.9118611925634
 20
-132.4129516335636
 30
0.0
 10
83.9118611925634
 20
-132.4680555224386
 30
0.0
 10
83.9118611925634
 20
-132.5231946890916
 30
0.0
 10
83.95662869142129
 20
-132.5679621890802
 30
0.0
 10
84.01176785668125
 20
-132.5679621890802
 30
0.0
 10
84.06687174416432
 20
-132.5679621890802
 30
0.0
 10
84.11167452079907
 20
-132.5231946890916
 30
0.0
 10
84.11167452079907
 20
-132.4680555224386
 30
0.0
  0
POLYLINE
  5
FC
330
1F
100
AcDbEntity
  8
_U+30EC_U+30A4_U+30E4_U+30FC 1
 62
   179
420
  2234388
370
     9
100
AcDb2dPolyline
 66
     1
 10
0.0
 20
0.0
 30
0.0
  0
VERTEX
  5
FD
330
FC
100
AcDbEntity
  8
_U+30EC_U+30A4_U+30E4_U+30FC 1
 62
   179
420
  2234388
370
     9
100
AcDbVertex
100
AcDb2dVertex
 10
82.16758886834705
 20
-132.4680555224386
 30
0.0
  0
VERTEX
  5
FE
330
FC
100
AcDbEntity
  8
_U+30EC_U+30A4_U+30E4_U+30FC 1
 62
   179
420
  2234388
370
     9
100
AcDbVertex
100
AcDb2dVertex
 10
86.09844835900114
 20
-132.4680555224386
 30
0.0
  0
SEQEND
  5
FF
330
FC
100
AcDbEntity
  8
_U+30EC_U+30A4_U+30E4_U+30FC 1
 62
   179
420
  2234388
370
     9
  0
INSERT
  5
101
330
1F
100
AcDbEntity
  8
_U+30EC_U+30A4_U+30E4_U+30FC 1
100
AcDbBlockReference
  2
block 7
 10
0.0
 20
0.0
 30
0.0
  0
ENDSEC
  0
SECTION
  2
OBJECTS
  0
DICTIONARY
  5
C
330
0
100
AcDbDictionary
281
     1
  3
ACAD_GROUP
350
D
  3
ACAD_LAYOUT
350
1A
  3
ACAD_MATERIAL
350
3B
  3
ACAD_MLEADERSTYLE
350
107
  3
ACAD_MLINESTYLE
350
17
  3
ACAD_PLOTSETTINGS
350
19
  3
ACAD_PLOTSTYLENAME
350
E
  3
ACAD_TABLESTYLE
350
106
  3
ACAD_VISUALSTYLE
350
2A
  0
SUN
  5
3F
330
29
100
AcDbSun
 90
        1
290
     0
 63
     7
421
 16777215
 40
1.0
291
     1
 91
  2455826
 92
 54000000
292
     0
 70
     2
 71
   256
280
     1
  0
DICTIONARY
  5
D
102
{ACAD_REACTORS
330
C
102
}
330
C
100
AcDbDictionary
281
     1
  0
DICTIONARY
  5
1A
102
{ACAD_REACTORS
330
C
102
}
330
C
100
AcDbDictionary
281
     1
  3
Layout1
350
1E
  3
Layout2
350
26
  3
Model
350
22
  0
DICTIONARY
  5
3B
102
{ACAD_REACTORS
330
C
102
}
330
C
100
AcDbDictionary
281
     1
  3
ByBlock
350
3D
  3
ByLayer
350
3C
  3
Global
350
3E
  0
DICTIONARY
  5
107
102
{ACAD_REACTORS
330
C
102
}
330
C
100
AcDbDictionary
281
     1
  0
DICTIONARY
  5
17
102
{ACAD_REACTORS
330
C
102
}
330
C
100
AcDbDictionary
281
     1
  3
Standard
350
18
  0
DICTIONARY
  5
19
102
{ACAD_REACTORS
330
C
102
}
330
C
100
AcDbDictionary
281
     1
  0
ACDBDICTIONARYWDFLT
  5
E
102
{ACAD_REACTORS
330
C
102
}
330
C
100
AcDbDictionary
281
     1
  3
Normal
350
F
100
AcDbDictionaryWithDefault
340
F
  0
DICTIONARY
  5
106
102
{ACAD_REACTORS
330
C
102
}
330
C
100
AcDbDictionary
281
     1
  0
DICTIONARY
  5
2A
102
{ACAD_REACTORS
330
C
102
}
330
C
100
AcDbDictionary
281
     1
  3
2dWireframe
350
2F
  3
3D Hidden
350
31
  3
3dWireframe
350
30
  3
Basic
350
32
  3
Brighten
350
36
  3
ColorChange
350
3A
  3
Conceptual
350
34
  3
Dim
350
35
  3
Facepattern
350
39
  3
Flat
350
2B
  3
FlatWithEdges
350
2C
  3
Gouraud
350
2D
  3
GouraudWithEdges
350
2E
  3
Linepattern
350
38
  3
Realistic
350
33
  3
Thicken
350
37
  0
LAYOUT
  5
1E
102
{ACAD_REACTORS
330
1A
102
}
330
1A
100
AcDbPlotSettings
  1

  2
none_device
  4

  6

 40
0.0
 41
0.0
 42
0.0
 43
0.0
 44
0.0
 45
0.0
 46
0.0
 47
0.0
 48
0.0
 49
0.0
140
0.0
141
0.0
142
1.0
143
1.0
 70
   688
 72
     0
 73
     0
 74
     5
  7

 75
    16
 76
     0
 77
     2
 78
   300
147
1.0
148
0.0
149
0.0
100
AcDbLayout
  1
Layout1
 70
     1
 71
     1
 10
0.0
 20
0.0
 11
12.0
 21
9.0
 12
0.0
 22
0.0
 32
0.0
 14
1.000000000000000E+20
 24
1.000000000000000E+20
 34
1.000000000000000E+20
 15
-1.000000000000000E+20
 25
-1.000000000000000E+20
 35
-1.000000000000000E+20
146
0.0
 13
0.0
 23
0.0
 33
0.0
 16
1.0
 26
0.0
 36
0.0
 17
0.0
 27
1.0
 37
0.0
 76
     0
330
1B
  0
LAYOUT
  5
26
102
{ACAD_REACTORS
330
1A
102
}
330
1A
100
AcDbPlotSettings
  1

  2
none_device
  4

  6

 40
0.0
 41
0.0
 42
0.0
 43
0.0
 44
0.0
 45
0.0
 46
0.0
 47
0.0
 48
0.0
 49
0.0
140
0.0
141
0.0
142
1.0
143
1.0
 70
   688
 72
     0
 73
     0
 74
     5
  7

 75
    16
 76
     0
 77
     2
 78
   300
147
1.0
148
0.0
149
0.0
100
AcDbLayout
  1
Layout2
 70
     1
 71
     2
 10
0.0
 20
0.0
 11
0.0
 21
0.0
 12
0.0
 22
0.0
 32
0.0
 14
0.0
 24
0.0
 34
0.0
 15
0.0
 25
0.0
 35
0.0
146
0.0
 13
0.0
 23
0.0
 33
0.0
 16
1.0
 26
0.0
 36
0.0
 17
0.0
 27
1.0
 37
0.0
 76
     0
330
23
  0
LAYOUT
  5
22
102
{ACAD_REACTORS
330
1A
102
}
330
1A
100
AcDbPlotSettings
  1

  2
none_device
  4

  6

 40
0.0
 41
0.0
 42
0.0
 43
0.0
 44
0.0
 45
0.0
 46
0.0
 47
0.0
 48
0.0
 49
0.0
140
0.0
141
0.0
142
1.0
143
1.0
 70
  1712
 72
     0
 73
     0
 74
     0
  7

 75
     0
 76
     0
 77
     2
 78
   300
147
1.0
148
0.0
149
0.0
100
AcDbLayout
  1
Model
 70
     1
 71
     0
 10
0.0
 20
0.0
 11
12.0
 21
9.0
 12
0.0
 22
0.0
 32
0.0
 14
1.000000000000000E+20
 24
1.000000000000000E+20
 34
1.000000000000000E+20
 15
-1.000000000000000E+20
 25
-1.000000000000000E+20
 35
-1.000000000000000E+20
146
0.0
 13
0.0
 23
0.0
 33
0.0
 16
1.0
 26
0.0
 36
0.0
 17
0.0
 27
1.0
 37
0.0
 76
     0
330
1F
331
29
  0
MATERIAL
  5
3D
102
{ACAD_REACTORS
330
3B
102
}
330
3B
100
AcDbMaterial
  1
ByBlock
 72
     1
 94
      127
  0
MATERIAL
  5
3C
102
{ACAD_REACTORS
330
3B
102
}
330
3B
100
AcDbMaterial
  1
ByLayer
 72
     1
 94
      127
  0
MATERIAL
  5
3E
102
{ACAD_REACTORS
330
3B
102
}
330
3B
100
AcDbMaterial
  1
Global
 72
     1
 94
      127
  0
MLINESTYLE
  5
18
102
{ACAD_REACTORS
330
17
102
}
330
17
100
AcDbMlineStyle
  2
Standard
 70
     0
  3

 62
   256
 51
90.0
 52
90.0
 71
     2
 49
0.5
 62
   256
  6
BYLAYER
 49
-0.5
 62
   256
  6
BYLAYER
  0
ACDBPLACEHOLDER
  5
F
102
{ACAD_REACTORS
330
E
102
}
330
E
  0
VISUALSTYLE
  5
2F
102
{ACAD_REACTORS
330
2A
102
}
330
2A
100
AcDbVisualStyle
  2
2dWireframe
 70
     4
177
     2
291
     0
 71
     0
176
     1
 72
     2
176
     1
 73
     0
176
     1
 90
        0
176
     1
 40
-0.6
176
     1
 41
-30.0
176
     1
 62
     5
 63
     7
421
 16777215
176
     1
 74
     1
176
     1
 91
        4
176
     1
 64
     7
176
     1
 65
   257
176
     1
 75
     1
176
     1
175
     1
176
     1
 42
1.0
176
     1
 92
        0
176
     1
 66
   257
176
     1
 43
1.0
176
     1
 76
     1
176
     1
 77
     6
176
     1
 78
     2
176
     1
 67
     7
176
     1
 79
     5
176
     1
170
     0
176
     1
171
     0
176
     1
290
     0
176
     1
 93
        1
176
     1
 44
0.0
176
     1
173
     0
176
     1
  0
VISUALSTYLE
  5
31
102
{ACAD_REACTORS
330
2A
102
}
330
2A
100
AcDbVisualStyle
  2
3D Hidden
 70
     6
177
     2
291
     0
 71
     1
176
     1
 72
     2
176
     1
 73
     2
176
     1
 90
        0
176
     1
 40
-0.6
176
     1
 41
-30.0
176
     1
 62
     5
 63
     7
421
 16777215
176
     1
 74
     2
176
     1
 91
        2
176
     1
 64
     7
176
     1
 65
   257
176
     1
 75
     2
176
     1
175
     1
176
     1
 42
40.0
176
     1
 92
        0
176
     1
 66
   257
176
     1
 43
1.0
176
     1
 76
     1
176
     1
 77
     6
176
     1
 78
     2
176
     1
 67
     7
176
     1
 79
     3
176
     1
170
     0
176
     1
171
     0
176
     1
290
     0
176
     1
 93
        1
176
     1
 44
0.0
176
     1
173
     0
176
     1
  0
VISUALSTYLE
  5
30
102
{ACAD_REACTORS
330
2A
102
}
330
2A
100
AcDbVisualStyle
  2
3dWireframe
 70
     5
177
     2
291
     0
 71
     0
176
     1
 72
     2
176
     1
 73
     0
176
     1
 90
        0
176
     1
 40
-0.6
176
     1
 41
-30.0
176
     1
 62
     5
 63
     7
421
 16777215
176
     1
 74
     1
176
     1
 91
        4
176
     1
 64
     7
176
     1
 65
   257
176
     1
 75
     1
176
     1
175
     1
176
     1
 42
1.0
176
     1
 92
        0
176
     1
 66
   257
176
     1
 43
1.0
176
     1
 76
     1
176
     1
 77
     6
176
     1
 78
     2
176
     1
 67
     7
176
     1
 79
     5
176
     1
170
     0
176
     1
171
     0
176
     1
290
     0
176
     1
 93
        1
176
     1
 44
0.0
176
     1
173
     0
176
     1
  0
VISUALSTYLE
  5
32
102
{ACAD_REACTORS
330
2A
102
}
330
2A
100
AcDbVisualStyle
  2
Basic
 70
     7
177
     2
291
     1
 71
     1
176
     1
 72
     0
176
     1
 73
     1
176
     1
 90
        0
176
     1
 40
-0.6
176
     1
 41
-30.0
176
     1
 62
     5
 63
     7
421
 16777215
176
     1
 74
     0
176
     1
 91
        4
176
     1
 64
     7
176
     1
 65
   257
176
     1
 75
     1
176
     1
175
     1
176
     1
 42
1.0
176
     1
 92
        8
176
     1
 66
     7
176
     1
 43
1.0
176
     1
 76
     1
176
     1
 77
     6
176
     1
 78
     2
176
     1
 67
     7
176
     1
 79
     5
176
     1
170
     0
176
     1
171
     0
176
     1
290
     0
176
     1
 93
        1
176
     1
 44
0.0
176
     1
173
     0
176
     1
  0
VISUALSTYLE
  5
36
102
{ACAD_REACTORS
330
2A
102
}
330
2A
100
AcDbVisualStyle
  2
Brighten
 70
    12
177
     2
291
     1
 71
     2
176
     1
 72
     2
176
     1
 73
     0
176
     1
 90
        0
176
     1
 40
-0.6
176
     1
 41
-30.0
176
     1
 62
     5
 63
     7
421
 16777215
176
     1
 74
     1
176
     1
 91
        4
176
     1
 64
     7
176
     1
 65
   257
176
     1
 75
     1
176
     1
175
     1
176
     1
 42
1.0
176
     1
 92
        8
176
     1
 66
     7
176
     1
 43
1.0
176
     1
 76
     1
176
     1
 77
     6
176
     1
 78
     2
176
     1
 67
     7
176
     1
 79
     5
176
     1
170
     0
176
     1
171
     0
176
     1
290
     0
176
     1
 93
        1
176
     1
 44
50.0
176
     1
173
     0
176
     1
  0
VISUALSTYLE
  5
3A
102
{ACAD_REACTORS
330
2A
102
}
330
2A
100
AcDbVisualStyle
  2
ColorChange
 70
    16
177
     2
291
     1
 71
     2
176
     1
 72
     2
176
     1
 73
     3
176
     1
 90
        0
176
     1
 40
-0.6
176
     1
 41
-30.0
176
     1
 62
     5
 63
     8
421
  8421504
176
     1
 74
     1
176
     1
 91
        4
176
     1
 64
     7
176
     1
 65
   257
176
     1
 75
     1
176
     1
175
     1
176
     1
 42
1.0
176
     1
 92
        8
176
     1
 66
     8
424
  8421504
176
     1
 43
1.0
176
     1
 76
     1
176
     1
 77
     6
176
     1
 78
     2
176
     1
 67
     7
176
     1
 79
     5
176
     1
170
     0
176
     1
171
     0
176
     1
290
     0
176
     1
 93
        1
176
     1
 44
0.0
176
     1
173
     0
176
     1
  0
VISUALSTYLE
  5
34
102
{ACAD_REACTORS
330
2A
102
}
330
2A
100
AcDbVisualStyle
  2
Conceptual
 70
     9
177
     2
291
     0
 71
     3
176
     1
 72
     2
176
     1
 73
     0
176
     1
 90
        0
176
     1
 40
-0.6
176
     1
 41
-30.0
176
     1
 62
     5
 63
     7
421
 16777215
176
     1
 74
     2
176
     1
 91
        2
176
     1
 64
     7
176
     1
 65
   257
176
     1
 75
     1
176
     1
175
     1
176
     1
 42
40.0
176
     1
 92
        8
176
     1
 66
     7
176
     1
 43
1.0
176
     1
 76
     1
176
     1
 77
     6
176
     1
 78
     2
176
     1
 67
     7
176
     1
 79
     3
176
     1
170
     0
176
     1
171
     0
176
     1
290
     0
176
     1
 93
        1
176
     1
 44
0.0
176
     1
173
     0
176
     1
  0
VISUALSTYLE
  5
35
102
{ACAD_REACTORS
330
2A
102
}
330
2A
100
AcDbVisualStyle
  2
Dim
 70
    11
177
     2
291
     1
 71
     2
176
     1
 72
     2
176
     1
 73
     0
176
     1
 90
        0
176
     1
 40
-0.6
176
     1
 41
-30.0
176
     1
 62
     5
 63
     7
421
 16777215
176
     1
 74
     1
176
     1
 91
        4
176
     1
 64
     7
176
     1
 65
   257
176
     1
 75
     1
176
     1
175
     1
176
     1
 42
1.0
176
     1
 92
        8
176
     1
 66
     7
176
     1
 43
1.0
176
     1
 76
     1
176
     1
 77
     6
176
     1
 78
     2
176
     1
 67
     7
176
     1
 79
     5
176
     1
170
     0
176
     1
171
     0
176
     1
290
     0
176
     1
 93
        1
176
     1
 44
-50.0
176
     1
173
     0
176
     1
  0
VISUALSTYLE
  5
39
102
{ACAD_REACTORS
330
2A
102
}
330
2A
100
AcDbVisualStyle
  2
Facepattern
 70
    15
177
     2
291
     1
 71
     2
176
     1
 72
     2
176
     1
 73
     0
176
     1
 90
        0
176
     1
 40
-0.6
176
     1
 41
-30.0
176
     1
 62
     5
 63
     7
421
 16777215
176
     1
 74
     1
176
     1
 91
        4
176
     1
 64
     7
176
     1
 65
   257
176
     1
 75
     1
176
     1
175
     1
176
     1
 42
1.0
176
     1
 92
        8
176
     1
 66
     7
176
     1
 43
1.0
176
     1
 76
     1
176
     1
 77
     6
176
     1
 78
     2
176
     1
 67
     7
176
     1
 79
     5
176
     1
170
     0
176
     1
171
     0
176
     1
290
     0
176
     1
 93
        1
176
     1
 44
0.0
176
     1
173
     0
176
     1
  0
VISUALSTYLE
  5
2B
102
{ACAD_REACTORS
330
2A
102
}
330
2A
100
AcDbVisualStyle
  2
Flat
 70
     0
177
     2
291
     1
 71
     2
176
     1
 72
     1
176
     1
 73
     1
176
     1
 90
        2
176
     1
 40
-0.6
176
     1
 41
30.0
176
     1
 62
     5
 63
     7
421
 16777215
176
     1
 74
     0
176
     1
 91
        4
176
     1
 64
     7
176
     1
 65
   257
176
     1
 75
     1
176
     1
175
     1
176
     1
 42
1.0
176
     1
 92
        8
176
     1
 66
     7
176
     1
 43
1.0
176
     1
 76
     1
176
     1
 77
     6
176
     1
 78
     2
176
     1
 67
     7
176
     1
 79
     5
176
     1
170
     0
176
     1
171
     0
176
     1
290
     0
176
     1
 93
       13
176
     1
 44
0.0
176
     1
173
     0
176
     1
  0
VISUALSTYLE
  5
2C
102
{ACAD_REACTORS
330
2A
102
}
330
2A
100
AcDbVisualStyle
  2
FlatWithEdges
 70
     1
177
     2
291
     1
 71
     2
176
     1
 72
     1
176
     1
 73
     1
176
     1
 90
        2
176
     1
 40
-0.6
176
     1
 41
30.0
176
     1
 62
     5
 63
     7
421
 16777215
176
     1
 74
     1
176
     1
 91
        4
176
     1
 64
     7
176
     1
 65
   257
176
     1
 75
     1
176
     1
175
     1
176
     1
 42
1.0
176
     1
 92
        0
176
     1
 66
   257
176
     1
 43
1.0
176
     1
 76
     1
176
     1
 77
     6
176
     1
 78
     2
176
     1
 67
     7
176
     1
 79
     5
176
     1
170
     0
176
     1
171
     0
176
     1
290
     0
176
     1
 93
       13
176
     1
 44
0.0
176
     1
173
     0
176
     1
  0
VISUALSTYLE
  5
2D
102
{ACAD_REACTORS
330
2A
102
}
330
2A
100
AcDbVisualStyle
  2
Gouraud
 70
     2
177
     2
291
     1
 71
     2
176
     1
 72
     2
176
     1
 73
     1
176
     1
 90
        2
176
     1
 40
-0.6
176
     1
 41
30.0
176
     1
 62
     5
 63
     7
421
 16777215
176
     1
 74
     0
176
     1
 91
        4
176
     1
 64
     7
176
     1
 65
   257
176
     1
 75
     1
176
     1
175
     1
176
     1
 42
1.0
176
     1
 92
        0
176
     1
 66
     7
176
     1
 43
1.0
176
     1
 76
     1
176
     1
 77
     6
176
     1
 78
     2
176
     1
 67
     7
176
     1
 79
     5
176
     1
170
     0
176
     1
171
     0
176
     1
290
     0
176
     1
 93
       13
176
     1
 44
0.0
176
     1
173
     0
176
     1
  0
VISUALSTYLE
  5
2E
102
{ACAD_REACTORS
330
2A
102
}
330
2A
100
AcDbVisualStyle
  2
GouraudWithEdges
 70
     3
177
     2
291
     1
 71
     2
176
     1
 72
     2
176
     1
 73
     1
176
     1
 90
        2
176
     1
 40
-0.6
176
     1
 41
30.0
176
     1
 62
     5
 63
     7
421
 16777215
176
     1
 74
     1
176
     1
 91
        4
176
     1
 64
     7
176
     1
 65
   257
176
     1
 75
     1
176
     1
175
     1
176
     1
 42
1.0
176
     1
 92
        0
176
     1
 66
   257
176
     1
 43
1.0
176
     1
 76
     1
176
     1
 77
     6
176
     1
 78
     2
176
     1
 67
     7
176
     1
 79
     5
176
     1
170
     0
176
     1
171
     0
176
     1
290
     0
176
     1
 93
       13
176
     1
 44
0.0
176
     1
173
     0
176
     1
  0
VISUALSTYLE
  5
38
102
{ACAD_REACTORS
330
2A
102
}
330
2A
100
AcDbVisualStyle
  2
Linepattern
 70
    14
177
     2
291
     1
 71
     2
176
     1
 72
     2
176
     1
 73
     0
176
     1
 90
        0
176
     1
 40
-0.6
176
     1
 41
-30.0
176
     1
 62
     5
 63
     7
421
 16777215
176
     1
 74
     1
176
     1
 91
        4
176
     1
 64
     7
176
     1
 65
   257
176
     1
 75
     7
176
     1
175
     7
176
     1
 42
1.0
176
     1
 92
        8
176
     1
 66
     7
176
     1
 43
1.0
176
     1
 76
     1
176
     1
 77
     6
176
     1
 78
     2
176
     1
 67
     7
176
     1
 79
     5
176
     1
170
     0
176
     1
171
     0
176
     1
290
     0
176
     1
 93
        1
176
     1
 44
0.0
176
     1
173
     0
176
     1
  0
VISUALSTYLE
  5
33
102
{ACAD_REACTORS
330
2A
102
}
330
2A
100
AcDbVisualStyle
  2
Realistic
 70
     8
177
     2
291
     0
 71
     2
176
     1
 72
     2
176
     1
 73
     0
176
     1
 90
        0
176
     1
 40
-0.6
176
     1
 41
-30.0
176
     1
 62
     5
 63
     7
421
 16777215
176
     1
 74
     1
176
     1
 91
        0
176
     1
 64
     7
176
     1
 65
   257
176
     1
 75
     1
176
     1
175
     1
176
     1
 42
1.0
176
     1
 92
        8
176
     1
 66
     8
424
  7895160
176
     1
 43
1.0
176
     1
 76
     1
176
     1
 77
     6
176
     1
 78
     2
176
     1
 67
     7
176
     1
 79
     5
176
     1
170
     0
176
     1
171
     0
176
     1
290
     0
176
     1
 93
       13
176
     1
 44
0.0
176
     1
173
     0
176
     1
  0
VISUALSTYLE
  5
37
102
{ACAD_REACTORS
330
2A
102
}
330
2A
100
AcDbVisualStyle
  2
Thicken
 70
    13
177
     2
291
     1
 71
     2
176
     1
 72
     2
176
     1
 73
     0
176
     1
 90
        0
176
     1
 40
-0.6
176
     1
 41
-30.0
176
     1
 62
     5
 63
     7
421
 16777215
176
     1
 74
     1
176
     1
 91
        4
176
     1
 64
     7
176
     1
 65
   257
176
     1
 75
     1
176
     1
175
     1
176
     1
 42
1.0
176
     1
 92
       12
176
     1
 66
     7
176
     1
 43
1.0
176
     1
 76
     1
176
     1
 77
     6
176
     1
 78
     2
176
     1
 67
     7
176
     1
 79
     5
176
     1
170
     0
176
     1
171
     0
176
     1
290
     0
176
     1
 93
        1
176
     1
 44
0.0
176
     1
173
     0
176
     1
  0
ENDSEC
  0
EOF
