  0
SECTION
  2
HEADER
  9
$ACADVER
  1
AC1024
  9
$ACADMAINTVER
 70
     6
  9
$DWGCODEPAGE
  3
UNDEFINED
  9
$INSBASE
 10
0.0
 20
0.0
 30
0.0
  9
$EXTMIN
 10
1.000000000000000E+20
 20
1.000000000000000E+20
 30
1.000000000000000E+20
  9
$EXTMAX
 10
-1.000000000000000E+20
 20
-1.000000000000000E+20
 30
-1.000000000000000E+20
  9
$LIMMIN
 10
0.0
 20
0.0
  9
$LIMMAX
 10
12.0
 20
9.0
  9
$ORTHOMODE
 70
     0
  9
$REGENMODE
 70
     1
  9
$FILLMODE
 70
     1
  9
$QTEXTMODE
 70
     0
  9
$MIRRTEXT
 70
     1
  9
$LTSCALE
 40
1.0
  9
$ATTMODE
 70
     1
  9
$TEXTSIZE
 40
0.2
  9
$TRACEWID
 40
0.05
  9
$TEXTSTYLE
  7
Standard
  9
$CLAYER
  8
0
  9
$CELTYPE
  6
ByLayer
  9
$CECOLOR
 62
   256
  9
$CELTSCALE
 40
1.0
  9
$DISPSILH
 70
     0
  9
$DIMSCALE
 40
1.0
  9
$DIMASZ
 40
0.18
  9
$DIMEXO
 40
0.0625
  9
$DIMDLI
 40
0.38
  9
$DIMRND
 40
0.0
  9
$DIMDLE
 40
0.0
  9
$DIMEXE
 40
0.18
  9
$DIMTP
 40
0.0
  9
$DIMTM
 40
0.0
  9
$DIMTXT
 40
0.18
  9
$DIMCEN
 40
0.09
  9
$DIMTSZ
 40
0.0
  9
$DIMTOL
 70
     0
  9
$DIMLIM
 70
     0
  9
$DIMTIH
 70
     1
  9
$DIMTOH
 70
     1
  9
$DIMSE1
 70
     0
  9
$DIMSE2
 70
     0
  9
$DIMTAD
 70
     0
  9
$DIMZIN
 70
     0
  9
$DIMBLK
  1

  9
$DIMASO
 70
     1
  9
$DIMSHO
 70
     1
  9
$DIMPOST
  1

  9
$DIMAPOST
  1

  9
$DIMALT
 70
     0
  9
$DIMALTD
 70
     2
  9
$DIMALTF
 40
25.4
  9
$DIMLFAC
 40
1.0
  9
$DIMTOFL
 70
     0
  9
$DIMTVP
 40
0.0
  9
$DIMTIX
 70
     0
  9
$DIMSOXD
 70
     0
  9
$DIMSAH
 70
     0
  9
$DIMBLK1
  1

  9
$DIMBLK2
  1

  9
$DIMSTYLE
  2
Standard
  9
$DIMCLRD
 70
     0
  9
$DIMCLRE
 70
     0
  9
$DIMCLRT
 70
     0
  9
$DIMTFAC
 40
1.0
  9
$DIMGAP
 40
0.09
  9
$DIMJUST
 70
     0
  9
$DIMSD1
 70
     0
  9
$DIMSD2
 70
     0
  9
$DIMTOLJ
 70
     1
  9
$DIMTZIN
 70
     0
  9
$DIMALTZ
 70
     0
  9
$DIMALTTZ
 70
     0
  9
$DIMUPT
 70
     0
  9
$DIMDEC
 70
     4
  9
$DIMTDEC
 70
     4
  9
$DIMALTU
 70
     2
  9
$DIMALTTD
 70
     2
  9
$DIMTXSTY
  7
Standard
  9
$DIMAUNIT
 70
     0
  9
$DIMADEC
 70
     0
  9
$DIMALTRND
 40
0.0
  9
$DIMAZIN
 70
     0
  9
$DIMDSEP
 70
    46
  9
$DIMATFIT
 70
     3
  9
$DIMFRAC
 70
     0
  9
$DIMLDRBLK
  1

  9
$DIMLUNIT
 70
     2
  9
$DIMLWD
 70
    -2
  9
$DIMLWE
 70
    -2
  9
$DIMTMOVE
 70
     0
  9
$DIMFXL
 40
1.0
  9
$DIMFXLON
 70
     0
  9
$DIMJOGANG
 40
0.7853981633974483
  9
$DIMTFILL
 70
     0
  9
$DIMTFILLCLR
 70
     0
  9
$DIMARCSYM
 70
     0
  9
$DIMLTYPE
  6

  9
$DIMLTEX1
  6

  9
$DIMLTEX2
  6

  9
$DIMTXTDIRECTION
 70
     0
  9
$LUNITS
 70
     2
  9
$LUPREC
 70
     4
  9
$SKETCHINC
 40
0.1
  9
$FILLETRAD
 40
0.5
  9
$AUNITS
 70
     0
  9
$AUPREC
 70
     0
  9
$MENU
  1
.
  9
$ELEVATION
 40
0.0
  9
$PELEVATION
 40
0.0
  9
$THICKNESS
 40
0.0
  9
$LIMCHECK
 70
     0
  9
$CHAMFERA
 40
0.5
  9
$CHAMFERB
 40
0.5
  9
$CHAMFERC
 40
1.0
  9
$CHAMFERD
 40
0.0
  9
$SKPOLY
 70
     0
  9
$TDCREATE
 40
2457917.623368056
  9
$TDUCREATE
 40
2457917.248368056
  9
$TDUPDATE
 40
2457917.623368056
  9
$TDUUPDATE
 40
2457917.248368056
  9
$TDINDWG
 40
0.0000000116
  9
$TDUSRTIMER
 40
0.0000000116
  9
$USRTIMER
 70
     1
  9
$ANGBASE
 50
0.0
  9
$ANGDIR
 70
     0
  9
$PDMODE
 70
     0
  9
$PDSIZE
 40
0.0
  9
$PLINEWID
 40
0.0
  9
$SPLFRAME
 70
     0
  9
$SPLINETYPE
 70
     6
  9
$SPLINESEGS
 70
     8
  9
$HANDSEED
  5
11A
  9
$SURFTAB1
 70
     6
  9
$SURFTAB2
 70
     6
  9
$SURFTYPE
 70
     6
  9
$SURFU
 70
     6
  9
$SURFV
 70
     6
  9
$UCSBASE
  2

  9
$UCSNAME
  2

  9
$UCSORG
 10
0.0
 20
0.0
 30
0.0
  9
$UCSXDIR
 10
1.0
 20
0.0
 30
0.0
  9
$UCSYDIR
 10
0.0
 20
1.0
 30
0.0
  9
$UCSORTHOREF
  2

  9
$UCSORTHOVIEW
 70
     0
  9
$UCSORGTOP
 10
0.0
 20
0.0
 30
0.0
  9
$UCSORGBOTTOM
 10
0.0
 20
0.0
 30
0.0
  9
$UCSORGLEFT
 10
0.0
 20
0.0
 30
0.0
  9
$UCSORGRIGHT
 10
0.0
 20
0.0
 30
0.0
  9
$UCSORGFRONT
 10
0.0
 20
0.0
 30
0.0
  9
$UCSORGBACK
 10
0.0
 20
0.0
 30
0.0
  9
$PUCSBASE
  2

  9
$PUCSNAME
  2

  9
$PUCSORG
 10
0.0
 20
0.0
 30
0.0
  9
$PUCSXDIR
 10
1.0
 20
0.0
 30
0.0
  9
$PUCSYDIR
 10
0.0
 20
1.0
 30
0.0
  9
$PUCSORTHOREF
  2

  9
$PUCSORTHOVIEW
 70
     0
  9
$PUCSORGTOP
 10
0.0
 20
0.0
 30
0.0
  9
$PUCSORGBOTTOM
 10
0.0
 20
0.0
 30
0.0
  9
$PUCSORGLEFT
 10
0.0
 20
0.0
 30
0.0
  9
$PUCSORGRIGHT
 10
0.0
 20
0.0
 30
0.0
  9
$PUCSORGFRONT
 10
0.0
 20
0.0
 30
0.0
  9
$PUCSORGBACK
 10
0.0
 20
0.0
 30
0.0
  9
$USERI1
 70
     0
  9
$USERI2
 70
     0
  9
$USERI3
 70
     0
  9
$USERI4
 70
     0
  9
$USERI5
 70
     0
  9
$USERR1
 40
0.0
  9
$USERR2
 40
0.0
  9
$USERR3
 40
0.0
  9
$USERR4
 40
0.0
  9
$USERR5
 40
0.0
  9
$WORLDVIEW
 70
     1
  9
$SHADEDGE
 70
     3
  9
$SHADEDIF
 70
    70
  9
$TILEMODE
 70
     1
  9
$MAXACTVP
 70
    64
  9
$PINSBASE
 10
0.0
 20
0.0
 30
0.0
  9
$PLIMCHECK
 70
     0
  9
$PEXTMIN
 10
1.000000000000000E+20
 20
1.000000000000000E+20
 30
1.000000000000000E+20
  9
$PEXTMAX
 10
-1.000000000000000E+20
 20
-1.000000000000000E+20
 30
-1.000000000000000E+20
  9
$PLIMMIN
 10
0.0
 20
0.0
  9
$PLIMMAX
 10
12.0
 20
9.0
  9
$UNITMODE
 70
     0
  9
$VISRETAIN
 70
     1
  9
$PLINEGEN
 70
     0
  9
$PSLTSCALE
 70
     1
  9
$TREEDEPTH
 70
  3020
  9
$CMLSTYLE
  2
Standard
  9
$CMLJUST
 70
     0
  9
$CMLSCALE
 40
1.0
  9
$PROXYGRAPHICS
 70
     1
  9
$MEASUREMENT
 70
     0
  9
$CELWEIGHT
370
    -1
  9
$ENDCAPS
280
     0
  9
$JOINSTYLE
280
     0
  9
$LWDISPLAY
290
     1
  9
$INSUNITS
 70
     1
  9
$HYPERLINKBASE
  1

  9
$STYLESHEET
  1

  9
$XEDIT
290
     1
  9
$CEPSNTYPE
380
     0
  9
$PSTYLEMODE
290
     1
  9
$FINGERPRINTGUID
  2
{7D506219-D269-7E30-DB24-682A243D0157}
  9
$VERSIONGUID
  2
{FAEB1C32-E019-11D5-929B-00C0DF256EC4}
  9
$EXTNAMES
290
     1
  9
$PSVPSCALE
 40
0.0
  9
$OLESTARTUP
290
     0
  9
$SORTENTS
280
   127
  9
$INDEXCTL
280
     0
  9
$HIDETEXT
280
     1
  9
$XCLIPFRAME
280
     2
  9
$HALOGAP
280
     0
  9
$OBSCOLOR
 70
   257
  9
$OBSLTYPE
280
     0
  9
$INTERSECTIONDISPLAY
280
     0
  9
$INTERSECTIONCOLOR
 70
   257
  9
$DIMASSOC
280
     2
  9
$PROJECTNAME
  1

  9
$CAMERADISPLAY
290
     0
  9
$LENSLENGTH
 40
50.0
  9
$CAMERAHEIGHT
 40
0.0
  9
$STEPSPERSEC
 40
2.0
  9
$STEPSIZE
 40
6.0
  9
$3DDWFPREC
 40
2.0
  9
$PSOLWIDTH
 40
0.25
  9
$PSOLHEIGHT
 40
4.0
  9
$LOFTANG1
 40
1.570796326794897
  9
$LOFTANG2
 40
1.570796326794897
  9
$LOFTMAG1
 40
0.0
  9
$LOFTMAG2
 40
0.0
  9
$LOFTPARAM
 70
     7
  9
$LOFTNORMALS
280
     1
  9
$LATITUDE
 40
37.795
  9
$LONGITUDE
 40
-122.394
  9
$NORTHDIRECTION
 40
0.0
  9
$TIMEZONE
 70
 -8000
  9
$LIGHTGLYPHDISPLAY
280
     1
  9
$TILEMODELIGHTSYNCH
280
     1
  9
$CMATERIAL
347
3C
  9
$SOLIDHIST
280
     1
  9
$SHOWHIST
280
     1
  9
$DWFFRAME
280
     2
  9
$DGNFRAME
280
     2
  9
$REALWORLDSCALE
290
     1
  9
$INTERFERECOLOR
 62
   256
  9
$CSHADOW
280
     0
  9
$SHADOWPLANELOCATION
 40
0.0
  0
ENDSEC
  0
SECTION
  2
CLASSES
  0
CLASS
  1
ACDBDICTIONARYWDFLT
  2
AcDbDictionaryWithDefault
  3
ObjectDBX Classes
 90
        0
 91
        4
280
     0
281
     0
  0
CLASS
  1
VISUALSTYLE
  2
AcDbVisualStyle
  3
ObjectDBX Classes
 90
     4095
 91
        4
280
     0
281
     0
  0
CLASS
  1
MATERIAL
  2
AcDbMaterial
  3
ObjectDBX Classes
 90
     1153
 91
        4
280
     0
281
     0
  0
CLASS
  1
SUN
  2
AcDbSun
  3
SCENEOE
 90
     1024
 91
        4
280
     0
281
     0
  0
ENDSEC
  0
SECTION
  2
TABLES
  0
TABLE
  2
VPORT
  5
8
330
0
100
AcDbSymbolTable
 70
     1
  0
VPORT
  5
29
330
8
100
AcDbSymbolTableRecord
100
AcDbViewportTableRecord
  2
*Active
 70
     0
 10
0.0
 20
0.0
 11
1.0
 21
1.0
 12
0.0
 22
0.0
 13
0.0
 23
0.0
 14
0.5
 24
0.5
 15
0.5
 25
0.5
 16
0.0
 26
0.0
 36
1.0
 17
91.00082462281999
 27
-128.4993055234307
 37
0.0
 40
256.9986110468615
 41
0.7081814508812795
 42
50.0
 43
0.0
 44
0.0
 50
0.0
 51
0.0
 71
     0
 72
   100
 73
     1
 74
     3
 75
     0
 76
     0
 77
     0
 78
     0
281
     0
 65
     1
110
0.0
120
0.0
130
0.0
111
1.0
121
0.0
131
0.0
112
0.0
122
1.0
132
0.0
 79
     0
146
0.0
 60
     3
 61
     5
292
     1
282
     1
141
0.0
142
0.0
 63
   250
361
3F
  0
ENDTAB
  0
TABLE
  2
LTYPE
  5
5
330
0
100
AcDbSymbolTable
 70
     1
  0
LTYPE
  5
14
330
5
100
AcDbSymbolTableRecord
100
AcDbLinetypeTableRecord
  2
ByBlock
 70
     0
  3

 72
    65
 73
     0
 40
0.0
  0
LTYPE
  5
15
330
5
100
AcDbSymbolTableRecord
100
AcDbLinetypeTableRecord
  2
ByLayer
 70
     0
  3

 72
    65
 73
     0
 40
0.0
  0
LTYPE
  5
16
330
5
100
AcDbSymbolTableRecord
100
AcDbLinetypeTableRecord
  2
Continuous
 70
     0
  3
Solid line
 72
    65
 73
     0
 40
0.0
  0
ENDTAB
  0
TABLE
  2
LAYER
  5
2
330
0
100
AcDbSymbolTable
 70
     2
  0
LAYER
  5
10
330
2
100
AcDbSymbolTableRecord
100
AcDbLayerTableRecord
  2
0
 70
     0
 62
     7
  6
Continuous
370
    -3
390
F
347
3E
  0
LAYER
  5
40
330
2
100
AcDbSymbolTableRecord
100
AcDbLayerTableRecord
  2
_U+30EC_U+30A4_U+30E4_U+30FC 1
 70
     0
 62
     7
  6
Continuous
370
    -3
390
F
347
3E
  0
ENDTAB
  0
TABLE
  2
STYLE
  5
3
330
0
100
AcDbSymbolTable
 70
     1
  0
STYLE
  5
11
330
3
100
AcDbSymbolTableRecord
100
AcDbTextStyleTableRecord
  2
Standard
 70
     0
 40
0.0
 41
1.0
 50
0.0
 71
     0
 42
0.2
  3
txt
  4

  0
ENDTAB
  0
TABLE
  2
VIEW
  5
6
330
0
100
AcDbSymbolTable
 70
     0
  0
ENDTAB
  0
TABLE
  2
UCS
  5
7
330
0
100
AcDbSymbolTable
 70
     0
  0
ENDTAB
  0
TABLE
  2
APPID
  5
9
330
0
100
AcDbSymbolTable
 70
     1
  0
APPID
  5
12
330
9
100
AcDbSymbolTableRecord
100
AcDbRegAppTableRecord
  2
ACAD
 70
     0
  0
ENDTAB
  0
TABLE
  2
DIMSTYLE
  5
A
330
0
100
AcDbSymbolTable
 70
     1
100
AcDbDimStyleTable
  0
DIMSTYLE
105
27
330
A
100
AcDbSymbolTableRecord
100
AcDbDimStyleTableRecord
  2
Standard
 70
     0
178
     0
340
11
  0
ENDTAB
  0
TABLE
  2
BLOCK_RECORD
  5
1
330
0
100
AcDbSymbolTable
 70
     7
  0
BLOCK_RECORD
  5
1F
330
1
100
AcDbSymbolTableRecord
100
AcDbBlockTableRecord
  2
*Model_Space
340
22
 70
     0
280
     1
281
     0
  0
BLOCK_RECORD
  5
1B
330
1
100
AcDbSymbolTableRecord
100
AcDbBlockTableRecord
  2
*Paper_Space
340
1E
 70
     0
280
     1
281
     0
  0
BLOCK_RECORD
  5
23
330
1
100
AcDbSymbolTableRecord
100
AcDbBlockTableRecord
  2
*Paper_Space0
340
26
 70
     0
280
     1
281
     0
  0
BLOCK_RECORD
  5
A4
330
1
100
AcDbSymbolTableRecord
100
AcDbBlockTableRecord
  2
block 2
340
0
102
{BLKREFS
331
A5
102
}
 70
     0
280
     1
281
     0
  0
BLOCK_RECORD
  5
B4
330
1
100
AcDbSymbolTableRecord
100
AcDbBlockTableRecord
  2
block 3
340
0
102
{BLKREFS
331
B5
102
}
 70
     0
280
     1
281
     0
  0
BLOCK_RECORD
  5
C6
330
1
100
AcDbSymbolTableRecord
100
AcDbBlockTableRecord
  2
block 4
340
0
102
{BLKREFS
331
C7
102
}
 70
     0
280
     1
281
     0
  0
BLOCK_RECORD
  5
D0
330
1
100
AcDbSymbolTableRecord
100
AcDbBlockTableRecord
  2
block 5
340
0
102
{BLKREFS
331
D1
102
}
 70
     0
280
     1
281
     0
  0
BLOCK_RECORD
  5
E8
330
1
100
AcDbSymbolTableRecord
100
AcDbBlockTableRecord
  2
block 6
340
0
102
{BLKREFS
331
E9
102
}
 70
     0
280
     1
281
     0
  0
BLOCK_RECORD
  5
108
330
1
100
AcDbSymbolTableRecord
100
AcDbBlockTableRecord
  2
block 7
340
0
102
{BLKREFS
331
109
102
}
 70
     0
280
     1
281
     0
  0
ENDTAB
  0
ENDSEC
  0
SECTION
  2
BLOCKS
  0
BLOCK
  5
20
330
1F
100
AcDbEntity
  8
0
100
AcDbBlockBegin
  2
*Model_Space
 70
     0
 10
0.0
 20
0.0
 30
0.0
  3
*Model_Space
  1

  0
ENDBLK
  5
21
330
1F
100
AcDbEntity
  8
0
100
AcDbBlockEnd
  0
BLOCK
  5
1C
330
1B
100
AcDbEntity
 67
     1
  8
0
100
AcDbBlockBegin
  2
*Paper_Space
 70
     0
 10
0.0
 20
0.0
 30
0.0
  3
*Paper_Space
  1

  0
ENDBLK
  5
1D
330
1B
100
AcDbEntity
 67
     1
  8
0
100
AcDbBlockEnd
  0
BLOCK
  5
24
330
23
100
AcDbEntity
  8
0
100
AcDbBlockBegin
  2
*Paper_Space0
 70
     0
 10
0.0
 20
0.0
 30
0.0
  3
*Paper_Space0
  1

  0
ENDBLK
  5
25
330
23
100
AcDbEntity
  8
0
100
AcDbBlockEnd
  0
BLOCK
  5
A6
330
A4
100
AcDbEntity
  8
0
100
AcDbBlockBegin
  2
block 2
 70
     0
 10
0.0
 20
0.0
 30
0.0
  3
block 2
  1

  0
SPLINE
  5
A8
330
A4
100
AcDbEntity
  8
_U+30EC_U+30A4_U+30E4_U+30FC 1
370
     0
100
AcDbSpline
210
0.0
220
0.0
230
1.0
 70
    11
 71
     3
 72
    29
 73
    25
 74
     0
 42
0.0000000001
 43
0.0000000001
 12
1.0
 22
0.0
 32
0.0
 13
1.0
 23
0.0
 33
0.0
 40
0.0
 40
0.0
 40
0.0
 40
0.0
 40
1.0
 40
1.0
 40
1.0
 40
2.0
 40
2.0
 40
2.0
 40
3.0
 40
3.0
 40
3.0
 40
4.0
 40
4.0
 40
4.0
 40
5.0
 40
5.0
 40
5.0
 40
6.0
 40
6.0
 40
6.0
 40
7.0
 40
7.0
 40
7.0
 40
8.0
 40
8.0
 40
8.0
 40
8.0
 10
80.14187823517287
 20
-121.8404527147656
 30
0.0
 10
79.85696883854271
 20
-121.8404527147656
 30
0.0
 10
79.58566756907928
 20
-121.7028211501299
 30
0.0
 10
79.58566756907928
 20
-121.353832977474
 30
0.0
 10
79.58566756907928
 20
-121.09786238292
 30
0.0
 10
79.737079515656
 20
-121.0026054927528
 30
0.0
 10
79.85025090234647
 20
-120.9412827931154
 30
0.0
 10
79.71675345229303
 20
-120.8820271507691
 30
0.0
 10
79.63544919884114
 20
-120.767822235433
 30
0.0
 10
79.63544919884114
 20
-120.6071085310462
 30
0.0
 10
79.63544919884114
 20
-120.3320176565489
 30
0.0
 10
79.84801159028106
 20
-120.1966254039786
 30
0.0
 10
80.14187823517287
 20
-120.1966254039786
 30
0.0
 10
80.44470212832633
 20
-120.1966254039786
 30
0.0
 10
80.64830727150459
 20
-120.3404581404878
 30
0.0
 10
80.64830727150459
 20
-120.6071085310462
 30
0.0
 10
80.64830727150459
 20
-120.767822235433
 30
0.0
 10
80.56459145121302
 20
-120.8820271507691
 30
0.0
 10
80.43126625593385
 20
-120.9412827931154
 30
0.0
 10
80.52617863655249
 20
-120.9920979515228
 30
0.0
 10
80.69567733442678
 20
-121.08735484169
 30
0.0
 10
80.69567733442678
 20
-121.3496988628917
 30
0.0
 10
80.69567733442678
 20
-121.7240084873641
 30
0.0
 10
80.39733206540414
 20
-121.8404527147656
 30
0.0
 10
80.14187823517287
 20
-121.8404527147656
 30
0.0
  0
SPLINE
  5
A9
330
A4
100
AcDbEntity
  8
_U+30EC_U+30A4_U+30E4_U+30FC 1
370
     0
100
AcDbSpline
210
0.0
220
0.0
230
1.0
 70
    11
 71
     3
 72
    17
 73
    13
 74
     0
 42
0.0000000001
 43
0.0000000001
 12
1.0
 22
0.0
 32
0.0
 13
1.0
 23
0.0
 33
0.0
 40
0.0
 40
0.0
 40
0.0
 40
0.0
 40
1.0
 40
1.0
 40
1.0
 40
2.0
 40
2.0
 40
2.0
 40
3.0
 40
3.0
 40
3.0
 40
4.0
 40
4.0
 40
4.0
 40
4.0
 10
80.14187823517287
 20
-121.049286536578
 30
0.0
 10
79.98805472175646
 20
-121.049286536578
 30
0.0
 10
79.8252739600784
 20
-121.135930688032
 30
0.0
 10
79.8252739600784
 20
-121.3390190668875
 30
0.0
 10
79.8252739600784
 20
-121.5441745030341
 30
0.0
 10
79.96101072219724
 20
-121.645804819849
 30
0.0
 10
80.14187823517287
 20
-121.645804819849
 30
0.0
 10
80.34083249944605
 20
-121.645804819849
 30
0.0
 10
80.45831025549306
 20
-121.5231594205741
 30
0.0
 10
80.45831025549306
 20
-121.3453924935352
 30
0.0
 10
80.45831025549306
 20
-121.1231838347366
 30
0.0
 10
80.28433293348795
 20
-121.049286536578
 30
0.0
 10
80.14187823517287
 20
-121.049286536578
 30
0.0
  0
SPLINE
  5
AA
330
A4
100
AcDbEntity
  8
_U+30EC_U+30A4_U+30E4_U+30FC 1
370
     0
100
AcDbSpline
210
0.0
220
0.0
230
1.0
 70
    11
 71
     3
 72
    17
 73
    13
 74
     0
 42
0.0000000001
 43
0.0000000001
 12
1.0
 22
0.0
 32
0.0
 13
1.0
 23
0.0
 33
0.0
 40
0.0
 40
0.0
 40
0.0
 40
0.0
 40
1.0
 40
1.0
 40
1.0
 40
2.0
 40
2.0
 40
2.0
 40
3.0
 40
3.0
 40
3.0
 40
4.0
 40
4.0
 40
4.0
 40
4.0
 10
80.14187823517287
 20
-120.3892062416041
 30
0.0
 10
79.96548934632807
 20
-120.3892062416041
 30
0.0
 10
79.87505558984027
 20
-120.484290876997
 30
0.0
 10
79.87505558984027
 20
-120.6196831295673
 30
0.0
 10
79.87505558984027
 20
-120.7425007836165
 30
0.0
 10
79.95188121916134
 20
-120.8610120683091
 30
0.0
 10
80.14187823517287
 20
-120.8610120683091
 30
0.0
 10
80.33170299641013
 20
-120.8610120683091
 30
0.0
 10
80.40852862573121
 20
-120.7425007836165
 30
0.0
 10
80.40852862573121
 20
-120.6196831295673
 30
0.0
 10
80.40852862573121
 20
-120.484290876997
 30
0.0
 10
80.31585555717798
 20
-120.3892062416041
 30
0.0
 10
80.14187823517287
 20
-120.3892062416041
 30
0.0
  0
HATCH
  5
AB
330
A4
100
AcDbEntity
  8
_U+30EC_U+30A4_U+30E4_U+30FC 1
 62
   179
420
  2234388
100
AcDbHatch
 10
0.0
 20
0.0
 30
0.0
210
0.0
220
0.0
230
1.0
  2
SOLID
 70
     1
 71
     0
 91
        3
 92
        1
 93
        1
 72
     4
 94
        3
 73
     0
 74
     1
 95
       29
 96
       25
 40
0.0
 40
0.0
 40
0.0
 40
0.0
 40
1.0
 40
1.0
 40
1.0
 40
2.0
 40
2.0
 40
2.0
 40
3.0
 40
3.0
 40
3.0
 40
4.0
 40
4.0
 40
4.0
 40
5.0
 40
5.0
 40
5.0
 40
6.0
 40
6.0
 40
6.0
 40
7.0
 40
7.0
 40
7.0
 40
8.0
 40
8.0
 40
8.0
 40
8.0
 10
80.14187823517287
 20
-121.8404527147656
 10
79.85696883854271
 20
-121.8404527147656
 10
79.58566756907928
 20
-121.7028211501299
 10
79.58566756907928
 20
-121.353832977474
 10
79.58566756907928
 20
-121.09786238292
 10
79.737079515656
 20
-121.0026054927528
 10
79.85025090234647
 20
-120.9412827931154
 10
79.71675345229303
 20
-120.8820271507691
 10
79.63544919884114
 20
-120.767822235433
 10
79.63544919884114
 20
-120.6071085310462
 10
79.63544919884114
 20
-120.3320176565489
 10
79.84801159028106
 20
-120.1966254039786
 10
80.14187823517287
 20
-120.1966254039786
 10
80.44470212832633
 20
-120.1966254039786
 10
80.64830727150459
 20
-120.3404581404878
 10
80.64830727150459
 20
-120.6071085310462
 10
80.64830727150459
 20
-120.767822235433
 10
80.56459145121302
 20
-120.8820271507691
 10
80.43126625593385
 20
-120.9412827931154
 10
80.52617863655249
 20
-120.9920979515228
 10
80.69567733442678
 20
-121.08735484169
 10
80.69567733442678
 20
-121.3496988628917
 10
80.69567733442678
 20
-121.7240084873641
 10
80.39733206540414
 20
-121.8404527147656
 10
80.14187823517287
 20
-121.8404527147656
 97
        0
 97
        0
 92
        1
 93
        1
 72
     4
 94
        3
 73
     0
 74
     1
 95
       17
 96
       13
 40
0.0
 40
0.0
 40
0.0
 40
0.0
 40
1.0
 40
1.0
 40
1.0
 40
2.0
 40
2.0
 40
2.0
 40
3.0
 40
3.0
 40
3.0
 40
4.0
 40
4.0
 40
4.0
 40
4.0
 10
80.14187823517287
 20
-121.049286536578
 10
79.98805472175646
 20
-121.049286536578
 10
79.8252739600784
 20
-121.135930688032
 10
79.8252739600784
 20
-121.3390190668875
 10
79.8252739600784
 20
-121.5441745030341
 10
79.96101072219724
 20
-121.645804819849
 10
80.14187823517287
 20
-121.645804819849
 10
80.34083249944605
 20
-121.645804819849
 10
80.45831025549306
 20
-121.5231594205741
 10
80.45831025549306
 20
-121.3453924935352
 10
80.45831025549306
 20
-121.1231838347366
 10
80.28433293348795
 20
-121.049286536578
 10
80.14187823517287
 20
-121.049286536578
 97
        0
 97
        0
 92
        1
 93
        1
 72
     4
 94
        3
 73
     0
 74
     1
 95
       17
 96
       13
 40
0.0
 40
0.0
 40
0.0
 40
0.0
 40
1.0
 40
1.0
 40
1.0
 40
2.0
 40
2.0
 40
2.0
 40
3.0
 40
3.0
 40
3.0
 40
4.0
 40
4.0
 40
4.0
 40
4.0
 10
80.14187823517287
 20
-120.3892062416041
 10
79.96548934632807
 20
-120.3892062416041
 10
79.87505558984027
 20
-120.484290876997
 10
79.87505558984027
 20
-120.6196831295673
 10
79.87505558984027
 20
-120.7425007836165
 10
79.95188121916134
 20
-120.8610120683091
 10
80.14187823517287
 20
-120.8610120683091
 10
80.33170299641013
 20
-120.8610120683091
 10
80.40852862573121
 20
-120.7425007836165
 10
80.40852862573121
 20
-120.6196831295673
 10
80.40852862573121
 20
-120.484290876997
 10
80.31585555717798
 20
-120.3892062416041
 10
80.14187823517287
 20
-120.3892062416041
 97
        0
 97
        0
 75
     2
 76
     1
 98
        0
  0
ENDBLK
  5
A7
330
A4
100
AcDbEntity
  8
0
100
AcDbBlockEnd
  0
BLOCK
  5
B6
330
B4
100
AcDbEntity
  8
0
100
AcDbBlockBegin
  2
block 3
 70
     0
 10
0.0
 20
0.0
 30
0.0
  3
block 3
  1

  0
SPLINE
  5
B8
330
B4
100
AcDbEntity
  8
_U+30EC_U+30A4_U+30E4_U+30FC 1
370
     0
100
AcDbSpline
210
0.0
220
0.0
230
1.0
 70
    11
 71
     3
 72
    29
 73
    25
 74
     0
 42
0.0000000001
 43
0.0000000001
 12
1.0
 22
0.0
 32
0.0
 13
1.0
 23
0.0
 33
0.0
 40
0.0
 40
0.0
 40
0.0
 40
0.0
 40
1.0
 40
1.0
 40
1.0
 40
2.0
 40
2.0
 40
2.0
 40
3.0
 40
3.0
 40
3.0
 40
4.0
 40
4.0
 40
4.0
 40
5.0
 40
5.0
 40
5.0
 40
6.0
 40
6.0
 40
6.0
 40
7.0
 40
7.0
 40
7.0
 40
8.0
 40
8.0
 40
8.0
 40
8.0
 10
88.14173446147151
 20
-121.8404527147656
 30
0.0
 10
87.85682506484136
 20
-121.8404527147656
 30
0.0
 10
87.5856960501522
 20
-121.7028211501299
 30
0.0
 10
87.5856960501522
 20
-121.353832977474
 30
0.0
 10
87.5856960501522
 20
-121.09786238292
 30
0.0
 10
87.73728025150318
 20
-121.0026054927528
 30
0.0
 10
87.85027938341938
 20
-120.9412827931154
 30
0.0
 10
87.7169541881402
 20
-120.8820271507691
 30
0.0
 10
87.63530542513979
 20
-120.767822235433
 30
0.0
 10
87.63530542513979
 20
-120.6071085310462
 30
0.0
 10
87.63530542513979
 20
-120.3320176565489
 30
0.0
 10
87.84786781657971
 20
-120.1966254039786
 30
0.0
 10
88.14173446147151
 20
-120.1966254039786
 30
0.0
 10
88.4449028641735
 20
-120.1966254039786
 30
0.0
 10
88.64816349780324
 20
-120.3404581404878
 30
0.0
 10
88.64816349780324
 20
-120.6071085310462
 30
0.0
 10
88.64816349780324
 20
-120.767822235433
 30
0.0
 10
88.56479218706019
 20
-120.8820271507691
 30
0.0
 10
88.4311224822325
 20
-120.9412827931154
 30
0.0
 10
88.52620711762539
 20
-120.9920979515228
 30
0.0
 10
88.6957058154997
 20
-121.08735484169
 30
0.0
 10
88.6957058154997
 20
-121.3496988628917
 30
0.0
 10
88.6957058154997
 20
-121.7240084873641
 30
0.0
 10
88.39736054647705
 20
-121.8404527147656
 30
0.0
 10
88.14173446147151
 20
-121.8404527147656
 30
0.0
  0
SPLINE
  5
B9
330
B4
100
AcDbEntity
  8
_U+30EC_U+30A4_U+30E4_U+30FC 1
370
     0
100
AcDbSpline
210
0.0
220
0.0
230
1.0
 70
    11
 71
     3
 72
    17
 73
    13
 74
     0
 42
0.0000000001
 43
0.0000000001
 12
1.0
 22
0.0
 32
0.0
 13
1.0
 23
0.0
 33
0.0
 40
0.0
 40
0.0
 40
0.0
 40
0.0
 40
1.0
 40
1.0
 40
1.0
 40
2.0
 40
2.0
 40
2.0
 40
3.0
 40
3.0
 40
3.0
 40
4.0
 40
4.0
 40
4.0
 40
4.0
 10
88.14173446147151
 20
-121.049286536578
 30
0.0
 10
87.98808320282937
 20
-121.049286536578
 30
0.0
 10
87.82547469592558
 20
-121.135930688032
 30
0.0
 10
87.82547469592558
 20
-121.3390190668875
 30
0.0
 10
87.82547469592558
 20
-121.5441745030341
 30
0.0
 10
87.9608669484959
 20
-121.645804819849
 30
0.0
 10
88.14173446147151
 20
-121.645804819849
 30
0.0
 10
88.34086098051895
 20
-121.645804819849
 30
0.0
 10
88.45833873656598
 20
-121.5231594205741
 30
0.0
 10
88.45833873656598
 20
-121.3453924935352
 30
0.0
 10
88.45833873656598
 20
-121.1231838347366
 30
0.0
 10
88.28436141456086
 20
-121.049286536578
 30
0.0
 10
88.14173446147151
 20
-121.049286536578
 30
0.0
  0
SPLINE
  5
BA
330
B4
100
AcDbEntity
  8
_U+30EC_U+30A4_U+30E4_U+30FC 1
370
     0
100
AcDbSpline
210
0.0
220
0.0
230
1.0
 70
    11
 71
     3
 72
    17
 73
    13
 74
     0
 42
0.0000000001
 43
0.0000000001
 12
1.0
 22
0.0
 32
0.0
 13
1.0
 23
0.0
 33
0.0
 40
0.0
 40
0.0
 40
0.0
 40
0.0
 40
1.0
 40
1.0
 40
1.0
 40
2.0
 40
2.0
 40
2.0
 40
3.0
 40
3.0
 40
3.0
 40
4.0
 40
4.0
 40
4.0
 40
4.0
 10
88.14173446147151
 20
-120.3892062416041
 30
0.0
 10
87.96569008217524
 20
-120.3892062416041
 30
0.0
 10
87.87508407091318
 20
-120.484290876997
 30
0.0
 10
87.87508407091318
 20
-120.6196831295673
 30
0.0
 10
87.87508407091318
 20
-120.7425007836165
 30
0.0
 10
87.95190970023425
 20
-120.8610120683091
 30
0.0
 10
88.14173446147151
 20
-120.8610120683091
 30
0.0
 10
88.3319037322573
 20
-120.8610120683091
 30
0.0
 10
88.40872936157838
 20
-120.7425007836165
 30
0.0
 10
88.40872936157838
 20
-120.6196831295673
 30
0.0
 10
88.40872936157838
 20
-120.484290876997
 30
0.0
 10
88.31605629302516
 20
-120.3892062416041
 30
0.0
 10
88.14173446147151
 20
-120.3892062416041
 30
0.0
  0
HATCH
  5
BB
330
B4
100
AcDbEntity
  8
_U+30EC_U+30A4_U+30E4_U+30FC 1
 62
   179
420
  2234388
100
AcDbHatch
 10
0.0
 20
0.0
 30
0.0
210
0.0
220
0.0
230
1.0
  2
SOLID
 70
     1
 71
     0
 91
        3
 92
        1
 93
        1
 72
     4
 94
        3
 73
     0
 74
     1
 95
       29
 96
       25
 40
0.0
 40
0.0
 40
0.0
 40
0.0
 40
1.0
 40
1.0
 40
1.0
 40
2.0
 40
2.0
 40
2.0
 40
3.0
 40
3.0
 40
3.0
 40
4.0
 40
4.0
 40
4.0
 40
5.0
 40
5.0
 40
5.0
 40
6.0
 40
6.0
 40
6.0
 40
7.0
 40
7.0
 40
7.0
 40
8.0
 40
8.0
 40
8.0
 40
8.0
 10
88.14173446147151
 20
-121.8404527147656
 10
87.85682506484136
 20
-121.8404527147656
 10
87.5856960501522
 20
-121.7028211501299
 10
87.5856960501522
 20
-121.353832977474
 10
87.5856960501522
 20
-121.09786238292
 10
87.73728025150318
 20
-121.0026054927528
 10
87.85027938341938
 20
-120.9412827931154
 10
87.7169541881402
 20
-120.8820271507691
 10
87.63530542513979
 20
-120.767822235433
 10
87.63530542513979
 20
-120.6071085310462
 10
87.63530542513979
 20
-120.3320176565489
 10
87.84786781657971
 20
-120.1966254039786
 10
88.14173446147151
 20
-120.1966254039786
 10
88.4449028641735
 20
-120.1966254039786
 10
88.64816349780324
 20
-120.3404581404878
 10
88.64816349780324
 20
-120.6071085310462
 10
88.64816349780324
 20
-120.767822235433
 10
88.56479218706019
 20
-120.8820271507691
 10
88.4311224822325
 20
-120.9412827931154
 10
88.52620711762539
 20
-120.9920979515228
 10
88.6957058154997
 20
-121.08735484169
 10
88.6957058154997
 20
-121.3496988628917
 10
88.6957058154997
 20
-121.7240084873641
 10
88.39736054647705
 20
-121.8404527147656
 10
88.14173446147151
 20
-121.8404527147656
 97
        0
 97
        0
 92
        1
 93
        1
 72
     4
 94
        3
 73
     0
 74
     1
 95
       17
 96
       13
 40
0.0
 40
0.0
 40
0.0
 40
0.0
 40
1.0
 40
1.0
 40
1.0
 40
2.0
 40
2.0
 40
2.0
 40
3.0
 40
3.0
 40
3.0
 40
4.0
 40
4.0
 40
4.0
 40
4.0
 10
88.14173446147151
 20
-121.049286536578
 10
87.98808320282937
 20
-121.049286536578
 10
87.82547469592558
 20
-121.135930688032
 10
87.82547469592558
 20
-121.3390190668875
 10
87.82547469592558
 20
-121.5441745030341
 10
87.9608669484959
 20
-121.645804819849
 10
88.14173446147151
 20
-121.645804819849
 10
88.34086098051895
 20
-121.645804819849
 10
88.45833873656598
 20
-121.5231594205741
 10
88.45833873656598
 20
-121.3453924935352
 10
88.45833873656598
 20
-121.1231838347366
 10
88.28436141456086
 20
-121.049286536578
 10
88.14173446147151
 20
-121.049286536578
 97
        0
 97
        0
 92
        1
 93
        1
 72
     4
 94
        3
 73
     0
 74
     1
 95
       17
 96
       13
 40
0.0
 40
0.0
 40
0.0
 40
0.0
 40
1.0
 40
1.0
 40
1.0
 40
2.0
 40
2.0
 40
2.0
 40
3.0
 40
3.0
 40
3.0
 40
4.0
 40
4.0
 40
4.0
 40
4.0
 10
88.14173446147151
 20
-120.3892062416041
 10
87.96569008217524
 20
-120.3892062416041
 10
87.87508407091318
 20
-120.484290876997
 10
87.87508407091318
 20
-120.6196831295673
 10
87.87508407091318
 20
-120.7425007836165
 10
87.95190970023425
 20
-120.8610120683091
 10
88.14173446147151
 20
-120.8610120683091
 10
88.3319037322573
 20
-120.8610120683091
 10
88.40872936157838
 20
-120.7425007836165
 10
88.40872936157838
 20
-120.6196831295673
 10
88.40872936157838
 20
-120.484290876997
 10
88.31605629302516
 20
-120.3892062416041
 10
88.14173446147151
 20
-120.3892062416041
 97
        0
 97
        0
 75
     2
 76
     1
 98
        0
  0
ENDBLK
  5
B7
330
B4
100
AcDbEntity
  8
0
100
AcDbBlockEnd
  0
BLOCK
  5
C8
330
C6
100
AcDbEntity
  8
0
100
AcDbBlockBegin
  2
block 4
 70
     0
 10
0.0
 20
0.0
 30
0.0
  3
block 4
  1

  0
SPLINE
  5
CA
330
C6
100
AcDbEntity
  8
_U+30EC_U+30A4_U+30E4_U+30FC 1
370
     0
100
AcDbSpline
210
0.0
220
0.0
230
1.0
 70
    11
 71
     3
 72
    26
 73
    22
 74
     0
 42
0.0000000001
 43
0.0000000001
 12
1.0
 22
0.0
 32
0.0
 13
1.0
 23
0.0
 33
0.0
 40
0.0
 40
0.0
 40
0.0
 40
0.0
 40
1.0
 40
1.0
 40
1.0
 40
2.0
 40
2.0
 40
2.0
 40
3.0
 40
3.0
 40
3.0
 40
4.0
 40
4.0
 40
4.0
 40
5.0
 40
5.0
 40
5.0
 40
6.0
 40
6.0
 40
6.0
 40
7.0
 40
7.0
 40
7.0
 40
7.0
 10
85.41873098993004
 20
-128.3697699331854
 30
0.0
 10
85.41873098993004
 20
-128.3697699331854
 30
0.0
 10
85.41873098993004
 20
-127.2654445753885
 30
0.0
 10
85.41873098993004
 20
-127.2654445753885
 30
0.0
 10
85.41873098993004
 20
-127.2654445753885
 30
0.0
 10
85.06629772178898
 20
-127.2654445753885
 30
0.0
 10
85.06629772178898
 20
-127.2654445753885
 30
0.0
 10
85.06629772178898
 20
-127.2654445753885
 30
0.0
 10
85.06629772178898
 20
-127.117477724297
 30
0.0
 10
85.06629772178898
 20
-127.117477724297
 30
0.0
 10
85.42114255676972
 20
-127.1026638137104
 30
0.0
 10
85.47075193175732
 20
-126.9397107972581
 30
0.0
 10
85.50244681022161
 20
-126.8255058819221
 30
0.0
 10
85.50244681022161
 20
-126.8255058819221
 30
0.0
 10
85.65850963570344
 20
-126.8255058819221
 30
0.0
 10
85.65850963570344
 20
-126.8255058819221
 30
0.0
 10
85.65850963570344
 20
-126.8255058819221
 30
0.0
 10
85.65850963570344
 20
-128.3697699331854
 30
0.0
 10
85.65850963570344
 20
-128.3697699331854
 30
0.0
 10
85.65850963570344
 20
-128.3697699331854
 30
0.0
 10
85.41873098993004
 20
-128.3697699331854
 30
0.0
 10
85.41873098993004
 20
-128.3697699331854
 30
0.0
  0
HATCH
  5
CB
330
C6
100
AcDbEntity
  8
_U+30EC_U+30A4_U+30E4_U+30FC 1
 62
   179
420
  2234388
100
AcDbHatch
 10
0.0
 20
0.0
 30
0.0
210
0.0
220
0.0
230
1.0
  2
SOLID
 70
     1
 71
     0
 91
        1
 92
        1
 93
        1
 72
     4
 94
        3
 73
     0
 74
     1
 95
       26
 96
       22
 40
0.0
 40
0.0
 40
0.0
 40
0.0
 40
1.0
 40
1.0
 40
1.0
 40
2.0
 40
2.0
 40
2.0
 40
3.0
 40
3.0
 40
3.0
 40
4.0
 40
4.0
 40
4.0
 40
5.0
 40
5.0
 40
5.0
 40
6.0
 40
6.0
 40
6.0
 40
7.0
 40
7.0
 40
7.0
 40
7.0
 10
85.41873098993004
 20
-128.3697699331854
 10
85.41873098993004
 20
-128.3697699331854
 10
85.41873098993004
 20
-127.2654445753885
 10
85.41873098993004
 20
-127.2654445753885
 10
85.41873098993004
 20
-127.2654445753885
 10
85.06629772178898
 20
-127.2654445753885
 10
85.06629772178898
 20
-127.2654445753885
 10
85.06629772178898
 20
-127.2654445753885
 10
85.06629772178898
 20
-127.117477724297
 10
85.06629772178898
 20
-127.117477724297
 10
85.42114255676972
 20
-127.1026638137104
 10
85.47075193175732
 20
-126.9397107972581
 10
85.50244681022161
 20
-126.8255058819221
 10
85.50244681022161
 20
-126.8255058819221
 10
85.65850963570344
 20
-126.8255058819221
 10
85.65850963570344
 20
-126.8255058819221
 10
85.65850963570344
 20
-126.8255058819221
 10
85.65850963570344
 20
-128.3697699331854
 10
85.65850963570344
 20
-128.3697699331854
 10
85.65850963570344
 20
-128.3697699331854
 10
85.41873098993004
 20
-128.3697699331854
 10
85.41873098993004
 20
-128.3697699331854
 97
        0
 97
        0
 75
     2
 76
     1
 98
        0
  0
ENDBLK
  5
C9
330
C6
100
AcDbEntity
  8
0
100
AcDbBlockEnd
  0
BLOCK
  5
D2
330
D0
100
AcDbEntity
  8
0
100
AcDbBlockBegin
  2
block 5
 70
     0
 10
0.0
 20
0.0
 30
0.0
  3
block 5
  1

  0
SPLINE
  5
D4
330
D0
100
AcDbEntity
  8
_U+30EC_U+30A4_U+30E4_U+30FC 1
370
     0
100
AcDbSpline
210
0.0
220
0.0
230
1.0
 70
    11
 71
     3
 72
    29
 73
    25
 74
     0
 42
0.0000000001
 43
0.0000000001
 12
1.0
 22
0.0
 32
0.0
 13
1.0
 23
0.0
 33
0.0
 40
0.0
 40
0.0
 40
0.0
 40
0.0
 40
1.0
 40
1.0
 40
1.0
 40
2.0
 40
2.0
 40
2.0
 40
3.0
 40
3.0
 40
3.0
 40
4.0
 40
4.0
 40
4.0
 40
5.0
 40
5.0
 40
5.0
 40
6.0
 40
6.0
 40
6.0
 40
7.0
 40
7.0
 40
7.0
 40
8.0
 40
8.0
 40
8.0
 40
8.0
 10
96.14159068777016
 20
-121.8404527147656
 30
0.0
 10
95.85702580068853
 20
-121.8404527147656
 30
0.0
 10
95.58555227645084
 20
-121.7028211501299
 30
0.0
 10
95.58555227645084
 20
-121.353832977474
 30
0.0
 10
95.58555227645084
 20
-121.09786238292
 30
0.0
 10
95.73713647780183
 20
-121.0026054927528
 30
0.0
 10
95.85013560971802
 20
-120.9412827931154
 30
0.0
 10
95.71681041443885
 20
-120.8820271507691
 30
0.0
 10
95.63516165143844
 20
-120.767822235433
 30
0.0
 10
95.63516165143844
 20
-120.6071085310462
 30
0.0
 10
95.63516165143844
 20
-120.3320176565489
 30
0.0
 10
95.84772404287835
 20
-120.1966254039786
 30
0.0
 10
96.14159068777016
 20
-120.1966254039786
 30
0.0
 10
96.44475909047215
 20
-120.1966254039786
 30
0.0
 10
96.64801972410189
 20
-120.3404581404878
 30
0.0
 10
96.64801972410189
 20
-120.6071085310462
 30
0.0
 10
96.64801972410189
 20
-120.767822235433
 30
0.0
 10
96.56464841335884
 20
-120.8820271507691
 30
0.0
 10
96.43097870853114
 20
-120.9412827931154
 30
0.0
 10
96.52606334392405
 20
-120.9920979515228
 30
0.0
 10
96.69556204179834
 20
-121.08735484169
 30
0.0
 10
96.69556204179834
 20
-121.3496988628917
 30
0.0
 10
96.69556204179834
 20
-121.7240084873641
 30
0.0
 10
96.3972167727757
 20
-121.8404527147656
 30
0.0
 10
96.14159068777016
 20
-121.8404527147656
 30
0.0
  0
SPLINE
  5
D5
330
D0
100
AcDbEntity
  8
_U+30EC_U+30A4_U+30E4_U+30FC 1
370
     0
100
AcDbSpline
210
0.0
220
0.0
230
1.0
 70
    11
 71
     3
 72
    17
 73
    13
 74
     0
 42
0.0000000001
 43
0.0000000001
 12
1.0
 22
0.0
 32
0.0
 13
1.0
 23
0.0
 33
0.0
 40
0.0
 40
0.0
 40
0.0
 40
0.0
 40
1.0
 40
1.0
 40
1.0
 40
2.0
 40
2.0
 40
2.0
 40
3.0
 40
3.0
 40
3.0
 40
4.0
 40
4.0
 40
4.0
 40
4.0
 10
96.14159068777016
 20
-121.049286536578
 30
0.0
 10
95.98793942912802
 20
-121.049286536578
 30
0.0
 10
95.82533092222423
 20
-121.135930688032
 30
0.0
 10
95.82533092222423
 20
-121.3390190668875
 30
0.0
 10
95.82533092222423
 20
-121.5441745030341
 30
0.0
 10
95.96072317479455
 20
-121.645804819849
 30
0.0
 10
96.14159068777016
 20
-121.645804819849
 30
0.0
 10
96.3407172068176
 20
-121.645804819849
 30
0.0
 10
96.45819496286462
 20
-121.5231594205741
 30
0.0
 10
96.45819496286462
 20
-121.3453924935352
 30
0.0
 10
96.45819496286462
 20
-121.1231838347366
 30
0.0
 10
96.28421764085951
 20
-121.049286536578
 30
0.0
 10
96.14159068777016
 20
-121.049286536578
 30
0.0
  0
SPLINE
  5
D6
330
D0
100
AcDbEntity
  8
_U+30EC_U+30A4_U+30E4_U+30FC 1
370
     0
100
AcDbSpline
210
0.0
220
0.0
230
1.0
 70
    11
 71
     3
 72
    17
 73
    13
 74
     0
 42
0.0000000001
 43
0.0000000001
 12
1.0
 22
0.0
 32
0.0
 13
1.0
 23
0.0
 33
0.0
 40
0.0
 40
0.0
 40
0.0
 40
0.0
 40
1.0
 40
1.0
 40
1.0
 40
2.0
 40
2.0
 40
2.0
 40
3.0
 40
3.0
 40
3.0
 40
4.0
 40
4.0
 40
4.0
 40
4.0
 10
96.14159068777016
 20
-120.3892062416041
 30
0.0
 10
95.96520179892536
 20
-120.3892062416041
 30
0.0
 10
95.87494029721182
 20
-120.484290876997
 30
0.0
 10
95.87494029721182
 20
-120.6196831295673
 30
0.0
 10
95.87494029721182
 20
-120.7425007836165
 30
0.0
 10
95.9517659265329
 20
-120.8610120683091
 30
0.0
 10
96.14159068777016
 20
-120.8610120683091
 30
0.0
 10
96.33175995855595
 20
-120.8610120683091
 30
0.0
 10
96.40858558787703
 20
-120.7425007836165
 30
0.0
 10
96.40858558787703
 20
-120.6196831295673
 30
0.0
 10
96.40858558787703
 20
-120.484290876997
 30
0.0
 10
96.3159125193238
 20
-120.3892062416041
 30
0.0
 10
96.14159068777016
 20
-120.3892062416041
 30
0.0
  0
HATCH
  5
D7
330
D0
100
AcDbEntity
  8
_U+30EC_U+30A4_U+30E4_U+30FC 1
 62
   179
420
  2234388
100
AcDbHatch
 10
0.0
 20
0.0
 30
0.0
210
0.0
220
0.0
230
1.0
  2
SOLID
 70
     1
 71
     0
 91
        3
 92
        1
 93
        1
 72
     4
 94
        3
 73
     0
 74
     1
 95
       29
 96
       25
 40
0.0
 40
0.0
 40
0.0
 40
0.0
 40
1.0
 40
1.0
 40
1.0
 40
2.0
 40
2.0
 40
2.0
 40
3.0
 40
3.0
 40
3.0
 40
4.0
 40
4.0
 40
4.0
 40
5.0
 40
5.0
 40
5.0
 40
6.0
 40
6.0
 40
6.0
 40
7.0
 40
7.0
 40
7.0
 40
8.0
 40
8.0
 40
8.0
 40
8.0
 10
96.14159068777016
 20
-121.8404527147656
 10
95.85702580068853
 20
-121.8404527147656
 10
95.58555227645084
 20
-121.7028211501299
 10
95.58555227645084
 20
-121.353832977474
 10
95.58555227645084
 20
-121.09786238292
 10
95.73713647780183
 20
-121.0026054927528
 10
95.85013560971802
 20
-120.9412827931154
 10
95.71681041443885
 20
-120.8820271507691
 10
95.63516165143844
 20
-120.767822235433
 10
95.63516165143844
 20
-120.6071085310462
 10
95.63516165143844
 20
-120.3320176565489
 10
95.84772404287835
 20
-120.1966254039786
 10
96.14159068777016
 20
-120.1966254039786
 10
96.44475909047215
 20
-120.1966254039786
 10
96.64801972410189
 20
-120.3404581404878
 10
96.64801972410189
 20
-120.6071085310462
 10
96.64801972410189
 20
-120.767822235433
 10
96.56464841335884
 20
-120.8820271507691
 10
96.43097870853114
 20
-120.9412827931154
 10
96.52606334392405
 20
-120.9920979515228
 10
96.69556204179834
 20
-121.08735484169
 10
96.69556204179834
 20
-121.3496988628917
 10
96.69556204179834
 20
-121.7240084873641
 10
96.3972167727757
 20
-121.8404527147656
 10
96.14159068777016
 20
-121.8404527147656
 97
        0
 97
        0
 92
        1
 93
        1
 72
     4
 94
        3
 73
     0
 74
     1
 95
       17
 96
       13
 40
0.0
 40
0.0
 40
0.0
 40
0.0
 40
1.0
 40
1.0
 40
1.0
 40
2.0
 40
2.0
 40
2.0
 40
3.0
 40
3.0
 40
3.0
 40
4.0
 40
4.0
 40
4.0
 40
4.0
 10
96.14159068777016
 20
-121.049286536578
 10
95.98793942912802
 20
-121.049286536578
 10
95.82533092222423
 20
-121.135930688032
 10
95.82533092222423
 20
-121.3390190668875
 10
95.82533092222423
 20
-121.5441745030341
 10
95.96072317479455
 20
-121.645804819849
 10
96.14159068777016
 20
-121.645804819849
 10
96.3407172068176
 20
-121.645804819849
 10
96.45819496286462
 20
-121.5231594205741
 10
96.45819496286462
 20
-121.3453924935352
 10
96.45819496286462
 20
-121.1231838347366
 10
96.28421764085951
 20
-121.049286536578
 10
96.14159068777016
 20
-121.049286536578
 97
        0
 97
        0
 92
        1
 93
        1
 72
     4
 94
        3
 73
     0
 74
     1
 95
       17
 96
       13
 40
0.0
 40
0.0
 40
0.0
 40
0.0
 40
1.0
 40
1.0
 40
1.0
 40
2.0
 40
2.0
 40
2.0
 40
3.0
 40
3.0
 40
3.0
 40
4.0
 40
4.0
 40
4.0
 40
4.0
 10
96.14159068777016
 20
-120.3892062416041
 10
95.96520179892536
 20
-120.3892062416041
 10
95.87494029721182
 20
-120.484290876997
 10
95.87494029721182
 20
-120.6196831295673
 10
95.87494029721182
 20
-120.7425007836165
 10
95.9517659265329
 20
-120.8610120683091
 10
96.14159068777016
 20
-120.8610120683091
 10
96.33175995855595
 20
-120.8610120683091
 10
96.40858558787703
 20
-120.7425007836165
 10
96.40858558787703
 20
-120.6196831295673
 10
96.40858558787703
 20
-120.484290876997
 10
96.3159125193238
 20
-120.3892062416041
 10
96.14159068777016
 20
-120.3892062416041
 97
        0
 97
        0
 75
     2
 76
     1
 98
        0
  0
ENDBLK
  5
D3
330
D0
100
AcDbEntity
  8
0
100
AcDbBlockEnd
  0
BLOCK
  5
EA
330
E8
100
AcDbEntity
  8
0
100
AcDbBlockBegin
  2
block 6
 70
     0
 10
0.0
 20
0.0
 30
0.0
  3
block 6
  1

  0
SPLINE
  5
EC
330
E8
100
AcDbEntity
  8
_U+30EC_U+30A4_U+30E4_U+30FC 1
370
     0
100
AcDbSpline
210
0.0
220
0.0
230
1.0
 70
    11
 71
     3
 72
    26
 73
    22
 74
     0
 42
0.0000000001
 43
0.0000000001
 12
1.0
 22
0.0
 32
0.0
 13
1.0
 23
0.0
 33
0.0
 40
0.0
 40
0.0
 40
0.0
 40
0.0
 40
1.0
 40
1.0
 40
1.0
 40
2.0
 40
2.0
 40
2.0
 40
3.0
 40
3.0
 40
3.0
 40
4.0
 40
4.0
 40
4.0
 40
5.0
 40
5.0
 40
5.0
 40
6.0
 40
6.0
 40
6.0
 40
7.0
 40
7.0
 40
7.0
 40
7.0
 10
103.4961805296815
 20
-124.4113552206333
 30
0.0
 10
103.4961805296815
 20
-124.4113552206333
 30
0.0
 10
102.3920274266589
 20
-124.4113552206333
 30
0.0
 10
102.3920274266589
 20
-124.4113552206333
 30
0.0
 10
102.3920274266589
 20
-124.4113552206333
 30
0.0
 10
102.3920274266589
 20
-124.7637884887743
 30
0.0
 10
102.3920274266589
 20
-124.7637884887743
 30
0.0
 10
102.3920274266589
 20
-124.7637884887743
 30
0.0
 10
102.2438883207932
 20
-124.7637884887743
 30
0.0
 10
102.2438883207932
 20
-124.7637884887743
 30
0.0
 10
102.2290744102066
 20
-124.4089436537936
 30
0.0
 10
102.0661213937543
 20
-124.359334278806
 30
0.0
 10
101.951744223644
 20
-124.3276394003417
 30
0.0
 10
101.951744223644
 20
-124.3276394003417
 30
0.0
 10
101.951744223644
 20
-124.1715765748599
 30
0.0
 10
101.951744223644
 20
-124.1715765748599
 30
0.0
 10
101.951744223644
 20
-124.1715765748599
 30
0.0
 10
103.4961805296815
 20
-124.1715765748599
 30
0.0
 10
103.4961805296815
 20
-124.1715765748599
 30
0.0
 10
103.4961805296815
 20
-124.1715765748599
 30
0.0
 10
103.4961805296815
 20
-124.4113552206333
 30
0.0
 10
103.4961805296815
 20
-124.4113552206333
 30
0.0
  0
HATCH
  5
ED
330
E8
100
AcDbEntity
  8
_U+30EC_U+30A4_U+30E4_U+30FC 1
 62
   179
420
  2234388
100
AcDbHatch
 10
0.0
 20
0.0
 30
0.0
210
0.0
220
0.0
230
1.0
  2
SOLID
 70
     1
 71
     0
 91
        1
 92
        1
 93
        1
 72
     4
 94
        3
 73
     0
 74
     1
 95
       26
 96
       22
 40
0.0
 40
0.0
 40
0.0
 40
0.0
 40
1.0
 40
1.0
 40
1.0
 40
2.0
 40
2.0
 40
2.0
 40
3.0
 40
3.0
 40
3.0
 40
4.0
 40
4.0
 40
4.0
 40
5.0
 40
5.0
 40
5.0
 40
6.0
 40
6.0
 40
6.0
 40
7.0
 40
7.0
 40
7.0
 40
7.0
 10
103.4961805296815
 20
-124.4113552206333
 10
103.4961805296815
 20
-124.4113552206333
 10
102.3920274266589
 20
-124.4113552206333
 10
102.3920274266589
 20
-124.4113552206333
 10
102.3920274266589
 20
-124.4113552206333
 10
102.3920274266589
 20
-124.7637884887743
 10
102.3920274266589
 20
-124.7637884887743
 10
102.3920274266589
 20
-124.7637884887743
 10
102.2438883207932
 20
-124.7637884887743
 10
102.2438883207932
 20
-124.7637884887743
 10
102.2290744102066
 20
-124.4089436537936
 10
102.0661213937543
 20
-124.359334278806
 10
101.951744223644
 20
-124.3276394003417
 10
101.951744223644
 20
-124.3276394003417
 10
101.951744223644
 20
-124.1715765748599
 10
101.951744223644
 20
-124.1715765748599
 10
101.951744223644
 20
-124.1715765748599
 10
103.4961805296815
 20
-124.1715765748599
 10
103.4961805296815
 20
-124.1715765748599
 10
103.4961805296815
 20
-124.1715765748599
 10
103.4961805296815
 20
-124.4113552206333
 10
103.4961805296815
 20
-124.4113552206333
 97
        0
 97
        0
 75
     2
 76
     1
 98
        0
  0
POLYLINE
  5
EE
330
E8
100
AcDbEntity
  8
_U+30EC_U+30A4_U+30E4_U+30FC 1
370
     0
100
AcDb2dPolyline
 66
     1
 10
0.0
 20
0.0
 30
0.0
  0
VERTEX
  5
EF
330
EE
100
AcDbEntity
  8
_U+30EC_U+30A4_U+30E4_U+30FC 1
370
     0
100
AcDbVertex
100
AcDb2dVertex
 10
103.4961805296815
 20
-123.5717854508779
 30
0.0
  0
VERTEX
  5
F0
330
EE
100
AcDbEntity
  8
_U+30EC_U+30A4_U+30E4_U+30FC 1
370
     0
100
AcDbVertex
100
AcDb2dVertex
 10
103.2443440497098
 20
-123.5717854508779
 30
0.0
  0
VERTEX
  5
F1
330
EE
100
AcDbEntity
  8
_U+30EC_U+30A4_U+30E4_U+30FC 1
370
     0
100
AcDbVertex
100
AcDb2dVertex
 10
103.2443440497098
 20
-123.3027234934799
 30
0.0
  0
VERTEX
  5
F2
330
EE
100
AcDbEntity
  8
_U+30EC_U+30A4_U+30E4_U+30FC 1
370
     0
100
AcDbVertex
100
AcDb2dVertex
 10
103.4961805296815
 20
-123.3027234934799
 30
0.0
  0
VERTEX
  5
F3
330
EE
100
AcDbEntity
  8
_U+30EC_U+30A4_U+30E4_U+30FC 1
370
     0
100
AcDbVertex
100
AcDb2dVertex
 10
103.4961805296815
 20
-123.5717854508779
 30
0.0
  0
SEQEND
  5
F4
330
EE
100
AcDbEntity
  8
_U+30EC_U+30A4_U+30E4_U+30FC 1
370
     0
  0
HATCH
  5
F5
330
E8
100
AcDbEntity
  8
_U+30EC_U+30A4_U+30E4_U+30FC 1
 62
   179
420
  2234388
100
AcDbHatch
 10
0.0
 20
0.0
 30
0.0
210
0.0
220
0.0
230
1.0
  2
SOLID
 70
     1
 71
     0
 91
        1
 92
        1
 93
        4
 72
     1
 10
103.4961805296815
 20
-123.5717854508779
 11
103.2443440497098
 21
-123.5717854508779
 72
     1
 10
103.2443440497098
 20
-123.5717854508779
 11
103.2443440497098
 21
-123.3027234934799
 72
     1
 10
103.2443440497098
 20
-123.3027234934799
 11
103.4961805296815
 21
-123.3027234934799
 72
     1
 10
103.4961805296815
 20
-123.3027234934799
 11
103.4961805296815
 21
-123.5717854508779
 97
        0
 75
     2
 76
     1
 98
        0
  0
SPLINE
  5
F6
330
E8
100
AcDbEntity
  8
_U+30EC_U+30A4_U+30E4_U+30FC 1
370
     0
100
AcDbSpline
210
0.0
220
0.0
230
1.0
 70
    11
 71
     3
 72
    53
 73
    49
 74
     0
 42
0.0000000001
 43
0.0000000001
 12
1.0
 22
0.0
 32
0.0
 13
1.0
 23
0.0
 33
0.0
 40
0.0
 40
0.0
 40
0.0
 40
0.0
 40
1.0
 40
1.0
 40
1.0
 40
2.0
 40
2.0
 40
2.0
 40
3.0
 40
3.0
 40
3.0
 40
4.0
 40
4.0
 40
4.0
 40
5.0
 40
5.0
 40
5.0
 40
6.0
 40
6.0
 40
6.0
 40
7.0
 40
7.0
 40
7.0
 40
8.0
 40
8.0
 40
8.0
 40
9.0
 40
9.0
 40
9.0
 40
10.0
 40
10.0
 40
10.0
 40
11.0
 40
11.0
 40
11.0
 40
12.0
 40
12.0
 40
12.0
 40
13.0
 40
13.0
 40
13.0
 40
14.0
 40
14.0
 40
14.0
 40
15.0
 40
15.0
 40
15.0
 40
16.0
 40
16.0
 40
16.0
 40
16.0
 10
103.5468234333147
 20
-122.5358452384633
 30
0.0
 10
103.5468234333147
 20
-122.6192165492063
 30
0.0
 10
103.529942465437
 20
-122.7280815665402
 30
0.0
 10
103.4665527085084
 20
-122.8362575647771
 30
0.0
 10
103.3566541625289
 20
-123.021948211432
 30
0.0
 10
103.2253960245409
 20
-123.0443413320861
 30
0.0
 10
103.1175645358526
 20
-123.0646673954491
 30
0.0
 10
103.1175645358526
 20
-123.0646673954491
 30
0.0
 10
103.1175645358526
 20
-122.8273003165154
 30
0.0
 10
103.1175645358526
 20
-122.8273003165154
 30
0.0
 10
103.3163465453515
 20
-122.7687336932662
 30
0.0
 10
103.3459743665246
 20
-122.6329969311473
 30
0.0
 10
103.3459743665246
 20
-122.5334336716236
 30
0.0
 10
103.3459743665246
 20
-122.3842610371123
 30
0.0
 10
103.2464111070009
 20
-122.2216525302085
 30
0.0
 10
103.0138671617465
 20
-122.2216525302085
 30
0.0
 10
102.7578965671925
 20
-122.2216525302085
 30
0.0
 10
102.6879611288419
 20
-122.4135443487369
 30
0.0
 10
102.6879611288419
 20
-122.5423909198852
 30
0.0
 10
102.6879611288419
 20
-122.5764973651892
 30
0.0
 10
102.6879611288419
 20
-122.7280815665402
 30
0.0
 10
102.8171522095388
 20
-122.8228216923846
 30
0.0
 10
102.8171522095388
 20
-122.8228216923846
 30
0.0
 10
102.7982041843699
 20
-123.0105793963307
 30
0.0
 10
102.7982041843699
 20
-123.0105793963307
 30
0.0
 10
102.7982041843699
 20
-123.0105793963307
 30
0.0
 10
101.951744223644
 20
-122.8817328251824
 30
0.0
 10
101.951744223644
 20
-122.8817328251824
 30
0.0
 10
101.951744223644
 20
-122.8817328251824
 30
0.0
 10
101.951744223644
 20
-122.0497422654945
 30
0.0
 10
101.951744223644
 20
-122.0497422654945
 30
0.0
 10
101.951744223644
 20
-122.0497422654945
 30
0.0
 10
102.1463921185606
 20
-122.0497422654945
 30
0.0
 10
102.1463921185606
 20
-122.0497422654945
 30
0.0
 10
102.1463921185606
 20
-122.0497422654945
 30
0.0
 10
102.1463921185606
 20
-122.7074109936287
 30
0.0
 10
102.1463921185606
 20
-122.7074109936287
 30
0.0
 10
102.1463921185606
 20
-122.7074109936287
 30
0.0
 10
102.5694498441493
 20
-122.7776909415278
 30
0.0
 10
102.5694498441493
 20
-122.7776909415278
 30
0.0
 10
102.5356879083939
 20
-122.7122341273081
 30
0.0
 10
102.4953802912164
 20
-122.6240396828857
 30
0.0
 10
102.4953802912164
 20
-122.4972601690285
 30
0.0
 10
102.4953802912164
 20
-122.2261311543393
 30
0.0
 10
102.6817599569684
 20
-121.9729166361734
 30
0.0
 10
102.9949191365777
 20
-121.9729166361734
 30
0.0
 10
103.3122124307692
 20
-121.9729166361734
 30
0.0
 10
103.5468234333147
 20
-122.2123507723983
 30
0.0
 10
103.5468234333147
 20
-122.5358452384633
 30
0.0
  0
HATCH
  5
F7
330
E8
100
AcDbEntity
  8
_U+30EC_U+30A4_U+30E4_U+30FC 1
 62
   179
420
  2234388
100
AcDbHatch
 10
0.0
 20
0.0
 30
0.0
210
0.0
220
0.0
230
1.0
  2
SOLID
 70
     1
 71
     0
 91
        1
 92
        1
 93
        1
 72
     4
 94
        3
 73
     0
 74
     1
 95
       53
 96
       49
 40
0.0
 40
0.0
 40
0.0
 40
0.0
 40
1.0
 40
1.0
 40
1.0
 40
2.0
 40
2.0
 40
2.0
 40
3.0
 40
3.0
 40
3.0
 40
4.0
 40
4.0
 40
4.0
 40
5.0
 40
5.0
 40
5.0
 40
6.0
 40
6.0
 40
6.0
 40
7.0
 40
7.0
 40
7.0
 40
8.0
 40
8.0
 40
8.0
 40
9.0
 40
9.0
 40
9.0
 40
10.0
 40
10.0
 40
10.0
 40
11.0
 40
11.0
 40
11.0
 40
12.0
 40
12.0
 40
12.0
 40
13.0
 40
13.0
 40
13.0
 40
14.0
 40
14.0
 40
14.0
 40
15.0
 40
15.0
 40
15.0
 40
16.0
 40
16.0
 40
16.0
 40
16.0
 10
103.5468234333147
 20
-122.5358452384633
 10
103.5468234333147
 20
-122.6192165492063
 10
103.529942465437
 20
-122.7280815665402
 10
103.4665527085084
 20
-122.8362575647771
 10
103.3566541625289
 20
-123.021948211432
 10
103.2253960245409
 20
-123.0443413320861
 10
103.1175645358526
 20
-123.0646673954491
 10
103.1175645358526
 20
-123.0646673954491
 10
103.1175645358526
 20
-122.8273003165154
 10
103.1175645358526
 20
-122.8273003165154
 10
103.3163465453515
 20
-122.7687336932662
 10
103.3459743665246
 20
-122.6329969311473
 10
103.3459743665246
 20
-122.5334336716236
 10
103.3459743665246
 20
-122.3842610371123
 10
103.2464111070009
 20
-122.2216525302085
 10
103.0138671617465
 20
-122.2216525302085
 10
102.7578965671925
 20
-122.2216525302085
 10
102.6879611288419
 20
-122.4135443487369
 10
102.6879611288419
 20
-122.5423909198852
 10
102.6879611288419
 20
-122.5764973651892
 10
102.6879611288419
 20
-122.7280815665402
 10
102.8171522095388
 20
-122.8228216923846
 10
102.8171522095388
 20
-122.8228216923846
 10
102.7982041843699
 20
-123.0105793963307
 10
102.7982041843699
 20
-123.0105793963307
 10
102.7982041843699
 20
-123.0105793963307
 10
101.951744223644
 20
-122.8817328251824
 10
101.951744223644
 20
-122.8817328251824
 10
101.951744223644
 20
-122.8817328251824
 10
101.951744223644
 20
-122.0497422654945
 10
101.951744223644
 20
-122.0497422654945
 10
101.951744223644
 20
-122.0497422654945
 10
102.1463921185606
 20
-122.0497422654945
 10
102.1463921185606
 20
-122.0497422654945
 10
102.1463921185606
 20
-122.0497422654945
 10
102.1463921185606
 20
-122.7074109936287
 10
102.1463921185606
 20
-122.7074109936287
 10
102.1463921185606
 20
-122.7074109936287
 10
102.5694498441493
 20
-122.7776909415278
 10
102.5694498441493
 20
-122.7776909415278
 10
102.5356879083939
 20
-122.7122341273081
 10
102.4953802912164
 20
-122.6240396828857
 10
102.4953802912164
 20
-122.4972601690285
 10
102.4953802912164
 20
-122.2261311543393
 10
102.6817599569684
 20
-121.9729166361734
 10
102.9949191365777
 20
-121.9729166361734
 10
103.3122124307692
 20
-121.9729166361734
 10
103.5468234333147
 20
-122.2123507723983
 10
103.5468234333147
 20
-122.5358452384633
 97
        0
 97
        0
 75
     2
 76
     1
 98
        0
  0
ENDBLK
  5
EB
330
E8
100
AcDbEntity
  8
0
100
AcDbBlockEnd
  0
BLOCK
  5
10A
330
108
100
AcDbEntity
  8
0
100
AcDbBlockBegin
  2
block 7
 70
     0
 10
0.0
 20
0.0
 30
0.0
  3
block 7
  1

  0
SPLINE
  5
10C
330
108
100
AcDbEntity
  8
_U+30EC_U+30A4_U+30E4_U+30FC 1
370
     0
100
AcDbSpline
210
0.0
220
0.0
230
1.0
 70
    11
 71
     3
 72
    62
 73
    58
 74
     0
 42
0.0000000001
 43
0.0000000001
 12
1.0
 22
0.0
 32
0.0
 13
1.0
 23
0.0
 33
0.0
 40
0.0
 40
0.0
 40
0.0
 40
0.0
 40
1.0
 40
1.0
 40
1.0
 40
2.0
 40
2.0
 40
2.0
 40
3.0
 40
3.0
 40
3.0
 40
4.0
 40
4.0
 40
4.0
 40
5.0
 40
5.0
 40
5.0
 40
6.0
 40
6.0
 40
6.0
 40
7.0
 40
7.0
 40
7.0
 40
8.0
 40
8.0
 40
8.0
 40
9.0
 40
9.0
 40
9.0
 40
10.0
 40
10.0
 40
10.0
 40
11.0
 40
11.0
 40
11.0
 40
12.0
 40
12.0
 40
12.0
 40
13.0
 40
13.0
 40
13.0
 40
14.0
 40
14.0
 40
14.0
 40
15.0
 40
15.0
 40
15.0
 40
16.0
 40
16.0
 40
16.0
 40
17.0
 40
17.0
 40
17.0
 40
18.0
 40
18.0
 40
18.0
 40
19.0
 40
19.0
 40
19.0
 40
19.0
 10
103.5468234333147
 20
-135.0684135947051
 30
0.0
 10
103.5468234333147
 20
-135.17004391152
 30
0.0
 10
103.5258083508547
 20
-135.4029323663229
 30
0.0
 10
103.3397731946512
 20
-135.536257561602
 30
0.0
 10
103.227463081832
 20
-135.6154947577628
 30
0.0
 10
103.1282443318568
 20
-135.6199733818936
 30
0.0
 10
103.0434949829197
 20
-135.6244520060245
 30
0.0
 10
103.0434949829197
 20
-135.6244520060245
 30
0.0
 10
103.0434949829197
 20
-135.3894964939304
 30
0.0
 10
103.0434949829197
 20
-135.3894964939304
 30
0.0
 10
103.1175645358526
 20
-135.3870849270907
 30
0.0
 10
103.3521755383981
 20
-135.3757161119894
 30
0.0
 10
103.3521755383981
 20
-135.072892218836
 30
0.0
 10
103.3521755383981
 20
-134.9257866416158
 30
0.0
 10
103.282584609596
 20
-134.763178134712
 30
0.0
 10
103.054174778924
 20
-134.763178134712
 30
0.0
 10
102.9377305515225
 20
-134.763178134712
 30
0.0
 10
102.8891547051805
 20
-134.8038302614379
 30
0.0
 10
102.8574598267162
 20
-134.8375921971934
 30
0.0
 10
102.7833902737833
 20
-134.9168293933541
 30
0.0
 10
102.7706434204879
 20
-135.0411973403716
 30
0.0
 10
102.7706434204879
 20
-135.1001084731694
 30
0.0
 10
102.7706434204879
 20
-135.1204345365324
 30
0.0
 10
102.772710477779
 20
-135.1586750964187
 30
0.0
 10
102.7768445923613
 20
-135.1883029175918
 30
0.0
 10
102.7768445923613
 20
-135.1883029175918
 30
0.0
 10
102.5821966974447
 20
-135.1883029175918
 30
0.0
 10
102.5821966974447
 20
-135.1883029175918
 30
0.0
 10
102.5887423788667
 20
-135.1476507908659
 30
0.0
 10
102.5908094361579
 20
-135.1021755304606
 30
0.0
 10
102.5908094361579
 20
-135.0956298490386
 30
0.0
 10
102.5908094361579
 20
-135.0253499011395
 30
0.0
 10
102.5694498441493
 20
-134.8127875096996
 30
0.0
 10
102.3327717843126
 20
-134.8127875096996
 30
0.0
 10
102.1550048572738
 20
-134.8127875096996
 30
0.0
 10
102.0998833295098
 20
-134.9530028959493
 30
0.0
 10
102.0998833295098
 20
-135.0704806519963
 30
0.0
 10
102.0998833295098
 20
-135.3533229913353
 30
0.0
 10
102.3327717843126
 20
-135.3622802395969
 30
0.0
 10
102.4044297704058
 20
-135.3667588637278
 30
0.0
 10
102.4044297704058
 20
-135.3667588637278
 30
0.0
 10
102.4044297704058
 20
-135.5837998792985
 30
0.0
 10
102.4044297704058
 20
-135.5837998792985
 30
0.0
 10
102.2797173138398
 20
-135.5748426310369
 30
0.0
 10
101.903168377302
 20
-135.5455593194122
 30
0.0
 10
101.903168377302
 20
-135.0570447796038
 30
0.0
 10
101.903168377302
 20
-134.8172661338304
 30
0.0
 10
102.0302924007077
 20
-134.5595729915337
 30
0.0
 10
102.3262261028907
 20
-134.5595729915337
 30
0.0
 10
102.5126057686427
 20
-134.5595729915337
 30
0.0
 10
102.5949435507402
 20
-134.6615478178971
 30
0.0
 10
102.6562662503776
 20
-134.7676567588428
 30
0.0
 10
102.6838270142596
 20
-134.7021999446231
 30
0.0
 10
102.7640977390659
 20
-134.5075520497064
 30
0.0
 10
103.0414279256285
 20
-134.5075520497064
 30
0.0
 10
103.3797363022801
 20
-134.5075520497064
 30
0.0
 10
103.5468234333147
 20
-134.7721353829736
 30
0.0
 10
103.5468234333147
 20
-135.0684135947051
 30
0.0
  0
HATCH
  5
10D
330
108
100
AcDbEntity
  8
_U+30EC_U+30A4_U+30E4_U+30FC 1
 62
   179
420
  2234388
100
AcDbHatch
 10
0.0
 20
0.0
 30
0.0
210
0.0
220
0.0
230
1.0
  2
SOLID
 70
     1
 71
     0
 91
        1
 92
        1
 93
        1
 72
     4
 94
        3
 73
     0
 74
     1
 95
       62
 96
       58
 40
0.0
 40
0.0
 40
0.0
 40
0.0
 40
1.0
 40
1.0
 40
1.0
 40
2.0
 40
2.0
 40
2.0
 40
3.0
 40
3.0
 40
3.0
 40
4.0
 40
4.0
 40
4.0
 40
5.0
 40
5.0
 40
5.0
 40
6.0
 40
6.0
 40
6.0
 40
7.0
 40
7.0
 40
7.0
 40
8.0
 40
8.0
 40
8.0
 40
9.0
 40
9.0
 40
9.0
 40
10.0
 40
10.0
 40
10.0
 40
11.0
 40
11.0
 40
11.0
 40
12.0
 40
12.0
 40
12.0
 40
13.0
 40
13.0
 40
13.0
 40
14.0
 40
14.0
 40
14.0
 40
15.0
 40
15.0
 40
15.0
 40
16.0
 40
16.0
 40
16.0
 40
17.0
 40
17.0
 40
17.0
 40
18.0
 40
18.0
 40
18.0
 40
19.0
 40
19.0
 40
19.0
 40
19.0
 10
103.5468234333147
 20
-135.0684135947051
 10
103.5468234333147
 20
-135.17004391152
 10
103.5258083508547
 20
-135.4029323663229
 10
103.3397731946512
 20
-135.536257561602
 10
103.227463081832
 20
-135.6154947577628
 10
103.1282443318568
 20
-135.6199733818936
 10
103.0434949829197
 20
-135.6244520060245
 10
103.0434949829197
 20
-135.6244520060245
 10
103.0434949829197
 20
-135.3894964939304
 10
103.0434949829197
 20
-135.3894964939304
 10
103.1175645358526
 20
-135.3870849270907
 10
103.3521755383981
 20
-135.3757161119894
 10
103.3521755383981
 20
-135.072892218836
 10
103.3521755383981
 20
-134.9257866416158
 10
103.282584609596
 20
-134.763178134712
 10
103.054174778924
 20
-134.763178134712
 10
102.9377305515225
 20
-134.763178134712
 10
102.8891547051805
 20
-134.8038302614379
 10
102.8574598267162
 20
-134.8375921971934
 10
102.7833902737833
 20
-134.9168293933541
 10
102.7706434204879
 20
-135.0411973403716
 10
102.7706434204879
 20
-135.1001084731694
 10
102.7706434204879
 20
-135.1204345365324
 10
102.772710477779
 20
-135.1586750964187
 10
102.7768445923613
 20
-135.1883029175918
 10
102.7768445923613
 20
-135.1883029175918
 10
102.5821966974447
 20
-135.1883029175918
 10
102.5821966974447
 20
-135.1883029175918
 10
102.5887423788667
 20
-135.1476507908659
 10
102.5908094361579
 20
-135.1021755304606
 10
102.5908094361579
 20
-135.0956298490386
 10
102.5908094361579
 20
-135.0253499011395
 10
102.5694498441493
 20
-134.8127875096996
 10
102.3327717843126
 20
-134.8127875096996
 10
102.1550048572738
 20
-134.8127875096996
 10
102.0998833295098
 20
-134.9530028959493
 10
102.0998833295098
 20
-135.0704806519963
 10
102.0998833295098
 20
-135.3533229913353
 10
102.3327717843126
 20
-135.3622802395969
 10
102.4044297704058
 20
-135.3667588637278
 10
102.4044297704058
 20
-135.3667588637278
 10
102.4044297704058
 20
-135.5837998792985
 10
102.4044297704058
 20
-135.5837998792985
 10
102.2797173138398
 20
-135.5748426310369
 10
101.903168377302
 20
-135.5455593194122
 10
101.903168377302
 20
-135.0570447796038
 10
101.903168377302
 20
-134.8172661338304
 10
102.0302924007077
 20
-134.5595729915337
 10
102.3262261028907
 20
-134.5595729915337
 10
102.5126057686427
 20
-134.5595729915337
 10
102.5949435507402
 20
-134.6615478178971
 10
102.6562662503776
 20
-134.7676567588428
 10
102.6838270142596
 20
-134.7021999446231
 10
102.7640977390659
 20
-134.5075520497064
 10
103.0414279256285
 20
-134.5075520497064
 10
103.3797363022801
 20
-134.5075520497064
 10
103.5468234333147
 20
-134.7721353829736
 10
103.5468234333147
 20
-135.0684135947051
 97
        0
 97
        0
 75
     2
 76
     1
 98
        0
  0
POLYLINE
  5
10E
330
108
100
AcDbEntity
  8
_U+30EC_U+30A4_U+30E4_U+30FC 1
370
     0
100
AcDb2dPolyline
 66
     1
 10
0.0
 20
0.0
 30
0.0
  0
VERTEX
  5
10F
330
10E
100
AcDbEntity
  8
_U+30EC_U+30A4_U+30E4_U+30FC 1
370
     0
100
AcDbVertex
100
AcDb2dVertex
 10
103.4961805296815
 20
-134.2719075185153
 30
0.0
  0
VERTEX
  5
110
330
10E
100
AcDbEntity
  8
_U+30EC_U+30A4_U+30E4_U+30FC 1
370
     0
100
AcDbVertex
100
AcDb2dVertex
 10
103.2443440497098
 20
-134.2719075185153
 30
0.0
  0
VERTEX
  5
111
330
10E
100
AcDbEntity
  8
_U+30EC_U+30A4_U+30E4_U+30FC 1
370
     0
100
AcDbVertex
100
AcDb2dVertex
 10
103.2443440497098
 20
-134.0028455611173
 30
0.0
  0
VERTEX
  5
112
330
10E
100
AcDbEntity
  8
_U+30EC_U+30A4_U+30E4_U+30FC 1
370
     0
100
AcDbVertex
100
AcDb2dVertex
 10
103.4961805296815
 20
-134.0028455611173
 30
0.0
  0
VERTEX
  5
113
330
10E
100
AcDbEntity
  8
_U+30EC_U+30A4_U+30E4_U+30FC 1
370
     0
100
AcDbVertex
100
AcDb2dVertex
 10
103.4961805296815
 20
-134.2719075185153
 30
0.0
  0
SEQEND
  5
114
330
10E
100
AcDbEntity
  8
_U+30EC_U+30A4_U+30E4_U+30FC 1
370
     0
  0
HATCH
  5
115
330
108
100
AcDbEntity
  8
_U+30EC_U+30A4_U+30E4_U+30FC 1
 62
   179
420
  2234388
100
AcDbHatch
 10
0.0
 20
0.0
 30
0.0
210
0.0
220
0.0
230
1.0
  2
SOLID
 70
     1
 71
     0
 91
        1
 92
        1
 93
        4
 72
     1
 10
103.4961805296815
 20
-134.2719075185153
 11
103.2443440497098
 21
-134.2719075185153
 72
     1
 10
103.2443440497098
 20
-134.2719075185153
 11
103.2443440497098
 21
-134.0028455611173
 72
     1
 10
103.2443440497098
 20
-134.0028455611173
 11
103.4961805296815
 21
-134.0028455611173
 72
     1
 10
103.4961805296815
 20
-134.0028455611173
 11
103.4961805296815
 21
-134.2719075185153
 97
        0
 75
     2
 76
     1
 98
        0
  0
SPLINE
  5
116
330
108
100
AcDbEntity
  8
_U+30EC_U+30A4_U+30E4_U+30FC 1
370
     0
100
AcDbSpline
210
0.0
220
0.0
230
1.0
 70
    11
 71
     3
 72
    44
 73
    40
 74
     0
 42
0.0000000001
 43
0.0000000001
 12
1.0
 22
0.0
 32
0.0
 13
1.0
 23
0.0
 33
0.0
 40
0.0
 40
0.0
 40
0.0
 40
0.0
 40
1.0
 40
1.0
 40
1.0
 40
2.0
 40
2.0
 40
2.0
 40
3.0
 40
3.0
 40
3.0
 40
4.0
 40
4.0
 40
4.0
 40
5.0
 40
5.0
 40
5.0
 40
6.0
 40
6.0
 40
6.0
 40
7.0
 40
7.0
 40
7.0
 40
8.0
 40
8.0
 40
8.0
 40
9.0
 40
9.0
 40
9.0
 40
10.0
 40
10.0
 40
10.0
 40
11.0
 40
11.0
 40
11.0
 40
12.0
 40
12.0
 40
12.0
 40
13.0
 40
13.0
 40
13.0
 40
13.0
 10
102.9143039022228
 20
-133.116077983214
 30
0.0
 10
103.0731228040928
 20
-133.3489664380169
 30
0.0
 10
103.1471923570257
 20
-133.4485296975407
 30
0.0
 10
103.2908528387606
 20
-133.5002061298194
 30
0.0
 10
103.2908528387606
 20
-133.5002061298194
 30
0.0
 10
103.2908528387606
 20
-132.6685600796801
 30
0.0
 10
103.2908528387606
 20
-132.6685600796801
 30
0.0
 10
103.2908528387606
 20
-132.6685600796801
 30
0.0
 10
103.4961805296815
 20
-132.6685600796801
 30
0.0
 10
103.4961805296815
 20
-132.6685600796801
 30
0.0
 10
103.4961805296815
 20
-132.6685600796801
 30
0.0
 10
103.4961805296815
 20
-133.7672010299263
 30
0.0
 10
103.4961805296815
 20
-133.7672010299263
 30
0.0
 10
103.1385796183126
 20
-133.7330945846223
 30
0.0
 10
103.0603759507974
 20
-133.6631591462717
 30
0.0
 10
102.7620306817748
 20
-133.2518147453329
 30
0.0
 10
102.5632486722759
 20
-132.9782741638041
 30
0.0
 10
102.4953802912164
 20
-132.9079942159049
 30
0.0
 10
102.357920981355
 20
-132.9079942159049
 30
0.0
 10
102.2394096966624
 20
-132.9079942159049
 30
0.0
 10
102.1084960682229
 20
-132.984819845226
 30
0.0
 10
102.1084960682229
 20
-133.1953151793748
 30
0.0
 10
102.1084960682229
 20
-133.4733343850345
 30
0.0
 10
102.3389729561861
 20
-133.4822916332961
 30
0.0
 10
102.4554171835875
 20
-133.4867702574269
 30
0.0
 10
102.4554171835875
 20
-133.4867702574269
 30
0.0
 10
102.4554171835875
 20
-133.7265489032003
 30
0.0
 10
102.4554171835875
 20
-133.7265489032003
 30
0.0
 10
102.3282931601818
 20
-133.7172471453901
 30
0.0
 10
102.2163275569112
 20
-133.7062228398374
 30
0.0
 10
102.0978162722186
 20
-133.6200954527061
 30
0.0
 10
101.9369303130574
 20
-133.5026176966591
 30
0.0
 10
101.903168377302
 20
-133.3038356871602
 30
0.0
 10
101.903168377302
 20
-133.1794677401426
 30
0.0
 10
101.903168377302
 20
-132.8831895284112
 30
0.0
 10
102.0871364762143
 20
-132.6616698887096
 30
0.0
 10
102.3599880386461
 20
-132.6616698887096
 30
0.0
 10
102.5887423788667
 20
-132.6616698887096
 30
0.0
 10
102.6879611288419
 20
-132.7860378357271
 30
0.0
 10
102.9143039022228
 20
-133.116077983214
 30
0.0
  0
HATCH
  5
117
330
108
100
AcDbEntity
  8
_U+30EC_U+30A4_U+30E4_U+30FC 1
 62
   179
420
  2234388
100
AcDbHatch
 10
0.0
 20
0.0
 30
0.0
210
0.0
220
0.0
230
1.0
  2
SOLID
 70
     1
 71
     0
 91
        1
 92
        1
 93
        1
 72
     4
 94
        3
 73
     0
 74
     1
 95
       44
 96
       40
 40
0.0
 40
0.0
 40
0.0
 40
0.0
 40
1.0
 40
1.0
 40
1.0
 40
2.0
 40
2.0
 40
2.0
 40
3.0
 40
3.0
 40
3.0
 40
4.0
 40
4.0
 40
4.0
 40
5.0
 40
5.0
 40
5.0
 40
6.0
 40
6.0
 40
6.0
 40
7.0
 40
7.0
 40
7.0
 40
8.0
 40
8.0
 40
8.0
 40
9.0
 40
9.0
 40
9.0
 40
10.0
 40
10.0
 40
10.0
 40
11.0
 40
11.0
 40
11.0
 40
12.0
 40
12.0
 40
12.0
 40
13.0
 40
13.0
 40
13.0
 40
13.0
 10
102.9143039022228
 20
-133.116077983214
 10
103.0731228040928
 20
-133.3489664380169
 10
103.1471923570257
 20
-133.4485296975407
 10
103.2908528387606
 20
-133.5002061298194
 10
103.2908528387606
 20
-133.5002061298194
 10
103.2908528387606
 20
-132.6685600796801
 10
103.2908528387606
 20
-132.6685600796801
 10
103.2908528387606
 20
-132.6685600796801
 10
103.4961805296815
 20
-132.6685600796801
 10
103.4961805296815
 20
-132.6685600796801
 10
103.4961805296815
 20
-132.6685600796801
 10
103.4961805296815
 20
-133.7672010299263
 10
103.4961805296815
 20
-133.7672010299263
 10
103.1385796183126
 20
-133.7330945846223
 10
103.0603759507974
 20
-133.6631591462717
 10
102.7620306817748
 20
-133.2518147453329
 10
102.5632486722759
 20
-132.9782741638041
 10
102.4953802912164
 20
-132.9079942159049
 10
102.357920981355
 20
-132.9079942159049
 10
102.2394096966624
 20
-132.9079942159049
 10
102.1084960682229
 20
-132.984819845226
 10
102.1084960682229
 20
-133.1953151793748
 10
102.1084960682229
 20
-133.4733343850345
 10
102.3389729561861
 20
-133.4822916332961
 10
102.4554171835875
 20
-133.4867702574269
 10
102.4554171835875
 20
-133.4867702574269
 10
102.4554171835875
 20
-133.7265489032003
 10
102.4554171835875
 20
-133.7265489032003
 10
102.3282931601818
 20
-133.7172471453901
 10
102.2163275569112
 20
-133.7062228398374
 10
102.0978162722186
 20
-133.6200954527061
 10
101.9369303130574
 20
-133.5026176966591
 10
101.903168377302
 20
-133.3038356871602
 10
101.903168377302
 20
-133.1794677401426
 10
101.903168377302
 20
-132.8831895284112
 10
102.0871364762143
 20
-132.6616698887096
 10
102.3599880386461
 20
-132.6616698887096
 10
102.5887423788667
 20
-132.6616698887096
 10
102.6879611288419
 20
-132.7860378357271
 10
102.9143039022228
 20
-133.116077983214
 97
        0
 97
        0
 75
     2
 76
     1
 98
        0
  0
ENDBLK
  5
10B
330
108
100
AcDbEntity
  8
0
100
AcDbBlockEnd
  0
ENDSEC
  0
SECTION
  2
ENTITIES
  0
SPLINE
  5
41
330
1F
100
AcDbEntity
  8
_U+30EC_U+30A4_U+30E4_U+30FC 1
370
     0
100
AcDbSpline
210
0.0
220
0.0
230
1.0
 70
    11
 71
     3
 72
    68
 73
    64
 74
     0
 42
0.0000000001
 43
0.0000000001
 12
1.0
 22
0.0
 32
0.0
 13
1.0
 23
0.0
 33
0.0
 40
0.0
 40
0.0
 40
0.0
 40
0.0
 40
1.0
 40
1.0
 40
1.0
 40
2.0
 40
2.0
 40
2.0
 40
3.0
 40
3.0
 40
3.0
 40
4.0
 40
4.0
 40
4.0
 40
5.0
 40
5.0
 40
5.0
 40
6.0
 40
6.0
 40
6.0
 40
7.0
 40
7.0
 40
7.0
 40
8.0
 40
8.0
 40
8.0
 40
9.0
 40
9.0
 40
9.0
 40
10.0
 40
10.0
 40
10.0
 40
11.0
 40
11.0
 40
11.0
 40
12.0
 40
12.0
 40
12.0
 40
13.0
 40
13.0
 40
13.0
 40
14.0
 40
14.0
 40
14.0
 40
15.0
 40
15.0
 40
15.0
 40
16.0
 40
16.0
 40
16.0
 40
17.0
 40
17.0
 40
17.0
 40
18.0
 40
18.0
 40
18.0
 40
19.0
 40
19.0
 40
19.0
 40
20.0
 40
20.0
 40
20.0
 40
21.0
 40
21.0
 40
21.0
 40
21.0
 10
99.14226524844787
 20
-126.4360494128353
 30
0.0
 10
99.14226524844787
 20
-126.4360494128353
 30
0.0
 10
92.14216653814638
 20
-126.4360494128353
 30
0.0
 10
92.14216653814638
 20
-126.4360494128353
 30
0.0
 10
92.14216653814638
 20
-126.4360494128353
 30
0.0
 10
92.14216653814638
 20
-130.1360533007995
 30
0.0
 10
92.14216653814638
 20
-130.1360533007995
 30
0.0
 10
92.14216653814638
 20
-130.1360533007995
 30
0.0
 10
88.54619690766498
 20
-130.1360533007995
 30
0.0
 10
88.54619690766498
 20
-130.1360533007995
 30
0.0
 10
88.54619690766498
 20
-130.1360533007995
 30
0.0
 10
88.14208997353016
 20
-130.8361055228465
 30
0.0
 10
88.14208997353016
 20
-130.8361055228465
 30
0.0
 10
88.14208997353016
 20
-130.8361055228465
 30
0.0
 10
87.73798303939535
 20
-130.1360533007995
 30
0.0
 10
87.73798303939535
 20
-130.1360533007995
 30
0.0
 10
87.73798303939535
 20
-130.1360533007995
 30
0.0
 10
84.14233090890586
 20
-130.1360533007995
 30
0.0
 10
84.14233090890586
 20
-130.1360533007995
 30
0.0
 10
84.14233090890586
 20
-130.1360533007995
 30
0.0
 10
84.14233090890586
 20
-126.4360494128353
 30
0.0
 10
84.14233090890586
 20
-126.4360494128353
 30
0.0
 10
84.14233090890586
 20
-126.4360494128353
 30
0.0
 10
77.14223219860436
 20
-126.4360494128353
 30
0.0
 10
77.14223219860436
 20
-126.4360494128353
 30
0.0
 10
76.5899938793598
 20
-126.4360494128353
 30
0.0
 10
76.14210722411967
 20
-126.8835480238346
 30
0.0
 10
76.14210722411967
 20
-127.4361391348078
 30
0.0
 10
76.14210722411967
 20
-127.4361391348078
 30
0.0
 10
76.14210722411967
 20
-127.9360252457938
 30
0.0
 10
76.14210722411967
 20
-127.9360252457938
 30
0.0
 10
76.14210722411967
 20
-127.9360252457938
 30
0.0
 10
77.64211829696232
 20
-127.9360252457938
 30
0.0
 10
77.64211829696232
 20
-127.9360252457938
 30
0.0
 10
77.64211829696232
 20
-127.9360252457938
 30
0.0
 10
77.64211829696232
 20
-127.4361391348078
 30
0.0
 10
77.64211829696232
 20
-127.4361391348078
 30
0.0
 10
77.64211829696232
 20
-127.4361391348078
 30
0.0
 10
83.14220593442117
 20
-127.4361391348078
 30
0.0
 10
83.14220593442117
 20
-127.4361391348078
 30
0.0
 10
83.14220593442117
 20
-127.4361391348078
 30
0.0
 10
83.14220593442117
 20
-131.1358255227714
 30
0.0
 10
83.14220593442117
 20
-131.1358255227714
 30
0.0
 10
83.14220593442117
 20
-131.1358255227714
 30
0.0
 10
93.14229151263106
 20
-131.1358255227714
 30
0.0
 10
93.14229151263106
 20
-131.1358255227714
 30
0.0
 10
93.14229151263106
 20
-131.1358255227714
 30
0.0
 10
93.14229151263106
 20
-127.4361391348078
 30
0.0
 10
93.14229151263106
 20
-127.4361391348078
 30
0.0
 10
93.14229151263106
 20
-127.4361391348078
 30
0.0
 10
98.64202637232114
 20
-127.4361391348078
 30
0.0
 10
98.64202637232114
 20
-127.4361391348078
 30
0.0
 10
98.64202637232114
 20
-127.4361391348078
 30
0.0
 10
98.64202637232114
 20
-127.9360252457938
 30
0.0
 10
98.64202637232114
 20
-127.9360252457938
 30
0.0
 10
98.64202637232114
 20
-127.9360252457938
 30
0.0
 10
100.1420374451638
 20
-127.9360252457938
 30
0.0
 10
100.1420374451638
 20
-127.9360252457938
 30
0.0
 10
100.1420374451638
 20
-127.9360252457938
 30
0.0
 10
100.1420374451638
 20
-127.4361391348078
 30
0.0
 10
100.1420374451638
 20
-127.4361391348078
 30
0.0
 10
100.1420374451638
 20
-126.8835480238346
 30
0.0
 10
99.69450356769244
 20
-126.4360494128353
 30
0.0
 10
99.14226524844787
 20
-126.4360494128353
 30
0.0
  0
HATCH
  5
42
330
1F
100
AcDbEntity
  8
_U+30EC_U+30A4_U+30E4_U+30FC 1
 62
   253
420
 11711154
100
AcDbHatch
 10
0.0
 20
0.0
 30
0.0
210
0.0
220
0.0
230
1.0
  2
SOLID
 70
     1
 71
     0
 91
        1
 92
        1
 93
        1
 72
     4
 94
        3
 73
     0
 74
     1
 95
       68
 96
       64
 40
0.0
 40
0.0
 40
0.0
 40
0.0
 40
1.0
 40
1.0
 40
1.0
 40
2.0
 40
2.0
 40
2.0
 40
3.0
 40
3.0
 40
3.0
 40
4.0
 40
4.0
 40
4.0
 40
5.0
 40
5.0
 40
5.0
 40
6.0
 40
6.0
 40
6.0
 40
7.0
 40
7.0
 40
7.0
 40
8.0
 40
8.0
 40
8.0
 40
9.0
 40
9.0
 40
9.0
 40
10.0
 40
10.0
 40
10.0
 40
11.0
 40
11.0
 40
11.0
 40
12.0
 40
12.0
 40
12.0
 40
13.0
 40
13.0
 40
13.0
 40
14.0
 40
14.0
 40
14.0
 40
15.0
 40
15.0
 40
15.0
 40
16.0
 40
16.0
 40
16.0
 40
17.0
 40
17.0
 40
17.0
 40
18.0
 40
18.0
 40
18.0
 40
19.0
 40
19.0
 40
19.0
 40
20.0
 40
20.0
 40
20.0
 40
21.0
 40
21.0
 40
21.0
 40
21.0
 10
99.14226524844787
 20
-126.4360494128353
 10
99.14226524844787
 20
-126.4360494128353
 10
92.14216653814638
 20
-126.4360494128353
 10
92.14216653814638
 20
-126.4360494128353
 10
92.14216653814638
 20
-126.4360494128353
 10
92.14216653814638
 20
-130.1360533007995
 10
92.14216653814638
 20
-130.1360533007995
 10
92.14216653814638
 20
-130.1360533007995
 10
88.54619690766498
 20
-130.1360533007995
 10
88.54619690766498
 20
-130.1360533007995
 10
88.54619690766498
 20
-130.1360533007995
 10
88.14208997353016
 20
-130.8361055228465
 10
88.14208997353016
 20
-130.8361055228465
 10
88.14208997353016
 20
-130.8361055228465
 10
87.73798303939535
 20
-130.1360533007995
 10
87.73798303939535
 20
-130.1360533007995
 10
87.73798303939535
 20
-130.1360533007995
 10
84.14233090890586
 20
-130.1360533007995
 10
84.14233090890586
 20
-130.1360533007995
 10
84.14233090890586
 20
-130.1360533007995
 10
84.14233090890586
 20
-126.4360494128353
 10
84.14233090890586
 20
-126.4360494128353
 10
84.14233090890586
 20
-126.4360494128353
 10
77.14223219860436
 20
-126.4360494128353
 10
77.14223219860436
 20
-126.4360494128353
 10
76.5899938793598
 20
-126.4360494128353
 10
76.14210722411967
 20
-126.8835480238346
 10
76.14210722411967
 20
-127.4361391348078
 10
76.14210722411967
 20
-127.4361391348078
 10
76.14210722411967
 20
-127.9360252457938
 10
76.14210722411967
 20
-127.9360252457938
 10
76.14210722411967
 20
-127.9360252457938
 10
77.64211829696232
 20
-127.9360252457938
 10
77.64211829696232
 20
-127.9360252457938
 10
77.64211829696232
 20
-127.9360252457938
 10
77.64211829696232
 20
-127.4361391348078
 10
77.64211829696232
 20
-127.4361391348078
 10
77.64211829696232
 20
-127.4361391348078
 10
83.14220593442117
 20
-127.4361391348078
 10
83.14220593442117
 20
-127.4361391348078
 10
83.14220593442117
 20
-127.4361391348078
 10
83.14220593442117
 20
-131.1358255227714
 10
83.14220593442117
 20
-131.1358255227714
 10
83.14220593442117
 20
-131.1358255227714
 10
93.14229151263106
 20
-131.1358255227714
 10
93.14229151263106
 20
-131.1358255227714
 10
93.14229151263106
 20
-131.1358255227714
 10
93.14229151263106
 20
-127.4361391348078
 10
93.14229151263106
 20
-127.4361391348078
 10
93.14229151263106
 20
-127.4361391348078
 10
98.64202637232114
 20
-127.4361391348078
 10
98.64202637232114
 20
-127.4361391348078
 10
98.64202637232114
 20
-127.4361391348078
 10
98.64202637232114
 20
-127.9360252457938
 10
98.64202637232114
 20
-127.9360252457938
 10
98.64202637232114
 20
-127.9360252457938
 10
100.1420374451638
 20
-127.9360252457938
 10
100.1420374451638
 20
-127.9360252457938
 10
100.1420374451638
 20
-127.9360252457938
 10
100.1420374451638
 20
-127.4361391348078
 10
100.1420374451638
 20
-127.4361391348078
 10
100.1420374451638
 20
-126.8835480238346
 10
99.69450356769244
 20
-126.4360494128353
 10
99.14226524844787
 20
-126.4360494128353
 97
        0
 97
        0
 75
     2
 76
     1
 98
        0
  0
POLYLINE
  5
43
330
1F
100
AcDbEntity
  8
_U+30EC_U+30A4_U+30E4_U+30FC 1
 62
   179
420
  2234388
370
    25
100
AcDb2dPolyline
 66
     1
 10
0.0
 20
0.0
 30
0.0
  0
VERTEX
  5
44
330
43
100
AcDbEntity
  8
_U+30EC_U+30A4_U+30E4_U+30FC 1
 62
   179
420
  2234388
370
    25
100
AcDbVertex
100
AcDb2dVertex
 10
83.14220593442117
 20
-131.1358255227714
 30
0.0
  0
VERTEX
  5
45
330
43
100
AcDbEntity
  8
_U+30EC_U+30A4_U+30E4_U+30FC 1
 62
   179
420
  2234388
370
    25
100
AcDbVertex
100
AcDb2dVertex
 10
93.14229151263106
 20
-131.1358255227714
 30
0.0
  0
SEQEND
  5
46
330
43
100
AcDbEntity
  8
_U+30EC_U+30A4_U+30E4_U+30FC 1
 62
   179
420
  2234388
370
    25
  0
POLYLINE
  5
47
330
1F
100
AcDbEntity
  8
_U+30EC_U+30A4_U+30E4_U+30FC 1
 62
   179
420
  2234388
370
    25
100
AcDb2dPolyline
 66
     1
 10
0.0
 20
0.0
 30
0.0
  0
VERTEX
  5
48
330
47
100
AcDbEntity
  8
_U+30EC_U+30A4_U+30E4_U+30FC 1
 62
   179
420
  2234388
370
    25
100
AcDbVertex
100
AcDb2dVertex
 10
88.54619690766498
 20
-130.1360533007995
 30
0.0
  0
VERTEX
  5
49
330
47
100
AcDbEntity
  8
_U+30EC_U+30A4_U+30E4_U+30FC 1
 62
   179
420
  2234388
370
    25
100
AcDbVertex
100
AcDb2dVertex
 10
92.14216653814638
 20
-130.1360533007995
 30
0.0
  0
SEQEND
  5
4A
330
47
100
AcDbEntity
  8
_U+30EC_U+30A4_U+30E4_U+30FC 1
 62
   179
420
  2234388
370
    25
  0
POLYLINE
  5
4B
330
1F
100
AcDbEntity
  8
_U+30EC_U+30A4_U+30E4_U+30FC 1
 62
   179
420
  2234388
370
    25
100
AcDb2dPolyline
 66
     1
 10
0.0
 20
0.0
 30
0.0
  0
VERTEX
  5
4C
330
4B
100
AcDbEntity
  8
_U+30EC_U+30A4_U+30E4_U+30FC 1
 62
   179
420
  2234388
370
    25
100
AcDbVertex
100
AcDb2dVertex
 10
92.14216653814638
 20
-126.4360494128353
 30
0.0
  0
VERTEX
  5
4D
330
4B
100
AcDbEntity
  8
_U+30EC_U+30A4_U+30E4_U+30FC 1
 62
   179
420
  2234388
370
    25
100
AcDbVertex
100
AcDb2dVertex
 10
92.14216653814638
 20
-130.1360533007995
 30
0.0
  0
SEQEND
  5
4E
330
4B
100
AcDbEntity
  8
_U+30EC_U+30A4_U+30E4_U+30FC 1
 62
   179
420
  2234388
370
    25
  0
POLYLINE
  5
4F
330
1F
100
AcDbEntity
  8
_U+30EC_U+30A4_U+30E4_U+30FC 1
 62
   179
420
  2234388
370
    25
100
AcDb2dPolyline
 66
     1
 10
0.0
 20
0.0
 30
0.0
  0
VERTEX
  5
50
330
4F
100
AcDbEntity
  8
_U+30EC_U+30A4_U+30E4_U+30FC 1
 62
   179
420
  2234388
370
    25
100
AcDbVertex
100
AcDb2dVertex
 10
93.14229151263106
 20
-127.4361391348078
 30
0.0
  0
VERTEX
  5
51
330
4F
100
AcDbEntity
  8
_U+30EC_U+30A4_U+30E4_U+30FC 1
 62
   179
420
  2234388
370
    25
100
AcDbVertex
100
AcDb2dVertex
 10
93.14229151263106
 20
-131.1358255227714
 30
0.0
  0
SEQEND
  5
52
330
4F
100
AcDbEntity
  8
_U+30EC_U+30A4_U+30E4_U+30FC 1
 62
   179
420
  2234388
370
    25
  0
POLYLINE
  5
53
330
1F
100
AcDbEntity
  8
_U+30EC_U+30A4_U+30E4_U+30FC 1
 62
   179
420
  2234388
370
    25
100
AcDb2dPolyline
 66
     1
 10
0.0
 20
0.0
 30
0.0
  0
VERTEX
  5
54
330
53
100
AcDbEntity
  8
_U+30EC_U+30A4_U+30E4_U+30FC 1
 62
   179
420
  2234388
370
    25
100
AcDbVertex
100
AcDb2dVertex
 10
100.1420374451638
 20
-127.4361391348078
 30
0.0
  0
VERTEX
  5
55
330
53
100
AcDbEntity
  8
_U+30EC_U+30A4_U+30E4_U+30FC 1
 62
   179
420
  2234388
370
    25
100
AcDbVertex
100
AcDb2dVertex
 10
100.1420374451638
 20
-127.9360252457938
 30
0.0
  0
SEQEND
  5
56
330
53
100
AcDbEntity
  8
_U+30EC_U+30A4_U+30E4_U+30FC 1
 62
   179
420
  2234388
370
    25
  0
POLYLINE
  5
57
330
1F
100
AcDbEntity
  8
_U+30EC_U+30A4_U+30E4_U+30FC 1
 62
   179
420
  2234388
370
    25
100
AcDb2dPolyline
 66
     1
 10
0.0
 20
0.0
 30
0.0
  0
VERTEX
  5
58
330
57
100
AcDbEntity
  8
_U+30EC_U+30A4_U+30E4_U+30FC 1
 62
   179
420
  2234388
370
    25
100
AcDbVertex
100
AcDb2dVertex
 10
98.64202637232114
 20
-127.9360252457938
 30
0.0
  0
VERTEX
  5
59
330
57
100
AcDbEntity
  8
_U+30EC_U+30A4_U+30E4_U+30FC 1
 62
   179
420
  2234388
370
    25
100
AcDbVertex
100
AcDb2dVertex
 10
100.1420374451638
 20
-127.9360252457938
 30
0.0
  0
SEQEND
  5
5A
330
57
100
AcDbEntity
  8
_U+30EC_U+30A4_U+30E4_U+30FC 1
 62
   179
420
  2234388
370
    25
  0
POLYLINE
  5
5B
330
1F
100
AcDbEntity
  8
_U+30EC_U+30A4_U+30E4_U+30FC 1
 62
   179
420
  2234388
370
    25
100
AcDb2dPolyline
 66
     1
 10
0.0
 20
0.0
 30
0.0
  0
VERTEX
  5
5C
330
5B
100
AcDbEntity
  8
_U+30EC_U+30A4_U+30E4_U+30FC 1
 62
   179
420
  2234388
370
    25
100
AcDbVertex
100
AcDb2dVertex
 10
92.14216653814638
 20
-126.4360494128353
 30
0.0
  0
VERTEX
  5
5D
330
5B
100
AcDbEntity
  8
_U+30EC_U+30A4_U+30E4_U+30FC 1
 62
   179
420
  2234388
370
    25
100
AcDbVertex
100
AcDb2dVertex
 10
99.14226524844787
 20
-126.4360494128353
 30
0.0
  0
SEQEND
  5
5E
330
5B
100
AcDbEntity
  8
_U+30EC_U+30A4_U+30E4_U+30FC 1
 62
   179
420
  2234388
370
    25
  0
POLYLINE
  5
5F
330
1F
100
AcDbEntity
  8
_U+30EC_U+30A4_U+30E4_U+30FC 1
 62
   179
420
  2234388
370
    25
100
AcDb2dPolyline
 66
     1
 10
0.0
 20
0.0
 30
0.0
  0
VERTEX
  5
60
330
5F
100
AcDbEntity
  8
_U+30EC_U+30A4_U+30E4_U+30FC 1
 62
   179
420
  2234388
370
    25
100
AcDbVertex
100
AcDb2dVertex
 10
93.14229151263106
 20
-127.4361391348078
 30
0.0
  0
VERTEX
  5
61
330
5F
100
AcDbEntity
  8
_U+30EC_U+30A4_U+30E4_U+30FC 1
 62
   179
420
  2234388
370
    25
100
AcDbVertex
100
AcDb2dVertex
 10
98.64202637232114
 20
-127.4361391348078
 30
0.0
  0
SEQEND
  5
62
330
5F
100
AcDbEntity
  8
_U+30EC_U+30A4_U+30E4_U+30FC 1
 62
   179
420
  2234388
370
    25
  0
POLYLINE
  5
63
330
1F
100
AcDbEntity
  8
_U+30EC_U+30A4_U+30E4_U+30FC 1
 62
   179
420
  2234388
370
    25
100
AcDb2dPolyline
 66
     1
 10
0.0
 20
0.0
 30
0.0
  0
VERTEX
  5
64
330
63
100
AcDbEntity
  8
_U+30EC_U+30A4_U+30E4_U+30FC 1
 62
   179
420
  2234388
370
    25
100
AcDbVertex
100
AcDb2dVertex
 10
98.64202637232114
 20
-127.4361391348078
 30
0.0
  0
VERTEX
  5
65
330
63
100
AcDbEntity
  8
_U+30EC_U+30A4_U+30E4_U+30FC 1
 62
   179
420
  2234388
370
    25
100
AcDbVertex
100
AcDb2dVertex
 10
98.64202637232114
 20
-127.9360252457938
 30
0.0
  0
SEQEND
  5
66
330
63
100
AcDbEntity
  8
_U+30EC_U+30A4_U+30E4_U+30FC 1
 62
   179
420
  2234388
370
    25
  0
POLYLINE
  5
67
330
1F
100
AcDbEntity
  8
_U+30EC_U+30A4_U+30E4_U+30FC 1
 62
   179
420
  2234388
370
    25
100
AcDb2dPolyline
 66
     1
 10
0.0
 20
0.0
 30
0.0
  0
VERTEX
  5
68
330
67
100
AcDbEntity
  8
_U+30EC_U+30A4_U+30E4_U+30FC 1
 62
   179
420
  2234388
370
    25
100
AcDbVertex
100
AcDb2dVertex
 10
88.14208997353016
 20
-130.8361055228465
 30
0.0
  0
VERTEX
  5
69
330
67
100
AcDbEntity
  8
_U+30EC_U+30A4_U+30E4_U+30FC 1
 62
   179
420
  2234388
370
    25
100
AcDbVertex
100
AcDb2dVertex
 10
88.54619690766498
 20
-130.1360533007995
 30
0.0
  0
SEQEND
  5
6A
330
67
100
AcDbEntity
  8
_U+30EC_U+30A4_U+30E4_U+30FC 1
 62
   179
420
  2234388
370
    25
  0
POLYLINE
  5
6B
330
1F
100
AcDbEntity
  8
_U+30EC_U+30A4_U+30E4_U+30FC 1
 62
   179
420
  2234388
370
    25
100
AcDb2dPolyline
 66
     1
 10
0.0
 20
0.0
 30
0.0
  0
VERTEX
  5
6C
330
6B
100
AcDbEntity
  8
_U+30EC_U+30A4_U+30E4_U+30FC 1
 62
   179
420
  2234388
370
    25
100
AcDbVertex
100
AcDb2dVertex
 10
88.14208997353016
 20
-130.8361055228465
 30
0.0
  0
VERTEX
  5
6D
330
6B
100
AcDbEntity
  8
_U+30EC_U+30A4_U+30E4_U+30FC 1
 62
   179
420
  2234388
370
    25
100
AcDbVertex
100
AcDb2dVertex
 10
87.73798303939535
 20
-130.1360533007995
 30
0.0
  0
SEQEND
  5
6E
330
6B
100
AcDbEntity
  8
_U+30EC_U+30A4_U+30E4_U+30FC 1
 62
   179
420
  2234388
370
    25
  0
POLYLINE
  5
6F
330
1F
100
AcDbEntity
  8
_U+30EC_U+30A4_U+30E4_U+30FC 1
 62
   179
420
  2234388
370
    25
100
AcDb2dPolyline
 66
     1
 10
0.0
 20
0.0
 30
0.0
  0
VERTEX
  5
70
330
6F
100
AcDbEntity
  8
_U+30EC_U+30A4_U+30E4_U+30FC 1
 62
   179
420
  2234388
370
    25
100
AcDbVertex
100
AcDb2dVertex
 10
87.73798303939535
 20
-130.1360533007995
 30
0.0
  0
VERTEX
  5
71
330
6F
100
AcDbEntity
  8
_U+30EC_U+30A4_U+30E4_U+30FC 1
 62
   179
420
  2234388
370
    25
100
AcDbVertex
100
AcDb2dVertex
 10
84.14233090890586
 20
-130.1360533007995
 30
0.0
  0
SEQEND
  5
72
330
6F
100
AcDbEntity
  8
_U+30EC_U+30A4_U+30E4_U+30FC 1
 62
   179
420
  2234388
370
    25
  0
POLYLINE
  5
73
330
1F
100
AcDbEntity
  8
_U+30EC_U+30A4_U+30E4_U+30FC 1
 62
   179
420
  2234388
370
    25
100
AcDb2dPolyline
 66
     1
 10
0.0
 20
0.0
 30
0.0
  0
VERTEX
  5
74
330
73
100
AcDbEntity
  8
_U+30EC_U+30A4_U+30E4_U+30FC 1
 62
   179
420
  2234388
370
    25
100
AcDbVertex
100
AcDb2dVertex
 10
83.14220593442117
 20
-127.4361391348078
 30
0.0
  0
VERTEX
  5
75
330
73
100
AcDbEntity
  8
_U+30EC_U+30A4_U+30E4_U+30FC 1
 62
   179
420
  2234388
370
    25
100
AcDbVertex
100
AcDb2dVertex
 10
83.14220593442117
 20
-131.1358255227714
 30
0.0
  0
SEQEND
  5
76
330
73
100
AcDbEntity
  8
_U+30EC_U+30A4_U+30E4_U+30FC 1
 62
   179
420
  2234388
370
    25
  0
POLYLINE
  5
77
330
1F
100
AcDbEntity
  8
_U+30EC_U+30A4_U+30E4_U+30FC 1
 62
   179
420
  2234388
370
    25
100
AcDb2dPolyline
 66
     1
 10
0.0
 20
0.0
 30
0.0
  0
VERTEX
  5
78
330
77
100
AcDbEntity
  8
_U+30EC_U+30A4_U+30E4_U+30FC 1
 62
   179
420
  2234388
370
    25
100
AcDbVertex
100
AcDb2dVertex
 10
84.14233090890586
 20
-126.4360494128353
 30
0.0
  0
VERTEX
  5
79
330
77
100
AcDbEntity
  8
_U+30EC_U+30A4_U+30E4_U+30FC 1
 62
   179
420
  2234388
370
    25
100
AcDbVertex
100
AcDb2dVertex
 10
84.14233090890586
 20
-130.1360533007995
 30
0.0
  0
SEQEND
  5
7A
330
77
100
AcDbEntity
  8
_U+30EC_U+30A4_U+30E4_U+30FC 1
 62
   179
420
  2234388
370
    25
  0
POLYLINE
  5
7B
330
1F
100
AcDbEntity
  8
_U+30EC_U+30A4_U+30E4_U+30FC 1
 62
   179
420
  2234388
370
    25
100
AcDb2dPolyline
 66
     1
 10
0.0
 20
0.0
 30
0.0
  0
VERTEX
  5
7C
330
7B
100
AcDbEntity
  8
_U+30EC_U+30A4_U+30E4_U+30FC 1
 62
   179
420
  2234388
370
    25
100
AcDbVertex
100
AcDb2dVertex
 10
77.64211829696232
 20
-127.4361391348078
 30
0.0
  0
VERTEX
  5
7D
330
7B
100
AcDbEntity
  8
_U+30EC_U+30A4_U+30E4_U+30FC 1
 62
   179
420
  2234388
370
    25
100
AcDbVertex
100
AcDb2dVertex
 10
77.64211829696232
 20
-127.9360252457938
 30
0.0
  0
SEQEND
  5
7E
330
7B
100
AcDbEntity
  8
_U+30EC_U+30A4_U+30E4_U+30FC 1
 62
   179
420
  2234388
370
    25
  0
POLYLINE
  5
7F
330
1F
100
AcDbEntity
  8
_U+30EC_U+30A4_U+30E4_U+30FC 1
 62
   179
420
  2234388
370
    25
100
AcDb2dPolyline
 66
     1
 10
0.0
 20
0.0
 30
0.0
  0
VERTEX
  5
80
330
7F
100
AcDbEntity
  8
_U+30EC_U+30A4_U+30E4_U+30FC 1
 62
   179
420
  2234388
370
    25
100
AcDbVertex
100
AcDb2dVertex
 10
83.14220593442117
 20
-127.4361391348078
 30
0.0
  0
VERTEX
  5
81
330
7F
100
AcDbEntity
  8
_U+30EC_U+30A4_U+30E4_U+30FC 1
 62
   179
420
  2234388
370
    25
100
AcDbVertex
100
AcDb2dVertex
 10
77.64211829696232
 20
-127.4361391348078
 30
0.0
  0
SEQEND
  5
82
330
7F
100
AcDbEntity
  8
_U+30EC_U+30A4_U+30E4_U+30FC 1
 62
   179
420
  2234388
370
    25
  0
POLYLINE
  5
83
330
1F
100
AcDbEntity
  8
_U+30EC_U+30A4_U+30E4_U+30FC 1
 62
   179
420
  2234388
370
    25
100
AcDb2dPolyline
 66
     1
 10
0.0
 20
0.0
 30
0.0
  0
VERTEX
  5
84
330
83
100
AcDbEntity
  8
_U+30EC_U+30A4_U+30E4_U+30FC 1
 62
   179
420
  2234388
370
    25
100
AcDbVertex
100
AcDb2dVertex
 10
84.14233090890586
 20
-126.4360494128353
 30
0.0
  0
VERTEX
  5
85
330
83
100
AcDbEntity
  8
_U+30EC_U+30A4_U+30E4_U+30FC 1
 62
   179
420
  2234388
370
    25
100
AcDbVertex
100
AcDb2dVertex
 10
77.14223219860436
 20
-126.4360494128353
 30
0.0
  0
SEQEND
  5
86
330
83
100
AcDbEntity
  8
_U+30EC_U+30A4_U+30E4_U+30FC 1
 62
   179
420
  2234388
370
    25
  0
POLYLINE
  5
87
330
1F
100
AcDbEntity
  8
_U+30EC_U+30A4_U+30E4_U+30FC 1
 62
   179
420
  2234388
370
    25
100
AcDb2dPolyline
 66
     1
 10
0.0
 20
0.0
 30
0.0
  0
VERTEX
  5
88
330
87
100
AcDbEntity
  8
_U+30EC_U+30A4_U+30E4_U+30FC 1
 62
   179
420
  2234388
370
    25
100
AcDbVertex
100
AcDb2dVertex
 10
77.64211829696232
 20
-127.9360252457938
 30
0.0
  0
VERTEX
  5
89
330
87
100
AcDbEntity
  8
_U+30EC_U+30A4_U+30E4_U+30FC 1
 62
   179
420
  2234388
370
    25
100
AcDbVertex
100
AcDb2dVertex
 10
76.14210722411967
 20
-127.9360252457938
 30
0.0
  0
SEQEND
  5
8A
330
87
100
AcDbEntity
  8
_U+30EC_U+30A4_U+30E4_U+30FC 1
 62
   179
420
  2234388
370
    25
  0
POLYLINE
  5
8B
330
1F
100
AcDbEntity
  8
_U+30EC_U+30A4_U+30E4_U+30FC 1
 62
   179
420
  2234388
370
    25
100
AcDb2dPolyline
 66
     1
 10
0.0
 20
0.0
 30
0.0
  0
VERTEX
  5
8C
330
8B
100
AcDbEntity
  8
_U+30EC_U+30A4_U+30E4_U+30FC 1
 62
   179
420
  2234388
370
    25
100
AcDbVertex
100
AcDb2dVertex
 10
76.14210722411967
 20
-127.4361391348078
 30
0.0
  0
VERTEX
  5
8D
330
8B
100
AcDbEntity
  8
_U+30EC_U+30A4_U+30E4_U+30FC 1
 62
   179
420
  2234388
370
    25
100
AcDbVertex
100
AcDb2dVertex
 10
76.14210722411967
 20
-127.9360252457938
 30
0.0
  0
SEQEND
  5
8E
330
8B
100
AcDbEntity
  8
_U+30EC_U+30A4_U+30E4_U+30FC 1
 62
   179
420
  2234388
370
    25
  0
SPLINE
  5
8F
330
1F
100
AcDbEntity
  8
_U+30EC_U+30A4_U+30E4_U+30FC 1
 62
   179
420
  2234388
370
    25
100
AcDbSpline
210
0.0
220
0.0
230
1.0
 70
     8
 71
     3
 72
     8
 73
     4
 74
     0
 42
0.0000000001
 43
0.0000000001
 12
1.0
 22
0.0
 32
0.0
 13
1.0
 23
0.0
 33
0.0
 40
0.0
 40
0.0
 40
0.0
 40
0.0
 40
1.0
 40
1.0
 40
1.0
 40
1.0
 10
100.1420374451638
 20
-127.4361391348078
 30
0.0
 10
100.1420374451638
 20
-126.8835480238346
 30
0.0
 10
99.69450356769244
 20
-126.4360494128353
 30
0.0
 10
99.14226524844787
 20
-126.4360494128353
 30
0.0
  0
SPLINE
  5
90
330
1F
100
AcDbEntity
  8
_U+30EC_U+30A4_U+30E4_U+30FC 1
 62
   179
420
  2234388
370
    25
100
AcDbSpline
210
0.0
220
0.0
230
1.0
 70
     8
 71
     3
 72
     8
 73
     4
 74
     0
 42
0.0000000001
 43
0.0000000001
 12
1.0
 22
0.0
 32
0.0
 13
1.0
 23
0.0
 33
0.0
 40
0.0
 40
0.0
 40
0.0
 40
0.0
 40
1.0
 40
1.0
 40
1.0
 40
1.0
 10
77.14223219860436
 20
-126.4360494128353
 30
0.0
 10
76.5899938793598
 20
-126.4360494128353
 30
0.0
 10
76.14210722411967
 20
-126.8835480238346
 30
0.0
 10
76.14210722411967
 20
-127.4361391348078
 30
0.0
  0
SPLINE
  5
91
330
1F
100
AcDbEntity
  8
_U+30EC_U+30A4_U+30E4_U+30FC 1
 62
   179
420
  2234388
370
     9
100
AcDbSpline
210
0.0
220
0.0
230
1.0
 70
    11
 71
     3
 72
    17
 73
    13
 74
     0
 42
0.0000000001
 43
0.0000000001
 12
1.0
 22
0.0
 32
0.0
 13
1.0
 23
0.0
 33
0.0
 40
0.0
 40
0.0
 40
0.0
 40
0.0
 40
1.0
 40
1.0
 40
1.0
 40
2.0
 40
2.0
 40
2.0
 40
3.0
 40
3.0
 40
3.0
 40
4.0
 40
4.0
 40
4.0
 40
4.0
 10
76.2421902771219
 20
-122.435937469391
 30
0.0
 10
76.2421902771219
 20
-122.3808335805158
 30
0.0
 10
76.19742277826401
 20
-122.3360308027494
 30
0.0
 10
76.14210722411967
 20
-122.3360308027494
 30
0.0
 10
76.0870033366366
 20
-122.3360308027494
 30
0.0
 10
76.04220056000185
 20
-122.3808335805158
 30
0.0
 10
76.04220056000185
 20
-122.435937469391
 30
0.0
 10
76.04220056000185
 20
-122.4910766360438
 30
0.0
 10
76.0870033366366
 20
-122.5358441360327
 30
0.0
 10
76.14210722411967
 20
-122.5358441360327
 30
0.0
 10
76.19742277826401
 20
-122.5358441360327
 30
0.0
 10
76.2421902771219
 20
-122.4910766360438
 30
0.0
 10
76.2421902771219
 20
-122.435937469391
 30
0.0
  0
SPLINE
  5
92
330
1F
100
AcDbEntity
  8
_U+30EC_U+30A4_U+30E4_U+30FC 1
 62
   179
420
  2234388
370
     9
100
AcDbSpline
210
0.0
220
0.0
230
1.0
 70
    11
 71
     3
 72
    17
 73
    13
 74
     0
 42
0.0000000001
 43
0.0000000001
 12
1.0
 22
0.0
 32
0.0
 13
1.0
 23
0.0
 33
0.0
 40
0.0
 40
0.0
 40
0.0
 40
0.0
 40
1.0
 40
1.0
 40
1.0
 40
2.0
 40
2.0
 40
2.0
 40
3.0
 40
3.0
 40
3.0
 40
4.0
 40
4.0
 40
4.0
 40
4.0
 10
84.24223757302369
 20
-122.435937469391
 30
0.0
 10
84.24223757302369
 20
-122.3808335805158
 30
0.0
 10
84.19743479638893
 20
-122.3360308027494
 30
0.0
 10
84.14233090890586
 20
-122.3360308027494
 30
0.0
 10
84.0871917436459
 20
-122.3360308027494
 30
0.0
 10
84.04242424478802
 20
-122.3808335805158
 30
0.0
 10
84.04242424478802
 20
-122.435937469391
 30
0.0
 10
84.04242424478802
 20
-122.4910766360438
 30
0.0
 10
84.0871917436459
 20
-122.5358441360327
 30
0.0
 10
84.14233090890586
 20
-122.5358441360327
 30
0.0
 10
84.19743479638893
 20
-122.5358441360327
 30
0.0
 10
84.24223757302369
 20
-122.4910766360438
 30
0.0
 10
84.24223757302369
 20
-122.435937469391
 30
0.0
  0
SPLINE
  5
93
330
1F
100
AcDbEntity
  8
_U+30EC_U+30A4_U+30E4_U+30FC 1
 62
   179
420
  2234388
370
     9
100
AcDbSpline
210
0.0
220
0.0
230
1.0
 70
    11
 71
     3
 72
    17
 73
    13
 74
     0
 42
0.0000000001
 43
0.0000000001
 12
1.0
 22
0.0
 32
0.0
 13
1.0
 23
0.0
 33
0.0
 40
0.0
 40
0.0
 40
0.0
 40
0.0
 40
1.0
 40
1.0
 40
1.0
 40
2.0
 40
2.0
 40
2.0
 40
3.0
 40
3.0
 40
3.0
 40
4.0
 40
4.0
 40
4.0
 40
4.0
 10
92.24207320226421
 20
-122.435937469391
 30
0.0
 10
92.24207320226421
 20
-122.3808335805158
 30
0.0
 10
92.19730570340633
 20
-122.3360308027494
 30
0.0
 10
92.14216653814638
 20
-122.3360308027494
 30
0.0
 10
92.08706265066331
 20
-122.3360308027494
 30
0.0
 10
92.04225987402855
 20
-122.3808335805158
 30
0.0
 10
92.04225987402855
 20
-122.435937469391
 30
0.0
 10
92.04225987402855
 20
-122.4910766360438
 30
0.0
 10
92.08706265066331
 20
-122.5358441360327
 30
0.0
 10
92.14216653814638
 20
-122.5358441360327
 30
0.0
 10
92.19730570340633
 20
-122.5358441360327
 30
0.0
 10
92.24207320226421
 20
-122.4910766360438
 30
0.0
 10
92.24207320226421
 20
-122.435937469391
 30
0.0
  0
SPLINE
  5
94
330
1F
100
AcDbEntity
  8
_U+30EC_U+30A4_U+30E4_U+30FC 1
 62
   179
420
  2234388
370
     9
100
AcDbSpline
210
0.0
220
0.0
230
1.0
 70
    11
 71
     3
 72
    17
 73
    13
 74
     0
 42
0.0000000001
 43
0.0000000001
 12
1.0
 22
0.0
 32
0.0
 13
1.0
 23
0.0
 33
0.0
 40
0.0
 40
0.0
 40
0.0
 40
0.0
 40
1.0
 40
1.0
 40
1.0
 40
2.0
 40
2.0
 40
2.0
 40
3.0
 40
3.0
 40
3.0
 40
4.0
 40
4.0
 40
4.0
 40
4.0
 10
100.2422968870504
 20
-122.435937469391
 30
0.0
 10
100.2422968870504
 20
-122.3808335805158
 30
0.0
 10
100.1974941104156
 20
-122.3360308027494
 30
0.0
 10
100.1420374451638
 20
-122.3360308027494
 30
0.0
 10
100.0868982799038
 20
-122.3360308027494
 30
0.0
 10
100.0421333083231
 20
-122.3808335805158
 30
0.0
 10
100.0421333083231
 20
-122.435937469391
 30
0.0
 10
100.0421333083231
 20
-122.4910766360438
 30
0.0
 10
100.0868982799038
 20
-122.5358441360327
 30
0.0
 10
100.1420374451638
 20
-122.5358441360327
 30
0.0
 10
100.1974941104156
 20
-122.5358441360327
 30
0.0
 10
100.2422968870504
 20
-122.4910766360438
 30
0.0
 10
100.2422968870504
 20
-122.435937469391
 30
0.0
  0
SPLINE
  5
95
330
1F
100
AcDbEntity
  8
_U+30EC_U+30A4_U+30E4_U+30FC 1
 62
   179
420
  2234388
370
     9
100
AcDbSpline
210
0.0
220
0.0
230
1.0
 70
    11
 71
     3
 72
    17
 73
    13
 74
     0
 42
0.0000000001
 43
0.0000000001
 12
1.0
 22
0.0
 32
0.0
 13
1.0
 23
0.0
 33
0.0
 40
0.0
 40
0.0
 40
0.0
 40
0.0
 40
1.0
 40
1.0
 40
1.0
 40
2.0
 40
2.0
 40
2.0
 40
3.0
 40
3.0
 40
3.0
 40
4.0
 40
4.0
 40
4.0
 40
4.0
 10
104.2420559516747
 20
-126.4360494128353
 30
0.0
 10
104.2420559516747
 20
-126.3805574684048
 30
0.0
 10
104.1972531750399
 20
-126.335789968416
 30
0.0
 10
104.1421492875569
 20
-126.335789968416
 30
0.0
 10
104.0870101222969
 20
-126.335789968416
 30
0.0
 10
104.042242623439
 20
-126.3805574684048
 30
0.0
 10
104.042242623439
 20
-126.4360494128353
 30
0.0
 10
104.042242623439
 20
-126.4911533017106
 30
0.0
 10
104.0870101222969
 20
-126.535956079477
 30
0.0
 10
104.1421492875569
 20
-126.535956079477
 30
0.0
 10
104.1972531750399
 20
-126.535956079477
 30
0.0
 10
104.2420559516747
 20
-126.4911533017106
 30
0.0
 10
104.2420559516747
 20
-126.4360494128353
 30
0.0
  0
SPLINE
  5
96
330
1F
100
AcDbEntity
  8
_U+30EC_U+30A4_U+30E4_U+30FC 1
 62
   179
420
  2234388
370
     9
100
AcDbSpline
210
0.0
220
0.0
230
1.0
 70
    11
 71
     3
 72
    17
 73
    13
 74
     0
 42
0.0000000001
 43
0.0000000001
 12
1.0
 22
0.0
 32
0.0
 13
1.0
 23
0.0
 33
0.0
 40
0.0
 40
0.0
 40
0.0
 40
0.0
 40
1.0
 40
1.0
 40
1.0
 40
2.0
 40
2.0
 40
2.0
 40
3.0
 40
3.0
 40
3.0
 40
4.0
 40
4.0
 40
4.0
 40
4.0
 10
104.2420559516747
 20
-127.9360252457938
 30
0.0
 10
104.2420559516747
 20
-127.8805685791411
 30
0.0
 10
104.1972531750399
 20
-127.8357658013744
 30
0.0
 10
104.1421492875569
 20
-127.8357658013744
 30
0.0
 10
104.0870101222969
 20
-127.8357658013744
 30
0.0
 10
104.042242623439
 20
-127.8805685791411
 30
0.0
 10
104.042242623439
 20
-127.9360252457938
 30
0.0
 10
104.042242623439
 20
-127.9911644124465
 30
0.0
 10
104.0870101222969
 20
-128.0359319124354
 30
0.0
 10
104.1421492875569
 20
-128.0359319124354
 30
0.0
 10
104.1972531750399
 20
-128.0359319124354
 30
0.0
 10
104.2420559516747
 20
-127.9911644124465
 30
0.0
 10
104.2420559516747
 20
-127.9360252457938
 30
0.0
  0
SPLINE
  5
97
330
1F
100
AcDbEntity
  8
_U+30EC_U+30A4_U+30E4_U+30FC 1
 62
   179
420
  2234388
370
     9
100
AcDbSpline
210
0.0
220
0.0
230
1.0
 70
    11
 71
     3
 72
    17
 73
    13
 74
     0
 42
0.0000000001
 43
0.0000000001
 12
1.0
 22
0.0
 32
0.0
 13
1.0
 23
0.0
 33
0.0
 40
0.0
 40
0.0
 40
0.0
 40
0.0
 40
1.0
 40
1.0
 40
1.0
 40
2.0
 40
2.0
 40
2.0
 40
3.0
 40
3.0
 40
3.0
 40
4.0
 40
4.0
 40
4.0
 40
4.0
 10
104.2420559516747
 20
-131.1358255227714
 30
0.0
 10
104.2420559516747
 20
-131.0807216338965
 30
0.0
 10
104.1972531750399
 20
-131.0359188561297
 30
0.0
 10
104.1421492875569
 20
-131.0359188561297
 30
0.0
 10
104.0870101222969
 20
-131.0359188561297
 30
0.0
 10
104.042242623439
 20
-131.0807216338965
 30
0.0
 10
104.042242623439
 20
-131.1358255227714
 30
0.0
 10
104.042242623439
 20
-131.1913174672022
 30
0.0
 10
104.0870101222969
 20
-131.2360849671908
 30
0.0
 10
104.1421492875569
 20
-131.2360849671908
 30
0.0
 10
104.1972531750399
 20
-131.2360849671908
 30
0.0
 10
104.2420559516747
 20
-131.1913174672022
 30
0.0
 10
104.2420559516747
 20
-131.1358255227714
 30
0.0
  0
POLYLINE
  5
98
330
1F
100
AcDbEntity
  8
_U+30EC_U+30A4_U+30E4_U+30FC 1
 62
   179
420
  2234388
370
     9
100
AcDb2dPolyline
 66
     1
 10
0.0
 20
0.0
 30
0.0
  0
VERTEX
  5
99
330
98
100
AcDbEntity
  8
_U+30EC_U+30A4_U+30E4_U+30FC 1
 62
   179
420
  2234388
370
     9
100
AcDbVertex
100
AcDb2dVertex
 10
76.14210722411967
 20
-122.435937469391
 30
0.0
  0
VERTEX
  5
9A
330
98
100
AcDbEntity
  8
_U+30EC_U+30A4_U+30E4_U+30FC 1
 62
   179
420
  2234388
370
     9
100
AcDbVertex
100
AcDb2dVertex
 10
84.14233090890586
 20
-122.435937469391
 30
0.0
  0
SEQEND
  5
9B
330
98
100
AcDbEntity
  8
_U+30EC_U+30A4_U+30E4_U+30FC 1
 62
   179
420
  2234388
370
     9
  0
POLYLINE
  5
9C
330
1F
100
AcDbEntity
  8
_U+30EC_U+30A4_U+30E4_U+30FC 1
 62
   179
420
  2234388
370
     9
100
AcDb2dPolyline
 66
     1
 10
0.0
 20
0.0
 30
0.0
  0
VERTEX
  5
9D
330
9C
100
AcDbEntity
  8
_U+30EC_U+30A4_U+30E4_U+30FC 1
 62
   179
420
  2234388
370
     9
100
AcDbVertex
100
AcDb2dVertex
 10
76.14210722411967
 20
-124.8960685798872
 30
0.0
  0
VERTEX
  5
9E
330
9C
100
AcDbEntity
  8
_U+30EC_U+30A4_U+30E4_U+30FC 1
 62
   179
420
  2234388
370
     9
100
AcDbVertex
100
AcDb2dVertex
 10
76.14210722411967
 20
-121.4361652474188
 30
0.0
  0
SEQEND
  5
9F
330
9C
100
AcDbEntity
  8
_U+30EC_U+30A4_U+30E4_U+30FC 1
 62
   179
420
  2234388
370
     9
  0
POLYLINE
  5
A0
330
1F
100
AcDbEntity
  8
_U+30EC_U+30A4_U+30E4_U+30FC 1
 62
   179
420
  2234388
370
     9
100
AcDb2dPolyline
 66
     1
 10
0.0
 20
0.0
 30
0.0
  0
VERTEX
  5
A1
330
A0
100
AcDbEntity
  8
_U+30EC_U+30A4_U+30E4_U+30FC 1
 62
   179
420
  2234388
370
     9
100
AcDbVertex
100
AcDb2dVertex
 10
84.14233090890586
 20
-123.8959788579151
 30
0.0
  0
VERTEX
  5
A2
330
A0
100
AcDbEntity
  8
_U+30EC_U+30A4_U+30E4_U+30FC 1
 62
   179
420
  2234388
370
     9
100
AcDbVertex
100
AcDb2dVertex
 10
84.14233090890586
 20
-121.4361652474188
 30
0.0
  0
SEQEND
  5
A3
330
A0
100
AcDbEntity
  8
_U+30EC_U+30A4_U+30E4_U+30FC 1
 62
   179
420
  2234388
370
     9
  0
INSERT
  5
A5
330
1F
100
AcDbEntity
  8
_U+30EC_U+30A4_U+30E4_U+30FC 1
100
AcDbBlockReference
  2
block 2
 10
0.0
 20
0.0
 30
0.0
  0
POLYLINE
  5
AC
330
1F
100
AcDbEntity
  8
_U+30EC_U+30A4_U+30E4_U+30FC 1
 62
   179
420
  2234388
370
     9
100
AcDb2dPolyline
 66
     1
 10
0.0
 20
0.0
 30
0.0
  0
VERTEX
  5
AD
330
AC
100
AcDbEntity
  8
_U+30EC_U+30A4_U+30E4_U+30FC 1
 62
   179
420
  2234388
370
     9
100
AcDbVertex
100
AcDb2dVertex
 10
84.14233090890586
 20
-122.435937469391
 30
0.0
  0
VERTEX
  5
AE
330
AC
100
AcDbEntity
  8
_U+30EC_U+30A4_U+30E4_U+30FC 1
 62
   179
420
  2234388
370
     9
100
AcDbVertex
100
AcDb2dVertex
 10
92.14216653814638
 20
-122.435937469391
 30
0.0
  0
SEQEND
  5
AF
330
AC
100
AcDbEntity
  8
_U+30EC_U+30A4_U+30E4_U+30FC 1
 62
   179
420
  2234388
370
     9
  0
POLYLINE
  5
B0
330
1F
100
AcDbEntity
  8
_U+30EC_U+30A4_U+30E4_U+30FC 1
 62
   179
420
  2234388
370
     9
100
AcDb2dPolyline
 66
     1
 10
0.0
 20
0.0
 30
0.0
  0
VERTEX
  5
B1
330
B0
100
AcDbEntity
  8
_U+30EC_U+30A4_U+30E4_U+30FC 1
 62
   179
420
  2234388
370
     9
100
AcDbVertex
100
AcDb2dVertex
 10
92.14216653814638
 20
-123.8959788579151
 30
0.0
  0
VERTEX
  5
B2
330
B0
100
AcDbEntity
  8
_U+30EC_U+30A4_U+30E4_U+30FC 1
 62
   179
420
  2234388
370
     9
100
AcDbVertex
100
AcDb2dVertex
 10
92.14216653814638
 20
-121.4361652474188
 30
0.0
  0
SEQEND
  5
B3
330
B0
100
AcDbEntity
  8
_U+30EC_U+30A4_U+30E4_U+30FC 1
 62
   179
420
  2234388
370
     9
  0
INSERT
  5
B5
330
1F
100
AcDbEntity
  8
_U+30EC_U+30A4_U+30E4_U+30FC 1
100
AcDbBlockReference
  2
block 3
 10
0.0
 20
0.0
 30
0.0
  0
POLYLINE
  5
BC
330
1F
100
AcDbEntity
  8
_U+30EC_U+30A4_U+30E4_U+30FC 1
 62
   179
420
  2234388
370
     9
100
AcDb2dPolyline
 66
     1
 10
0.0
 20
0.0
 30
0.0
  0
VERTEX
  5
BD
330
BC
100
AcDbEntity
  8
_U+30EC_U+30A4_U+30E4_U+30FC 1
 62
   179
420
  2234388
370
     9
100
AcDbVertex
100
AcDb2dVertex
 10
92.14216653814638
 20
-122.435937469391
 30
0.0
  0
VERTEX
  5
BE
330
BC
100
AcDbEntity
  8
_U+30EC_U+30A4_U+30E4_U+30FC 1
 62
   179
420
  2234388
370
     9
100
AcDbVertex
100
AcDb2dVertex
 10
100.1420374451638
 20
-122.435937469391
 30
0.0
  0
SEQEND
  5
BF
330
BC
100
AcDbEntity
  8
_U+30EC_U+30A4_U+30E4_U+30FC 1
 62
   179
420
  2234388
370
     9
  0
SPLINE
  5
C0
330
1F
100
AcDbEntity
  8
_U+30EC_U+30A4_U+30E4_U+30FC 1
 62
   179
420
  2234388
370
     9
100
AcDbSpline
210
0.0
220
0.0
230
1.0
 70
    11
 71
     3
 72
    17
 73
    13
 74
     0
 42
0.0000000001
 43
0.0000000001
 12
1.0
 22
0.0
 32
0.0
 13
1.0
 23
0.0
 33
0.0
 40
0.0
 40
0.0
 40
0.0
 40
0.0
 40
1.0
 40
1.0
 40
1.0
 40
2.0
 40
2.0
 40
2.0
 40
3.0
 40
3.0
 40
3.0
 40
4.0
 40
4.0
 40
4.0
 40
4.0
 10
83.24211259853901
 20
-128.7859374678035
 30
0.0
 10
83.24211259853901
 20
-128.7308335789283
 30
0.0
 10
83.1973472014229
 20
-128.6860308011619
 30
0.0
 10
83.14220593442117
 20
-128.6860308011619
 30
0.0
 10
83.0871020469381
 20
-128.6860308011619
 30
0.0
 10
83.04229927030333
 20
-128.7308335789283
 30
0.0
 10
83.04229927030333
 20
-128.7859374678035
 30
0.0
 10
83.04229927030333
 20
-128.8410766344566
 30
0.0
 10
83.0871020469381
 20
-128.8858441344452
 30
0.0
 10
83.14220593442117
 20
-128.8858441344452
 30
0.0
 10
83.1973472014229
 20
-128.8858441344452
 30
0.0
 10
83.24211259853901
 20
-128.8410766344566
 30
0.0
 10
83.24211259853901
 20
-128.7859374678035
 30
0.0
  0
SPLINE
  5
C1
330
1F
100
AcDbEntity
  8
_U+30EC_U+30A4_U+30E4_U+30FC 1
 62
   179
420
  2234388
370
     9
100
AcDbSpline
210
0.0
220
0.0
230
1.0
 70
    11
 71
     3
 72
    17
 73
    13
 74
     0
 42
0.0000000001
 43
0.0000000001
 12
1.0
 22
0.0
 32
0.0
 13
1.0
 23
0.0
 33
0.0
 40
0.0
 40
0.0
 40
0.0
 40
0.0
 40
1.0
 40
1.0
 40
1.0
 40
2.0
 40
2.0
 40
2.0
 40
3.0
 40
3.0
 40
3.0
 40
4.0
 40
4.0
 40
4.0
 40
4.0
 10
84.24223757302369
 20
-128.7859374678035
 30
0.0
 10
84.24223757302369
 20
-128.7308335789283
 30
0.0
 10
84.19743479638893
 20
-128.6860308011619
 30
0.0
 10
84.14233090890586
 20
-128.6860308011619
 30
0.0
 10
84.0871917436459
 20
-128.6860308011619
 30
0.0
 10
84.04242424478802
 20
-128.7308335789283
 30
0.0
 10
84.04242424478802
 20
-128.7859374678035
 30
0.0
 10
84.04242424478802
 20
-128.8410766344566
 30
0.0
 10
84.0871917436459
 20
-128.8858441344452
 30
0.0
 10
84.14233090890586
 20
-128.8858441344452
 30
0.0
 10
84.19743479638893
 20
-128.8858441344452
 30
0.0
 10
84.24223757302369
 20
-128.8410766344566
 30
0.0
 10
84.24223757302369
 20
-128.7859374678035
 30
0.0
  0
POLYLINE
  5
C2
330
1F
100
AcDbEntity
  8
_U+30EC_U+30A4_U+30E4_U+30FC 1
 62
   179
420
  2234388
370
     9
100
AcDb2dPolyline
 66
     1
 10
0.0
 20
0.0
 30
0.0
  0
VERTEX
  5
C3
330
C2
100
AcDbEntity
  8
_U+30EC_U+30A4_U+30E4_U+30FC 1
 62
   179
420
  2234388
370
     9
100
AcDbVertex
100
AcDb2dVertex
 10
82.29797345595934
 20
-128.7859374678035
 30
0.0
  0
VERTEX
  5
C4
330
C2
100
AcDbEntity
  8
_U+30EC_U+30A4_U+30E4_U+30FC 1
 62
   179
420
  2234388
370
     9
100
AcDbVertex
100
AcDb2dVertex
 10
86.22901141122576
 20
-128.7859374678035
 30
0.0
  0
SEQEND
  5
C5
330
C2
100
AcDbEntity
  8
_U+30EC_U+30A4_U+30E4_U+30FC 1
 62
   179
420
  2234388
370
     9
  0
INSERT
  5
C7
330
1F
100
AcDbEntity
  8
_U+30EC_U+30A4_U+30E4_U+30FC 1
100
AcDbBlockReference
  2
block 4
 10
0.0
 20
0.0
 30
0.0
  0
POLYLINE
  5
CC
330
1F
100
AcDbEntity
  8
_U+30EC_U+30A4_U+30E4_U+30FC 1
 62
   179
420
  2234388
370
     9
100
AcDb2dPolyline
 66
     1
 10
0.0
 20
0.0
 30
0.0
  0
VERTEX
  5
CD
330
CC
100
AcDbEntity
  8
_U+30EC_U+30A4_U+30E4_U+30FC 1
 62
   179
420
  2234388
370
     9
100
AcDbVertex
100
AcDb2dVertex
 10
100.1420374451638
 20
-124.8960685798872
 30
0.0
  0
VERTEX
  5
CE
330
CC
100
AcDbEntity
  8
_U+30EC_U+30A4_U+30E4_U+30FC 1
 62
   179
420
  2234388
370
     9
100
AcDbVertex
100
AcDb2dVertex
 10
100.1420374451638
 20
-121.4361652474188
 30
0.0
  0
SEQEND
  5
CF
330
CC
100
AcDbEntity
  8
_U+30EC_U+30A4_U+30E4_U+30FC 1
 62
   179
420
  2234388
370
     9
  0
INSERT
  5
D1
330
1F
100
AcDbEntity
  8
_U+30EC_U+30A4_U+30E4_U+30FC 1
100
AcDbBlockReference
  2
block 5
 10
0.0
 20
0.0
 30
0.0
  0
POLYLINE
  5
D8
330
1F
100
AcDbEntity
  8
_U+30EC_U+30A4_U+30E4_U+30FC 1
 62
   179
420
  2234388
370
     9
100
AcDb2dPolyline
 66
     1
 10
0.0
 20
0.0
 30
0.0
  0
VERTEX
  5
D9
330
D8
100
AcDbEntity
  8
_U+30EC_U+30A4_U+30E4_U+30FC 1
 62
   179
420
  2234388
370
     9
100
AcDbVertex
100
AcDb2dVertex
 10
104.1421492875569
 20
-126.4360494128353
 30
0.0
  0
VERTEX
  5
DA
330
D8
100
AcDbEntity
  8
_U+30EC_U+30A4_U+30E4_U+30FC 1
 62
   179
420
  2234388
370
     9
100
AcDbVertex
100
AcDb2dVertex
 10
104.1421492875569
 20
-121.1781435808164
 30
0.0
  0
SEQEND
  5
DB
330
D8
100
AcDbEntity
  8
_U+30EC_U+30A4_U+30E4_U+30FC 1
 62
   179
420
  2234388
370
     9
  0
POLYLINE
  5
DC
330
1F
100
AcDbEntity
  8
_U+30EC_U+30A4_U+30E4_U+30FC 1
 62
   179
420
  2234388
370
     9
100
AcDb2dPolyline
 66
     1
 10
0.0
 20
0.0
 30
0.0
  0
VERTEX
  5
DD
330
DC
100
AcDbEntity
  8
_U+30EC_U+30A4_U+30E4_U+30FC 1
 62
   179
420
  2234388
370
     9
100
AcDbVertex
100
AcDb2dVertex
 10
104.1421492875569
 20
-126.4360494128353
 30
0.0
  0
VERTEX
  5
DE
330
DC
100
AcDbEntity
  8
_U+30EC_U+30A4_U+30E4_U+30FC 1
 62
   179
420
  2234388
370
     9
100
AcDbVertex
100
AcDb2dVertex
 10
104.1421492875569
 20
-127.9360252457938
 30
0.0
  0
SEQEND
  5
DF
330
DC
100
AcDbEntity
  8
_U+30EC_U+30A4_U+30E4_U+30FC 1
 62
   179
420
  2234388
370
     9
  0
POLYLINE
  5
E0
330
1F
100
AcDbEntity
  8
_U+30EC_U+30A4_U+30E4_U+30FC 1
 62
   179
420
  2234388
370
     9
100
AcDb2dPolyline
 66
     1
 10
0.0
 20
0.0
 30
0.0
  0
VERTEX
  5
E1
330
E0
100
AcDbEntity
  8
_U+30EC_U+30A4_U+30E4_U+30FC 1
 62
   179
420
  2234388
370
     9
100
AcDbVertex
100
AcDb2dVertex
 10
101.6823357392008
 20
-126.4360494128353
 30
0.0
  0
VERTEX
  5
E2
330
E0
100
AcDbEntity
  8
_U+30EC_U+30A4_U+30E4_U+30FC 1
 62
   179
420
  2234388
370
     9
100
AcDbVertex
100
AcDb2dVertex
 10
105.1422416403808
 20
-126.4360494128353
 30
0.0
  0
SEQEND
  5
E3
330
E0
100
AcDbEntity
  8
_U+30EC_U+30A4_U+30E4_U+30FC 1
 62
   179
420
  2234388
370
     9
  0
POLYLINE
  5
E4
330
1F
100
AcDbEntity
  8
_U+30EC_U+30A4_U+30E4_U+30FC 1
 62
   179
420
  2234388
370
     9
100
AcDb2dPolyline
 66
     1
 10
0.0
 20
0.0
 30
0.0
  0
VERTEX
  5
E5
330
E4
100
AcDbEntity
  8
_U+30EC_U+30A4_U+30E4_U+30FC 1
 62
   179
420
  2234388
370
     9
100
AcDbVertex
100
AcDb2dVertex
 10
102.6821079359167
 20
-127.9360252457938
 30
0.0
  0
VERTEX
  5
E6
330
E4
100
AcDbEntity
  8
_U+30EC_U+30A4_U+30E4_U+30FC 1
 62
   179
420
  2234388
370
     9
100
AcDbVertex
100
AcDb2dVertex
 10
105.1422416403808
 20
-127.9360252457938
 30
0.0
  0
SEQEND
  5
E7
330
E4
100
AcDbEntity
  8
_U+30EC_U+30A4_U+30E4_U+30FC 1
 62
   179
420
  2234388
370
     9
  0
INSERT
  5
E9
330
1F
100
AcDbEntity
  8
_U+30EC_U+30A4_U+30E4_U+30FC 1
100
AcDbBlockReference
  2
block 6
 10
0.0
 20
0.0
 30
0.0
  0
POLYLINE
  5
F8
330
1F
100
AcDbEntity
  8
_U+30EC_U+30A4_U+30E4_U+30FC 1
 62
   179
420
  2234388
370
     9
100
AcDb2dPolyline
 66
     1
 10
0.0
 20
0.0
 30
0.0
  0
VERTEX
  5
F9
330
F8
100
AcDbEntity
  8
_U+30EC_U+30A4_U+30E4_U+30FC 1
 62
   179
420
  2234388
370
     9
100
AcDbVertex
100
AcDb2dVertex
 10
104.1421492875569
 20
-131.1358255227714
 30
0.0
  0
VERTEX
  5
FA
330
F8
100
AcDbEntity
  8
_U+30EC_U+30A4_U+30E4_U+30FC 1
 62
   179
420
  2234388
370
     9
100
AcDbVertex
100
AcDb2dVertex
 10
104.1421492875569
 20
-136.3937313547903
 30
0.0
  0
SEQEND
  5
FB
330
F8
100
AcDbEntity
  8
_U+30EC_U+30A4_U+30E4_U+30FC 1
 62
   179
420
  2234388
370
     9
  0
POLYLINE
  5
FC
330
1F
100
AcDbEntity
  8
_U+30EC_U+30A4_U+30E4_U+30FC 1
 62
   179
420
  2234388
370
     9
100
AcDb2dPolyline
 66
     1
 10
0.0
 20
0.0
 30
0.0
  0
VERTEX
  5
FD
330
FC
100
AcDbEntity
  8
_U+30EC_U+30A4_U+30E4_U+30FC 1
 62
   179
420
  2234388
370
     9
100
AcDbVertex
100
AcDb2dVertex
 10
104.1421492875569
 20
-127.9360252457938
 30
0.0
  0
VERTEX
  5
FE
330
FC
100
AcDbEntity
  8
_U+30EC_U+30A4_U+30E4_U+30FC 1
 62
   179
420
  2234388
370
     9
100
AcDbVertex
100
AcDb2dVertex
 10
104.1421492875569
 20
-131.1358255227714
 30
0.0
  0
SEQEND
  5
FF
330
FC
100
AcDbEntity
  8
_U+30EC_U+30A4_U+30E4_U+30FC 1
 62
   179
420
  2234388
370
     9
  0
POLYLINE
  5
100
330
1F
100
AcDbEntity
  8
_U+30EC_U+30A4_U+30E4_U+30FC 1
 62
   179
420
  2234388
370
     9
100
AcDb2dPolyline
 66
     1
 10
0.0
 20
0.0
 30
0.0
  0
VERTEX
  5
101
330
100
100
AcDbEntity
  8
_U+30EC_U+30A4_U+30E4_U+30FC 1
 62
   179
420
  2234388
370
     9
100
AcDbVertex
100
AcDb2dVertex
 10
102.6821079359167
 20
-127.9360252457938
 30
0.0
  0
VERTEX
  5
102
330
100
100
AcDbEntity
  8
_U+30EC_U+30A4_U+30E4_U+30FC 1
 62
   179
420
  2234388
370
     9
100
AcDbVertex
100
AcDb2dVertex
 10
105.1422416403808
 20
-127.9360252457938
 30
0.0
  0
SEQEND
  5
103
330
100
100
AcDbEntity
  8
_U+30EC_U+30A4_U+30E4_U+30FC 1
 62
   179
420
  2234388
370
     9
  0
POLYLINE
  5
104
330
1F
100
AcDbEntity
  8
_U+30EC_U+30A4_U+30E4_U+30FC 1
 62
   179
420
  2234388
370
     9
100
AcDb2dPolyline
 66
     1
 10
0.0
 20
0.0
 30
0.0
  0
VERTEX
  5
105
330
104
100
AcDbEntity
  8
_U+30EC_U+30A4_U+30E4_U+30FC 1
 62
   179
420
  2234388
370
     9
100
AcDbVertex
100
AcDb2dVertex
 10
95.68200922561525
 20
-131.1358255227714
 30
0.0
  0
VERTEX
  5
106
330
104
100
AcDbEntity
  8
_U+30EC_U+30A4_U+30E4_U+30FC 1
 62
   179
420
  2234388
370
     9
100
AcDbVertex
100
AcDb2dVertex
 10
105.1422416403808
 20
-131.1358255227714
 30
0.0
  0
SEQEND
  5
107
330
104
100
AcDbEntity
  8
_U+30EC_U+30A4_U+30E4_U+30FC 1
 62
   179
420
  2234388
370
     9
  0
INSERT
  5
109
330
1F
100
AcDbEntity
  8
_U+30EC_U+30A4_U+30E4_U+30FC 1
100
AcDbBlockReference
  2
block 7
 10
0.0
 20
0.0
 30
0.0
  0
ENDSEC
  0
SECTION
  2
OBJECTS
  0
DICTIONARY
  5
C
330
0
100
AcDbDictionary
281
     1
  3
ACAD_GROUP
350
D
  3
ACAD_LAYOUT
350
1A
  3
ACAD_MATERIAL
350
3B
  3
ACAD_MLEADERSTYLE
350
119
  3
ACAD_MLINESTYLE
350
17
  3
ACAD_PLOTSETTINGS
350
19
  3
ACAD_PLOTSTYLENAME
350
E
  3
ACAD_TABLESTYLE
350
118
  3
ACAD_VISUALSTYLE
350
2A
  0
SUN
  5
3F
330
29
100
AcDbSun
 90
        1
290
     0
 63
     7
421
 16777215
 40
1.0
291
     1
 91
  2455826
 92
 54000000
292
     0
 70
     2
 71
   256
280
     1
  0
DICTIONARY
  5
D
102
{ACAD_REACTORS
330
C
102
}
330
C
100
AcDbDictionary
281
     1
  0
DICTIONARY
  5
1A
102
{ACAD_REACTORS
330
C
102
}
330
C
100
AcDbDictionary
281
     1
  3
Layout1
350
1E
  3
Layout2
350
26
  3
Model
350
22
  0
DICTIONARY
  5
3B
102
{ACAD_REACTORS
330
C
102
}
330
C
100
AcDbDictionary
281
     1
  3
ByBlock
350
3D
  3
ByLayer
350
3C
  3
Global
350
3E
  0
DICTIONARY
  5
119
102
{ACAD_REACTORS
330
C
102
}
330
C
100
AcDbDictionary
281
     1
  0
DICTIONARY
  5
17
102
{ACAD_REACTORS
330
C
102
}
330
C
100
AcDbDictionary
281
     1
  3
Standard
350
18
  0
DICTIONARY
  5
19
102
{ACAD_REACTORS
330
C
102
}
330
C
100
AcDbDictionary
281
     1
  0
ACDBDICTIONARYWDFLT
  5
E
102
{ACAD_REACTORS
330
C
102
}
330
C
100
AcDbDictionary
281
     1
  3
Normal
350
F
100
AcDbDictionaryWithDefault
340
F
  0
DICTIONARY
  5
118
102
{ACAD_REACTORS
330
C
102
}
330
C
100
AcDbDictionary
281
     1
  0
DICTIONARY
  5
2A
102
{ACAD_REACTORS
330
C
102
}
330
C
100
AcDbDictionary
281
     1
  3
2dWireframe
350
2F
  3
3D Hidden
350
31
  3
3dWireframe
350
30
  3
Basic
350
32
  3
Brighten
350
36
  3
ColorChange
350
3A
  3
Conceptual
350
34
  3
Dim
350
35
  3
Facepattern
350
39
  3
Flat
350
2B
  3
FlatWithEdges
350
2C
  3
Gouraud
350
2D
  3
GouraudWithEdges
350
2E
  3
Linepattern
350
38
  3
Realistic
350
33
  3
Thicken
350
37
  0
LAYOUT
  5
1E
102
{ACAD_REACTORS
330
1A
102
}
330
1A
100
AcDbPlotSettings
  1

  2
none_device
  4

  6

 40
0.0
 41
0.0
 42
0.0
 43
0.0
 44
0.0
 45
0.0
 46
0.0
 47
0.0
 48
0.0
 49
0.0
140
0.0
141
0.0
142
1.0
143
1.0
 70
   688
 72
     0
 73
     0
 74
     5
  7

 75
    16
 76
     0
 77
     2
 78
   300
147
1.0
148
0.0
149
0.0
100
AcDbLayout
  1
Layout1
 70
     1
 71
     1
 10
0.0
 20
0.0
 11
12.0
 21
9.0
 12
0.0
 22
0.0
 32
0.0
 14
1.000000000000000E+20
 24
1.000000000000000E+20
 34
1.000000000000000E+20
 15
-1.000000000000000E+20
 25
-1.000000000000000E+20
 35
-1.000000000000000E+20
146
0.0
 13
0.0
 23
0.0
 33
0.0
 16
1.0
 26
0.0
 36
0.0
 17
0.0
 27
1.0
 37
0.0
 76
     0
330
1B
  0
LAYOUT
  5
26
102
{ACAD_REACTORS
330
1A
102
}
330
1A
100
AcDbPlotSettings
  1

  2
none_device
  4

  6

 40
0.0
 41
0.0
 42
0.0
 43
0.0
 44
0.0
 45
0.0
 46
0.0
 47
0.0
 48
0.0
 49
0.0
140
0.0
141
0.0
142
1.0
143
1.0
 70
   688
 72
     0
 73
     0
 74
     5
  7

 75
    16
 76
     0
 77
     2
 78
   300
147
1.0
148
0.0
149
0.0
100
AcDbLayout
  1
Layout2
 70
     1
 71
     2
 10
0.0
 20
0.0
 11
0.0
 21
0.0
 12
0.0
 22
0.0
 32
0.0
 14
0.0
 24
0.0
 34
0.0
 15
0.0
 25
0.0
 35
0.0
146
0.0
 13
0.0
 23
0.0
 33
0.0
 16
1.0
 26
0.0
 36
0.0
 17
0.0
 27
1.0
 37
0.0
 76
     0
330
23
  0
LAYOUT
  5
22
102
{ACAD_REACTORS
330
1A
102
}
330
1A
100
AcDbPlotSettings
  1

  2
none_device
  4

  6

 40
0.0
 41
0.0
 42
0.0
 43
0.0
 44
0.0
 45
0.0
 46
0.0
 47
0.0
 48
0.0
 49
0.0
140
0.0
141
0.0
142
1.0
143
1.0
 70
  1712
 72
     0
 73
     0
 74
     0
  7

 75
     0
 76
     0
 77
     2
 78
   300
147
1.0
148
0.0
149
0.0
100
AcDbLayout
  1
Model
 70
     1
 71
     0
 10
0.0
 20
0.0
 11
12.0
 21
9.0
 12
0.0
 22
0.0
 32
0.0
 14
1.000000000000000E+20
 24
1.000000000000000E+20
 34
1.000000000000000E+20
 15
-1.000000000000000E+20
 25
-1.000000000000000E+20
 35
-1.000000000000000E+20
146
0.0
 13
0.0
 23
0.0
 33
0.0
 16
1.0
 26
0.0
 36
0.0
 17
0.0
 27
1.0
 37
0.0
 76
     0
330
1F
331
29
  0
MATERIAL
  5
3D
102
{ACAD_REACTORS
330
3B
102
}
330
3B
100
AcDbMaterial
  1
ByBlock
 72
     1
 94
      127
  0
MATERIAL
  5
3C
102
{ACAD_REACTORS
330
3B
102
}
330
3B
100
AcDbMaterial
  1
ByLayer
 72
     1
 94
      127
  0
MATERIAL
  5
3E
102
{ACAD_REACTORS
330
3B
102
}
330
3B
100
AcDbMaterial
  1
Global
 72
     1
 94
      127
  0
MLINESTYLE
  5
18
102
{ACAD_REACTORS
330
17
102
}
330
17
100
AcDbMlineStyle
  2
Standard
 70
     0
  3

 62
   256
 51
90.0
 52
90.0
 71
     2
 49
0.5
 62
   256
  6
BYLAYER
 49
-0.5
 62
   256
  6
BYLAYER
  0
ACDBPLACEHOLDER
  5
F
102
{ACAD_REACTORS
330
E
102
}
330
E
  0
VISUALSTYLE
  5
2F
102
{ACAD_REACTORS
330
2A
102
}
330
2A
100
AcDbVisualStyle
  2
2dWireframe
 70
     4
177
     2
291
     0
 71
     0
176
     1
 72
     2
176
     1
 73
     0
176
     1
 90
        0
176
     1
 40
-0.6
176
     1
 41
-30.0
176
     1
 62
     5
 63
     7
421
 16777215
176
     1
 74
     1
176
     1
 91
        4
176
     1
 64
     7
176
     1
 65
   257
176
     1
 75
     1
176
     1
175
     1
176
     1
 42
1.0
176
     1
 92
        0
176
     1
 66
   257
176
     1
 43
1.0
176
     1
 76
     1
176
     1
 77
     6
176
     1
 78
     2
176
     1
 67
     7
176
     1
 79
     5
176
     1
170
     0
176
     1
171
     0
176
     1
290
     0
176
     1
 93
        1
176
     1
 44
0.0
176
     1
173
     0
176
     1
  0
VISUALSTYLE
  5
31
102
{ACAD_REACTORS
330
2A
102
}
330
2A
100
AcDbVisualStyle
  2
3D Hidden
 70
     6
177
     2
291
     0
 71
     1
176
     1
 72
     2
176
     1
 73
     2
176
     1
 90
        0
176
     1
 40
-0.6
176
     1
 41
-30.0
176
     1
 62
     5
 63
     7
421
 16777215
176
     1
 74
     2
176
     1
 91
        2
176
     1
 64
     7
176
     1
 65
   257
176
     1
 75
     2
176
     1
175
     1
176
     1
 42
40.0
176
     1
 92
        0
176
     1
 66
   257
176
     1
 43
1.0
176
     1
 76
     1
176
     1
 77
     6
176
     1
 78
     2
176
     1
 67
     7
176
     1
 79
     3
176
     1
170
     0
176
     1
171
     0
176
     1
290
     0
176
     1
 93
        1
176
     1
 44
0.0
176
     1
173
     0
176
     1
  0
VISUALSTYLE
  5
30
102
{ACAD_REACTORS
330
2A
102
}
330
2A
100
AcDbVisualStyle
  2
3dWireframe
 70
     5
177
     2
291
     0
 71
     0
176
     1
 72
     2
176
     1
 73
     0
176
     1
 90
        0
176
     1
 40
-0.6
176
     1
 41
-30.0
176
     1
 62
     5
 63
     7
421
 16777215
176
     1
 74
     1
176
     1
 91
        4
176
     1
 64
     7
176
     1
 65
   257
176
     1
 75
     1
176
     1
175
     1
176
     1
 42
1.0
176
     1
 92
        0
176
     1
 66
   257
176
     1
 43
1.0
176
     1
 76
     1
176
     1
 77
     6
176
     1
 78
     2
176
     1
 67
     7
176
     1
 79
     5
176
     1
170
     0
176
     1
171
     0
176
     1
290
     0
176
     1
 93
        1
176
     1
 44
0.0
176
     1
173
     0
176
     1
  0
VISUALSTYLE
  5
32
102
{ACAD_REACTORS
330
2A
102
}
330
2A
100
AcDbVisualStyle
  2
Basic
 70
     7
177
     2
291
     1
 71
     1
176
     1
 72
     0
176
     1
 73
     1
176
     1
 90
        0
176
     1
 40
-0.6
176
     1
 41
-30.0
176
     1
 62
     5
 63
     7
421
 16777215
176
     1
 74
     0
176
     1
 91
        4
176
     1
 64
     7
176
     1
 65
   257
176
     1
 75
     1
176
     1
175
     1
176
     1
 42
1.0
176
     1
 92
        8
176
     1
 66
     7
176
     1
 43
1.0
176
     1
 76
     1
176
     1
 77
     6
176
     1
 78
     2
176
     1
 67
     7
176
     1
 79
     5
176
     1
170
     0
176
     1
171
     0
176
     1
290
     0
176
     1
 93
        1
176
     1
 44
0.0
176
     1
173
     0
176
     1
  0
VISUALSTYLE
  5
36
102
{ACAD_REACTORS
330
2A
102
}
330
2A
100
AcDbVisualStyle
  2
Brighten
 70
    12
177
     2
291
     1
 71
     2
176
     1
 72
     2
176
     1
 73
     0
176
     1
 90
        0
176
     1
 40
-0.6
176
     1
 41
-30.0
176
     1
 62
     5
 63
     7
421
 16777215
176
     1
 74
     1
176
     1
 91
        4
176
     1
 64
     7
176
     1
 65
   257
176
     1
 75
     1
176
     1
175
     1
176
     1
 42
1.0
176
     1
 92
        8
176
     1
 66
     7
176
     1
 43
1.0
176
     1
 76
     1
176
     1
 77
     6
176
     1
 78
     2
176
     1
 67
     7
176
     1
 79
     5
176
     1
170
     0
176
     1
171
     0
176
     1
290
     0
176
     1
 93
        1
176
     1
 44
50.0
176
     1
173
     0
176
     1
  0
VISUALSTYLE
  5
3A
102
{ACAD_REACTORS
330
2A
102
}
330
2A
100
AcDbVisualStyle
  2
ColorChange
 70
    16
177
     2
291
     1
 71
     2
176
     1
 72
     2
176
     1
 73
     3
176
     1
 90
        0
176
     1
 40
-0.6
176
     1
 41
-30.0
176
     1
 62
     5
 63
     8
421
  8421504
176
     1
 74
     1
176
     1
 91
        4
176
     1
 64
     7
176
     1
 65
   257
176
     1
 75
     1
176
     1
175
     1
176
     1
 42
1.0
176
     1
 92
        8
176
     1
 66
     8
424
  8421504
176
     1
 43
1.0
176
     1
 76
     1
176
     1
 77
     6
176
     1
 78
     2
176
     1
 67
     7
176
     1
 79
     5
176
     1
170
     0
176
     1
171
     0
176
     1
290
     0
176
     1
 93
        1
176
     1
 44
0.0
176
     1
173
     0
176
     1
  0
VISUALSTYLE
  5
34
102
{ACAD_REACTORS
330
2A
102
}
330
2A
100
AcDbVisualStyle
  2
Conceptual
 70
     9
177
     2
291
     0
 71
     3
176
     1
 72
     2
176
     1
 73
     0
176
     1
 90
        0
176
     1
 40
-0.6
176
     1
 41
-30.0
176
     1
 62
     5
 63
     7
421
 16777215
176
     1
 74
     2
176
     1
 91
        2
176
     1
 64
     7
176
     1
 65
   257
176
     1
 75
     1
176
     1
175
     1
176
     1
 42
40.0
176
     1
 92
        8
176
     1
 66
     7
176
     1
 43
1.0
176
     1
 76
     1
176
     1
 77
     6
176
     1
 78
     2
176
     1
 67
     7
176
     1
 79
     3
176
     1
170
     0
176
     1
171
     0
176
     1
290
     0
176
     1
 93
        1
176
     1
 44
0.0
176
     1
173
     0
176
     1
  0
VISUALSTYLE
  5
35
102
{ACAD_REACTORS
330
2A
102
}
330
2A
100
AcDbVisualStyle
  2
Dim
 70
    11
177
     2
291
     1
 71
     2
176
     1
 72
     2
176
     1
 73
     0
176
     1
 90
        0
176
     1
 40
-0.6
176
     1
 41
-30.0
176
     1
 62
     5
 63
     7
421
 16777215
176
     1
 74
     1
176
     1
 91
        4
176
     1
 64
     7
176
     1
 65
   257
176
     1
 75
     1
176
     1
175
     1
176
     1
 42
1.0
176
     1
 92
        8
176
     1
 66
     7
176
     1
 43
1.0
176
     1
 76
     1
176
     1
 77
     6
176
     1
 78
     2
176
     1
 67
     7
176
     1
 79
     5
176
     1
170
     0
176
     1
171
     0
176
     1
290
     0
176
     1
 93
        1
176
     1
 44
-50.0
176
     1
173
     0
176
     1
  0
VISUALSTYLE
  5
39
102
{ACAD_REACTORS
330
2A
102
}
330
2A
100
AcDbVisualStyle
  2
Facepattern
 70
    15
177
     2
291
     1
 71
     2
176
     1
 72
     2
176
     1
 73
     0
176
     1
 90
        0
176
     1
 40
-0.6
176
     1
 41
-30.0
176
     1
 62
     5
 63
     7
421
 16777215
176
     1
 74
     1
176
     1
 91
        4
176
     1
 64
     7
176
     1
 65
   257
176
     1
 75
     1
176
     1
175
     1
176
     1
 42
1.0
176
     1
 92
        8
176
     1
 66
     7
176
     1
 43
1.0
176
     1
 76
     1
176
     1
 77
     6
176
     1
 78
     2
176
     1
 67
     7
176
     1
 79
     5
176
     1
170
     0
176
     1
171
     0
176
     1
290
     0
176
     1
 93
        1
176
     1
 44
0.0
176
     1
173
     0
176
     1
  0
VISUALSTYLE
  5
2B
102
{ACAD_REACTORS
330
2A
102
}
330
2A
100
AcDbVisualStyle
  2
Flat
 70
     0
177
     2
291
     1
 71
     2
176
     1
 72
     1
176
     1
 73
     1
176
     1
 90
        2
176
     1
 40
-0.6
176
     1
 41
30.0
176
     1
 62
     5
 63
     7
421
 16777215
176
     1
 74
     0
176
     1
 91
        4
176
     1
 64
     7
176
     1
 65
   257
176
     1
 75
     1
176
     1
175
     1
176
     1
 42
1.0
176
     1
 92
        8
176
     1
 66
     7
176
     1
 43
1.0
176
     1
 76
     1
176
     1
 77
     6
176
     1
 78
     2
176
     1
 67
     7
176
     1
 79
     5
176
     1
170
     0
176
     1
171
     0
176
     1
290
     0
176
     1
 93
       13
176
     1
 44
0.0
176
     1
173
     0
176
     1
  0
VISUALSTYLE
  5
2C
102
{ACAD_REACTORS
330
2A
102
}
330
2A
100
AcDbVisualStyle
  2
FlatWithEdges
 70
     1
177
     2
291
     1
 71
     2
176
     1
 72
     1
176
     1
 73
     1
176
     1
 90
        2
176
     1
 40
-0.6
176
     1
 41
30.0
176
     1
 62
     5
 63
     7
421
 16777215
176
     1
 74
     1
176
     1
 91
        4
176
     1
 64
     7
176
     1
 65
   257
176
     1
 75
     1
176
     1
175
     1
176
     1
 42
1.0
176
     1
 92
        0
176
     1
 66
   257
176
     1
 43
1.0
176
     1
 76
     1
176
     1
 77
     6
176
     1
 78
     2
176
     1
 67
     7
176
     1
 79
     5
176
     1
170
     0
176
     1
171
     0
176
     1
290
     0
176
     1
 93
       13
176
     1
 44
0.0
176
     1
173
     0
176
     1
  0
VISUALSTYLE
  5
2D
102
{ACAD_REACTORS
330
2A
102
}
330
2A
100
AcDbVisualStyle
  2
Gouraud
 70
     2
177
     2
291
     1
 71
     2
176
     1
 72
     2
176
     1
 73
     1
176
     1
 90
        2
176
     1
 40
-0.6
176
     1
 41
30.0
176
     1
 62
     5
 63
     7
421
 16777215
176
     1
 74
     0
176
     1
 91
        4
176
     1
 64
     7
176
     1
 65
   257
176
     1
 75
     1
176
     1
175
     1
176
     1
 42
1.0
176
     1
 92
        0
176
     1
 66
     7
176
     1
 43
1.0
176
     1
 76
     1
176
     1
 77
     6
176
     1
 78
     2
176
     1
 67
     7
176
     1
 79
     5
176
     1
170
     0
176
     1
171
     0
176
     1
290
     0
176
     1
 93
       13
176
     1
 44
0.0
176
     1
173
     0
176
     1
  0
VISUALSTYLE
  5
2E
102
{ACAD_REACTORS
330
2A
102
}
330
2A
100
AcDbVisualStyle
  2
GouraudWithEdges
 70
     3
177
     2
291
     1
 71
     2
176
     1
 72
     2
176
     1
 73
     1
176
     1
 90
        2
176
     1
 40
-0.6
176
     1
 41
30.0
176
     1
 62
     5
 63
     7
421
 16777215
176
     1
 74
     1
176
     1
 91
        4
176
     1
 64
     7
176
     1
 65
   257
176
     1
 75
     1
176
     1
175
     1
176
     1
 42
1.0
176
     1
 92
        0
176
     1
 66
   257
176
     1
 43
1.0
176
     1
 76
     1
176
     1
 77
     6
176
     1
 78
     2
176
     1
 67
     7
176
     1
 79
     5
176
     1
170
     0
176
     1
171
     0
176
     1
290
     0
176
     1
 93
       13
176
     1
 44
0.0
176
     1
173
     0
176
     1
  0
VISUALSTYLE
  5
38
102
{ACAD_REACTORS
330
2A
102
}
330
2A
100
AcDbVisualStyle
  2
Linepattern
 70
    14
177
     2
291
     1
 71
     2
176
     1
 72
     2
176
     1
 73
     0
176
     1
 90
        0
176
     1
 40
-0.6
176
     1
 41
-30.0
176
     1
 62
     5
 63
     7
421
 16777215
176
     1
 74
     1
176
     1
 91
        4
176
     1
 64
     7
176
     1
 65
   257
176
     1
 75
     7
176
     1
175
     7
176
     1
 42
1.0
176
     1
 92
        8
176
     1
 66
     7
176
     1
 43
1.0
176
     1
 76
     1
176
     1
 77
     6
176
     1
 78
     2
176
     1
 67
     7
176
     1
 79
     5
176
     1
170
     0
176
     1
171
     0
176
     1
290
     0
176
     1
 93
        1
176
     1
 44
0.0
176
     1
173
     0
176
     1
  0
VISUALSTYLE
  5
33
102
{ACAD_REACTORS
330
2A
102
}
330
2A
100
AcDbVisualStyle
  2
Realistic
 70
     8
177
     2
291
     0
 71
     2
176
     1
 72
     2
176
     1
 73
     0
176
     1
 90
        0
176
     1
 40
-0.6
176
     1
 41
-30.0
176
     1
 62
     5
 63
     7
421
 16777215
176
     1
 74
     1
176
     1
 91
        0
176
     1
 64
     7
176
     1
 65
   257
176
     1
 75
     1
176
     1
175
     1
176
     1
 42
1.0
176
     1
 92
        8
176
     1
 66
     8
424
  7895160
176
     1
 43
1.0
176
     1
 76
     1
176
     1
 77
     6
176
     1
 78
     2
176
     1
 67
     7
176
     1
 79
     5
176
     1
170
     0
176
     1
171
     0
176
     1
290
     0
176
     1
 93
       13
176
     1
 44
0.0
176
     1
173
     0
176
     1
  0
VISUALSTYLE
  5
37
102
{ACAD_REACTORS
330
2A
102
}
330
2A
100
AcDbVisualStyle
  2
Thicken
 70
    13
177
     2
291
     1
 71
     2
176
     1
 72
     2
176
     1
 73
     0
176
     1
 90
        0
176
     1
 40
-0.6
176
     1
 41
-30.0
176
     1
 62
     5
 63
     7
421
 16777215
176
     1
 74
     1
176
     1
 91
        4
176
     1
 64
     7
176
     1
 65
   257
176
     1
 75
     1
176
     1
175
     1
176
     1
 42
1.0
176
     1
 92
       12
176
     1
 66
     7
176
     1
 43
1.0
176
     1
 76
     1
176
     1
 77
     6
176
     1
 78
     2
176
     1
 67
     7
176
     1
 79
     5
176
     1
170
     0
176
     1
171
     0
176
     1
290
     0
176
     1
 93
        1
176
     1
 44
0.0
176
     1
173
     0
176
     1
  0
ENDSEC
  0
EOF
