  0
SECTION
  2
HEADER
  9
$ACADVER
  1
AC1024
  9
$ACADMAINTVER
 70
     6
  9
$DWGCODEPAGE
  3
UNDEFINED
  9
$INSBASE
 10
0.0
 20
0.0
 30
0.0
  9
$EXTMIN
 10
1.000000000000000E+20
 20
1.000000000000000E+20
 30
1.000000000000000E+20
  9
$EXTMAX
 10
-1.000000000000000E+20
 20
-1.000000000000000E+20
 30
-1.000000000000000E+20
  9
$LIMMIN
 10
0.0
 20
0.0
  9
$LIMMAX
 10
12.0
 20
9.0
  9
$ORTHOMODE
 70
     0
  9
$REGENMODE
 70
     1
  9
$FILLMODE
 70
     1
  9
$QTEXTMODE
 70
     0
  9
$MIRRTEXT
 70
     1
  9
$LTSCALE
 40
1.0
  9
$ATTMODE
 70
     1
  9
$TEXTSIZE
 40
0.2
  9
$TRACEWID
 40
0.05
  9
$TEXTSTYLE
  7
Standard
  9
$CLAYER
  8
0
  9
$CELTYPE
  6
ByLayer
  9
$CECOLOR
 62
   256
  9
$CELTSCALE
 40
1.0
  9
$DISPSILH
 70
     0
  9
$DIMSCALE
 40
1.0
  9
$DIMASZ
 40
0.18
  9
$DIMEXO
 40
0.0625
  9
$DIMDLI
 40
0.38
  9
$DIMRND
 40
0.0
  9
$DIMDLE
 40
0.0
  9
$DIMEXE
 40
0.18
  9
$DIMTP
 40
0.0
  9
$DIMTM
 40
0.0
  9
$DIMTXT
 40
0.18
  9
$DIMCEN
 40
0.09
  9
$DIMTSZ
 40
0.0
  9
$DIMTOL
 70
     0
  9
$DIMLIM
 70
     0
  9
$DIMTIH
 70
     1
  9
$DIMTOH
 70
     1
  9
$DIMSE1
 70
     0
  9
$DIMSE2
 70
     0
  9
$DIMTAD
 70
     0
  9
$DIMZIN
 70
     0
  9
$DIMBLK
  1

  9
$DIMASO
 70
     1
  9
$DIMSHO
 70
     1
  9
$DIMPOST
  1

  9
$DIMAPOST
  1

  9
$DIMALT
 70
     0
  9
$DIMALTD
 70
     2
  9
$DIMALTF
 40
25.4
  9
$DIMLFAC
 40
1.0
  9
$DIMTOFL
 70
     0
  9
$DIMTVP
 40
0.0
  9
$DIMTIX
 70
     0
  9
$DIMSOXD
 70
     0
  9
$DIMSAH
 70
     0
  9
$DIMBLK1
  1

  9
$DIMBLK2
  1

  9
$DIMSTYLE
  2
Standard
  9
$DIMCLRD
 70
     0
  9
$DIMCLRE
 70
     0
  9
$DIMCLRT
 70
     0
  9
$DIMTFAC
 40
1.0
  9
$DIMGAP
 40
0.09
  9
$DIMJUST
 70
     0
  9
$DIMSD1
 70
     0
  9
$DIMSD2
 70
     0
  9
$DIMTOLJ
 70
     1
  9
$DIMTZIN
 70
     0
  9
$DIMALTZ
 70
     0
  9
$DIMALTTZ
 70
     0
  9
$DIMUPT
 70
     0
  9
$DIMDEC
 70
     4
  9
$DIMTDEC
 70
     4
  9
$DIMALTU
 70
     2
  9
$DIMALTTD
 70
     2
  9
$DIMTXSTY
  7
Standard
  9
$DIMAUNIT
 70
     0
  9
$DIMADEC
 70
     0
  9
$DIMALTRND
 40
0.0
  9
$DIMAZIN
 70
     0
  9
$DIMDSEP
 70
    46
  9
$DIMATFIT
 70
     3
  9
$DIMFRAC
 70
     0
  9
$DIMLDRBLK
  1

  9
$DIMLUNIT
 70
     2
  9
$DIMLWD
 70
    -2
  9
$DIMLWE
 70
    -2
  9
$DIMTMOVE
 70
     0
  9
$DIMFXL
 40
1.0
  9
$DIMFXLON
 70
     0
  9
$DIMJOGANG
 40
0.7853981633974483
  9
$DIMTFILL
 70
     0
  9
$DIMTFILLCLR
 70
     0
  9
$DIMARCSYM
 70
     0
  9
$DIMLTYPE
  6

  9
$DIMLTEX1
  6

  9
$DIMLTEX2
  6

  9
$DIMTXTDIRECTION
 70
     0
  9
$LUNITS
 70
     2
  9
$LUPREC
 70
     4
  9
$SKETCHINC
 40
0.1
  9
$FILLETRAD
 40
0.5
  9
$AUNITS
 70
     0
  9
$AUPREC
 70
     0
  9
$MENU
  1
.
  9
$ELEVATION
 40
0.0
  9
$PELEVATION
 40
0.0
  9
$THICKNESS
 40
0.0
  9
$LIMCHECK
 70
     0
  9
$CHAMFERA
 40
0.5
  9
$CHAMFERB
 40
0.5
  9
$CHAMFERC
 40
1.0
  9
$CHAMFERD
 40
0.0
  9
$SKPOLY
 70
     0
  9
$TDCREATE
 40
2457917.623344908
  9
$TDUCREATE
 40
2457917.248344908
  9
$TDUPDATE
 40
2457917.623344908
  9
$TDUUPDATE
 40
2457917.248344908
  9
$TDINDWG
 40
0.0000000116
  9
$TDUSRTIMER
 40
0.0000000116
  9
$USRTIMER
 70
     1
  9
$ANGBASE
 50
0.0
  9
$ANGDIR
 70
     0
  9
$PDMODE
 70
     0
  9
$PDSIZE
 40
0.0
  9
$PLINEWID
 40
0.0
  9
$SPLFRAME
 70
     0
  9
$SPLINETYPE
 70
     6
  9
$SPLINESEGS
 70
     8
  9
$HANDSEED
  5
119
  9
$SURFTAB1
 70
     6
  9
$SURFTAB2
 70
     6
  9
$SURFTYPE
 70
     6
  9
$SURFU
 70
     6
  9
$SURFV
 70
     6
  9
$UCSBASE
  2

  9
$UCSNAME
  2

  9
$UCSORG
 10
0.0
 20
0.0
 30
0.0
  9
$UCSXDIR
 10
1.0
 20
0.0
 30
0.0
  9
$UCSYDIR
 10
0.0
 20
1.0
 30
0.0
  9
$UCSORTHOREF
  2

  9
$UCSORTHOVIEW
 70
     0
  9
$UCSORGTOP
 10
0.0
 20
0.0
 30
0.0
  9
$UCSORGBOTTOM
 10
0.0
 20
0.0
 30
0.0
  9
$UCSORGLEFT
 10
0.0
 20
0.0
 30
0.0
  9
$UCSORGRIGHT
 10
0.0
 20
0.0
 30
0.0
  9
$UCSORGFRONT
 10
0.0
 20
0.0
 30
0.0
  9
$UCSORGBACK
 10
0.0
 20
0.0
 30
0.0
  9
$PUCSBASE
  2

  9
$PUCSNAME
  2

  9
$PUCSORG
 10
0.0
 20
0.0
 30
0.0
  9
$PUCSXDIR
 10
1.0
 20
0.0
 30
0.0
  9
$PUCSYDIR
 10
0.0
 20
1.0
 30
0.0
  9
$PUCSORTHOREF
  2

  9
$PUCSORTHOVIEW
 70
     0
  9
$PUCSORGTOP
 10
0.0
 20
0.0
 30
0.0
  9
$PUCSORGBOTTOM
 10
0.0
 20
0.0
 30
0.0
  9
$PUCSORGLEFT
 10
0.0
 20
0.0
 30
0.0
  9
$PUCSORGRIGHT
 10
0.0
 20
0.0
 30
0.0
  9
$PUCSORGFRONT
 10
0.0
 20
0.0
 30
0.0
  9
$PUCSORGBACK
 10
0.0
 20
0.0
 30
0.0
  9
$USERI1
 70
     0
  9
$USERI2
 70
     0
  9
$USERI3
 70
     0
  9
$USERI4
 70
     0
  9
$USERI5
 70
     0
  9
$USERR1
 40
0.0
  9
$USERR2
 40
0.0
  9
$USERR3
 40
0.0
  9
$USERR4
 40
0.0
  9
$USERR5
 40
0.0
  9
$WORLDVIEW
 70
     1
  9
$SHADEDGE
 70
     3
  9
$SHADEDIF
 70
    70
  9
$TILEMODE
 70
     1
  9
$MAXACTVP
 70
    64
  9
$PINSBASE
 10
0.0
 20
0.0
 30
0.0
  9
$PLIMCHECK
 70
     0
  9
$PEXTMIN
 10
1.000000000000000E+20
 20
1.000000000000000E+20
 30
1.000000000000000E+20
  9
$PEXTMAX
 10
-1.000000000000000E+20
 20
-1.000000000000000E+20
 30
-1.000000000000000E+20
  9
$PLIMMIN
 10
0.0
 20
0.0
  9
$PLIMMAX
 10
12.0
 20
9.0
  9
$UNITMODE
 70
     0
  9
$VISRETAIN
 70
     1
  9
$PLINEGEN
 70
     0
  9
$PSLTSCALE
 70
     1
  9
$TREEDEPTH
 70
  3020
  9
$CMLSTYLE
  2
Standard
  9
$CMLJUST
 70
     0
  9
$CMLSCALE
 40
1.0
  9
$PROXYGRAPHICS
 70
     1
  9
$MEASUREMENT
 70
     0
  9
$CELWEIGHT
370
    -1
  9
$ENDCAPS
280
     0
  9
$JOINSTYLE
280
     0
  9
$LWDISPLAY
290
     1
  9
$INSUNITS
 70
     1
  9
$HYPERLINKBASE
  1

  9
$STYLESHEET
  1

  9
$XEDIT
290
     1
  9
$CEPSNTYPE
380
     0
  9
$PSTYLEMODE
290
     1
  9
$FINGERPRINTGUID
  2
{A42AED26-B936-25CC-96A8-242F16605733}
  9
$VERSIONGUID
  2
{FAEB1C32-E019-11D5-929B-00C0DF256EC4}
  9
$EXTNAMES
290
     1
  9
$PSVPSCALE
 40
0.0
  9
$OLESTARTUP
290
     0
  9
$SORTENTS
280
   127
  9
$INDEXCTL
280
     0
  9
$HIDETEXT
280
     1
  9
$XCLIPFRAME
280
     2
  9
$HALOGAP
280
     0
  9
$OBSCOLOR
 70
   257
  9
$OBSLTYPE
280
     0
  9
$INTERSECTIONDISPLAY
280
     0
  9
$INTERSECTIONCOLOR
 70
   257
  9
$DIMASSOC
280
     2
  9
$PROJECTNAME
  1

  9
$CAMERADISPLAY
290
     0
  9
$LENSLENGTH
 40
50.0
  9
$CAMERAHEIGHT
 40
0.0
  9
$STEPSPERSEC
 40
2.0
  9
$STEPSIZE
 40
6.0
  9
$3DDWFPREC
 40
2.0
  9
$PSOLWIDTH
 40
0.25
  9
$PSOLHEIGHT
 40
4.0
  9
$LOFTANG1
 40
1.570796326794897
  9
$LOFTANG2
 40
1.570796326794897
  9
$LOFTMAG1
 40
0.0
  9
$LOFTMAG2
 40
0.0
  9
$LOFTPARAM
 70
     7
  9
$LOFTNORMALS
280
     1
  9
$LATITUDE
 40
37.795
  9
$LONGITUDE
 40
-122.394
  9
$NORTHDIRECTION
 40
0.0
  9
$TIMEZONE
 70
 -8000
  9
$LIGHTGLYPHDISPLAY
280
     1
  9
$TILEMODELIGHTSYNCH
280
     1
  9
$CMATERIAL
347
3C
  9
$SOLIDHIST
280
     1
  9
$SHOWHIST
280
     1
  9
$DWFFRAME
280
     2
  9
$DGNFRAME
280
     2
  9
$REALWORLDSCALE
290
     1
  9
$INTERFERECOLOR
 62
   256
  9
$CSHADOW
280
     0
  9
$SHADOWPLANELOCATION
 40
0.0
  0
ENDSEC
  0
SECTION
  2
CLASSES
  0
CLASS
  1
ACDBDICTIONARYWDFLT
  2
AcDbDictionaryWithDefault
  3
ObjectDBX Classes
 90
        0
 91
        4
280
     0
281
     0
  0
CLASS
  1
VISUALSTYLE
  2
AcDbVisualStyle
  3
ObjectDBX Classes
 90
     4095
 91
        4
280
     0
281
     0
  0
CLASS
  1
MATERIAL
  2
AcDbMaterial
  3
ObjectDBX Classes
 90
     1153
 91
        4
280
     0
281
     0
  0
CLASS
  1
SUN
  2
AcDbSun
  3
SCENEOE
 90
     1024
 91
        4
280
     0
281
     0
  0
ENDSEC
  0
SECTION
  2
TABLES
  0
TABLE
  2
VPORT
  5
8
330
0
100
AcDbSymbolTable
 70
     1
  0
VPORT
  5
29
330
8
100
AcDbSymbolTableRecord
100
AcDbViewportTableRecord
  2
*Active
 70
     0
 10
0.0
 20
0.0
 11
1.0
 21
1.0
 12
0.0
 22
0.0
 13
0.0
 23
0.0
 14
0.5
 24
0.5
 15
0.5
 25
0.5
 16
0.0
 26
0.0
 36
1.0
 17
91.00082462281999
 27
-128.4993055234307
 37
0.0
 40
256.9986110468615
 41
0.7081814508812795
 42
50.0
 43
0.0
 44
0.0
 50
0.0
 51
0.0
 71
     0
 72
   100
 73
     1
 74
     3
 75
     0
 76
     0
 77
     0
 78
     0
281
     0
 65
     1
110
0.0
120
0.0
130
0.0
111
1.0
121
0.0
131
0.0
112
0.0
122
1.0
132
0.0
 79
     0
146
0.0
 60
     3
 61
     5
292
     1
282
     1
141
0.0
142
0.0
 63
   250
361
3F
  0
ENDTAB
  0
TABLE
  2
LTYPE
  5
5
330
0
100
AcDbSymbolTable
 70
     1
  0
LTYPE
  5
14
330
5
100
AcDbSymbolTableRecord
100
AcDbLinetypeTableRecord
  2
ByBlock
 70
     0
  3

 72
    65
 73
     0
 40
0.0
  0
LTYPE
  5
15
330
5
100
AcDbSymbolTableRecord
100
AcDbLinetypeTableRecord
  2
ByLayer
 70
     0
  3

 72
    65
 73
     0
 40
0.0
  0
LTYPE
  5
16
330
5
100
AcDbSymbolTableRecord
100
AcDbLinetypeTableRecord
  2
Continuous
 70
     0
  3
Solid line
 72
    65
 73
     0
 40
0.0
  0
ENDTAB
  0
TABLE
  2
LAYER
  5
2
330
0
100
AcDbSymbolTable
 70
     2
  0
LAYER
  5
10
330
2
100
AcDbSymbolTableRecord
100
AcDbLayerTableRecord
  2
0
 70
     0
 62
     7
  6
Continuous
370
    -3
390
F
347
3E
  0
LAYER
  5
40
330
2
100
AcDbSymbolTableRecord
100
AcDbLayerTableRecord
  2
_U+30EC_U+30A4_U+30E4_U+30FC 1
 70
     0
 62
     7
  6
Continuous
370
    -3
390
F
347
3E
  0
ENDTAB
  0
TABLE
  2
STYLE
  5
3
330
0
100
AcDbSymbolTable
 70
     1
  0
STYLE
  5
11
330
3
100
AcDbSymbolTableRecord
100
AcDbTextStyleTableRecord
  2
Standard
 70
     0
 40
0.0
 41
1.0
 50
0.0
 71
     0
 42
0.2
  3
txt
  4

  0
ENDTAB
  0
TABLE
  2
VIEW
  5
6
330
0
100
AcDbSymbolTable
 70
     0
  0
ENDTAB
  0
TABLE
  2
UCS
  5
7
330
0
100
AcDbSymbolTable
 70
     0
  0
ENDTAB
  0
TABLE
  2
APPID
  5
9
330
0
100
AcDbSymbolTable
 70
     1
  0
APPID
  5
12
330
9
100
AcDbSymbolTableRecord
100
AcDbRegAppTableRecord
  2
ACAD
 70
     0
  0
ENDTAB
  0
TABLE
  2
DIMSTYLE
  5
A
330
0
100
AcDbSymbolTable
 70
     1
100
AcDbDimStyleTable
  0
DIMSTYLE
105
27
330
A
100
AcDbSymbolTableRecord
100
AcDbDimStyleTableRecord
  2
Standard
 70
     0
178
     0
340
11
  0
ENDTAB
  0
TABLE
  2
BLOCK_RECORD
  5
1
330
0
100
AcDbSymbolTable
 70
     7
  0
BLOCK_RECORD
  5
1F
330
1
100
AcDbSymbolTableRecord
100
AcDbBlockTableRecord
  2
*Model_Space
340
22
 70
     0
280
     1
281
     0
  0
BLOCK_RECORD
  5
1B
330
1
100
AcDbSymbolTableRecord
100
AcDbBlockTableRecord
  2
*Paper_Space
340
1E
 70
     0
280
     1
281
     0
  0
BLOCK_RECORD
  5
23
330
1
100
AcDbSymbolTableRecord
100
AcDbBlockTableRecord
  2
*Paper_Space0
340
26
 70
     0
280
     1
281
     0
  0
BLOCK_RECORD
  5
9A
330
1
100
AcDbSymbolTableRecord
100
AcDbBlockTableRecord
  2
block 2
340
0
102
{BLKREFS
331
9B
102
}
 70
     0
280
     1
281
     0
  0
BLOCK_RECORD
  5
B2
330
1
100
AcDbSymbolTableRecord
100
AcDbBlockTableRecord
  2
block 3
340
0
102
{BLKREFS
331
B3
102
}
 70
     0
280
     1
281
     0
  0
BLOCK_RECORD
  5
C1
330
1
100
AcDbSymbolTableRecord
100
AcDbBlockTableRecord
  2
block 4
340
0
102
{BLKREFS
331
C2
102
}
 70
     0
280
     1
281
     0
  0
BLOCK_RECORD
  5
E1
330
1
100
AcDbSymbolTableRecord
100
AcDbBlockTableRecord
  2
block 5
340
0
102
{BLKREFS
331
E2
102
}
 70
     0
280
     1
281
     0
  0
BLOCK_RECORD
  5
F7
330
1
100
AcDbSymbolTableRecord
100
AcDbBlockTableRecord
  2
block 6
340
0
102
{BLKREFS
331
F8
102
}
 70
     0
280
     1
281
     0
  0
BLOCK_RECORD
  5
111
330
1
100
AcDbSymbolTableRecord
100
AcDbBlockTableRecord
  2
block 7
340
0
102
{BLKREFS
331
112
102
}
 70
     0
280
     1
281
     0
  0
ENDTAB
  0
ENDSEC
  0
SECTION
  2
BLOCKS
  0
BLOCK
  5
20
330
1F
100
AcDbEntity
  8
0
100
AcDbBlockBegin
  2
*Model_Space
 70
     0
 10
0.0
 20
0.0
 30
0.0
  3
*Model_Space
  1

  0
ENDBLK
  5
21
330
1F
100
AcDbEntity
  8
0
100
AcDbBlockEnd
  0
BLOCK
  5
1C
330
1B
100
AcDbEntity
 67
     1
  8
0
100
AcDbBlockBegin
  2
*Paper_Space
 70
     0
 10
0.0
 20
0.0
 30
0.0
  3
*Paper_Space
  1

  0
ENDBLK
  5
1D
330
1B
100
AcDbEntity
 67
     1
  8
0
100
AcDbBlockEnd
  0
BLOCK
  5
24
330
23
100
AcDbEntity
  8
0
100
AcDbBlockBegin
  2
*Paper_Space0
 70
     0
 10
0.0
 20
0.0
 30
0.0
  3
*Paper_Space0
  1

  0
ENDBLK
  5
25
330
23
100
AcDbEntity
  8
0
100
AcDbBlockEnd
  0
BLOCK
  5
9C
330
9A
100
AcDbEntity
  8
0
100
AcDbBlockBegin
  2
block 2
 70
     0
 10
0.0
 20
0.0
 30
0.0
  3
block 2
  1

  0
SPLINE
  5
9E
330
9A
100
AcDbEntity
  8
_U+30EC_U+30A4_U+30E4_U+30FC 1
370
     0
100
AcDbSpline
210
0.0
220
0.0
230
1.0
 70
    11
 71
     3
 72
    53
 73
    49
 74
     0
 42
0.0000000001
 43
0.0000000001
 12
1.0
 22
0.0
 32
0.0
 13
1.0
 23
0.0
 33
0.0
 40
0.0
 40
0.0
 40
0.0
 40
0.0
 40
1.0
 40
1.0
 40
1.0
 40
2.0
 40
2.0
 40
2.0
 40
3.0
 40
3.0
 40
3.0
 40
4.0
 40
4.0
 40
4.0
 40
5.0
 40
5.0
 40
5.0
 40
6.0
 40
6.0
 40
6.0
 40
7.0
 40
7.0
 40
7.0
 40
8.0
 40
8.0
 40
8.0
 40
9.0
 40
9.0
 40
9.0
 40
10.0
 40
10.0
 40
10.0
 40
11.0
 40
11.0
 40
11.0
 40
12.0
 40
12.0
 40
12.0
 40
13.0
 40
13.0
 40
13.0
 40
14.0
 40
14.0
 40
14.0
 40
15.0
 40
15.0
 40
15.0
 40
16.0
 40
16.0
 40
16.0
 40
16.0
 10
81.0455267809539
 20
-121.0212090083732
 30
0.0
 10
80.96181096066233
 20
-121.0212090083732
 30
0.0
 10
80.85329045287696
 20
-121.0041557857212
 30
0.0
 10
80.74476994509159
 20
-120.9407660287926
 30
0.0
 10
80.55942380798514
 20
-120.8306952280389
 30
0.0
 10
80.53685843255676
 20
-120.6996093448251
 30
0.0
 10
80.51636011441953
 20
-120.5917778561368
 30
0.0
 10
80.51636011441953
 20
-120.5917778561368
 30
0.0
 10
80.7538994481275
 20
-120.5917778561368
 30
0.0
 10
80.7538994481275
 20
-120.5917778561368
 30
0.0
 10
80.81263832615102
 20
-120.7905598656357
 30
0.0
 10
80.94820283349559
 20
-120.8201876868089
 30
0.0
 10
81.0477660930193
 20
-120.8201876868089
 30
0.0
 10
81.19693872753064
 20
-120.8201876868089
 30
0.0
 10
81.35971948920869
 20
-120.7207966820594
 30
0.0
 10
81.35971948920869
 20
-120.4880804820308
 30
0.0
 10
81.35971948920869
 20
-120.2321098874767
 30
0.0
 10
81.16748316113174
 20
-120.1623467039004
 30
0.0
 10
81.0386365899834
 20
-120.1623467039004
 30
0.0
 10
81.00470239945369
 20
-120.1623467039004
 30
0.0
 10
80.85329045287696
 20
-120.1623467039004
 30
0.0
 10
80.75837807225832
 20
-120.291365529823
 30
0.0
 10
80.75837807225832
 20
-120.291365529823
 30
0.0
 10
80.5706203683122
 20
-120.2722452498799
 30
0.0
 10
80.5706203683122
 20
-120.2722452498799
 30
0.0
 10
80.5706203683122
 20
-120.2722452498799
 30
0.0
 10
80.69946693946055
 20
-119.4261297987025
 30
0.0
 10
80.69946693946055
 20
-119.4261297987025
 30
0.0
 10
80.69946693946055
 20
-119.4261297987025
 30
0.0
 10
81.53145749914839
 20
-119.4261297987025
 30
0.0
 10
81.53145749914839
 20
-119.4261297987025
 30
0.0
 10
81.53145749914839
 20
-119.4261297987025
 30
0.0
 10
81.53145749914839
 20
-119.6207776936191
 30
0.0
 10
81.53145749914839
 20
-119.6207776936191
 30
0.0
 10
81.53145749914839
 20
-119.6207776936191
 30
0.0
 10
80.87361651623993
 20
-119.6207776936191
 30
0.0
 10
80.87361651623993
 20
-119.6207776936191
 30
0.0
 10
80.87361651623993
 20
-119.6207776936191
 30
0.0
 10
80.8035088231151
 20
-120.0438354192078
 30
0.0
 10
80.8035088231151
 20
-120.0438354192078
 30
0.0
 10
80.86913789210911
 20
-120.0099012286781
 30
0.0
 10
80.95733233653151
 20
-119.9697658662749
 30
0.0
 10
81.08393959561444
 20
-119.9697658662749
 30
0.0
 10
81.35524086507786
 20
-119.9697658662749
 30
0.0
 10
81.60845538324372
 20
-120.1559732772527
 30
0.0
 10
81.60845538324372
 20
-120.4689602020876
 30
0.0
 10
81.60845538324372
 20
-120.7864257510534
 30
0.0
 10
81.3688489922446
 20
-121.0212090083732
 30
0.0
 10
81.0455267809539
 20
-121.0212090083732
 30
0.0
  0
HATCH
  5
9F
330
9A
100
AcDbEntity
  8
_U+30EC_U+30A4_U+30E4_U+30FC 1
 62
   179
420
  2234388
100
AcDbHatch
 10
0.0
 20
0.0
 30
0.0
210
0.0
220
0.0
230
1.0
  2
SOLID
 70
     1
 71
     0
 91
        1
 92
        1
 93
        1
 72
     4
 94
        3
 73
     0
 74
     1
 95
       53
 96
       49
 40
0.0
 40
0.0
 40
0.0
 40
0.0
 40
1.0
 40
1.0
 40
1.0
 40
2.0
 40
2.0
 40
2.0
 40
3.0
 40
3.0
 40
3.0
 40
4.0
 40
4.0
 40
4.0
 40
5.0
 40
5.0
 40
5.0
 40
6.0
 40
6.0
 40
6.0
 40
7.0
 40
7.0
 40
7.0
 40
8.0
 40
8.0
 40
8.0
 40
9.0
 40
9.0
 40
9.0
 40
10.0
 40
10.0
 40
10.0
 40
11.0
 40
11.0
 40
11.0
 40
12.0
 40
12.0
 40
12.0
 40
13.0
 40
13.0
 40
13.0
 40
14.0
 40
14.0
 40
14.0
 40
15.0
 40
15.0
 40
15.0
 40
16.0
 40
16.0
 40
16.0
 40
16.0
 10
81.0455267809539
 20
-121.0212090083732
 10
80.96181096066233
 20
-121.0212090083732
 10
80.85329045287696
 20
-121.0041557857212
 10
80.74476994509159
 20
-120.9407660287926
 10
80.55942380798514
 20
-120.8306952280389
 10
80.53685843255676
 20
-120.6996093448251
 10
80.51636011441953
 20
-120.5917778561368
 10
80.51636011441953
 20
-120.5917778561368
 10
80.7538994481275
 20
-120.5917778561368
 10
80.7538994481275
 20
-120.5917778561368
 10
80.81263832615102
 20
-120.7905598656357
 10
80.94820283349559
 20
-120.8201876868089
 10
81.0477660930193
 20
-120.8201876868089
 10
81.19693872753064
 20
-120.8201876868089
 10
81.35971948920869
 20
-120.7207966820594
 10
81.35971948920869
 20
-120.4880804820308
 10
81.35971948920869
 20
-120.2321098874767
 10
81.16748316113174
 20
-120.1623467039004
 10
81.0386365899834
 20
-120.1623467039004
 10
81.00470239945369
 20
-120.1623467039004
 10
80.85329045287696
 20
-120.1623467039004
 10
80.75837807225832
 20
-120.291365529823
 10
80.75837807225832
 20
-120.291365529823
 10
80.5706203683122
 20
-120.2722452498799
 10
80.5706203683122
 20
-120.2722452498799
 10
80.5706203683122
 20
-120.2722452498799
 10
80.69946693946055
 20
-119.4261297987025
 10
80.69946693946055
 20
-119.4261297987025
 10
80.69946693946055
 20
-119.4261297987025
 10
81.53145749914839
 20
-119.4261297987025
 10
81.53145749914839
 20
-119.4261297987025
 10
81.53145749914839
 20
-119.4261297987025
 10
81.53145749914839
 20
-119.6207776936191
 10
81.53145749914839
 20
-119.6207776936191
 10
81.53145749914839
 20
-119.6207776936191
 10
80.87361651623993
 20
-119.6207776936191
 10
80.87361651623993
 20
-119.6207776936191
 10
80.87361651623993
 20
-119.6207776936191
 10
80.8035088231151
 20
-120.0438354192078
 10
80.8035088231151
 20
-120.0438354192078
 10
80.86913789210911
 20
-120.0099012286781
 10
80.95733233653151
 20
-119.9697658662749
 10
81.08393959561444
 20
-119.9697658662749
 10
81.35524086507786
 20
-119.9697658662749
 10
81.60845538324372
 20
-120.1559732772527
 10
81.60845538324372
 20
-120.4689602020876
 10
81.60845538324372
 20
-120.7864257510534
 10
81.3688489922446
 20
-121.0212090083732
 10
81.0455267809539
 20
-121.0212090083732
 97
        0
 97
        0
 75
     2
 76
     1
 98
        0
  0
POLYLINE
  5
A0
330
9A
100
AcDbEntity
  8
_U+30EC_U+30A4_U+30E4_U+30FC 1
370
     0
100
AcDb2dPolyline
 66
     1
 10
0.0
 20
0.0
 30
0.0
  0
VERTEX
  5
A1
330
A0
100
AcDbEntity
  8
_U+30EC_U+30A4_U+30E4_U+30FC 1
370
     0
100
AcDbVertex
100
AcDb2dVertex
 10
81.85340167224498
 20
-120.9703938499657
 30
0.0
  0
VERTEX
  5
A2
330
A0
100
AcDbEntity
  8
_U+30EC_U+30A4_U+30E4_U+30FC 1
370
     0
100
AcDbVertex
100
AcDb2dVertex
 10
81.85340167224498
 20
-120.7187296247682
 30
0.0
  0
VERTEX
  5
A3
330
A0
100
AcDbEntity
  8
_U+30EC_U+30A4_U+30E4_U+30FC 1
370
     0
100
AcDbVertex
100
AcDb2dVertex
 10
82.122463629643
 20
-120.7187296247682
 30
0.0
  0
VERTEX
  5
A4
330
A0
100
AcDbEntity
  8
_U+30EC_U+30A4_U+30E4_U+30FC 1
370
     0
100
AcDbVertex
100
AcDb2dVertex
 10
82.122463629643
 20
-120.9703938499657
 30
0.0
  0
VERTEX
  5
A5
330
A0
100
AcDbEntity
  8
_U+30EC_U+30A4_U+30E4_U+30FC 1
370
     0
100
AcDbVertex
100
AcDb2dVertex
 10
81.85340167224498
 20
-120.9703938499657
 30
0.0
  0
SEQEND
  5
A6
330
A0
100
AcDbEntity
  8
_U+30EC_U+30A4_U+30E4_U+30FC 1
370
     0
  0
HATCH
  5
A7
330
9A
100
AcDbEntity
  8
_U+30EC_U+30A4_U+30E4_U+30FC 1
 62
   179
420
  2234388
100
AcDbHatch
 10
0.0
 20
0.0
 30
0.0
210
0.0
220
0.0
230
1.0
  2
SOLID
 70
     1
 71
     0
 91
        1
 92
        1
 93
        4
 72
     1
 10
81.85340167224498
 20
-120.9703938499657
 11
81.85340167224498
 21
-120.7187296247682
 72
     1
 10
81.85340167224498
 20
-120.7187296247682
 11
82.122463629643
 21
-120.7187296247682
 72
     1
 10
82.122463629643
 20
-120.7187296247682
 11
82.122463629643
 21
-120.9703938499657
 72
     1
 10
82.122463629643
 20
-120.9703938499657
 11
81.85340167224498
 21
-120.9703938499657
 97
        0
 75
     2
 76
     1
 98
        0
  0
SPLINE
  5
A8
330
9A
100
AcDbEntity
  8
_U+30EC_U+30A4_U+30E4_U+30FC 1
370
     0
100
AcDbSpline
210
0.0
220
0.0
230
1.0
 70
    11
 71
     3
 72
    53
 73
    49
 74
     0
 42
0.0000000001
 43
0.0000000001
 12
1.0
 22
0.0
 32
0.0
 13
1.0
 23
0.0
 33
0.0
 40
0.0
 40
0.0
 40
0.0
 40
0.0
 40
1.0
 40
1.0
 40
1.0
 40
2.0
 40
2.0
 40
2.0
 40
3.0
 40
3.0
 40
3.0
 40
4.0
 40
4.0
 40
4.0
 40
5.0
 40
5.0
 40
5.0
 40
6.0
 40
6.0
 40
6.0
 40
7.0
 40
7.0
 40
7.0
 40
8.0
 40
8.0
 40
8.0
 40
9.0
 40
9.0
 40
9.0
 40
10.0
 40
10.0
 40
10.0
 40
11.0
 40
11.0
 40
11.0
 40
12.0
 40
12.0
 40
12.0
 40
13.0
 40
13.0
 40
13.0
 40
14.0
 40
14.0
 40
14.0
 40
15.0
 40
15.0
 40
15.0
 40
16.0
 40
16.0
 40
16.0
 40
16.0
 10
82.88916962988534
 20
-121.0212090083732
 30
0.0
 10
82.80545380959379
 20
-121.0212090083732
 30
0.0
 10
82.69693330180841
 20
-121.0041557857212
 30
0.0
 10
82.58841279402304
 20
-120.9407660287926
 30
0.0
 10
82.4030666569166
 20
-120.8306952280389
 30
0.0
 10
82.38032902671395
 20
-120.6996093448251
 30
0.0
 10
82.36000296335098
 20
-120.5917778561368
 30
0.0
 10
82.36000296335098
 20
-120.5917778561368
 30
0.0
 10
82.5973700422847
 20
-120.5917778561368
 30
0.0
 10
82.5973700422847
 20
-120.5917778561368
 30
0.0
 10
82.65628117508246
 20
-120.7905598656357
 30
0.0
 10
82.79184568242704
 20
-120.8201876868089
 30
0.0
 10
82.89140894195076
 20
-120.8201876868089
 30
0.0
 10
83.04058157646207
 20
-120.8201876868089
 30
0.0
 10
83.20336233814014
 20
-120.7207966820594
 30
0.0
 10
83.20336233814014
 20
-120.4880804820308
 30
0.0
 10
83.20336233814014
 20
-120.2321098874767
 30
0.0
 10
83.0111260100632
 20
-120.1623467039004
 30
0.0
 10
82.88227943891485
 20
-120.1623467039004
 30
0.0
 10
82.84834524838514
 20
-120.1623467039004
 30
0.0
 10
82.69693330180841
 20
-120.1623467039004
 30
0.0
 10
82.60202092118978
 20
-120.291365529823
 30
0.0
 10
82.60202092118978
 20
-120.291365529823
 30
0.0
 10
82.41426321724366
 20
-120.2722452498799
 30
0.0
 10
82.41426321724366
 20
-120.2722452498799
 30
0.0
 10
82.41426321724366
 20
-120.2722452498799
 30
0.0
 10
82.54328204316627
 20
-119.4261297987025
 30
0.0
 10
82.54328204316627
 20
-119.4261297987025
 30
0.0
 10
82.54328204316627
 20
-119.4261297987025
 30
0.0
 10
83.3752726028541
 20
-119.4261297987025
 30
0.0
 10
83.3752726028541
 20
-119.4261297987025
 30
0.0
 10
83.3752726028541
 20
-119.4261297987025
 30
0.0
 10
83.3752726028541
 20
-119.6207776936191
 30
0.0
 10
83.3752726028541
 20
-119.6207776936191
 30
0.0
 10
83.3752726028541
 20
-119.6207776936191
 30
0.0
 10
82.71725936517139
 20
-119.6207776936191
 30
0.0
 10
82.71725936517139
 20
-119.6207776936191
 30
0.0
 10
82.71725936517139
 20
-119.6207776936191
 30
0.0
 10
82.64715167204655
 20
-120.0438354192078
 30
0.0
 10
82.64715167204655
 20
-120.0438354192078
 30
0.0
 10
82.71278074104056
 20
-120.0099012286781
 30
0.0
 10
82.80097518546296
 20
-119.9697658662749
 30
0.0
 10
82.92758244454589
 20
-119.9697658662749
 30
0.0
 10
83.19888371400931
 20
-119.9697658662749
 30
0.0
 10
83.45209823217517
 20
-120.1559732772527
 30
0.0
 10
83.45209823217517
 20
-120.4689602020876
 30
0.0
 10
83.45209823217517
 20
-120.7864257510534
 30
0.0
 10
83.21231958640179
 20
-121.0212090083732
 30
0.0
 10
82.88916962988534
 20
-121.0212090083732
 30
0.0
  0
HATCH
  5
A9
330
9A
100
AcDbEntity
  8
_U+30EC_U+30A4_U+30E4_U+30FC 1
 62
   179
420
  2234388
100
AcDbHatch
 10
0.0
 20
0.0
 30
0.0
210
0.0
220
0.0
230
1.0
  2
SOLID
 70
     1
 71
     0
 91
        1
 92
        1
 93
        1
 72
     4
 94
        3
 73
     0
 74
     1
 95
       53
 96
       49
 40
0.0
 40
0.0
 40
0.0
 40
0.0
 40
1.0
 40
1.0
 40
1.0
 40
2.0
 40
2.0
 40
2.0
 40
3.0
 40
3.0
 40
3.0
 40
4.0
 40
4.0
 40
4.0
 40
5.0
 40
5.0
 40
5.0
 40
6.0
 40
6.0
 40
6.0
 40
7.0
 40
7.0
 40
7.0
 40
8.0
 40
8.0
 40
8.0
 40
9.0
 40
9.0
 40
9.0
 40
10.0
 40
10.0
 40
10.0
 40
11.0
 40
11.0
 40
11.0
 40
12.0
 40
12.0
 40
12.0
 40
13.0
 40
13.0
 40
13.0
 40
14.0
 40
14.0
 40
14.0
 40
15.0
 40
15.0
 40
15.0
 40
16.0
 40
16.0
 40
16.0
 40
16.0
 10
82.88916962988534
 20
-121.0212090083732
 10
82.80545380959379
 20
-121.0212090083732
 10
82.69693330180841
 20
-121.0041557857212
 10
82.58841279402304
 20
-120.9407660287926
 10
82.4030666569166
 20
-120.8306952280389
 10
82.38032902671395
 20
-120.6996093448251
 10
82.36000296335098
 20
-120.5917778561368
 10
82.36000296335098
 20
-120.5917778561368
 10
82.5973700422847
 20
-120.5917778561368
 10
82.5973700422847
 20
-120.5917778561368
 10
82.65628117508246
 20
-120.7905598656357
 10
82.79184568242704
 20
-120.8201876868089
 10
82.89140894195076
 20
-120.8201876868089
 10
83.04058157646207
 20
-120.8201876868089
 10
83.20336233814014
 20
-120.7207966820594
 10
83.20336233814014
 20
-120.4880804820308
 10
83.20336233814014
 20
-120.2321098874767
 10
83.0111260100632
 20
-120.1623467039004
 10
82.88227943891485
 20
-120.1623467039004
 10
82.84834524838514
 20
-120.1623467039004
 10
82.69693330180841
 20
-120.1623467039004
 10
82.60202092118978
 20
-120.291365529823
 10
82.60202092118978
 20
-120.291365529823
 10
82.41426321724366
 20
-120.2722452498799
 10
82.41426321724366
 20
-120.2722452498799
 10
82.41426321724366
 20
-120.2722452498799
 10
82.54328204316627
 20
-119.4261297987025
 10
82.54328204316627
 20
-119.4261297987025
 10
82.54328204316627
 20
-119.4261297987025
 10
83.3752726028541
 20
-119.4261297987025
 10
83.3752726028541
 20
-119.4261297987025
 10
83.3752726028541
 20
-119.4261297987025
 10
83.3752726028541
 20
-119.6207776936191
 10
83.3752726028541
 20
-119.6207776936191
 10
83.3752726028541
 20
-119.6207776936191
 10
82.71725936517139
 20
-119.6207776936191
 10
82.71725936517139
 20
-119.6207776936191
 10
82.71725936517139
 20
-119.6207776936191
 10
82.64715167204655
 20
-120.0438354192078
 10
82.64715167204655
 20
-120.0438354192078
 10
82.71278074104056
 20
-120.0099012286781
 10
82.80097518546296
 20
-119.9697658662749
 10
82.92758244454589
 20
-119.9697658662749
 10
83.19888371400931
 20
-119.9697658662749
 10
83.45209823217517
 20
-120.1559732772527
 10
83.45209823217517
 20
-120.4689602020876
 10
83.45209823217517
 20
-120.7864257510534
 10
83.21231958640179
 20
-121.0212090083732
 10
82.88916962988534
 20
-121.0212090083732
 97
        0
 97
        0
 75
     2
 76
     1
 98
        0
  0
ENDBLK
  5
9D
330
9A
100
AcDbEntity
  8
0
100
AcDbBlockEnd
  0
BLOCK
  5
B4
330
B2
100
AcDbEntity
  8
0
100
AcDbBlockBegin
  2
block 3
 70
     0
 10
0.0
 20
0.0
 30
0.0
  3
block 3
  1

  0
SPLINE
  5
B6
330
B2
100
AcDbEntity
  8
_U+30EC_U+30A4_U+30E4_U+30FC 1
370
     0
100
AcDbSpline
210
0.0
220
0.0
230
1.0
 70
    11
 71
     3
 72
    32
 73
    28
 74
     0
 42
0.0000000001
 43
0.0000000001
 12
1.0
 22
0.0
 32
0.0
 13
1.0
 23
0.0
 33
0.0
 40
0.0
 40
0.0
 40
0.0
 40
0.0
 40
1.0
 40
1.0
 40
1.0
 40
2.0
 40
2.0
 40
2.0
 40
3.0
 40
3.0
 40
3.0
 40
4.0
 40
4.0
 40
4.0
 40
5.0
 40
5.0
 40
5.0
 40
6.0
 40
6.0
 40
6.0
 40
7.0
 40
7.0
 40
7.0
 40
8.0
 40
8.0
 40
8.0
 40
9.0
 40
9.0
 40
9.0
 40
9.0
 10
89.19231632969846
 20
-121.0212090083732
 30
0.0
 10
89.00697019259201
 20
-121.0212090083732
 30
0.0
 10
88.7447984261645
 20
-120.9512735700226
 30
0.0
 10
88.70397404466429
 20
-120.6191663652445
 30
0.0
 10
88.70397404466429
 20
-120.6191663652445
 30
0.0
 10
88.93221162056209
 20
-120.6191663652445
 30
0.0
 10
88.93221162056209
 20
-120.6191663652445
 30
0.0
 10
88.94358043566342
 20
-120.6784220075908
 30
0.0
 10
88.97768688096738
 20
-120.8265611134566
 30
0.0
 10
89.19472789653813
 20
-120.8265611134566
 30
0.0
 10
89.50650903795324
 20
-120.8265611134566
 30
0.0
 10
89.54716116467918
 20
-120.4965209659696
 30
0.0
 10
89.56094154662019
 20
-120.291365529823
 30
0.0
 10
89.46378985393613
 20
-120.3716362546293
 30
0.0
 10
89.3914428487459
 20
-120.4288248396845
 30
0.0
 10
89.19679495382928
 20
-120.4288248396845
 30
0.0
 10
89.00455862575234
 20
-120.4288248396845
 30
0.0
 10
88.6814086692359
 20
-120.3230604082873
 30
0.0
 10
88.6814086692359
 20
-119.9168836505763
 30
0.0
 10
88.6814086692359
 20
-119.5973510443194
 30
0.0
 10
88.89397106067581
 20
-119.3773816975862
 30
0.0
 10
89.2329684564244
 20
-119.3773816975862
 30
0.0
 10
89.78246118632175
 20
-119.3773816975862
 30
0.0
 10
89.79383000142307
 20
-119.9316975611629
 30
0.0
 10
89.79383000142307
 20
-120.1452934812484
 30
0.0
 10
89.79383000142307
 20
-120.3759426239859
 30
0.0
 10
89.7735039380601
 20
-121.0212090083732
 30
0.0
 10
89.19231632969846
 20
-121.0212090083732
 30
0.0
  0
SPLINE
  5
B7
330
B2
100
AcDbEntity
  8
_U+30EC_U+30A4_U+30E4_U+30FC 1
370
     0
100
AcDbSpline
210
0.0
220
0.0
230
1.0
 70
    11
 71
     3
 72
    17
 73
    13
 74
     0
 42
0.0000000001
 43
0.0000000001
 12
1.0
 22
0.0
 32
0.0
 13
1.0
 23
0.0
 33
0.0
 40
0.0
 40
0.0
 40
0.0
 40
0.0
 40
1.0
 40
1.0
 40
1.0
 40
2.0
 40
2.0
 40
2.0
 40
3.0
 40
3.0
 40
3.0
 40
4.0
 40
4.0
 40
4.0
 40
4.0
 10
89.23538002326407
 20
-119.5699625352117
 30
0.0
 10
89.10860050940688
 20
-119.5699625352117
 30
0.0
 10
88.92118731500929
 20
-119.6269788654926
 30
0.0
 10
88.92118731500929
 20
-119.9125772812198
 30
0.0
 10
88.92118731500929
 20
-120.1389200546007
 30
0.0
 10
89.07035994952061
 20
-120.2341769447679
 30
0.0
 10
89.2150539599011
 20
-120.2341769447679
 30
0.0
 10
89.49514022285192
 20
-120.2341769447679
 30
0.0
 10
89.53613685912639
 20
-120.0247151392647
 30
0.0
 10
89.53613685912639
 20
-119.9084431666375
 30
0.0
 10
89.53613685912639
 20
-119.7327432968897
 30
0.0
 10
89.434162032763
 20
-119.5699625352117
 30
0.0
 10
89.23538002326407
 20
-119.5699625352117
 30
0.0
  0
HATCH
  5
B8
330
B2
100
AcDbEntity
  8
_U+30EC_U+30A4_U+30E4_U+30FC 1
 62
   179
420
  2234388
100
AcDbHatch
 10
0.0
 20
0.0
 30
0.0
210
0.0
220
0.0
230
1.0
  2
SOLID
 70
     1
 71
     0
 91
        2
 92
        1
 93
        1
 72
     4
 94
        3
 73
     0
 74
     1
 95
       32
 96
       28
 40
0.0
 40
0.0
 40
0.0
 40
0.0
 40
1.0
 40
1.0
 40
1.0
 40
2.0
 40
2.0
 40
2.0
 40
3.0
 40
3.0
 40
3.0
 40
4.0
 40
4.0
 40
4.0
 40
5.0
 40
5.0
 40
5.0
 40
6.0
 40
6.0
 40
6.0
 40
7.0
 40
7.0
 40
7.0
 40
8.0
 40
8.0
 40
8.0
 40
9.0
 40
9.0
 40
9.0
 40
9.0
 10
89.19231632969846
 20
-121.0212090083732
 10
89.00697019259201
 20
-121.0212090083732
 10
88.7447984261645
 20
-120.9512735700226
 10
88.70397404466429
 20
-120.6191663652445
 10
88.70397404466429
 20
-120.6191663652445
 10
88.93221162056209
 20
-120.6191663652445
 10
88.93221162056209
 20
-120.6191663652445
 10
88.94358043566342
 20
-120.6784220075908
 10
88.97768688096738
 20
-120.8265611134566
 10
89.19472789653813
 20
-120.8265611134566
 10
89.50650903795324
 20
-120.8265611134566
 10
89.54716116467918
 20
-120.4965209659696
 10
89.56094154662019
 20
-120.291365529823
 10
89.46378985393613
 20
-120.3716362546293
 10
89.3914428487459
 20
-120.4288248396845
 10
89.19679495382928
 20
-120.4288248396845
 10
89.00455862575234
 20
-120.4288248396845
 10
88.6814086692359
 20
-120.3230604082873
 10
88.6814086692359
 20
-119.9168836505763
 10
88.6814086692359
 20
-119.5973510443194
 10
88.89397106067581
 20
-119.3773816975862
 10
89.2329684564244
 20
-119.3773816975862
 10
89.78246118632175
 20
-119.3773816975862
 10
89.79383000142307
 20
-119.9316975611629
 10
89.79383000142307
 20
-120.1452934812484
 10
89.79383000142307
 20
-120.3759426239859
 10
89.7735039380601
 20
-121.0212090083732
 10
89.19231632969846
 20
-121.0212090083732
 97
        0
 97
        0
 92
        1
 93
        1
 72
     4
 94
        3
 73
     0
 74
     1
 95
       17
 96
       13
 40
0.0
 40
0.0
 40
0.0
 40
0.0
 40
1.0
 40
1.0
 40
1.0
 40
2.0
 40
2.0
 40
2.0
 40
3.0
 40
3.0
 40
3.0
 40
4.0
 40
4.0
 40
4.0
 40
4.0
 10
89.23538002326407
 20
-119.5699625352117
 10
89.10860050940688
 20
-119.5699625352117
 10
88.92118731500929
 20
-119.6269788654926
 10
88.92118731500929
 20
-119.9125772812198
 10
88.92118731500929
 20
-120.1389200546007
 10
89.07035994952061
 20
-120.2341769447679
 10
89.2150539599011
 20
-120.2341769447679
 10
89.49514022285192
 20
-120.2341769447679
 10
89.53613685912639
 20
-120.0247151392647
 10
89.53613685912639
 20
-119.9084431666375
 10
89.53613685912639
 20
-119.7327432968897
 10
89.434162032763
 20
-119.5699625352117
 10
89.23538002326407
 20
-119.5699625352117
 97
        0
 97
        0
 75
     2
 76
     1
 98
        0
  0
ENDBLK
  5
B5
330
B2
100
AcDbEntity
  8
0
100
AcDbBlockEnd
  0
BLOCK
  5
C3
330
C1
100
AcDbEntity
  8
0
100
AcDbBlockBegin
  2
block 4
 70
     0
 10
0.0
 20
0.0
 30
0.0
  3
block 4
  1

  0
SPLINE
  5
C5
330
C1
100
AcDbEntity
  8
_U+30EC_U+30A4_U+30E4_U+30FC 1
370
     0
100
AcDbSpline
210
0.0
220
0.0
230
1.0
 70
    11
 71
     3
 72
    53
 73
    49
 74
     0
 42
0.0000000001
 43
0.0000000001
 12
1.0
 22
0.0
 32
0.0
 13
1.0
 23
0.0
 33
0.0
 40
0.0
 40
0.0
 40
0.0
 40
0.0
 40
1.0
 40
1.0
 40
1.0
 40
2.0
 40
2.0
 40
2.0
 40
3.0
 40
3.0
 40
3.0
 40
4.0
 40
4.0
 40
4.0
 40
5.0
 40
5.0
 40
5.0
 40
6.0
 40
6.0
 40
6.0
 40
7.0
 40
7.0
 40
7.0
 40
8.0
 40
8.0
 40
8.0
 40
9.0
 40
9.0
 40
9.0
 40
10.0
 40
10.0
 40
10.0
 40
11.0
 40
11.0
 40
11.0
 40
12.0
 40
12.0
 40
12.0
 40
13.0
 40
13.0
 40
13.0
 40
14.0
 40
14.0
 40
14.0
 40
15.0
 40
15.0
 40
15.0
 40
16.0
 40
16.0
 40
16.0
 40
16.0
 10
95.54524465927342
 20
-121.0212090083732
 30
0.0
 10
95.46187334853037
 20
-121.0212090083732
 30
0.0
 10
95.35300833119648
 20
-121.0041557857212
 30
0.0
 10
95.24483233295963
 20
-120.9407660287926
 30
0.0
 10
95.05914168630467
 20
-120.8306952280389
 30
0.0
 10
95.03674856565054
 20
-120.6996093448251
 30
0.0
 10
95.01642250228757
 20
-120.5917778561368
 30
0.0
 10
95.01642250228757
 20
-120.5917778561368
 30
0.0
 10
95.25378958122128
 20
-120.5917778561368
 30
0.0
 10
95.25378958122128
 20
-120.5917778561368
 30
0.0
 10
95.31235620447053
 20
-120.7905598656357
 30
0.0
 10
95.44809296658937
 20
-120.8201876868089
 30
0.0
 10
95.54765622611309
 20
-120.8201876868089
 30
0.0
 10
95.69682886062441
 20
-120.8201876868089
 30
0.0
 10
95.8594373675282
 20
-120.7207966820594
 30
0.0
 10
95.8594373675282
 20
-120.4880804820308
 30
0.0
 10
95.8594373675282
 20
-120.2321098874767
 30
0.0
 10
95.66754554899978
 20
-120.1623467039004
 30
0.0
 10
95.53869897785144
 20
-120.1623467039004
 30
0.0
 10
95.50459253254746
 20
-120.1623467039004
 30
0.0
 10
95.35300833119648
 20
-120.1623467039004
 30
0.0
 10
95.25826820535211
 20
-120.291365529823
 30
0.0
 10
95.25826820535211
 20
-120.291365529823
 30
0.0
 10
95.07051050140599
 20
-120.2722452498799
 30
0.0
 10
95.07051050140599
 20
-120.2722452498799
 30
0.0
 10
95.07051050140599
 20
-120.2722452498799
 30
0.0
 10
95.19935707255433
 20
-119.4261297987025
 30
0.0
 10
95.19935707255433
 20
-119.4261297987025
 30
0.0
 10
95.19935707255433
 20
-119.4261297987025
 30
0.0
 10
96.03134763224217
 20
-119.4261297987025
 30
0.0
 10
96.03134763224217
 20
-119.4261297987025
 30
0.0
 10
96.03134763224217
 20
-119.4261297987025
 30
0.0
 10
96.03134763224217
 20
-119.6207776936191
 30
0.0
 10
96.03134763224217
 20
-119.6207776936191
 30
0.0
 10
96.03134763224217
 20
-119.6207776936191
 30
0.0
 10
95.37367890410798
 20
-119.6207776936191
 30
0.0
 10
95.37367890410798
 20
-119.6207776936191
 30
0.0
 10
95.37367890410798
 20
-119.6207776936191
 30
0.0
 10
95.30339895620888
 20
-120.0438354192078
 30
0.0
 10
95.30339895620888
 20
-120.0438354192078
 30
0.0
 10
95.36885577042862
 20
-120.0099012286781
 30
0.0
 10
95.45705021485102
 20
-119.9697658662749
 30
0.0
 10
95.58382972870821
 20
-119.9697658662749
 30
0.0
 10
95.85495874339738
 20
-119.9697658662749
 30
0.0
 10
96.10817326156324
 20
-120.1559732772527
 30
0.0
 10
96.10817326156324
 20
-120.4689602020876
 30
0.0
 10
96.10817326156324
 20
-120.7864257510534
 30
0.0
 10
95.86873912533838
 20
-121.0212090083732
 30
0.0
 10
95.54524465927342
 20
-121.0212090083732
 30
0.0
  0
HATCH
  5
C6
330
C1
100
AcDbEntity
  8
_U+30EC_U+30A4_U+30E4_U+30FC 1
 62
   179
420
  2234388
100
AcDbHatch
 10
0.0
 20
0.0
 30
0.0
210
0.0
220
0.0
230
1.0
  2
SOLID
 70
     1
 71
     0
 91
        1
 92
        1
 93
        1
 72
     4
 94
        3
 73
     0
 74
     1
 95
       53
 96
       49
 40
0.0
 40
0.0
 40
0.0
 40
0.0
 40
1.0
 40
1.0
 40
1.0
 40
2.0
 40
2.0
 40
2.0
 40
3.0
 40
3.0
 40
3.0
 40
4.0
 40
4.0
 40
4.0
 40
5.0
 40
5.0
 40
5.0
 40
6.0
 40
6.0
 40
6.0
 40
7.0
 40
7.0
 40
7.0
 40
8.0
 40
8.0
 40
8.0
 40
9.0
 40
9.0
 40
9.0
 40
10.0
 40
10.0
 40
10.0
 40
11.0
 40
11.0
 40
11.0
 40
12.0
 40
12.0
 40
12.0
 40
13.0
 40
13.0
 40
13.0
 40
14.0
 40
14.0
 40
14.0
 40
15.0
 40
15.0
 40
15.0
 40
16.0
 40
16.0
 40
16.0
 40
16.0
 10
95.54524465927342
 20
-121.0212090083732
 10
95.46187334853037
 20
-121.0212090083732
 10
95.35300833119648
 20
-121.0041557857212
 10
95.24483233295963
 20
-120.9407660287926
 10
95.05914168630467
 20
-120.8306952280389
 10
95.03674856565054
 20
-120.6996093448251
 10
95.01642250228757
 20
-120.5917778561368
 10
95.01642250228757
 20
-120.5917778561368
 10
95.25378958122128
 20
-120.5917778561368
 10
95.25378958122128
 20
-120.5917778561368
 10
95.31235620447053
 20
-120.7905598656357
 10
95.44809296658937
 20
-120.8201876868089
 10
95.54765622611309
 20
-120.8201876868089
 10
95.69682886062441
 20
-120.8201876868089
 10
95.8594373675282
 20
-120.7207966820594
 10
95.8594373675282
 20
-120.4880804820308
 10
95.8594373675282
 20
-120.2321098874767
 10
95.66754554899978
 20
-120.1623467039004
 10
95.53869897785144
 20
-120.1623467039004
 10
95.50459253254746
 20
-120.1623467039004
 10
95.35300833119648
 20
-120.1623467039004
 10
95.25826820535211
 20
-120.291365529823
 10
95.25826820535211
 20
-120.291365529823
 10
95.07051050140599
 20
-120.2722452498799
 10
95.07051050140599
 20
-120.2722452498799
 10
95.07051050140599
 20
-120.2722452498799
 10
95.19935707255433
 20
-119.4261297987025
 10
95.19935707255433
 20
-119.4261297987025
 10
95.19935707255433
 20
-119.4261297987025
 10
96.03134763224217
 20
-119.4261297987025
 10
96.03134763224217
 20
-119.4261297987025
 10
96.03134763224217
 20
-119.4261297987025
 10
96.03134763224217
 20
-119.6207776936191
 10
96.03134763224217
 20
-119.6207776936191
 10
96.03134763224217
 20
-119.6207776936191
 10
95.37367890410798
 20
-119.6207776936191
 10
95.37367890410798
 20
-119.6207776936191
 10
95.37367890410798
 20
-119.6207776936191
 10
95.30339895620888
 20
-120.0438354192078
 10
95.30339895620888
 20
-120.0438354192078
 10
95.36885577042862
 20
-120.0099012286781
 10
95.45705021485102
 20
-119.9697658662749
 10
95.58382972870821
 20
-119.9697658662749
 10
95.85495874339738
 20
-119.9697658662749
 10
96.10817326156324
 20
-120.1559732772527
 10
96.10817326156324
 20
-120.4689602020876
 10
96.10817326156324
 20
-120.7864257510534
 10
95.86873912533838
 20
-121.0212090083732
 10
95.54524465927342
 20
-121.0212090083732
 97
        0
 97
        0
 75
     2
 76
     1
 98
        0
  0
POLYLINE
  5
C7
330
C1
100
AcDbEntity
  8
_U+30EC_U+30A4_U+30E4_U+30FC 1
370
     0
100
AcDb2dPolyline
 66
     1
 10
0.0
 20
0.0
 30
0.0
  0
VERTEX
  5
C8
330
C7
100
AcDbEntity
  8
_U+30EC_U+30A4_U+30E4_U+30FC 1
370
     0
100
AcDbVertex
100
AcDb2dVertex
 10
96.3531195505645
 20
-120.9703938499657
 30
0.0
  0
VERTEX
  5
C9
330
C7
100
AcDbEntity
  8
_U+30EC_U+30A4_U+30E4_U+30FC 1
370
     0
100
AcDbVertex
100
AcDb2dVertex
 10
96.3531195505645
 20
-120.7187296247682
 30
0.0
  0
VERTEX
  5
CA
330
C7
100
AcDbEntity
  8
_U+30EC_U+30A4_U+30E4_U+30FC 1
370
     0
100
AcDbVertex
100
AcDb2dVertex
 10
96.62218150796251
 20
-120.7187296247682
 30
0.0
  0
VERTEX
  5
CB
330
C7
100
AcDbEntity
  8
_U+30EC_U+30A4_U+30E4_U+30FC 1
370
     0
100
AcDbVertex
100
AcDb2dVertex
 10
96.62218150796251
 20
-120.9703938499657
 30
0.0
  0
VERTEX
  5
CC
330
C7
100
AcDbEntity
  8
_U+30EC_U+30A4_U+30E4_U+30FC 1
370
     0
100
AcDbVertex
100
AcDb2dVertex
 10
96.3531195505645
 20
-120.9703938499657
 30
0.0
  0
SEQEND
  5
CD
330
C7
100
AcDbEntity
  8
_U+30EC_U+30A4_U+30E4_U+30FC 1
370
     0
  0
HATCH
  5
CE
330
C1
100
AcDbEntity
  8
_U+30EC_U+30A4_U+30E4_U+30FC 1
 62
   179
420
  2234388
100
AcDbHatch
 10
0.0
 20
0.0
 30
0.0
210
0.0
220
0.0
230
1.0
  2
SOLID
 70
     1
 71
     0
 91
        1
 92
        1
 93
        4
 72
     1
 10
96.3531195505645
 20
-120.9703938499657
 11
96.3531195505645
 21
-120.7187296247682
 72
     1
 10
96.3531195505645
 20
-120.7187296247682
 11
96.62218150796251
 21
-120.7187296247682
 72
     1
 10
96.62218150796251
 20
-120.7187296247682
 11
96.62218150796251
 21
-120.9703938499657
 72
     1
 10
96.62218150796251
 20
-120.9703938499657
 11
96.3531195505645
 21
-120.9703938499657
 97
        0
 75
     2
 76
     1
 98
        0
  0
SPLINE
  5
CF
330
C1
100
AcDbEntity
  8
_U+30EC_U+30A4_U+30E4_U+30FC 1
370
     0
100
AcDbSpline
210
0.0
220
0.0
230
1.0
 70
    11
 71
     3
 72
    53
 73
    49
 74
     0
 42
0.0000000001
 43
0.0000000001
 12
1.0
 22
0.0
 32
0.0
 13
1.0
 23
0.0
 33
0.0
 40
0.0
 40
0.0
 40
0.0
 40
0.0
 40
1.0
 40
1.0
 40
1.0
 40
2.0
 40
2.0
 40
2.0
 40
3.0
 40
3.0
 40
3.0
 40
4.0
 40
4.0
 40
4.0
 40
5.0
 40
5.0
 40
5.0
 40
6.0
 40
6.0
 40
6.0
 40
7.0
 40
7.0
 40
7.0
 40
8.0
 40
8.0
 40
8.0
 40
9.0
 40
9.0
 40
9.0
 40
10.0
 40
10.0
 40
10.0
 40
11.0
 40
11.0
 40
11.0
 40
12.0
 40
12.0
 40
12.0
 40
13.0
 40
13.0
 40
13.0
 40
14.0
 40
14.0
 40
14.0
 40
15.0
 40
15.0
 40
15.0
 40
16.0
 40
16.0
 40
16.0
 40
16.0
 10
97.38905976297913
 20
-121.0212090083732
 30
0.0
 10
97.30568845223608
 20
-121.0212090083732
 30
0.0
 10
97.19682343490219
 20
-121.0041557857212
 30
0.0
 10
97.08864743666534
 20
-120.9407660287926
 30
0.0
 10
96.90295679001038
 20
-120.8306952280389
 30
0.0
 10
96.88056366935625
 20
-120.6996093448251
 30
0.0
 10
96.86023760599328
 20
-120.5917778561368
 30
0.0
 10
96.86023760599328
 20
-120.5917778561368
 30
0.0
 10
97.09760468492699
 20
-120.5917778561368
 30
0.0
 10
97.09760468492699
 20
-120.5917778561368
 30
0.0
 10
97.15617130817624
 20
-120.7905598656357
 30
0.0
 10
97.29190807029508
 20
-120.8201876868089
 30
0.0
 10
97.3914713298188
 20
-120.8201876868089
 30
0.0
 10
97.54064396433012
 20
-120.8201876868089
 30
0.0
 10
97.70325247123391
 20
-120.7207966820594
 30
0.0
 10
97.70325247123391
 20
-120.4880804820308
 30
0.0
 10
97.70325247123391
 20
-120.2321098874767
 30
0.0
 10
97.51136065270549
 20
-120.1623467039004
 30
0.0
 10
97.38251408155715
 20
-120.1623467039004
 30
0.0
 10
97.34840763625319
 20
-120.1623467039004
 30
0.0
 10
97.19682343490219
 20
-120.1623467039004
 30
0.0
 10
97.10208330905782
 20
-120.291365529823
 30
0.0
 10
97.10208330905782
 20
-120.291365529823
 30
0.0
 10
96.9143256051117
 20
-120.2722452498799
 30
0.0
 10
96.9143256051117
 20
-120.2722452498799
 30
0.0
 10
96.9143256051117
 20
-120.2722452498799
 30
0.0
 10
97.04317217626004
 20
-119.4261297987025
 30
0.0
 10
97.04317217626004
 20
-119.4261297987025
 30
0.0
 10
97.04317217626004
 20
-119.4261297987025
 30
0.0
 10
97.87516273594788
 20
-119.4261297987025
 30
0.0
 10
97.87516273594788
 20
-119.4261297987025
 30
0.0
 10
97.87516273594788
 20
-119.4261297987025
 30
0.0
 10
97.87516273594788
 20
-119.6207776936191
 30
0.0
 10
97.87516273594788
 20
-119.6207776936191
 30
0.0
 10
97.87516273594788
 20
-119.6207776936191
 30
0.0
 10
97.21749400781368
 20
-119.6207776936191
 30
0.0
 10
97.21749400781368
 20
-119.6207776936191
 30
0.0
 10
97.21749400781368
 20
-119.6207776936191
 30
0.0
 10
97.14721405991459
 20
-120.0438354192078
 30
0.0
 10
97.14721405991459
 20
-120.0438354192078
 30
0.0
 10
97.21267087413433
 20
-120.0099012286781
 30
0.0
 10
97.30086531855673
 20
-119.9697658662749
 30
0.0
 10
97.42764483241393
 20
-119.9697658662749
 30
0.0
 10
97.69877384710308
 20
-119.9697658662749
 30
0.0
 10
97.95198836526895
 20
-120.1559732772527
 30
0.0
 10
97.95198836526895
 20
-120.4689602020876
 30
0.0
 10
97.95198836526895
 20
-120.7864257510534
 30
0.0
 10
97.71255422904409
 20
-121.0212090083732
 30
0.0
 10
97.38905976297913
 20
-121.0212090083732
 30
0.0
  0
HATCH
  5
D0
330
C1
100
AcDbEntity
  8
_U+30EC_U+30A4_U+30E4_U+30FC 1
 62
   179
420
  2234388
100
AcDbHatch
 10
0.0
 20
0.0
 30
0.0
210
0.0
220
0.0
230
1.0
  2
SOLID
 70
     1
 71
     0
 91
        1
 92
        1
 93
        1
 72
     4
 94
        3
 73
     0
 74
     1
 95
       53
 96
       49
 40
0.0
 40
0.0
 40
0.0
 40
0.0
 40
1.0
 40
1.0
 40
1.0
 40
2.0
 40
2.0
 40
2.0
 40
3.0
 40
3.0
 40
3.0
 40
4.0
 40
4.0
 40
4.0
 40
5.0
 40
5.0
 40
5.0
 40
6.0
 40
6.0
 40
6.0
 40
7.0
 40
7.0
 40
7.0
 40
8.0
 40
8.0
 40
8.0
 40
9.0
 40
9.0
 40
9.0
 40
10.0
 40
10.0
 40
10.0
 40
11.0
 40
11.0
 40
11.0
 40
12.0
 40
12.0
 40
12.0
 40
13.0
 40
13.0
 40
13.0
 40
14.0
 40
14.0
 40
14.0
 40
15.0
 40
15.0
 40
15.0
 40
16.0
 40
16.0
 40
16.0
 40
16.0
 10
97.38905976297913
 20
-121.0212090083732
 10
97.30568845223608
 20
-121.0212090083732
 10
97.19682343490219
 20
-121.0041557857212
 10
97.08864743666534
 20
-120.9407660287926
 10
96.90295679001038
 20
-120.8306952280389
 10
96.88056366935625
 20
-120.6996093448251
 10
96.86023760599328
 20
-120.5917778561368
 10
96.86023760599328
 20
-120.5917778561368
 10
97.09760468492699
 20
-120.5917778561368
 10
97.09760468492699
 20
-120.5917778561368
 10
97.15617130817624
 20
-120.7905598656357
 10
97.29190807029508
 20
-120.8201876868089
 10
97.3914713298188
 20
-120.8201876868089
 10
97.54064396433012
 20
-120.8201876868089
 10
97.70325247123391
 20
-120.7207966820594
 10
97.70325247123391
 20
-120.4880804820308
 10
97.70325247123391
 20
-120.2321098874767
 10
97.51136065270549
 20
-120.1623467039004
 10
97.38251408155715
 20
-120.1623467039004
 10
97.34840763625319
 20
-120.1623467039004
 10
97.19682343490219
 20
-120.1623467039004
 10
97.10208330905782
 20
-120.291365529823
 10
97.10208330905782
 20
-120.291365529823
 10
96.9143256051117
 20
-120.2722452498799
 10
96.9143256051117
 20
-120.2722452498799
 10
96.9143256051117
 20
-120.2722452498799
 10
97.04317217626004
 20
-119.4261297987025
 10
97.04317217626004
 20
-119.4261297987025
 10
97.04317217626004
 20
-119.4261297987025
 10
97.87516273594788
 20
-119.4261297987025
 10
97.87516273594788
 20
-119.4261297987025
 10
97.87516273594788
 20
-119.4261297987025
 10
97.87516273594788
 20
-119.6207776936191
 10
97.87516273594788
 20
-119.6207776936191
 10
97.87516273594788
 20
-119.6207776936191
 10
97.21749400781368
 20
-119.6207776936191
 10
97.21749400781368
 20
-119.6207776936191
 10
97.21749400781368
 20
-119.6207776936191
 10
97.14721405991459
 20
-120.0438354192078
 10
97.14721405991459
 20
-120.0438354192078
 10
97.21267087413433
 20
-120.0099012286781
 10
97.30086531855673
 20
-119.9697658662749
 10
97.42764483241393
 20
-119.9697658662749
 10
97.69877384710308
 20
-119.9697658662749
 10
97.95198836526895
 20
-120.1559732772527
 10
97.95198836526895
 20
-120.4689602020876
 10
97.95198836526895
 20
-120.7864257510534
 10
97.71255422904409
 20
-121.0212090083732
 10
97.38905976297913
 20
-121.0212090083732
 97
        0
 97
        0
 75
     2
 76
     1
 98
        0
  0
ENDBLK
  5
C4
330
C1
100
AcDbEntity
  8
0
100
AcDbBlockEnd
  0
BLOCK
  5
E3
330
E1
100
AcDbEntity
  8
0
100
AcDbBlockBegin
  2
block 5
 70
     0
 10
0.0
 20
0.0
 30
0.0
  3
block 5
  1

  0
SPLINE
  5
E5
330
E1
100
AcDbEntity
  8
_U+30EC_U+30A4_U+30E4_U+30FC 1
370
     0
100
AcDbSpline
210
0.0
220
0.0
230
1.0
 70
    11
 71
     3
 72
    62
 73
    58
 74
     0
 42
0.0000000001
 43
0.0000000001
 12
1.0
 22
0.0
 32
0.0
 13
1.0
 23
0.0
 33
0.0
 40
0.0
 40
0.0
 40
0.0
 40
0.0
 40
1.0
 40
1.0
 40
1.0
 40
2.0
 40
2.0
 40
2.0
 40
3.0
 40
3.0
 40
3.0
 40
4.0
 40
4.0
 40
4.0
 40
5.0
 40
5.0
 40
5.0
 40
6.0
 40
6.0
 40
6.0
 40
7.0
 40
7.0
 40
7.0
 40
8.0
 40
8.0
 40
8.0
 40
9.0
 40
9.0
 40
9.0
 40
10.0
 40
10.0
 40
10.0
 40
11.0
 40
11.0
 40
11.0
 40
12.0
 40
12.0
 40
12.0
 40
13.0
 40
13.0
 40
13.0
 40
14.0
 40
14.0
 40
14.0
 40
15.0
 40
15.0
 40
15.0
 40
16.0
 40
16.0
 40
16.0
 40
17.0
 40
17.0
 40
17.0
 40
18.0
 40
18.0
 40
18.0
 40
19.0
 40
19.0
 40
19.0
 40
19.0
 10
102.6424858684366
 20
-122.6257622306283
 30
0.0
 10
102.6424858684366
 20
-122.7273925474432
 30
0.0
 10
102.6214707859766
 20
-122.960281002246
 30
0.0
 10
102.4354356297731
 20
-123.0936061975252
 30
0.0
 10
102.323125516954
 20
-123.172843393686
 30
0.0
 10
102.2239067669787
 20
-123.1773220178168
 30
0.0
 10
102.1391574180416
 20
-123.1818006419476
 30
0.0
 10
102.1391574180416
 20
-123.1818006419476
 30
0.0
 10
102.1391574180416
 20
-122.9468451298536
 30
0.0
 10
102.1391574180416
 20
-122.9468451298536
 30
0.0
 10
102.2132269709745
 20
-122.9444335630139
 30
0.0
 10
102.44783797352
 20
-122.9330647479126
 30
0.0
 10
102.44783797352
 20
-122.6302408547591
 30
0.0
 10
102.44783797352
 20
-122.4831352775389
 30
0.0
 10
102.3782470447179
 20
-122.3205267706352
 30
0.0
 10
102.1498372140459
 20
-122.3205267706352
 30
0.0
 10
102.0333929866444
 20
-122.3205267706352
 30
0.0
 10
101.9848171403024
 20
-122.3611788973611
 30
0.0
 10
101.9531222618381
 20
-122.3952853426651
 30
0.0
 10
101.8790527089052
 20
-122.4741780292773
 30
0.0
 10
101.8663058556098
 20
-122.5985459762948
 30
0.0
 10
101.8663058556098
 20
-122.6574571090926
 30
0.0
 10
101.8663058556098
 20
-122.6777831724556
 30
0.0
 10
101.868372912901
 20
-122.7160237323418
 30
0.0
 10
101.8725070274833
 20
-122.745651553515
 30
0.0
 10
101.8725070274833
 20
-122.745651553515
 30
0.0
 10
101.6778591325667
 20
-122.745651553515
 30
0.0
 10
101.6778591325667
 20
-122.745651553515
 30
0.0
 10
101.6844048139886
 20
-122.704999426789
 30
0.0
 10
101.6864718712798
 20
-122.6595241663837
 30
0.0
 10
101.6864718712798
 20
-122.6529784849618
 30
0.0
 10
101.6864718712798
 20
-122.5826985370627
 30
0.0
 10
101.6651122792712
 20
-122.3701361456228
 30
0.0
 10
101.4284342194346
 20
-122.3701361456228
 30
0.0
 10
101.2506672923957
 20
-122.3701361456228
 30
0.0
 10
101.1955457646317
 20
-122.5103515318724
 30
0.0
 10
101.1955457646317
 20
-122.6278292879194
 30
0.0
 10
101.1955457646317
 20
-122.9106716272585
 30
0.0
 10
101.4284342194346
 20
-122.9196288755201
 30
0.0
 10
101.5000922055278
 20
-122.9241074996509
 30
0.0
 10
101.5000922055278
 20
-122.9241074996509
 30
0.0
 10
101.5000922055278
 20
-123.1411485152217
 30
0.0
 10
101.5000922055278
 20
-123.1411485152217
 30
0.0
 10
101.3753797489617
 20
-123.13219126696
 30
0.0
 10
100.9988308124239
 20
-123.1029079553354
 30
0.0
 10
100.9988308124239
 20
-122.614393415527
 30
0.0
 10
100.9988308124239
 20
-122.3746147697536
 30
0.0
 10
101.1259548358296
 20
-122.1169216274569
 30
0.0
 10
101.4218885380126
 20
-122.1169216274569
 30
0.0
 10
101.6082682037646
 20
-122.1169216274569
 30
0.0
 10
101.6906059858621
 20
-122.2188964538203
 30
0.0
 10
101.7519286854995
 20
-122.325005394766
 30
0.0
 10
101.7794894493815
 20
-122.2595485805462
 30
0.0
 10
101.8597601741878
 20
-122.0649006856296
 30
0.0
 10
102.1370903607504
 20
-122.0649006856296
 30
0.0
 10
102.475398737402
 20
-122.0649006856296
 30
0.0
 10
102.6424858684366
 20
-122.3294840188968
 30
0.0
 10
102.6424858684366
 20
-122.6257622306283
 30
0.0
  0
HATCH
  5
E6
330
E1
100
AcDbEntity
  8
_U+30EC_U+30A4_U+30E4_U+30FC 1
 62
   179
420
  2234388
100
AcDbHatch
 10
0.0
 20
0.0
 30
0.0
210
0.0
220
0.0
230
1.0
  2
SOLID
 70
     1
 71
     0
 91
        1
 92
        1
 93
        1
 72
     4
 94
        3
 73
     0
 74
     1
 95
       62
 96
       58
 40
0.0
 40
0.0
 40
0.0
 40
0.0
 40
1.0
 40
1.0
 40
1.0
 40
2.0
 40
2.0
 40
2.0
 40
3.0
 40
3.0
 40
3.0
 40
4.0
 40
4.0
 40
4.0
 40
5.0
 40
5.0
 40
5.0
 40
6.0
 40
6.0
 40
6.0
 40
7.0
 40
7.0
 40
7.0
 40
8.0
 40
8.0
 40
8.0
 40
9.0
 40
9.0
 40
9.0
 40
10.0
 40
10.0
 40
10.0
 40
11.0
 40
11.0
 40
11.0
 40
12.0
 40
12.0
 40
12.0
 40
13.0
 40
13.0
 40
13.0
 40
14.0
 40
14.0
 40
14.0
 40
15.0
 40
15.0
 40
15.0
 40
16.0
 40
16.0
 40
16.0
 40
17.0
 40
17.0
 40
17.0
 40
18.0
 40
18.0
 40
18.0
 40
19.0
 40
19.0
 40
19.0
 40
19.0
 10
102.6424858684366
 20
-122.6257622306283
 10
102.6424858684366
 20
-122.7273925474432
 10
102.6214707859766
 20
-122.960281002246
 10
102.4354356297731
 20
-123.0936061975252
 10
102.323125516954
 20
-123.172843393686
 10
102.2239067669787
 20
-123.1773220178168
 10
102.1391574180416
 20
-123.1818006419476
 10
102.1391574180416
 20
-123.1818006419476
 10
102.1391574180416
 20
-122.9468451298536
 10
102.1391574180416
 20
-122.9468451298536
 10
102.2132269709745
 20
-122.9444335630139
 10
102.44783797352
 20
-122.9330647479126
 10
102.44783797352
 20
-122.6302408547591
 10
102.44783797352
 20
-122.4831352775389
 10
102.3782470447179
 20
-122.3205267706352
 10
102.1498372140459
 20
-122.3205267706352
 10
102.0333929866444
 20
-122.3205267706352
 10
101.9848171403024
 20
-122.3611788973611
 10
101.9531222618381
 20
-122.3952853426651
 10
101.8790527089052
 20
-122.4741780292773
 10
101.8663058556098
 20
-122.5985459762948
 10
101.8663058556098
 20
-122.6574571090926
 10
101.8663058556098
 20
-122.6777831724556
 10
101.868372912901
 20
-122.7160237323418
 10
101.8725070274833
 20
-122.745651553515
 10
101.8725070274833
 20
-122.745651553515
 10
101.6778591325667
 20
-122.745651553515
 10
101.6778591325667
 20
-122.745651553515
 10
101.6844048139886
 20
-122.704999426789
 10
101.6864718712798
 20
-122.6595241663837
 10
101.6864718712798
 20
-122.6529784849618
 10
101.6864718712798
 20
-122.5826985370627
 10
101.6651122792712
 20
-122.3701361456228
 10
101.4284342194346
 20
-122.3701361456228
 10
101.2506672923957
 20
-122.3701361456228
 10
101.1955457646317
 20
-122.5103515318724
 10
101.1955457646317
 20
-122.6278292879194
 10
101.1955457646317
 20
-122.9106716272585
 10
101.4284342194346
 20
-122.9196288755201
 10
101.5000922055278
 20
-122.9241074996509
 10
101.5000922055278
 20
-122.9241074996509
 10
101.5000922055278
 20
-123.1411485152217
 10
101.5000922055278
 20
-123.1411485152217
 10
101.3753797489617
 20
-123.13219126696
 10
100.9988308124239
 20
-123.1029079553354
 10
100.9988308124239
 20
-122.614393415527
 10
100.9988308124239
 20
-122.3746147697536
 10
101.1259548358296
 20
-122.1169216274569
 10
101.4218885380126
 20
-122.1169216274569
 10
101.6082682037646
 20
-122.1169216274569
 10
101.6906059858621
 20
-122.2188964538203
 10
101.7519286854995
 20
-122.325005394766
 10
101.7794894493815
 20
-122.2595485805462
 10
101.8597601741878
 20
-122.0649006856296
 10
102.1370903607504
 20
-122.0649006856296
 10
102.475398737402
 20
-122.0649006856296
 10
102.6424858684366
 20
-122.3294840188968
 10
102.6424858684366
 20
-122.6257622306283
 97
        0
 97
        0
 75
     2
 76
     1
 98
        0
  0
ENDBLK
  5
E4
330
E1
100
AcDbEntity
  8
0
100
AcDbBlockEnd
  0
BLOCK
  5
F9
330
F7
100
AcDbEntity
  8
0
100
AcDbBlockBegin
  2
block 6
 70
     0
 10
0.0
 20
0.0
 30
0.0
  3
block 6
  1

  0
SPLINE
  5
FB
330
F7
100
AcDbEntity
  8
_U+30EC_U+30A4_U+30E4_U+30FC 1
370
     0
100
AcDbSpline
210
0.0
220
0.0
230
1.0
 70
    11
 71
     3
 72
    62
 73
    58
 74
     0
 42
0.0000000001
 43
0.0000000001
 12
1.0
 22
0.0
 32
0.0
 13
1.0
 23
0.0
 33
0.0
 40
0.0
 40
0.0
 40
0.0
 40
0.0
 40
1.0
 40
1.0
 40
1.0
 40
2.0
 40
2.0
 40
2.0
 40
3.0
 40
3.0
 40
3.0
 40
4.0
 40
4.0
 40
4.0
 40
5.0
 40
5.0
 40
5.0
 40
6.0
 40
6.0
 40
6.0
 40
7.0
 40
7.0
 40
7.0
 40
8.0
 40
8.0
 40
8.0
 40
9.0
 40
9.0
 40
9.0
 40
10.0
 40
10.0
 40
10.0
 40
11.0
 40
11.0
 40
11.0
 40
12.0
 40
12.0
 40
12.0
 40
13.0
 40
13.0
 40
13.0
 40
14.0
 40
14.0
 40
14.0
 40
15.0
 40
15.0
 40
15.0
 40
16.0
 40
16.0
 40
16.0
 40
17.0
 40
17.0
 40
17.0
 40
18.0
 40
18.0
 40
18.0
 40
19.0
 40
19.0
 40
19.0
 40
19.0
 10
102.6424858684366
 20
-135.7477864243964
 30
0.0
 10
102.6424858684366
 20
-135.8494167412113
 30
0.0
 10
102.6214707859766
 20
-136.0823051960141
 30
0.0
 10
102.4354356297731
 20
-136.2156303912933
 30
0.0
 10
102.323125516954
 20
-136.2948675874541
 30
0.0
 10
102.2239067669787
 20
-136.2993462115849
 30
0.0
 10
102.1391574180416
 20
-136.3038248357157
 30
0.0
 10
102.1391574180416
 20
-136.3038248357157
 30
0.0
 10
102.1391574180416
 20
-136.0688693236217
 30
0.0
 10
102.1391574180416
 20
-136.0688693236217
 30
0.0
 10
102.2132269709745
 20
-136.066457756782
 30
0.0
 10
102.44783797352
 20
-136.0550889416807
 30
0.0
 10
102.44783797352
 20
-135.7522650485272
 30
0.0
 10
102.44783797352
 20
-135.605159471307
 30
0.0
 10
102.3782470447179
 20
-135.4425509644033
 30
0.0
 10
102.1498372140459
 20
-135.4425509644033
 30
0.0
 10
102.0333929866444
 20
-135.4425509644033
 30
0.0
 10
101.9848171403024
 20
-135.4832030911292
 30
0.0
 10
101.9531222618381
 20
-135.5169650268847
 30
0.0
 10
101.8790527089052
 20
-135.5962022230454
 30
0.0
 10
101.8663058556098
 20
-135.7205701700629
 30
0.0
 10
101.8663058556098
 20
-135.7794813028607
 30
0.0
 10
101.8663058556098
 20
-135.7998073662237
 30
0.0
 10
101.868372912901
 20
-135.8380479261099
 30
0.0
 10
101.8725070274833
 20
-135.8676757472831
 30
0.0
 10
101.8725070274833
 20
-135.8676757472831
 30
0.0
 10
101.6778591325667
 20
-135.8676757472831
 30
0.0
 10
101.6778591325667
 20
-135.8676757472831
 30
0.0
 10
101.6844048139886
 20
-135.8270236205571
 30
0.0
 10
101.6864718712798
 20
-135.7815483601518
 30
0.0
 10
101.6864718712798
 20
-135.7750026787299
 30
0.0
 10
101.6864718712798
 20
-135.7047227308308
 30
0.0
 10
101.6651122792712
 20
-135.4921603393909
 30
0.0
 10
101.4284342194346
 20
-135.4921603393909
 30
0.0
 10
101.2506672923957
 20
-135.4921603393909
 30
0.0
 10
101.1955457646317
 20
-135.6323757256405
 30
0.0
 10
101.1955457646317
 20
-135.7498534816876
 30
0.0
 10
101.1955457646317
 20
-136.0326958210266
 30
0.0
 10
101.4284342194346
 20
-136.0416530692882
 30
0.0
 10
101.5000922055278
 20
-136.046131693419
 30
0.0
 10
101.5000922055278
 20
-136.046131693419
 30
0.0
 10
101.5000922055278
 20
-136.2631727089898
 30
0.0
 10
101.5000922055278
 20
-136.2631727089898
 30
0.0
 10
101.3753797489617
 20
-136.2542154607281
 30
0.0
 10
100.9988308124239
 20
-136.2249321491035
 30
0.0
 10
100.9988308124239
 20
-135.7364176092951
 30
0.0
 10
100.9988308124239
 20
-135.4966389635217
 30
0.0
 10
101.1259548358296
 20
-135.238945821225
 30
0.0
 10
101.4218885380126
 20
-135.238945821225
 30
0.0
 10
101.6082682037646
 20
-135.238945821225
 30
0.0
 10
101.6906059858621
 20
-135.3409206475884
 30
0.0
 10
101.7519286854995
 20
-135.4470295885341
 30
0.0
 10
101.7794894493815
 20
-135.3815727743143
 30
0.0
 10
101.8597601741878
 20
-135.1869248793977
 30
0.0
 10
102.1370903607504
 20
-135.1869248793977
 30
0.0
 10
102.475398737402
 20
-135.1869248793977
 30
0.0
 10
102.6424858684366
 20
-135.4515082126649
 30
0.0
 10
102.6424858684366
 20
-135.7477864243964
 30
0.0
  0
HATCH
  5
FC
330
F7
100
AcDbEntity
  8
_U+30EC_U+30A4_U+30E4_U+30FC 1
 62
   179
420
  2234388
100
AcDbHatch
 10
0.0
 20
0.0
 30
0.0
210
0.0
220
0.0
230
1.0
  2
SOLID
 70
     1
 71
     0
 91
        1
 92
        1
 93
        1
 72
     4
 94
        3
 73
     0
 74
     1
 95
       62
 96
       58
 40
0.0
 40
0.0
 40
0.0
 40
0.0
 40
1.0
 40
1.0
 40
1.0
 40
2.0
 40
2.0
 40
2.0
 40
3.0
 40
3.0
 40
3.0
 40
4.0
 40
4.0
 40
4.0
 40
5.0
 40
5.0
 40
5.0
 40
6.0
 40
6.0
 40
6.0
 40
7.0
 40
7.0
 40
7.0
 40
8.0
 40
8.0
 40
8.0
 40
9.0
 40
9.0
 40
9.0
 40
10.0
 40
10.0
 40
10.0
 40
11.0
 40
11.0
 40
11.0
 40
12.0
 40
12.0
 40
12.0
 40
13.0
 40
13.0
 40
13.0
 40
14.0
 40
14.0
 40
14.0
 40
15.0
 40
15.0
 40
15.0
 40
16.0
 40
16.0
 40
16.0
 40
17.0
 40
17.0
 40
17.0
 40
18.0
 40
18.0
 40
18.0
 40
19.0
 40
19.0
 40
19.0
 40
19.0
 10
102.6424858684366
 20
-135.7477864243964
 10
102.6424858684366
 20
-135.8494167412113
 10
102.6214707859766
 20
-136.0823051960141
 10
102.4354356297731
 20
-136.2156303912933
 10
102.323125516954
 20
-136.2948675874541
 10
102.2239067669787
 20
-136.2993462115849
 10
102.1391574180416
 20
-136.3038248357157
 10
102.1391574180416
 20
-136.3038248357157
 10
102.1391574180416
 20
-136.0688693236217
 10
102.1391574180416
 20
-136.0688693236217
 10
102.2132269709745
 20
-136.066457756782
 10
102.44783797352
 20
-136.0550889416807
 10
102.44783797352
 20
-135.7522650485272
 10
102.44783797352
 20
-135.605159471307
 10
102.3782470447179
 20
-135.4425509644033
 10
102.1498372140459
 20
-135.4425509644033
 10
102.0333929866444
 20
-135.4425509644033
 10
101.9848171403024
 20
-135.4832030911292
 10
101.9531222618381
 20
-135.5169650268847
 10
101.8790527089052
 20
-135.5962022230454
 10
101.8663058556098
 20
-135.7205701700629
 10
101.8663058556098
 20
-135.7794813028607
 10
101.8663058556098
 20
-135.7998073662237
 10
101.868372912901
 20
-135.8380479261099
 10
101.8725070274833
 20
-135.8676757472831
 10
101.8725070274833
 20
-135.8676757472831
 10
101.6778591325667
 20
-135.8676757472831
 10
101.6778591325667
 20
-135.8676757472831
 10
101.6844048139886
 20
-135.8270236205571
 10
101.6864718712798
 20
-135.7815483601518
 10
101.6864718712798
 20
-135.7750026787299
 10
101.6864718712798
 20
-135.7047227308308
 10
101.6651122792712
 20
-135.4921603393909
 10
101.4284342194346
 20
-135.4921603393909
 10
101.2506672923957
 20
-135.4921603393909
 10
101.1955457646317
 20
-135.6323757256405
 10
101.1955457646317
 20
-135.7498534816876
 10
101.1955457646317
 20
-136.0326958210266
 10
101.4284342194346
 20
-136.0416530692882
 10
101.5000922055278
 20
-136.046131693419
 10
101.5000922055278
 20
-136.046131693419
 10
101.5000922055278
 20
-136.2631727089898
 10
101.5000922055278
 20
-136.2631727089898
 10
101.3753797489617
 20
-136.2542154607281
 10
100.9988308124239
 20
-136.2249321491035
 10
100.9988308124239
 20
-135.7364176092951
 10
100.9988308124239
 20
-135.4966389635217
 10
101.1259548358296
 20
-135.238945821225
 10
101.4218885380126
 20
-135.238945821225
 10
101.6082682037646
 20
-135.238945821225
 10
101.6906059858621
 20
-135.3409206475884
 10
101.7519286854995
 20
-135.4470295885341
 10
101.7794894493815
 20
-135.3815727743143
 10
101.8597601741878
 20
-135.1869248793977
 10
102.1370903607504
 20
-135.1869248793977
 10
102.475398737402
 20
-135.1869248793977
 10
102.6424858684366
 20
-135.4515082126649
 10
102.6424858684366
 20
-135.7477864243964
 97
        0
 97
        0
 75
     2
 76
     1
 98
        0
  0
POLYLINE
  5
FD
330
F7
100
AcDbEntity
  8
_U+30EC_U+30A4_U+30E4_U+30FC 1
370
     0
100
AcDb2dPolyline
 66
     1
 10
0.0
 20
0.0
 30
0.0
  0
VERTEX
  5
FE
330
FD
100
AcDbEntity
  8
_U+30EC_U+30A4_U+30E4_U+30FC 1
370
     0
100
AcDbVertex
100
AcDb2dVertex
 10
102.5918429648034
 20
-134.9512803482066
 30
0.0
  0
VERTEX
  5
FF
330
FD
100
AcDbEntity
  8
_U+30EC_U+30A4_U+30E4_U+30FC 1
370
     0
100
AcDbVertex
100
AcDb2dVertex
 10
102.3400064848317
 20
-134.9512803482066
 30
0.0
  0
VERTEX
  5
100
330
FD
100
AcDbEntity
  8
_U+30EC_U+30A4_U+30E4_U+30FC 1
370
     0
100
AcDbVertex
100
AcDb2dVertex
 10
102.3400064848317
 20
-134.6822183908086
 30
0.0
  0
VERTEX
  5
101
330
FD
100
AcDbEntity
  8
_U+30EC_U+30A4_U+30E4_U+30FC 1
370
     0
100
AcDbVertex
100
AcDb2dVertex
 10
102.5918429648034
 20
-134.6822183908086
 30
0.0
  0
VERTEX
  5
102
330
FD
100
AcDbEntity
  8
_U+30EC_U+30A4_U+30E4_U+30FC 1
370
     0
100
AcDbVertex
100
AcDb2dVertex
 10
102.5918429648034
 20
-134.9512803482066
 30
0.0
  0
SEQEND
  5
103
330
FD
100
AcDbEntity
  8
_U+30EC_U+30A4_U+30E4_U+30FC 1
370
     0
  0
HATCH
  5
104
330
F7
100
AcDbEntity
  8
_U+30EC_U+30A4_U+30E4_U+30FC 1
 62
   179
420
  2234388
100
AcDbHatch
 10
0.0
 20
0.0
 30
0.0
210
0.0
220
0.0
230
1.0
  2
SOLID
 70
     1
 71
     0
 91
        1
 92
        1
 93
        4
 72
     1
 10
102.5918429648034
 20
-134.9512803482066
 11
102.3400064848317
 21
-134.9512803482066
 72
     1
 10
102.3400064848317
 20
-134.9512803482066
 11
102.3400064848317
 21
-134.6822183908086
 72
     1
 10
102.3400064848317
 20
-134.6822183908086
 11
102.5918429648034
 21
-134.6822183908086
 72
     1
 10
102.5918429648034
 20
-134.6822183908086
 11
102.5918429648034
 21
-134.9512803482066
 97
        0
 75
     2
 76
     1
 98
        0
  0
SPLINE
  5
105
330
F7
100
AcDbEntity
  8
_U+30EC_U+30A4_U+30E4_U+30FC 1
370
     0
100
AcDbSpline
210
0.0
220
0.0
230
1.0
 70
    11
 71
     3
 72
    44
 73
    40
 74
     0
 42
0.0000000001
 43
0.0000000001
 12
1.0
 22
0.0
 32
0.0
 13
1.0
 23
0.0
 33
0.0
 40
0.0
 40
0.0
 40
0.0
 40
0.0
 40
1.0
 40
1.0
 40
1.0
 40
2.0
 40
2.0
 40
2.0
 40
3.0
 40
3.0
 40
3.0
 40
4.0
 40
4.0
 40
4.0
 40
5.0
 40
5.0
 40
5.0
 40
6.0
 40
6.0
 40
6.0
 40
7.0
 40
7.0
 40
7.0
 40
8.0
 40
8.0
 40
8.0
 40
9.0
 40
9.0
 40
9.0
 40
10.0
 40
10.0
 40
10.0
 40
11.0
 40
11.0
 40
11.0
 40
12.0
 40
12.0
 40
12.0
 40
13.0
 40
13.0
 40
13.0
 40
13.0
 10
102.0099663373447
 20
-133.7954508129053
 30
0.0
 10
102.1687852392148
 20
-134.0283392677082
 30
0.0
 10
102.2428547921476
 20
-134.1279025272319
 30
0.0
 10
102.3865152738825
 20
-134.1795789595107
 30
0.0
 10
102.3865152738825
 20
-134.1795789595107
 30
0.0
 10
102.3865152738825
 20
-133.3479329093714
 30
0.0
 10
102.3865152738825
 20
-133.3479329093714
 30
0.0
 10
102.3865152738825
 20
-133.3479329093714
 30
0.0
 10
102.5918429648034
 20
-133.3479329093714
 30
0.0
 10
102.5918429648034
 20
-133.3479329093714
 30
0.0
 10
102.5918429648034
 20
-133.3479329093714
 30
0.0
 10
102.5918429648034
 20
-134.4465738596175
 30
0.0
 10
102.5918429648034
 20
-134.4465738596175
 30
0.0
 10
102.2342420534345
 20
-134.4124674143136
 30
0.0
 10
102.1560383859193
 20
-134.342531975963
 30
0.0
 10
101.8576931168967
 20
-133.9311875750242
 30
0.0
 10
101.6589111073978
 20
-133.6576469934953
 30
0.0
 10
101.5910427263384
 20
-133.5873670455962
 30
0.0
 10
101.4535834164769
 20
-133.5873670455962
 30
0.0
 10
101.3350721317843
 20
-133.5873670455962
 30
0.0
 10
101.2041585033448
 20
-133.6641926749173
 30
0.0
 10
101.2041585033448
 20
-133.8746880090661
 30
0.0
 10
101.2041585033448
 20
-134.1527072147257
 30
0.0
 10
101.434635391308
 20
-134.1616644629874
 30
0.0
 10
101.5510796187095
 20
-134.1661430871182
 30
0.0
 10
101.5510796187095
 20
-134.1661430871182
 30
0.0
 10
101.5510796187095
 20
-134.4059217328916
 30
0.0
 10
101.5510796187095
 20
-134.4059217328916
 30
0.0
 10
101.4239555953037
 20
-134.3966199750814
 30
0.0
 10
101.3119899920331
 20
-134.3855956695286
 30
0.0
 10
101.1934787073405
 20
-134.2994682823974
 30
0.0
 10
101.0325927481794
 20
-134.1819905263503
 30
0.0
 10
100.9988308124239
 20
-133.9832085168514
 30
0.0
 10
100.9988308124239
 20
-133.8588405698339
 30
0.0
 10
100.9988308124239
 20
-133.5625623581024
 30
0.0
 10
101.1827989113362
 20
-133.3410427184008
 30
0.0
 10
101.455650473768
 20
-133.3410427184008
 30
0.0
 10
101.6844048139886
 20
-133.3410427184008
 30
0.0
 10
101.7836235639638
 20
-133.4654106654184
 30
0.0
 10
102.0099663373447
 20
-133.7954508129053
 30
0.0
  0
HATCH
  5
106
330
F7
100
AcDbEntity
  8
_U+30EC_U+30A4_U+30E4_U+30FC 1
 62
   179
420
  2234388
100
AcDbHatch
 10
0.0
 20
0.0
 30
0.0
210
0.0
220
0.0
230
1.0
  2
SOLID
 70
     1
 71
     0
 91
        1
 92
        1
 93
        1
 72
     4
 94
        3
 73
     0
 74
     1
 95
       44
 96
       40
 40
0.0
 40
0.0
 40
0.0
 40
0.0
 40
1.0
 40
1.0
 40
1.0
 40
2.0
 40
2.0
 40
2.0
 40
3.0
 40
3.0
 40
3.0
 40
4.0
 40
4.0
 40
4.0
 40
5.0
 40
5.0
 40
5.0
 40
6.0
 40
6.0
 40
6.0
 40
7.0
 40
7.0
 40
7.0
 40
8.0
 40
8.0
 40
8.0
 40
9.0
 40
9.0
 40
9.0
 40
10.0
 40
10.0
 40
10.0
 40
11.0
 40
11.0
 40
11.0
 40
12.0
 40
12.0
 40
12.0
 40
13.0
 40
13.0
 40
13.0
 40
13.0
 10
102.0099663373447
 20
-133.7954508129053
 10
102.1687852392148
 20
-134.0283392677082
 10
102.2428547921476
 20
-134.1279025272319
 10
102.3865152738825
 20
-134.1795789595107
 10
102.3865152738825
 20
-134.1795789595107
 10
102.3865152738825
 20
-133.3479329093714
 10
102.3865152738825
 20
-133.3479329093714
 10
102.3865152738825
 20
-133.3479329093714
 10
102.5918429648034
 20
-133.3479329093714
 10
102.5918429648034
 20
-133.3479329093714
 10
102.5918429648034
 20
-133.3479329093714
 10
102.5918429648034
 20
-134.4465738596175
 10
102.5918429648034
 20
-134.4465738596175
 10
102.2342420534345
 20
-134.4124674143136
 10
102.1560383859193
 20
-134.342531975963
 10
101.8576931168967
 20
-133.9311875750242
 10
101.6589111073978
 20
-133.6576469934953
 10
101.5910427263384
 20
-133.5873670455962
 10
101.4535834164769
 20
-133.5873670455962
 10
101.3350721317843
 20
-133.5873670455962
 10
101.2041585033448
 20
-133.6641926749173
 10
101.2041585033448
 20
-133.8746880090661
 10
101.2041585033448
 20
-134.1527072147257
 10
101.434635391308
 20
-134.1616644629874
 10
101.5510796187095
 20
-134.1661430871182
 10
101.5510796187095
 20
-134.1661430871182
 10
101.5510796187095
 20
-134.4059217328916
 10
101.5510796187095
 20
-134.4059217328916
 10
101.4239555953037
 20
-134.3966199750814
 10
101.3119899920331
 20
-134.3855956695286
 10
101.1934787073405
 20
-134.2994682823974
 10
101.0325927481794
 20
-134.1819905263503
 10
100.9988308124239
 20
-133.9832085168514
 10
100.9988308124239
 20
-133.8588405698339
 10
100.9988308124239
 20
-133.5625623581024
 10
101.1827989113362
 20
-133.3410427184008
 10
101.455650473768
 20
-133.3410427184008
 10
101.6844048139886
 20
-133.3410427184008
 10
101.7836235639638
 20
-133.4654106654184
 10
102.0099663373447
 20
-133.7954508129053
 97
        0
 97
        0
 75
     2
 76
     1
 98
        0
  0
ENDBLK
  5
FA
330
F7
100
AcDbEntity
  8
0
100
AcDbBlockEnd
  0
BLOCK
  5
113
330
111
100
AcDbEntity
  8
0
100
AcDbBlockBegin
  2
block 7
 70
     0
 10
0.0
 20
0.0
 30
0.0
  3
block 7
  1

  0
SPLINE
  5
115
330
111
100
AcDbEntity
  8
_U+30EC_U+30A4_U+30E4_U+30FC 1
370
     0
100
AcDbSpline
210
0.0
220
0.0
230
1.0
 70
    11
 71
     3
 72
    26
 73
    22
 74
     0
 42
0.0000000001
 43
0.0000000001
 12
1.0
 22
0.0
 32
0.0
 13
1.0
 23
0.0
 33
0.0
 40
0.0
 40
0.0
 40
0.0
 40
0.0
 40
1.0
 40
1.0
 40
1.0
 40
2.0
 40
2.0
 40
2.0
 40
3.0
 40
3.0
 40
3.0
 40
4.0
 40
4.0
 40
4.0
 40
5.0
 40
5.0
 40
5.0
 40
6.0
 40
6.0
 40
6.0
 40
7.0
 40
7.0
 40
7.0
 40
7.0
 10
87.18003605676402
 20
-129.0043565215684
 30
0.0
 10
87.18003605676402
 20
-129.0043565215684
 30
0.0
 10
87.18003605676402
 20
-127.9000311637715
 30
0.0
 10
87.18003605676402
 20
-127.9000311637715
 30
0.0
 10
87.18003605676402
 20
-127.9000311637715
 30
0.0
 10
86.8274305338487
 20
-127.9000311637715
 30
0.0
 10
86.8274305338487
 20
-127.9000311637715
 30
0.0
 10
86.8274305338487
 20
-127.9000311637715
 30
0.0
 10
86.8274305338487
 20
-127.75206431268
 30
0.0
 10
86.8274305338487
 20
-127.75206431268
 30
0.0
 10
87.1824476236037
 20
-127.7372504020935
 30
0.0
 10
87.23205699859129
 20
-127.5742973856412
 30
0.0
 10
87.2637518770556
 20
-127.4600924703051
 30
0.0
 10
87.2637518770556
 20
-127.4600924703051
 30
0.0
 10
87.41981470253741
 20
-127.4600924703051
 30
0.0
 10
87.41981470253741
 20
-127.4600924703051
 30
0.0
 10
87.41981470253741
 20
-127.4600924703051
 30
0.0
 10
87.41981470253741
 20
-129.0043565215684
 30
0.0
 10
87.41981470253741
 20
-129.0043565215684
 30
0.0
 10
87.41981470253741
 20
-129.0043565215684
 30
0.0
 10
87.18003605676402
 20
-129.0043565215684
 30
0.0
 10
87.18003605676402
 20
-129.0043565215684
 30
0.0
  0
HATCH
  5
116
330
111
100
AcDbEntity
  8
_U+30EC_U+30A4_U+30E4_U+30FC 1
 62
   179
420
  2234388
100
AcDbHatch
 10
0.0
 20
0.0
 30
0.0
210
0.0
220
0.0
230
1.0
  2
SOLID
 70
     1
 71
     0
 91
        1
 92
        1
 93
        1
 72
     4
 94
        3
 73
     0
 74
     1
 95
       26
 96
       22
 40
0.0
 40
0.0
 40
0.0
 40
0.0
 40
1.0
 40
1.0
 40
1.0
 40
2.0
 40
2.0
 40
2.0
 40
3.0
 40
3.0
 40
3.0
 40
4.0
 40
4.0
 40
4.0
 40
5.0
 40
5.0
 40
5.0
 40
6.0
 40
6.0
 40
6.0
 40
7.0
 40
7.0
 40
7.0
 40
7.0
 10
87.18003605676402
 20
-129.0043565215684
 10
87.18003605676402
 20
-129.0043565215684
 10
87.18003605676402
 20
-127.9000311637715
 10
87.18003605676402
 20
-127.9000311637715
 10
87.18003605676402
 20
-127.9000311637715
 10
86.8274305338487
 20
-127.9000311637715
 10
86.8274305338487
 20
-127.9000311637715
 10
86.8274305338487
 20
-127.9000311637715
 10
86.8274305338487
 20
-127.75206431268
 10
86.8274305338487
 20
-127.75206431268
 10
87.1824476236037
 20
-127.7372504020935
 10
87.23205699859129
 20
-127.5742973856412
 10
87.2637518770556
 20
-127.4600924703051
 10
87.2637518770556
 20
-127.4600924703051
 10
87.41981470253741
 20
-127.4600924703051
 10
87.41981470253741
 20
-127.4600924703051
 10
87.41981470253741
 20
-127.4600924703051
 10
87.41981470253741
 20
-129.0043565215684
 10
87.41981470253741
 20
-129.0043565215684
 10
87.41981470253741
 20
-129.0043565215684
 10
87.18003605676402
 20
-129.0043565215684
 10
87.18003605676402
 20
-129.0043565215684
 97
        0
 97
        0
 75
     2
 76
     1
 98
        0
  0
ENDBLK
  5
114
330
111
100
AcDbEntity
  8
0
100
AcDbBlockEnd
  0
ENDSEC
  0
SECTION
  2
ENTITIES
  0
SPLINE
  5
41
330
1F
100
AcDbEntity
  8
_U+30EC_U+30A4_U+30E4_U+30FC 1
370
     0
100
AcDbSpline
210
0.0
220
0.0
230
1.0
 70
    11
 71
     3
 72
    71
 73
    67
 74
     0
 42
0.0000000001
 43
0.0000000001
 12
1.0
 22
0.0
 32
0.0
 13
1.0
 23
0.0
 33
0.0
 40
0.0
 40
0.0
 40
0.0
 40
0.0
 40
1.0
 40
1.0
 40
1.0
 40
2.0
 40
2.0
 40
2.0
 40
3.0
 40
3.0
 40
3.0
 40
4.0
 40
4.0
 40
4.0
 40
5.0
 40
5.0
 40
5.0
 40
6.0
 40
6.0
 40
6.0
 40
7.0
 40
7.0
 40
7.0
 40
8.0
 40
8.0
 40
8.0
 40
9.0
 40
9.0
 40
9.0
 40
10.0
 40
10.0
 40
10.0
 40
11.0
 40
11.0
 40
11.0
 40
12.0
 40
12.0
 40
12.0
 40
13.0
 40
13.0
 40
13.0
 40
14.0
 40
14.0
 40
14.0
 40
15.0
 40
15.0
 40
15.0
 40
16.0
 40
16.0
 40
16.0
 40
17.0
 40
17.0
 40
17.0
 40
18.0
 40
18.0
 40
18.0
 40
19.0
 40
19.0
 40
19.0
 40
20.0
 40
20.0
 40
20.0
 40
21.0
 40
21.0
 40
21.0
 40
22.0
 40
22.0
 40
22.0
 40
22.0
 10
98.23827221595509
 20
-125.6164408019291
 30
0.0
 10
98.23827221595509
 20
-125.6164408019291
 30
0.0
 10
94.23784287357012
 20
-125.6164408019291
 30
0.0
 10
94.23784287357012
 20
-125.6164408019291
 30
0.0
 10
93.96154732506344
 20
-125.6164408019291
 30
0.0
 10
93.73827427520405
 20
-125.8396785796512
 30
0.0
 10
93.73827427520405
 20
-126.1159741351376
 30
0.0
 10
93.73827427520405
 20
-126.3922696906241
 30
0.0
 10
93.96154732506344
 20
-126.6162130239014
 30
0.0
 10
94.23784287357012
 20
-126.6162130239014
 30
0.0
 10
94.23784287357012
 20
-126.6162130239014
 30
0.0
 10
94.23784287357012
 20
-130.816491078407
 30
0.0
 10
94.23784287357012
 20
-130.816491078407
 30
0.0
 10
94.23784287357012
 20
-130.816491078407
 30
0.0
 10
84.23793368424461
 20
-130.816491078407
 30
0.0
 10
84.23793368424461
 20
-130.816491078407
 30
0.0
 10
84.23793368424461
 20
-130.816491078407
 30
0.0
 10
84.23793368424461
 20
-126.6162130239014
 30
0.0
 10
84.23793368424461
 20
-126.6162130239014
 30
0.0
 10
84.51422923275128
 20
-126.6162130239014
 30
0.0
 10
84.73813728259445
 20
-126.3922696906241
 30
0.0
 10
84.73813728259445
 20
-126.1159741351376
 30
0.0
 10
84.73813728259445
 20
-125.8396785796512
 30
0.0
 10
84.51422923275128
 20
-125.6164408019291
 30
0.0
 10
84.23793368424461
 20
-125.6164408019291
 30
0.0
 10
84.23793368424461
 20
-125.6164408019291
 30
0.0
 10
80.23782184185151
 20
-125.6164408019291
 30
0.0
 10
80.23782184185151
 20
-125.6164408019291
 30
0.0
 10
79.68590102259886
 20
-125.6164408019291
 30
0.0
 10
79.2380496451356
 20
-126.0636219129285
 30
0.0
 10
79.2380496451356
 20
-126.6162130239014
 30
0.0
 10
79.2380496451356
 20
-126.6162130239014
 30
0.0
 10
79.2380496451356
 20
-128.6164277456238
 30
0.0
 10
79.2380496451356
 20
-128.6164277456238
 30
0.0
 10
79.2380496451356
 20
-128.6164277456238
 30
0.0
 10
80.73806071797824
 20
-128.6164277456238
 30
0.0
 10
80.73806071797824
 20
-128.6164277456238
 30
0.0
 10
80.73806071797824
 20
-128.6164277456238
 30
0.0
 10
80.73806071797824
 20
-126.6162130239014
 30
0.0
 10
80.73806071797824
 20
-126.6162130239014
 30
0.0
 10
80.73806071797824
 20
-126.6162130239014
 30
0.0
 10
83.2381614875287
 20
-126.6162130239014
 30
0.0
 10
83.2381614875287
 20
-126.6162130239014
 30
0.0
 10
83.2381614875287
 20
-126.6162130239014
 30
0.0
 10
83.2381614875287
 20
-131.8162280226014
 30
0.0
 10
83.2381614875287
 20
-131.8162280226014
 30
0.0
 10
83.2381614875287
 20
-131.8162280226014
 30
0.0
 10
95.2382853480467
 20
-131.8162280226014
 30
0.0
 10
95.2382853480467
 20
-131.8162280226014
 30
0.0
 10
95.2382853480467
 20
-131.8162280226014
 30
0.0
 10
95.2382853480467
 20
-126.6162130239014
 30
0.0
 10
95.2382853480467
 20
-126.6162130239014
 30
0.0
 10
95.2382853480467
 20
-126.6162130239014
 30
0.0
 10
97.73803333982836
 20
-126.6162130239014
 30
0.0
 10
97.73803333982836
 20
-126.6162130239014
 30
0.0
 10
97.73803333982836
 20
-126.6162130239014
 30
0.0
 10
97.73803333982836
 20
-128.6164277456238
 30
0.0
 10
97.73803333982836
 20
-128.6164277456238
 30
0.0
 10
97.73803333982836
 20
-128.6164277456238
 30
0.0
 10
99.238044412671
 20
-128.6164277456238
 30
0.0
 10
99.238044412671
 20
-128.6164277456238
 30
0.0
 10
99.238044412671
 20
-128.6164277456238
 30
0.0
 10
99.238044412671
 20
-126.6162130239014
 30
0.0
 10
99.238044412671
 20
-126.6162130239014
 30
0.0
 10
99.238044412671
 20
-126.0636219129285
 30
0.0
 10
98.79019303520776
 20
-125.6164408019291
 30
0.0
 10
98.23827221595509
 20
-125.6164408019291
 30
0.0
  0
HATCH
  5
42
330
1F
100
AcDbEntity
  8
_U+30EC_U+30A4_U+30E4_U+30FC 1
 62
   253
420
 11711154
100
AcDbHatch
 10
0.0
 20
0.0
 30
0.0
210
0.0
220
0.0
230
1.0
  2
SOLID
 70
     1
 71
     0
 91
        1
 92
        1
 93
        1
 72
     4
 94
        3
 73
     0
 74
     1
 95
       71
 96
       67
 40
0.0
 40
0.0
 40
0.0
 40
0.0
 40
1.0
 40
1.0
 40
1.0
 40
2.0
 40
2.0
 40
2.0
 40
3.0
 40
3.0
 40
3.0
 40
4.0
 40
4.0
 40
4.0
 40
5.0
 40
5.0
 40
5.0
 40
6.0
 40
6.0
 40
6.0
 40
7.0
 40
7.0
 40
7.0
 40
8.0
 40
8.0
 40
8.0
 40
9.0
 40
9.0
 40
9.0
 40
10.0
 40
10.0
 40
10.0
 40
11.0
 40
11.0
 40
11.0
 40
12.0
 40
12.0
 40
12.0
 40
13.0
 40
13.0
 40
13.0
 40
14.0
 40
14.0
 40
14.0
 40
15.0
 40
15.0
 40
15.0
 40
16.0
 40
16.0
 40
16.0
 40
17.0
 40
17.0
 40
17.0
 40
18.0
 40
18.0
 40
18.0
 40
19.0
 40
19.0
 40
19.0
 40
20.0
 40
20.0
 40
20.0
 40
21.0
 40
21.0
 40
21.0
 40
22.0
 40
22.0
 40
22.0
 40
22.0
 10
98.23827221595509
 20
-125.6164408019291
 10
98.23827221595509
 20
-125.6164408019291
 10
94.23784287357012
 20
-125.6164408019291
 10
94.23784287357012
 20
-125.6164408019291
 10
93.96154732506344
 20
-125.6164408019291
 10
93.73827427520405
 20
-125.8396785796512
 10
93.73827427520405
 20
-126.1159741351376
 10
93.73827427520405
 20
-126.3922696906241
 10
93.96154732506344
 20
-126.6162130239014
 10
94.23784287357012
 20
-126.6162130239014
 10
94.23784287357012
 20
-126.6162130239014
 10
94.23784287357012
 20
-130.816491078407
 10
94.23784287357012
 20
-130.816491078407
 10
94.23784287357012
 20
-130.816491078407
 10
84.23793368424461
 20
-130.816491078407
 10
84.23793368424461
 20
-130.816491078407
 10
84.23793368424461
 20
-130.816491078407
 10
84.23793368424461
 20
-126.6162130239014
 10
84.23793368424461
 20
-126.6162130239014
 10
84.51422923275128
 20
-126.6162130239014
 10
84.73813728259445
 20
-126.3922696906241
 10
84.73813728259445
 20
-126.1159741351376
 10
84.73813728259445
 20
-125.8396785796512
 10
84.51422923275128
 20
-125.6164408019291
 10
84.23793368424461
 20
-125.6164408019291
 10
84.23793368424461
 20
-125.6164408019291
 10
80.23782184185151
 20
-125.6164408019291
 10
80.23782184185151
 20
-125.6164408019291
 10
79.68590102259886
 20
-125.6164408019291
 10
79.2380496451356
 20
-126.0636219129285
 10
79.2380496451356
 20
-126.6162130239014
 10
79.2380496451356
 20
-126.6162130239014
 10
79.2380496451356
 20
-128.6164277456238
 10
79.2380496451356
 20
-128.6164277456238
 10
79.2380496451356
 20
-128.6164277456238
 10
80.73806071797824
 20
-128.6164277456238
 10
80.73806071797824
 20
-128.6164277456238
 10
80.73806071797824
 20
-128.6164277456238
 10
80.73806071797824
 20
-126.6162130239014
 10
80.73806071797824
 20
-126.6162130239014
 10
80.73806071797824
 20
-126.6162130239014
 10
83.2381614875287
 20
-126.6162130239014
 10
83.2381614875287
 20
-126.6162130239014
 10
83.2381614875287
 20
-126.6162130239014
 10
83.2381614875287
 20
-131.8162280226014
 10
83.2381614875287
 20
-131.8162280226014
 10
83.2381614875287
 20
-131.8162280226014
 10
95.2382853480467
 20
-131.8162280226014
 10
95.2382853480467
 20
-131.8162280226014
 10
95.2382853480467
 20
-131.8162280226014
 10
95.2382853480467
 20
-126.6162130239014
 10
95.2382853480467
 20
-126.6162130239014
 10
95.2382853480467
 20
-126.6162130239014
 10
97.73803333982836
 20
-126.6162130239014
 10
97.73803333982836
 20
-126.6162130239014
 10
97.73803333982836
 20
-126.6162130239014
 10
97.73803333982836
 20
-128.6164277456238
 10
97.73803333982836
 20
-128.6164277456238
 10
97.73803333982836
 20
-128.6164277456238
 10
99.238044412671
 20
-128.6164277456238
 10
99.238044412671
 20
-128.6164277456238
 10
99.238044412671
 20
-128.6164277456238
 10
99.238044412671
 20
-126.6162130239014
 10
99.238044412671
 20
-126.6162130239014
 10
99.238044412671
 20
-126.0636219129285
 10
98.79019303520776
 20
-125.6164408019291
 10
98.23827221595509
 20
-125.6164408019291
 97
        0
 97
        0
 75
     2
 76
     1
 98
        0
  0
POLYLINE
  5
43
330
1F
100
AcDbEntity
  8
_U+30EC_U+30A4_U+30E4_U+30FC 1
 62
   179
420
  2234388
370
    25
100
AcDb2dPolyline
 66
     1
 10
0.0
 20
0.0
 30
0.0
  0
VERTEX
  5
44
330
43
100
AcDbEntity
  8
_U+30EC_U+30A4_U+30E4_U+30FC 1
 62
   179
420
  2234388
370
    25
100
AcDbVertex
100
AcDb2dVertex
 10
83.2381614875287
 20
-131.8162280226014
 30
0.0
  0
VERTEX
  5
45
330
43
100
AcDbEntity
  8
_U+30EC_U+30A4_U+30E4_U+30FC 1
 62
   179
420
  2234388
370
    25
100
AcDbVertex
100
AcDb2dVertex
 10
95.2382853480467
 20
-131.8162280226014
 30
0.0
  0
SEQEND
  5
46
330
43
100
AcDbEntity
  8
_U+30EC_U+30A4_U+30E4_U+30FC 1
 62
   179
420
  2234388
370
    25
  0
POLYLINE
  5
47
330
1F
100
AcDbEntity
  8
_U+30EC_U+30A4_U+30E4_U+30FC 1
 62
   179
420
  2234388
370
    25
100
AcDb2dPolyline
 66
     1
 10
0.0
 20
0.0
 30
0.0
  0
VERTEX
  5
48
330
47
100
AcDbEntity
  8
_U+30EC_U+30A4_U+30E4_U+30FC 1
 62
   179
420
  2234388
370
    25
100
AcDbVertex
100
AcDb2dVertex
 10
84.23793368424461
 20
-130.816491078407
 30
0.0
  0
VERTEX
  5
49
330
47
100
AcDbEntity
  8
_U+30EC_U+30A4_U+30E4_U+30FC 1
 62
   179
420
  2234388
370
    25
100
AcDbVertex
100
AcDb2dVertex
 10
94.23784287357012
 20
-130.816491078407
 30
0.0
  0
SEQEND
  5
4A
330
47
100
AcDbEntity
  8
_U+30EC_U+30A4_U+30E4_U+30FC 1
 62
   179
420
  2234388
370
    25
  0
POLYLINE
  5
4B
330
1F
100
AcDbEntity
  8
_U+30EC_U+30A4_U+30E4_U+30FC 1
 62
   179
420
  2234388
370
    25
100
AcDb2dPolyline
 66
     1
 10
0.0
 20
0.0
 30
0.0
  0
VERTEX
  5
4C
330
4B
100
AcDbEntity
  8
_U+30EC_U+30A4_U+30E4_U+30FC 1
 62
   179
420
  2234388
370
    25
100
AcDbVertex
100
AcDb2dVertex
 10
94.23784287357012
 20
-126.6162130239014
 30
0.0
  0
VERTEX
  5
4D
330
4B
100
AcDbEntity
  8
_U+30EC_U+30A4_U+30E4_U+30FC 1
 62
   179
420
  2234388
370
    25
100
AcDbVertex
100
AcDb2dVertex
 10
94.23784287357012
 20
-130.816491078407
 30
0.0
  0
SEQEND
  5
4E
330
4B
100
AcDbEntity
  8
_U+30EC_U+30A4_U+30E4_U+30FC 1
 62
   179
420
  2234388
370
    25
  0
POLYLINE
  5
4F
330
1F
100
AcDbEntity
  8
_U+30EC_U+30A4_U+30E4_U+30FC 1
 62
   179
420
  2234388
370
    25
100
AcDb2dPolyline
 66
     1
 10
0.0
 20
0.0
 30
0.0
  0
VERTEX
  5
50
330
4F
100
AcDbEntity
  8
_U+30EC_U+30A4_U+30E4_U+30FC 1
 62
   179
420
  2234388
370
    25
100
AcDbVertex
100
AcDb2dVertex
 10
95.2382853480467
 20
-126.6162130239014
 30
0.0
  0
VERTEX
  5
51
330
4F
100
AcDbEntity
  8
_U+30EC_U+30A4_U+30E4_U+30FC 1
 62
   179
420
  2234388
370
    25
100
AcDbVertex
100
AcDb2dVertex
 10
95.2382853480467
 20
-131.8162280226014
 30
0.0
  0
SEQEND
  5
52
330
4F
100
AcDbEntity
  8
_U+30EC_U+30A4_U+30E4_U+30FC 1
 62
   179
420
  2234388
370
    25
  0
POLYLINE
  5
53
330
1F
100
AcDbEntity
  8
_U+30EC_U+30A4_U+30E4_U+30FC 1
 62
   179
420
  2234388
370
    25
100
AcDb2dPolyline
 66
     1
 10
0.0
 20
0.0
 30
0.0
  0
VERTEX
  5
54
330
53
100
AcDbEntity
  8
_U+30EC_U+30A4_U+30E4_U+30FC 1
 62
   179
420
  2234388
370
    25
100
AcDbVertex
100
AcDb2dVertex
 10
97.73803333982836
 20
-128.6164277456238
 30
0.0
  0
VERTEX
  5
55
330
53
100
AcDbEntity
  8
_U+30EC_U+30A4_U+30E4_U+30FC 1
 62
   179
420
  2234388
370
    25
100
AcDbVertex
100
AcDb2dVertex
 10
99.238044412671
 20
-128.6164277456238
 30
0.0
  0
SEQEND
  5
56
330
53
100
AcDbEntity
  8
_U+30EC_U+30A4_U+30E4_U+30FC 1
 62
   179
420
  2234388
370
    25
  0
POLYLINE
  5
57
330
1F
100
AcDbEntity
  8
_U+30EC_U+30A4_U+30E4_U+30FC 1
 62
   179
420
  2234388
370
    25
100
AcDb2dPolyline
 66
     1
 10
0.0
 20
0.0
 30
0.0
  0
VERTEX
  5
58
330
57
100
AcDbEntity
  8
_U+30EC_U+30A4_U+30E4_U+30FC 1
 62
   179
420
  2234388
370
    25
100
AcDbVertex
100
AcDb2dVertex
 10
94.23784287357012
 20
-125.6164408019291
 30
0.0
  0
VERTEX
  5
59
330
57
100
AcDbEntity
  8
_U+30EC_U+30A4_U+30E4_U+30FC 1
 62
   179
420
  2234388
370
    25
100
AcDbVertex
100
AcDb2dVertex
 10
98.23827221595509
 20
-125.6164408019291
 30
0.0
  0
SEQEND
  5
5A
330
57
100
AcDbEntity
  8
_U+30EC_U+30A4_U+30E4_U+30FC 1
 62
   179
420
  2234388
370
    25
  0
POLYLINE
  5
5B
330
1F
100
AcDbEntity
  8
_U+30EC_U+30A4_U+30E4_U+30FC 1
 62
   179
420
  2234388
370
    25
100
AcDb2dPolyline
 66
     1
 10
0.0
 20
0.0
 30
0.0
  0
VERTEX
  5
5C
330
5B
100
AcDbEntity
  8
_U+30EC_U+30A4_U+30E4_U+30FC 1
 62
   179
420
  2234388
370
    25
100
AcDbVertex
100
AcDb2dVertex
 10
99.238044412671
 20
-126.6162130239014
 30
0.0
  0
VERTEX
  5
5D
330
5B
100
AcDbEntity
  8
_U+30EC_U+30A4_U+30E4_U+30FC 1
 62
   179
420
  2234388
370
    25
100
AcDbVertex
100
AcDb2dVertex
 10
99.238044412671
 20
-128.6164277456238
 30
0.0
  0
SEQEND
  5
5E
330
5B
100
AcDbEntity
  8
_U+30EC_U+30A4_U+30E4_U+30FC 1
 62
   179
420
  2234388
370
    25
  0
POLYLINE
  5
5F
330
1F
100
AcDbEntity
  8
_U+30EC_U+30A4_U+30E4_U+30FC 1
 62
   179
420
  2234388
370
    25
100
AcDb2dPolyline
 66
     1
 10
0.0
 20
0.0
 30
0.0
  0
VERTEX
  5
60
330
5F
100
AcDbEntity
  8
_U+30EC_U+30A4_U+30E4_U+30FC 1
 62
   179
420
  2234388
370
    25
100
AcDbVertex
100
AcDb2dVertex
 10
97.73803333982836
 20
-126.6162130239014
 30
0.0
  0
VERTEX
  5
61
330
5F
100
AcDbEntity
  8
_U+30EC_U+30A4_U+30E4_U+30FC 1
 62
   179
420
  2234388
370
    25
100
AcDbVertex
100
AcDb2dVertex
 10
97.73803333982836
 20
-128.6164277456238
 30
0.0
  0
SEQEND
  5
62
330
5F
100
AcDbEntity
  8
_U+30EC_U+30A4_U+30E4_U+30FC 1
 62
   179
420
  2234388
370
    25
  0
POLYLINE
  5
63
330
1F
100
AcDbEntity
  8
_U+30EC_U+30A4_U+30E4_U+30FC 1
 62
   179
420
  2234388
370
    25
100
AcDb2dPolyline
 66
     1
 10
0.0
 20
0.0
 30
0.0
  0
VERTEX
  5
64
330
63
100
AcDbEntity
  8
_U+30EC_U+30A4_U+30E4_U+30FC 1
 62
   179
420
  2234388
370
    25
100
AcDbVertex
100
AcDb2dVertex
 10
95.2382853480467
 20
-126.6162130239014
 30
0.0
  0
VERTEX
  5
65
330
63
100
AcDbEntity
  8
_U+30EC_U+30A4_U+30E4_U+30FC 1
 62
   179
420
  2234388
370
    25
100
AcDbVertex
100
AcDb2dVertex
 10
97.73803333982836
 20
-126.6162130239014
 30
0.0
  0
SEQEND
  5
66
330
63
100
AcDbEntity
  8
_U+30EC_U+30A4_U+30E4_U+30FC 1
 62
   179
420
  2234388
370
    25
  0
POLYLINE
  5
67
330
1F
100
AcDbEntity
  8
_U+30EC_U+30A4_U+30E4_U+30FC 1
 62
   179
420
  2234388
370
    25
100
AcDb2dPolyline
 66
     1
 10
0.0
 20
0.0
 30
0.0
  0
VERTEX
  5
68
330
67
100
AcDbEntity
  8
_U+30EC_U+30A4_U+30E4_U+30FC 1
 62
   179
420
  2234388
370
    25
100
AcDbVertex
100
AcDb2dVertex
 10
83.2381614875287
 20
-126.6162130239014
 30
0.0
  0
VERTEX
  5
69
330
67
100
AcDbEntity
  8
_U+30EC_U+30A4_U+30E4_U+30FC 1
 62
   179
420
  2234388
370
    25
100
AcDbVertex
100
AcDb2dVertex
 10
80.73806071797824
 20
-126.6162130239014
 30
0.0
  0
SEQEND
  5
6A
330
67
100
AcDbEntity
  8
_U+30EC_U+30A4_U+30E4_U+30FC 1
 62
   179
420
  2234388
370
    25
  0
POLYLINE
  5
6B
330
1F
100
AcDbEntity
  8
_U+30EC_U+30A4_U+30E4_U+30FC 1
 62
   179
420
  2234388
370
    25
100
AcDb2dPolyline
 66
     1
 10
0.0
 20
0.0
 30
0.0
  0
VERTEX
  5
6C
330
6B
100
AcDbEntity
  8
_U+30EC_U+30A4_U+30E4_U+30FC 1
 62
   179
420
  2234388
370
    25
100
AcDbVertex
100
AcDb2dVertex
 10
80.73806071797824
 20
-126.6162130239014
 30
0.0
  0
VERTEX
  5
6D
330
6B
100
AcDbEntity
  8
_U+30EC_U+30A4_U+30E4_U+30FC 1
 62
   179
420
  2234388
370
    25
100
AcDbVertex
100
AcDb2dVertex
 10
80.73806071797824
 20
-128.6164277456238
 30
0.0
  0
SEQEND
  5
6E
330
6B
100
AcDbEntity
  8
_U+30EC_U+30A4_U+30E4_U+30FC 1
 62
   179
420
  2234388
370
    25
  0
POLYLINE
  5
6F
330
1F
100
AcDbEntity
  8
_U+30EC_U+30A4_U+30E4_U+30FC 1
 62
   179
420
  2234388
370
    25
100
AcDb2dPolyline
 66
     1
 10
0.0
 20
0.0
 30
0.0
  0
VERTEX
  5
70
330
6F
100
AcDbEntity
  8
_U+30EC_U+30A4_U+30E4_U+30FC 1
 62
   179
420
  2234388
370
    25
100
AcDbVertex
100
AcDb2dVertex
 10
80.73806071797824
 20
-128.6164277456238
 30
0.0
  0
VERTEX
  5
71
330
6F
100
AcDbEntity
  8
_U+30EC_U+30A4_U+30E4_U+30FC 1
 62
   179
420
  2234388
370
    25
100
AcDbVertex
100
AcDb2dVertex
 10
79.2380496451356
 20
-128.6164277456238
 30
0.0
  0
SEQEND
  5
72
330
6F
100
AcDbEntity
  8
_U+30EC_U+30A4_U+30E4_U+30FC 1
 62
   179
420
  2234388
370
    25
  0
POLYLINE
  5
73
330
1F
100
AcDbEntity
  8
_U+30EC_U+30A4_U+30E4_U+30FC 1
 62
   179
420
  2234388
370
    25
100
AcDb2dPolyline
 66
     1
 10
0.0
 20
0.0
 30
0.0
  0
VERTEX
  5
74
330
73
100
AcDbEntity
  8
_U+30EC_U+30A4_U+30E4_U+30FC 1
 62
   179
420
  2234388
370
    25
100
AcDbVertex
100
AcDb2dVertex
 10
79.2380496451356
 20
-126.6162130239014
 30
0.0
  0
VERTEX
  5
75
330
73
100
AcDbEntity
  8
_U+30EC_U+30A4_U+30E4_U+30FC 1
 62
   179
420
  2234388
370
    25
100
AcDbVertex
100
AcDb2dVertex
 10
79.2380496451356
 20
-128.6164277456238
 30
0.0
  0
SEQEND
  5
76
330
73
100
AcDbEntity
  8
_U+30EC_U+30A4_U+30E4_U+30FC 1
 62
   179
420
  2234388
370
    25
  0
POLYLINE
  5
77
330
1F
100
AcDbEntity
  8
_U+30EC_U+30A4_U+30E4_U+30FC 1
 62
   179
420
  2234388
370
    25
100
AcDb2dPolyline
 66
     1
 10
0.0
 20
0.0
 30
0.0
  0
VERTEX
  5
78
330
77
100
AcDbEntity
  8
_U+30EC_U+30A4_U+30E4_U+30FC 1
 62
   179
420
  2234388
370
    25
100
AcDbVertex
100
AcDb2dVertex
 10
83.2381614875287
 20
-126.6162130239014
 30
0.0
  0
VERTEX
  5
79
330
77
100
AcDbEntity
  8
_U+30EC_U+30A4_U+30E4_U+30FC 1
 62
   179
420
  2234388
370
    25
100
AcDbVertex
100
AcDb2dVertex
 10
83.2381614875287
 20
-131.8162280226014
 30
0.0
  0
SEQEND
  5
7A
330
77
100
AcDbEntity
  8
_U+30EC_U+30A4_U+30E4_U+30FC 1
 62
   179
420
  2234388
370
    25
  0
POLYLINE
  5
7B
330
1F
100
AcDbEntity
  8
_U+30EC_U+30A4_U+30E4_U+30FC 1
 62
   179
420
  2234388
370
    25
100
AcDb2dPolyline
 66
     1
 10
0.0
 20
0.0
 30
0.0
  0
VERTEX
  5
7C
330
7B
100
AcDbEntity
  8
_U+30EC_U+30A4_U+30E4_U+30FC 1
 62
   179
420
  2234388
370
    25
100
AcDbVertex
100
AcDb2dVertex
 10
84.23793368424461
 20
-125.6164408019291
 30
0.0
  0
VERTEX
  5
7D
330
7B
100
AcDbEntity
  8
_U+30EC_U+30A4_U+30E4_U+30FC 1
 62
   179
420
  2234388
370
    25
100
AcDbVertex
100
AcDb2dVertex
 10
80.23782184185151
 20
-125.6164408019291
 30
0.0
  0
SEQEND
  5
7E
330
7B
100
AcDbEntity
  8
_U+30EC_U+30A4_U+30E4_U+30FC 1
 62
   179
420
  2234388
370
    25
  0
POLYLINE
  5
7F
330
1F
100
AcDbEntity
  8
_U+30EC_U+30A4_U+30E4_U+30FC 1
 62
   179
420
  2234388
370
    25
100
AcDb2dPolyline
 66
     1
 10
0.0
 20
0.0
 30
0.0
  0
VERTEX
  5
80
330
7F
100
AcDbEntity
  8
_U+30EC_U+30A4_U+30E4_U+30FC 1
 62
   179
420
  2234388
370
    25
100
AcDbVertex
100
AcDb2dVertex
 10
84.23793368424461
 20
-126.6162130239014
 30
0.0
  0
VERTEX
  5
81
330
7F
100
AcDbEntity
  8
_U+30EC_U+30A4_U+30E4_U+30FC 1
 62
   179
420
  2234388
370
    25
100
AcDbVertex
100
AcDb2dVertex
 10
84.23793368424461
 20
-130.816491078407
 30
0.0
  0
SEQEND
  5
82
330
7F
100
AcDbEntity
  8
_U+30EC_U+30A4_U+30E4_U+30FC 1
 62
   179
420
  2234388
370
    25
  0
SPLINE
  5
83
330
1F
100
AcDbEntity
  8
_U+30EC_U+30A4_U+30E4_U+30FC 1
 62
   179
420
  2234388
370
    25
100
AcDbSpline
210
0.0
220
0.0
230
1.0
 70
     8
 71
     3
 72
    11
 73
     7
 74
     0
 42
0.0000000001
 43
0.0000000001
 12
1.0
 22
0.0
 32
0.0
 13
1.0
 23
0.0
 33
0.0
 40
0.0
 40
0.0
 40
0.0
 40
0.0
 40
1.0
 40
1.0
 40
1.0
 40
2.0
 40
2.0
 40
2.0
 40
2.0
 10
94.23784287357012
 20
-125.6164408019291
 30
0.0
 10
93.96154732506344
 20
-125.6164408019291
 30
0.0
 10
93.73827427520405
 20
-125.8396785796512
 30
0.0
 10
93.73827427520405
 20
-126.1159741351376
 30
0.0
 10
93.73827427520405
 20
-126.3922696906241
 30
0.0
 10
93.96154732506344
 20
-126.6162130239014
 30
0.0
 10
94.23784287357012
 20
-126.6162130239014
 30
0.0
  0
SPLINE
  5
84
330
1F
100
AcDbEntity
  8
_U+30EC_U+30A4_U+30E4_U+30FC 1
 62
   179
420
  2234388
370
    25
100
AcDbSpline
210
0.0
220
0.0
230
1.0
 70
     8
 71
     3
 72
     8
 73
     4
 74
     0
 42
0.0000000001
 43
0.0000000001
 12
1.0
 22
0.0
 32
0.0
 13
1.0
 23
0.0
 33
0.0
 40
0.0
 40
0.0
 40
0.0
 40
0.0
 40
1.0
 40
1.0
 40
1.0
 40
1.0
 10
99.238044412671
 20
-126.6162130239014
 30
0.0
 10
99.238044412671
 20
-126.0636219129285
 30
0.0
 10
98.79019303520776
 20
-125.6164408019291
 30
0.0
 10
98.23827221595509
 20
-125.6164408019291
 30
0.0
  0
SPLINE
  5
85
330
1F
100
AcDbEntity
  8
_U+30EC_U+30A4_U+30E4_U+30FC 1
 62
   179
420
  2234388
370
    25
100
AcDbSpline
210
0.0
220
0.0
230
1.0
 70
     8
 71
     3
 72
    11
 73
     7
 74
     0
 42
0.0000000001
 43
0.0000000001
 12
1.0
 22
0.0
 32
0.0
 13
1.0
 23
0.0
 33
0.0
 40
0.0
 40
0.0
 40
0.0
 40
0.0
 40
1.0
 40
1.0
 40
1.0
 40
2.0
 40
2.0
 40
2.0
 40
2.0
 10
84.23793368424461
 20
-126.6162130239014
 30
0.0
 10
84.51422923275128
 20
-126.6162130239014
 30
0.0
 10
84.73813728259445
 20
-126.3922696906241
 30
0.0
 10
84.73813728259445
 20
-126.1159741351376
 30
0.0
 10
84.73813728259445
 20
-125.8396785796512
 30
0.0
 10
84.51422923275128
 20
-125.6164408019291
 30
0.0
 10
84.23793368424461
 20
-125.6164408019291
 30
0.0
  0
SPLINE
  5
86
330
1F
100
AcDbEntity
  8
_U+30EC_U+30A4_U+30E4_U+30FC 1
 62
   179
420
  2234388
370
    25
100
AcDbSpline
210
0.0
220
0.0
230
1.0
 70
     8
 71
     3
 72
     8
 73
     4
 74
     0
 42
0.0000000001
 43
0.0000000001
 12
1.0
 22
0.0
 32
0.0
 13
1.0
 23
0.0
 33
0.0
 40
0.0
 40
0.0
 40
0.0
 40
0.0
 40
1.0
 40
1.0
 40
1.0
 40
1.0
 10
80.23782184185151
 20
-125.6164408019291
 30
0.0
 10
79.68590102259886
 20
-125.6164408019291
 30
0.0
 10
79.2380496451356
 20
-126.0636219129285
 30
0.0
 10
79.2380496451356
 20
-126.6162130239014
 30
0.0
  0
SPLINE
  5
87
330
1F
100
AcDbEntity
  8
_U+30EC_U+30A4_U+30E4_U+30FC 1
 62
   179
420
  2234388
370
     9
100
AcDbSpline
210
0.0
220
0.0
230
1.0
 70
    11
 71
     3
 72
    17
 73
    13
 74
     0
 42
0.0000000001
 43
0.0000000001
 12
1.0
 22
0.0
 32
0.0
 13
1.0
 23
0.0
 33
0.0
 40
0.0
 40
0.0
 40
0.0
 40
0.0
 40
1.0
 40
1.0
 40
1.0
 40
2.0
 40
2.0
 40
2.0
 40
3.0
 40
3.0
 40
3.0
 40
4.0
 40
4.0
 40
4.0
 40
4.0
 10
79.337958313499
 20
-121.6160113584849
 30
0.0
 10
79.337958313499
 20
-121.5608721918321
 30
0.0
 10
79.29318881039555
 20
-121.5161046918433
 30
0.0
 10
79.2380496451356
 20
-121.5161046918433
 30
0.0
 10
79.18294575765253
 20
-121.5161046918433
 30
0.0
 10
79.13814298101777
 20
-121.5608721918321
 30
0.0
 10
79.13814298101777
 20
-121.6160113584849
 30
0.0
 10
79.13814298101777
 20
-121.6711152473601
 30
0.0
 10
79.18294575765253
 20
-121.7159180251265
 30
0.0
 10
79.2380496451356
 20
-121.7159180251265
 30
0.0
 10
79.29318881039555
 20
-121.7159180251265
 30
0.0
 10
79.337958313499
 20
-121.6711152473601
 30
0.0
 10
79.337958313499
 20
-121.6160113584849
 30
0.0
  0
SPLINE
  5
88
330
1F
100
AcDbEntity
  8
_U+30EC_U+30A4_U+30E4_U+30FC 1
 62
   179
420
  2234388
370
     9
100
AcDbSpline
210
0.0
220
0.0
230
1.0
 70
    11
 71
     3
 72
    17
 73
    13
 74
     0
 42
0.0000000001
 43
0.0000000001
 12
1.0
 22
0.0
 32
0.0
 13
1.0
 23
0.0
 33
0.0
 40
0.0
 40
0.0
 40
0.0
 40
0.0
 40
1.0
 40
1.0
 40
1.0
 40
2.0
 40
2.0
 40
2.0
 40
3.0
 40
3.0
 40
3.0
 40
4.0
 40
4.0
 40
4.0
 40
4.0
 10
84.83804394671229
 20
-121.6160113584849
 30
0.0
 10
84.83804394671229
 20
-121.5608721918321
 30
0.0
 10
84.79327644785441
 20
-121.5161046918433
 30
0.0
 10
84.73813728259445
 20
-121.5161046918433
 30
0.0
 10
84.68268061734261
 20
-121.5161046918433
 30
0.0
 10
84.63823061847663
 20
-121.5608721918321
 30
0.0
 10
84.63823061847663
 20
-121.6160113584849
 30
0.0
 10
84.63823061847663
 20
-121.6711152473601
 30
0.0
 10
84.68268061734261
 20
-121.7159180251265
 30
0.0
 10
84.73813728259445
 20
-121.7159180251265
 30
0.0
 10
84.79327644785441
 20
-121.7159180251265
 30
0.0
 10
84.83804394671229
 20
-121.6711152473601
 30
0.0
 10
84.83804394671229
 20
-121.6160113584849
 30
0.0
  0
SPLINE
  5
89
330
1F
100
AcDbEntity
  8
_U+30EC_U+30A4_U+30E4_U+30FC 1
 62
   179
420
  2234388
370
     9
100
AcDbSpline
210
0.0
220
0.0
230
1.0
 70
    11
 71
     3
 72
    17
 73
    13
 74
     0
 42
0.0000000001
 43
0.0000000001
 12
1.0
 22
0.0
 32
0.0
 13
1.0
 23
0.0
 33
0.0
 40
0.0
 40
0.0
 40
0.0
 40
0.0
 40
1.0
 40
1.0
 40
1.0
 40
2.0
 40
2.0
 40
2.0
 40
3.0
 40
3.0
 40
3.0
 40
4.0
 40
4.0
 40
4.0
 40
4.0
 10
93.83818330987364
 20
-121.6160113584849
 30
0.0
 10
93.83818330987364
 20
-121.5608721918321
 30
0.0
 10
93.79341344046401
 20
-121.5161046918433
 30
0.0
 10
93.73827427520405
 20
-121.5161046918433
 30
0.0
 10
93.68246483218343
 20
-121.5161046918433
 30
0.0
 10
93.63769733332555
 20
-121.5608721918321
 30
0.0
 10
93.63769733332555
 20
-121.6160113584849
 30
0.0
 10
93.63769733332555
 20
-121.6711152473601
 30
0.0
 10
93.68246483218343
 20
-121.7159180251265
 30
0.0
 10
93.73827427520405
 20
-121.7159180251265
 30
0.0
 10
93.79341344046401
 20
-121.7159180251265
 30
0.0
 10
93.83818330987364
 20
-121.6711152473601
 30
0.0
 10
93.83818330987364
 20
-121.6160113584849
 30
0.0
  0
SPLINE
  5
8A
330
1F
100
AcDbEntity
  8
_U+30EC_U+30A4_U+30E4_U+30FC 1
 62
   179
420
  2234388
370
     9
100
AcDbSpline
210
0.0
220
0.0
230
1.0
 70
    11
 71
     3
 72
    17
 73
    13
 74
     0
 42
0.0000000001
 43
0.0000000001
 12
1.0
 22
0.0
 32
0.0
 13
1.0
 23
0.0
 33
0.0
 40
0.0
 40
0.0
 40
0.0
 40
0.0
 40
1.0
 40
1.0
 40
1.0
 40
2.0
 40
2.0
 40
2.0
 40
3.0
 40
3.0
 40
3.0
 40
4.0
 40
4.0
 40
4.0
 40
4.0
 10
99.33795107678884
 20
-121.6160113584849
 30
0.0
 10
99.33795107678884
 20
-121.5608721918321
 30
0.0
 10
99.29314830015407
 20
-121.5161046918433
 30
0.0
 10
99.238044412671
 20
-121.5161046918433
 30
0.0
 10
99.18290524741106
 20
-121.5161046918433
 30
0.0
 10
99.13813774855318
 20
-121.5608721918321
 30
0.0
 10
99.13813774855318
 20
-121.6160113584849
 30
0.0
 10
99.13813774855318
 20
-121.6711152473601
 30
0.0
 10
99.18290524741106
 20
-121.7159180251265
 30
0.0
 10
99.238044412671
 20
-121.7159180251265
 30
0.0
 10
99.29314830015407
 20
-121.7159180251265
 30
0.0
 10
99.33795107678884
 20
-121.6711152473601
 30
0.0
 10
99.33795107678884
 20
-121.6160113584849
 30
0.0
  0
SPLINE
  5
8B
330
1F
100
AcDbEntity
  8
_U+30EC_U+30A4_U+30E4_U+30FC 1
 62
   179
420
  2234388
370
     9
100
AcDbSpline
210
0.0
220
0.0
230
1.0
 70
    11
 71
     3
 72
    17
 73
    13
 74
     0
 42
0.0000000001
 43
0.0000000001
 12
1.0
 22
0.0
 32
0.0
 13
1.0
 23
0.0
 33
0.0
 40
0.0
 40
0.0
 40
0.0
 40
0.0
 40
1.0
 40
1.0
 40
1.0
 40
2.0
 40
2.0
 40
2.0
 40
3.0
 40
3.0
 40
3.0
 40
4.0
 40
4.0
 40
4.0
 40
4.0
 10
103.3377101414132
 20
-125.6164408019291
 30
0.0
 10
103.3377101414132
 20
-125.5606313574987
 30
0.0
 10
103.2929073647784
 20
-125.5158638575098
 30
0.0
 10
103.2378034772953
 20
-125.5158638575098
 30
0.0
 10
103.1826643120354
 20
-125.5158638575098
 30
0.0
 10
103.1378968131775
 20
-125.5606313574987
 30
0.0
 10
103.1378968131775
 20
-125.6164408019291
 30
0.0
 10
103.1378968131775
 20
-125.6715799685822
 30
0.0
 10
103.1826643120354
 20
-125.7163474685711
 30
0.0
 10
103.2378034772953
 20
-125.7163474685711
 30
0.0
 10
103.2929073647784
 20
-125.7163474685711
 30
0.0
 10
103.3377101414132
 20
-125.6715799685822
 30
0.0
 10
103.3377101414132
 20
-125.6164408019291
 30
0.0
  0
SPLINE
  5
8C
330
1F
100
AcDbEntity
  8
_U+30EC_U+30A4_U+30E4_U+30FC 1
 62
   179
420
  2234388
370
     9
100
AcDbSpline
210
0.0
220
0.0
230
1.0
 70
    11
 71
     3
 72
    17
 73
    13
 74
     0
 42
0.0000000001
 43
0.0000000001
 12
1.0
 22
0.0
 32
0.0
 13
1.0
 23
0.0
 33
0.0
 40
0.0
 40
0.0
 40
0.0
 40
0.0
 40
1.0
 40
1.0
 40
1.0
 40
2.0
 40
2.0
 40
2.0
 40
3.0
 40
3.0
 40
3.0
 40
4.0
 40
4.0
 40
4.0
 40
4.0
 10
103.3377101414132
 20
-128.6164277456238
 30
0.0
 10
103.3377101414132
 20
-128.5606183011934
 30
0.0
 10
103.2929073647784
 20
-128.5158508012045
 30
0.0
 10
103.2378034772953
 20
-128.5158508012045
 30
0.0
 10
103.1826643120354
 20
-128.5158508012045
 30
0.0
 10
103.1378968131775
 20
-128.5606183011934
 30
0.0
 10
103.1378968131775
 20
-128.6164277456238
 30
0.0
 10
103.1378968131775
 20
-128.6715669122765
 30
0.0
 10
103.1826643120354
 20
-128.7163344122654
 30
0.0
 10
103.2378034772953
 20
-128.7163344122654
 30
0.0
 10
103.2929073647784
 20
-128.7163344122654
 30
0.0
 10
103.3377101414132
 20
-128.6715669122765
 30
0.0
 10
103.3377101414132
 20
-128.6164277456238
 30
0.0
  0
SPLINE
  5
8D
330
1F
100
AcDbEntity
  8
_U+30EC_U+30A4_U+30E4_U+30FC 1
 62
   179
420
  2234388
370
     9
100
AcDbSpline
210
0.0
220
0.0
230
1.0
 70
    11
 71
     3
 72
    17
 73
    13
 74
     0
 42
0.0000000001
 43
0.0000000001
 12
1.0
 22
0.0
 32
0.0
 13
1.0
 23
0.0
 33
0.0
 40
0.0
 40
0.0
 40
0.0
 40
0.0
 40
1.0
 40
1.0
 40
1.0
 40
2.0
 40
2.0
 40
2.0
 40
3.0
 40
3.0
 40
3.0
 40
4.0
 40
4.0
 40
4.0
 40
4.0
 10
103.3377101414132
 20
-131.8162280226014
 30
0.0
 10
103.3377101414132
 20
-131.7611241337265
 30
0.0
 10
103.2929073647784
 20
-131.7163213559598
 30
0.0
 10
103.2378034772953
 20
-131.7163213559598
 30
0.0
 10
103.1826643120354
 20
-131.7163213559598
 30
0.0
 10
103.1378968131775
 20
-131.7611241337265
 30
0.0
 10
103.1378968131775
 20
-131.8162280226014
 30
0.0
 10
103.1378968131775
 20
-131.8713671892545
 30
0.0
 10
103.1826643120354
 20
-131.9161346892431
 30
0.0
 10
103.2378034772953
 20
-131.9161346892431
 30
0.0
 10
103.2929073647784
 20
-131.9161346892431
 30
0.0
 10
103.3377101414132
 20
-131.8713671892545
 30
0.0
 10
103.3377101414132
 20
-131.8162280226014
 30
0.0
  0
POLYLINE
  5
8E
330
1F
100
AcDbEntity
  8
_U+30EC_U+30A4_U+30E4_U+30FC 1
 62
   179
420
  2234388
370
     9
100
AcDb2dPolyline
 66
     1
 10
0.0
 20
0.0
 30
0.0
  0
VERTEX
  5
8F
330
8E
100
AcDbEntity
  8
_U+30EC_U+30A4_U+30E4_U+30FC 1
 62
   179
420
  2234388
370
     9
100
AcDbVertex
100
AcDb2dVertex
 10
79.2380496451356
 20
-121.6160113584849
 30
0.0
  0
VERTEX
  5
90
330
8E
100
AcDbEntity
  8
_U+30EC_U+30A4_U+30E4_U+30FC 1
 62
   179
420
  2234388
370
     9
100
AcDbVertex
100
AcDb2dVertex
 10
84.73813728259445
 20
-121.6160113584849
 30
0.0
  0
SEQEND
  5
91
330
8E
100
AcDbEntity
  8
_U+30EC_U+30A4_U+30E4_U+30FC 1
 62
   179
420
  2234388
370
     9
  0
POLYLINE
  5
92
330
1F
100
AcDbEntity
  8
_U+30EC_U+30A4_U+30E4_U+30FC 1
 62
   179
420
  2234388
370
     9
100
AcDb2dPolyline
 66
     1
 10
0.0
 20
0.0
 30
0.0
  0
VERTEX
  5
93
330
92
100
AcDbEntity
  8
_U+30EC_U+30A4_U+30E4_U+30FC 1
 62
   179
420
  2234388
370
     9
100
AcDbVertex
100
AcDb2dVertex
 10
79.2380496451356
 20
-124.0764952467588
 30
0.0
  0
VERTEX
  5
94
330
92
100
AcDbEntity
  8
_U+30EC_U+30A4_U+30E4_U+30FC 1
 62
   179
420
  2234388
370
     9
100
AcDbVertex
100
AcDb2dVertex
 10
79.2380496451356
 20
-120.6162391365127
 30
0.0
  0
SEQEND
  5
95
330
92
100
AcDbEntity
  8
_U+30EC_U+30A4_U+30E4_U+30FC 1
 62
   179
420
  2234388
370
     9
  0
POLYLINE
  5
96
330
1F
100
AcDbEntity
  8
_U+30EC_U+30A4_U+30E4_U+30FC 1
 62
   179
420
  2234388
370
     9
100
AcDb2dPolyline
 66
     1
 10
0.0
 20
0.0
 30
0.0
  0
VERTEX
  5
97
330
96
100
AcDbEntity
  8
_U+30EC_U+30A4_U+30E4_U+30FC 1
 62
   179
420
  2234388
370
     9
100
AcDbVertex
100
AcDb2dVertex
 10
84.73813728259445
 20
-123.5762563579948
 30
0.0
  0
VERTEX
  5
98
330
96
100
AcDbEntity
  8
_U+30EC_U+30A4_U+30E4_U+30FC 1
 62
   179
420
  2234388
370
     9
100
AcDbVertex
100
AcDb2dVertex
 10
84.73813728259445
 20
-120.6162391365127
 30
0.0
  0
SEQEND
  5
99
330
96
100
AcDbEntity
  8
_U+30EC_U+30A4_U+30E4_U+30FC 1
 62
   179
420
  2234388
370
     9
  0
INSERT
  5
9B
330
1F
100
AcDbEntity
  8
_U+30EC_U+30A4_U+30E4_U+30FC 1
100
AcDbBlockReference
  2
block 2
 10
0.0
 20
0.0
 30
0.0
  0
POLYLINE
  5
AA
330
1F
100
AcDbEntity
  8
_U+30EC_U+30A4_U+30E4_U+30FC 1
 62
   179
420
  2234388
370
     9
100
AcDb2dPolyline
 66
     1
 10
0.0
 20
0.0
 30
0.0
  0
VERTEX
  5
AB
330
AA
100
AcDbEntity
  8
_U+30EC_U+30A4_U+30E4_U+30FC 1
 62
   179
420
  2234388
370
     9
100
AcDbVertex
100
AcDb2dVertex
 10
84.73813728259445
 20
-121.6160113584849
 30
0.0
  0
VERTEX
  5
AC
330
AA
100
AcDbEntity
  8
_U+30EC_U+30A4_U+30E4_U+30FC 1
 62
   179
420
  2234388
370
     9
100
AcDbVertex
100
AcDb2dVertex
 10
93.73827427520405
 20
-121.6160113584849
 30
0.0
  0
SEQEND
  5
AD
330
AA
100
AcDbEntity
  8
_U+30EC_U+30A4_U+30E4_U+30FC 1
 62
   179
420
  2234388
370
     9
  0
POLYLINE
  5
AE
330
1F
100
AcDbEntity
  8
_U+30EC_U+30A4_U+30E4_U+30FC 1
 62
   179
420
  2234388
370
     9
100
AcDb2dPolyline
 66
     1
 10
0.0
 20
0.0
 30
0.0
  0
VERTEX
  5
AF
330
AE
100
AcDbEntity
  8
_U+30EC_U+30A4_U+30E4_U+30FC 1
 62
   179
420
  2234388
370
     9
100
AcDbVertex
100
AcDb2dVertex
 10
93.73827427520405
 20
-123.5762563579948
 30
0.0
  0
VERTEX
  5
B0
330
AE
100
AcDbEntity
  8
_U+30EC_U+30A4_U+30E4_U+30FC 1
 62
   179
420
  2234388
370
     9
100
AcDbVertex
100
AcDb2dVertex
 10
93.73827427520405
 20
-120.6162391365127
 30
0.0
  0
SEQEND
  5
B1
330
AE
100
AcDbEntity
  8
_U+30EC_U+30A4_U+30E4_U+30FC 1
 62
   179
420
  2234388
370
     9
  0
INSERT
  5
B3
330
1F
100
AcDbEntity
  8
_U+30EC_U+30A4_U+30E4_U+30FC 1
100
AcDbBlockReference
  2
block 3
 10
0.0
 20
0.0
 30
0.0
  0
POLYLINE
  5
B9
330
1F
100
AcDbEntity
  8
_U+30EC_U+30A4_U+30E4_U+30FC 1
 62
   179
420
  2234388
370
     9
100
AcDb2dPolyline
 66
     1
 10
0.0
 20
0.0
 30
0.0
  0
VERTEX
  5
BA
330
B9
100
AcDbEntity
  8
_U+30EC_U+30A4_U+30E4_U+30FC 1
 62
   179
420
  2234388
370
     9
100
AcDbVertex
100
AcDb2dVertex
 10
93.73827427520405
 20
-121.6160113584849
 30
0.0
  0
VERTEX
  5
BB
330
B9
100
AcDbEntity
  8
_U+30EC_U+30A4_U+30E4_U+30FC 1
 62
   179
420
  2234388
370
     9
100
AcDbVertex
100
AcDb2dVertex
 10
99.238044412671
 20
-121.6160113584849
 30
0.0
  0
SEQEND
  5
BC
330
B9
100
AcDbEntity
  8
_U+30EC_U+30A4_U+30E4_U+30FC 1
 62
   179
420
  2234388
370
     9
  0
POLYLINE
  5
BD
330
1F
100
AcDbEntity
  8
_U+30EC_U+30A4_U+30E4_U+30FC 1
 62
   179
420
  2234388
370
     9
100
AcDb2dPolyline
 66
     1
 10
0.0
 20
0.0
 30
0.0
  0
VERTEX
  5
BE
330
BD
100
AcDbEntity
  8
_U+30EC_U+30A4_U+30E4_U+30FC 1
 62
   179
420
  2234388
370
     9
100
AcDbVertex
100
AcDb2dVertex
 10
99.238044412671
 20
-124.0764952467588
 30
0.0
  0
VERTEX
  5
BF
330
BD
100
AcDbEntity
  8
_U+30EC_U+30A4_U+30E4_U+30FC 1
 62
   179
420
  2234388
370
     9
100
AcDbVertex
100
AcDb2dVertex
 10
99.238044412671
 20
-120.6162391365127
 30
0.0
  0
SEQEND
  5
C0
330
BD
100
AcDbEntity
  8
_U+30EC_U+30A4_U+30E4_U+30FC 1
 62
   179
420
  2234388
370
     9
  0
INSERT
  5
C2
330
1F
100
AcDbEntity
  8
_U+30EC_U+30A4_U+30E4_U+30FC 1
100
AcDbBlockReference
  2
block 4
 10
0.0
 20
0.0
 30
0.0
  0
POLYLINE
  5
D1
330
1F
100
AcDbEntity
  8
_U+30EC_U+30A4_U+30E4_U+30FC 1
 62
   179
420
  2234388
370
     9
100
AcDb2dPolyline
 66
     1
 10
0.0
 20
0.0
 30
0.0
  0
VERTEX
  5
D2
330
D1
100
AcDbEntity
  8
_U+30EC_U+30A4_U+30E4_U+30FC 1
 62
   179
420
  2234388
370
     9
100
AcDbVertex
100
AcDb2dVertex
 10
103.2378034772953
 20
-125.6164408019291
 30
0.0
  0
VERTEX
  5
D3
330
D1
100
AcDbEntity
  8
_U+30EC_U+30A4_U+30E4_U+30FC 1
 62
   179
420
  2234388
370
     9
100
AcDbVertex
100
AcDb2dVertex
 10
103.2378034772953
 20
-121.8461283028717
 30
0.0
  0
SEQEND
  5
D4
330
D1
100
AcDbEntity
  8
_U+30EC_U+30A4_U+30E4_U+30FC 1
 62
   179
420
  2234388
370
     9
  0
POLYLINE
  5
D5
330
1F
100
AcDbEntity
  8
_U+30EC_U+30A4_U+30E4_U+30FC 1
 62
   179
420
  2234388
370
     9
100
AcDb2dPolyline
 66
     1
 10
0.0
 20
0.0
 30
0.0
  0
VERTEX
  5
D6
330
D5
100
AcDbEntity
  8
_U+30EC_U+30A4_U+30E4_U+30FC 1
 62
   179
420
  2234388
370
     9
100
AcDbVertex
100
AcDb2dVertex
 10
103.2378034772953
 20
-128.6164277456238
 30
0.0
  0
VERTEX
  5
D7
330
D5
100
AcDbEntity
  8
_U+30EC_U+30A4_U+30E4_U+30FC 1
 62
   179
420
  2234388
370
     9
100
AcDbVertex
100
AcDb2dVertex
 10
103.2378034772953
 20
-125.6164408019291
 30
0.0
  0
SEQEND
  5
D8
330
D5
100
AcDbEntity
  8
_U+30EC_U+30A4_U+30E4_U+30FC 1
 62
   179
420
  2234388
370
     9
  0
POLYLINE
  5
D9
330
1F
100
AcDbEntity
  8
_U+30EC_U+30A4_U+30E4_U+30FC 1
 62
   179
420
  2234388
370
     9
100
AcDb2dPolyline
 66
     1
 10
0.0
 20
0.0
 30
0.0
  0
VERTEX
  5
DA
330
D9
100
AcDbEntity
  8
_U+30EC_U+30A4_U+30E4_U+30FC 1
 62
   179
420
  2234388
370
     9
100
AcDbVertex
100
AcDb2dVertex
 10
101.7777621256552
 20
-128.6164277456238
 30
0.0
  0
VERTEX
  5
DB
330
D9
100
AcDbEntity
  8
_U+30EC_U+30A4_U+30E4_U+30FC 1
 62
   179
420
  2234388
370
     9
100
AcDbVertex
100
AcDb2dVertex
 10
104.2382459517719
 20
-128.6164277456238
 30
0.0
  0
SEQEND
  5
DC
330
D9
100
AcDbEntity
  8
_U+30EC_U+30A4_U+30E4_U+30FC 1
 62
   179
420
  2234388
370
     9
  0
POLYLINE
  5
DD
330
1F
100
AcDbEntity
  8
_U+30EC_U+30A4_U+30E4_U+30FC 1
 62
   179
420
  2234388
370
     9
100
AcDb2dPolyline
 66
     1
 10
0.0
 20
0.0
 30
0.0
  0
VERTEX
  5
DE
330
DD
100
AcDbEntity
  8
_U+30EC_U+30A4_U+30E4_U+30FC 1
 62
   179
420
  2234388
370
     9
100
AcDbVertex
100
AcDb2dVertex
 10
100.7779899289393
 20
-125.6164408019291
 30
0.0
  0
VERTEX
  5
DF
330
DD
100
AcDbEntity
  8
_U+30EC_U+30A4_U+30E4_U+30FC 1
 62
   179
420
  2234388
370
     9
100
AcDbVertex
100
AcDb2dVertex
 10
104.2382459517719
 20
-125.6164408019291
 30
0.0
  0
SEQEND
  5
E0
330
DD
100
AcDbEntity
  8
_U+30EC_U+30A4_U+30E4_U+30FC 1
 62
   179
420
  2234388
370
     9
  0
INSERT
  5
E2
330
1F
100
AcDbEntity
  8
_U+30EC_U+30A4_U+30E4_U+30FC 1
100
AcDbBlockReference
  2
block 5
 10
0.0
 20
0.0
 30
0.0
  0
POLYLINE
  5
E7
330
1F
100
AcDbEntity
  8
_U+30EC_U+30A4_U+30E4_U+30FC 1
 62
   179
420
  2234388
370
     9
100
AcDb2dPolyline
 66
     1
 10
0.0
 20
0.0
 30
0.0
  0
VERTEX
  5
E8
330
E7
100
AcDbEntity
  8
_U+30EC_U+30A4_U+30E4_U+30FC 1
 62
   179
420
  2234388
370
     9
100
AcDbVertex
100
AcDb2dVertex
 10
103.2378034772953
 20
-131.8162280226014
 30
0.0
  0
VERTEX
  5
E9
330
E7
100
AcDbEntity
  8
_U+30EC_U+30A4_U+30E4_U+30FC 1
 62
   179
420
  2234388
370
     9
100
AcDbVertex
100
AcDb2dVertex
 10
103.2378034772953
 20
-137.0741338546203
 30
0.0
  0
SEQEND
  5
EA
330
E7
100
AcDbEntity
  8
_U+30EC_U+30A4_U+30E4_U+30FC 1
 62
   179
420
  2234388
370
     9
  0
POLYLINE
  5
EB
330
1F
100
AcDbEntity
  8
_U+30EC_U+30A4_U+30E4_U+30FC 1
 62
   179
420
  2234388
370
     9
100
AcDb2dPolyline
 66
     1
 10
0.0
 20
0.0
 30
0.0
  0
VERTEX
  5
EC
330
EB
100
AcDbEntity
  8
_U+30EC_U+30A4_U+30E4_U+30FC 1
 62
   179
420
  2234388
370
     9
100
AcDbVertex
100
AcDb2dVertex
 10
103.2378034772953
 20
-128.6164277456238
 30
0.0
  0
VERTEX
  5
ED
330
EB
100
AcDbEntity
  8
_U+30EC_U+30A4_U+30E4_U+30FC 1
 62
   179
420
  2234388
370
     9
100
AcDbVertex
100
AcDb2dVertex
 10
103.2378034772953
 20
-131.8162280226014
 30
0.0
  0
SEQEND
  5
EE
330
EB
100
AcDbEntity
  8
_U+30EC_U+30A4_U+30E4_U+30FC 1
 62
   179
420
  2234388
370
     9
  0
POLYLINE
  5
EF
330
1F
100
AcDbEntity
  8
_U+30EC_U+30A4_U+30E4_U+30FC 1
 62
   179
420
  2234388
370
     9
100
AcDb2dPolyline
 66
     1
 10
0.0
 20
0.0
 30
0.0
  0
VERTEX
  5
F0
330
EF
100
AcDbEntity
  8
_U+30EC_U+30A4_U+30E4_U+30FC 1
 62
   179
420
  2234388
370
     9
100
AcDbVertex
100
AcDb2dVertex
 10
101.7777621256552
 20
-128.6164277456238
 30
0.0
  0
VERTEX
  5
F1
330
EF
100
AcDbEntity
  8
_U+30EC_U+30A4_U+30E4_U+30FC 1
 62
   179
420
  2234388
370
     9
100
AcDbVertex
100
AcDb2dVertex
 10
104.2382459517719
 20
-128.6164277456238
 30
0.0
  0
SEQEND
  5
F2
330
EF
100
AcDbEntity
  8
_U+30EC_U+30A4_U+30E4_U+30FC 1
 62
   179
420
  2234388
370
     9
  0
POLYLINE
  5
F3
330
1F
100
AcDbEntity
  8
_U+30EC_U+30A4_U+30E4_U+30FC 1
 62
   179
420
  2234388
370
     9
100
AcDb2dPolyline
 66
     1
 10
0.0
 20
0.0
 30
0.0
  0
VERTEX
  5
F4
330
F3
100
AcDbEntity
  8
_U+30EC_U+30A4_U+30E4_U+30FC 1
 62
   179
420
  2234388
370
     9
100
AcDbVertex
100
AcDb2dVertex
 10
97.7780055311108
 20
-131.8162280226014
 30
0.0
  0
VERTEX
  5
F5
330
F3
100
AcDbEntity
  8
_U+30EC_U+30A4_U+30E4_U+30FC 1
 62
   179
420
  2234388
370
     9
100
AcDbVertex
100
AcDb2dVertex
 10
104.2382459517719
 20
-131.8162280226014
 30
0.0
  0
SEQEND
  5
F6
330
F3
100
AcDbEntity
  8
_U+30EC_U+30A4_U+30E4_U+30FC 1
 62
   179
420
  2234388
370
     9
  0
INSERT
  5
F8
330
1F
100
AcDbEntity
  8
_U+30EC_U+30A4_U+30E4_U+30FC 1
100
AcDbBlockReference
  2
block 6
 10
0.0
 20
0.0
 30
0.0
  0
SPLINE
  5
107
330
1F
100
AcDbEntity
  8
_U+30EC_U+30A4_U+30E4_U+30FC 1
 62
   179
420
  2234388
370
     9
100
AcDbSpline
210
0.0
220
0.0
230
1.0
 70
    11
 71
     3
 72
    17
 73
    13
 74
     0
 42
0.0000000001
 43
0.0000000001
 12
1.0
 22
0.0
 32
0.0
 13
1.0
 23
0.0
 33
0.0
 40
0.0
 40
0.0
 40
0.0
 40
0.0
 40
1.0
 40
1.0
 40
1.0
 40
2.0
 40
2.0
 40
2.0
 40
3.0
 40
3.0
 40
3.0
 40
4.0
 40
4.0
 40
4.0
 40
4.0
 10
83.3325648184536
 20
-129.6506663564761
 30
0.0
 10
83.3325648184536
 20
-129.5955271898236
 30
0.0
 10
83.28776204181884
 20
-129.5507596898344
 30
0.0
 10
83.23265815433577
 20
-129.5507596898344
 30
0.0
 10
83.17716621130704
 20
-129.5507596898344
 30
0.0
 10
83.13239871244915
 20
-129.5955271898236
 30
0.0
 10
83.13239871244915
 20
-129.6506663564761
 30
0.0
 10
83.13239871244915
 20
-129.7057702453516
 30
0.0
 10
83.17716621130704
 20
-129.7505730231177
 30
0.0
 10
83.23265815433577
 20
-129.7505730231177
 30
0.0
 10
83.28776204181884
 20
-129.7505730231177
 30
0.0
 10
83.3325648184536
 20
-129.7057702453516
 30
0.0
 10
83.3325648184536
 20
-129.6506663564761
 30
0.0
  0
SPLINE
  5
108
330
1F
100
AcDbEntity
  8
_U+30EC_U+30A4_U+30E4_U+30FC 1
 62
   179
420
  2234388
370
     9
100
AcDbSpline
210
0.0
220
0.0
230
1.0
 70
    11
 71
     3
 72
    17
 73
    13
 74
     0
 42
0.0000000001
 43
0.0000000001
 12
1.0
 22
0.0
 32
0.0
 13
1.0
 23
0.0
 33
0.0
 40
0.0
 40
0.0
 40
0.0
 40
0.0
 40
1.0
 40
1.0
 40
1.0
 40
2.0
 40
2.0
 40
2.0
 40
3.0
 40
3.0
 40
3.0
 40
4.0
 40
4.0
 40
4.0
 40
4.0
 10
84.33265451516141
 20
-129.6506663564761
 30
0.0
 10
84.33265451516141
 20
-129.5955271898236
 30
0.0
 10
84.28788701630351
 20
-129.5507596898344
 30
0.0
 10
84.23274997894197
 20
-129.5507596898344
 30
0.0
 10
84.1776439635605
 20
-129.5507596898344
 30
0.0
 10
84.13284118692573
 20
-129.5955271898236
 30
0.0
 10
84.13284118692573
 20
-129.6506663564761
 30
0.0
 10
84.13284118692573
 20
-129.7057702453516
 30
0.0
 10
84.1776439635605
 20
-129.7505730231177
 30
0.0
 10
84.23274997894197
 20
-129.7505730231177
 30
0.0
 10
84.28788701630351
 20
-129.7505730231177
 30
0.0
 10
84.33265451516141
 20
-129.7057702453516
 30
0.0
 10
84.33265451516141
 20
-129.6506663564761
 30
0.0
  0
POLYLINE
  5
109
330
1F
100
AcDbEntity
  8
_U+30EC_U+30A4_U+30E4_U+30FC 1
 62
   179
420
  2234388
370
     9
100
AcDb2dPolyline
 66
     1
 10
0.0
 20
0.0
 30
0.0
  0
VERTEX
  5
10A
330
109
100
AcDbEntity
  8
_U+30EC_U+30A4_U+30E4_U+30FC 1
 62
   179
420
  2234388
370
     9
100
AcDbVertex
100
AcDb2dVertex
 10
84.23274997894197
 20
-129.6506663564761
 30
0.0
  0
VERTEX
  5
10B
330
109
100
AcDbEntity
  8
_U+30EC_U+30A4_U+30E4_U+30FC 1
 62
   179
420
  2234388
370
     9
100
AcDbVertex
100
AcDb2dVertex
 10
88.00306025485489
 20
-129.6506663564761
 30
0.0
  0
SEQEND
  5
10C
330
109
100
AcDbEntity
  8
_U+30EC_U+30A4_U+30E4_U+30FC 1
 62
   179
420
  2234388
370
     9
  0
POLYLINE
  5
10D
330
1F
100
AcDbEntity
  8
_U+30EC_U+30A4_U+30E4_U+30FC 1
 62
   179
420
  2234388
370
     9
100
AcDb2dPolyline
 66
     1
 10
0.0
 20
0.0
 30
0.0
  0
VERTEX
  5
10E
330
10D
100
AcDbEntity
  8
_U+30EC_U+30A4_U+30E4_U+30FC 1
 62
   179
420
  2234388
370
     9
100
AcDbVertex
100
AcDb2dVertex
 10
82.23253317985107
 20
-129.6506663564761
 30
0.0
  0
VERTEX
  5
10F
330
10D
100
AcDbEntity
  8
_U+30EC_U+30A4_U+30E4_U+30FC 1
 62
   179
420
  2234388
370
     9
100
AcDbVertex
100
AcDb2dVertex
 10
84.23274997894197
 20
-129.6506663564761
 30
0.0
  0
SEQEND
  5
110
330
10D
100
AcDbEntity
  8
_U+30EC_U+30A4_U+30E4_U+30FC 1
 62
   179
420
  2234388
370
     9
  0
INSERT
  5
112
330
1F
100
AcDbEntity
  8
_U+30EC_U+30A4_U+30E4_U+30FC 1
100
AcDbBlockReference
  2
block 7
 10
0.0
 20
0.0
 30
0.0
  0
ENDSEC
  0
SECTION
  2
OBJECTS
  0
DICTIONARY
  5
C
330
0
100
AcDbDictionary
281
     1
  3
ACAD_GROUP
350
D
  3
ACAD_LAYOUT
350
1A
  3
ACAD_MATERIAL
350
3B
  3
ACAD_MLEADERSTYLE
350
118
  3
ACAD_MLINESTYLE
350
17
  3
ACAD_PLOTSETTINGS
350
19
  3
ACAD_PLOTSTYLENAME
350
E
  3
ACAD_TABLESTYLE
350
117
  3
ACAD_VISUALSTYLE
350
2A
  0
SUN
  5
3F
330
29
100
AcDbSun
 90
        1
290
     0
 63
     7
421
 16777215
 40
1.0
291
     1
 91
  2455826
 92
 54000000
292
     0
 70
     2
 71
   256
280
     1
  0
DICTIONARY
  5
D
102
{ACAD_REACTORS
330
C
102
}
330
C
100
AcDbDictionary
281
     1
  0
DICTIONARY
  5
1A
102
{ACAD_REACTORS
330
C
102
}
330
C
100
AcDbDictionary
281
     1
  3
Layout1
350
1E
  3
Layout2
350
26
  3
Model
350
22
  0
DICTIONARY
  5
3B
102
{ACAD_REACTORS
330
C
102
}
330
C
100
AcDbDictionary
281
     1
  3
ByBlock
350
3D
  3
ByLayer
350
3C
  3
Global
350
3E
  0
DICTIONARY
  5
118
102
{ACAD_REACTORS
330
C
102
}
330
C
100
AcDbDictionary
281
     1
  0
DICTIONARY
  5
17
102
{ACAD_REACTORS
330
C
102
}
330
C
100
AcDbDictionary
281
     1
  3
Standard
350
18
  0
DICTIONARY
  5
19
102
{ACAD_REACTORS
330
C
102
}
330
C
100
AcDbDictionary
281
     1
  0
ACDBDICTIONARYWDFLT
  5
E
102
{ACAD_REACTORS
330
C
102
}
330
C
100
AcDbDictionary
281
     1
  3
Normal
350
F
100
AcDbDictionaryWithDefault
340
F
  0
DICTIONARY
  5
117
102
{ACAD_REACTORS
330
C
102
}
330
C
100
AcDbDictionary
281
     1
  0
DICTIONARY
  5
2A
102
{ACAD_REACTORS
330
C
102
}
330
C
100
AcDbDictionary
281
     1
  3
2dWireframe
350
2F
  3
3D Hidden
350
31
  3
3dWireframe
350
30
  3
Basic
350
32
  3
Brighten
350
36
  3
ColorChange
350
3A
  3
Conceptual
350
34
  3
Dim
350
35
  3
Facepattern
350
39
  3
Flat
350
2B
  3
FlatWithEdges
350
2C
  3
Gouraud
350
2D
  3
GouraudWithEdges
350
2E
  3
Linepattern
350
38
  3
Realistic
350
33
  3
Thicken
350
37
  0
LAYOUT
  5
1E
102
{ACAD_REACTORS
330
1A
102
}
330
1A
100
AcDbPlotSettings
  1

  2
none_device
  4

  6

 40
0.0
 41
0.0
 42
0.0
 43
0.0
 44
0.0
 45
0.0
 46
0.0
 47
0.0
 48
0.0
 49
0.0
140
0.0
141
0.0
142
1.0
143
1.0
 70
   688
 72
     0
 73
     0
 74
     5
  7

 75
    16
 76
     0
 77
     2
 78
   300
147
1.0
148
0.0
149
0.0
100
AcDbLayout
  1
Layout1
 70
     1
 71
     1
 10
0.0
 20
0.0
 11
12.0
 21
9.0
 12
0.0
 22
0.0
 32
0.0
 14
1.000000000000000E+20
 24
1.000000000000000E+20
 34
1.000000000000000E+20
 15
-1.000000000000000E+20
 25
-1.000000000000000E+20
 35
-1.000000000000000E+20
146
0.0
 13
0.0
 23
0.0
 33
0.0
 16
1.0
 26
0.0
 36
0.0
 17
0.0
 27
1.0
 37
0.0
 76
     0
330
1B
  0
LAYOUT
  5
26
102
{ACAD_REACTORS
330
1A
102
}
330
1A
100
AcDbPlotSettings
  1

  2
none_device
  4

  6

 40
0.0
 41
0.0
 42
0.0
 43
0.0
 44
0.0
 45
0.0
 46
0.0
 47
0.0
 48
0.0
 49
0.0
140
0.0
141
0.0
142
1.0
143
1.0
 70
   688
 72
     0
 73
     0
 74
     5
  7

 75
    16
 76
     0
 77
     2
 78
   300
147
1.0
148
0.0
149
0.0
100
AcDbLayout
  1
Layout2
 70
     1
 71
     2
 10
0.0
 20
0.0
 11
0.0
 21
0.0
 12
0.0
 22
0.0
 32
0.0
 14
0.0
 24
0.0
 34
0.0
 15
0.0
 25
0.0
 35
0.0
146
0.0
 13
0.0
 23
0.0
 33
0.0
 16
1.0
 26
0.0
 36
0.0
 17
0.0
 27
1.0
 37
0.0
 76
     0
330
23
  0
LAYOUT
  5
22
102
{ACAD_REACTORS
330
1A
102
}
330
1A
100
AcDbPlotSettings
  1

  2
none_device
  4

  6

 40
0.0
 41
0.0
 42
0.0
 43
0.0
 44
0.0
 45
0.0
 46
0.0
 47
0.0
 48
0.0
 49
0.0
140
0.0
141
0.0
142
1.0
143
1.0
 70
  1712
 72
     0
 73
     0
 74
     0
  7

 75
     0
 76
     0
 77
     2
 78
   300
147
1.0
148
0.0
149
0.0
100
AcDbLayout
  1
Model
 70
     1
 71
     0
 10
0.0
 20
0.0
 11
12.0
 21
9.0
 12
0.0
 22
0.0
 32
0.0
 14
1.000000000000000E+20
 24
1.000000000000000E+20
 34
1.000000000000000E+20
 15
-1.000000000000000E+20
 25
-1.000000000000000E+20
 35
-1.000000000000000E+20
146
0.0
 13
0.0
 23
0.0
 33
0.0
 16
1.0
 26
0.0
 36
0.0
 17
0.0
 27
1.0
 37
0.0
 76
     0
330
1F
331
29
  0
MATERIAL
  5
3D
102
{ACAD_REACTORS
330
3B
102
}
330
3B
100
AcDbMaterial
  1
ByBlock
 72
     1
 94
      127
  0
MATERIAL
  5
3C
102
{ACAD_REACTORS
330
3B
102
}
330
3B
100
AcDbMaterial
  1
ByLayer
 72
     1
 94
      127
  0
MATERIAL
  5
3E
102
{ACAD_REACTORS
330
3B
102
}
330
3B
100
AcDbMaterial
  1
Global
 72
     1
 94
      127
  0
MLINESTYLE
  5
18
102
{ACAD_REACTORS
330
17
102
}
330
17
100
AcDbMlineStyle
  2
Standard
 70
     0
  3

 62
   256
 51
90.0
 52
90.0
 71
     2
 49
0.5
 62
   256
  6
BYLAYER
 49
-0.5
 62
   256
  6
BYLAYER
  0
ACDBPLACEHOLDER
  5
F
102
{ACAD_REACTORS
330
E
102
}
330
E
  0
VISUALSTYLE
  5
2F
102
{ACAD_REACTORS
330
2A
102
}
330
2A
100
AcDbVisualStyle
  2
2dWireframe
 70
     4
177
     2
291
     0
 71
     0
176
     1
 72
     2
176
     1
 73
     0
176
     1
 90
        0
176
     1
 40
-0.6
176
     1
 41
-30.0
176
     1
 62
     5
 63
     7
421
 16777215
176
     1
 74
     1
176
     1
 91
        4
176
     1
 64
     7
176
     1
 65
   257
176
     1
 75
     1
176
     1
175
     1
176
     1
 42
1.0
176
     1
 92
        0
176
     1
 66
   257
176
     1
 43
1.0
176
     1
 76
     1
176
     1
 77
     6
176
     1
 78
     2
176
     1
 67
     7
176
     1
 79
     5
176
     1
170
     0
176
     1
171
     0
176
     1
290
     0
176
     1
 93
        1
176
     1
 44
0.0
176
     1
173
     0
176
     1
  0
VISUALSTYLE
  5
31
102
{ACAD_REACTORS
330
2A
102
}
330
2A
100
AcDbVisualStyle
  2
3D Hidden
 70
     6
177
     2
291
     0
 71
     1
176
     1
 72
     2
176
     1
 73
     2
176
     1
 90
        0
176
     1
 40
-0.6
176
     1
 41
-30.0
176
     1
 62
     5
 63
     7
421
 16777215
176
     1
 74
     2
176
     1
 91
        2
176
     1
 64
     7
176
     1
 65
   257
176
     1
 75
     2
176
     1
175
     1
176
     1
 42
40.0
176
     1
 92
        0
176
     1
 66
   257
176
     1
 43
1.0
176
     1
 76
     1
176
     1
 77
     6
176
     1
 78
     2
176
     1
 67
     7
176
     1
 79
     3
176
     1
170
     0
176
     1
171
     0
176
     1
290
     0
176
     1
 93
        1
176
     1
 44
0.0
176
     1
173
     0
176
     1
  0
VISUALSTYLE
  5
30
102
{ACAD_REACTORS
330
2A
102
}
330
2A
100
AcDbVisualStyle
  2
3dWireframe
 70
     5
177
     2
291
     0
 71
     0
176
     1
 72
     2
176
     1
 73
     0
176
     1
 90
        0
176
     1
 40
-0.6
176
     1
 41
-30.0
176
     1
 62
     5
 63
     7
421
 16777215
176
     1
 74
     1
176
     1
 91
        4
176
     1
 64
     7
176
     1
 65
   257
176
     1
 75
     1
176
     1
175
     1
176
     1
 42
1.0
176
     1
 92
        0
176
     1
 66
   257
176
     1
 43
1.0
176
     1
 76
     1
176
     1
 77
     6
176
     1
 78
     2
176
     1
 67
     7
176
     1
 79
     5
176
     1
170
     0
176
     1
171
     0
176
     1
290
     0
176
     1
 93
        1
176
     1
 44
0.0
176
     1
173
     0
176
     1
  0
VISUALSTYLE
  5
32
102
{ACAD_REACTORS
330
2A
102
}
330
2A
100
AcDbVisualStyle
  2
Basic
 70
     7
177
     2
291
     1
 71
     1
176
     1
 72
     0
176
     1
 73
     1
176
     1
 90
        0
176
     1
 40
-0.6
176
     1
 41
-30.0
176
     1
 62
     5
 63
     7
421
 16777215
176
     1
 74
     0
176
     1
 91
        4
176
     1
 64
     7
176
     1
 65
   257
176
     1
 75
     1
176
     1
175
     1
176
     1
 42
1.0
176
     1
 92
        8
176
     1
 66
     7
176
     1
 43
1.0
176
     1
 76
     1
176
     1
 77
     6
176
     1
 78
     2
176
     1
 67
     7
176
     1
 79
     5
176
     1
170
     0
176
     1
171
     0
176
     1
290
     0
176
     1
 93
        1
176
     1
 44
0.0
176
     1
173
     0
176
     1
  0
VISUALSTYLE
  5
36
102
{ACAD_REACTORS
330
2A
102
}
330
2A
100
AcDbVisualStyle
  2
Brighten
 70
    12
177
     2
291
     1
 71
     2
176
     1
 72
     2
176
     1
 73
     0
176
     1
 90
        0
176
     1
 40
-0.6
176
     1
 41
-30.0
176
     1
 62
     5
 63
     7
421
 16777215
176
     1
 74
     1
176
     1
 91
        4
176
     1
 64
     7
176
     1
 65
   257
176
     1
 75
     1
176
     1
175
     1
176
     1
 42
1.0
176
     1
 92
        8
176
     1
 66
     7
176
     1
 43
1.0
176
     1
 76
     1
176
     1
 77
     6
176
     1
 78
     2
176
     1
 67
     7
176
     1
 79
     5
176
     1
170
     0
176
     1
171
     0
176
     1
290
     0
176
     1
 93
        1
176
     1
 44
50.0
176
     1
173
     0
176
     1
  0
VISUALSTYLE
  5
3A
102
{ACAD_REACTORS
330
2A
102
}
330
2A
100
AcDbVisualStyle
  2
ColorChange
 70
    16
177
     2
291
     1
 71
     2
176
     1
 72
     2
176
     1
 73
     3
176
     1
 90
        0
176
     1
 40
-0.6
176
     1
 41
-30.0
176
     1
 62
     5
 63
     8
421
  8421504
176
     1
 74
     1
176
     1
 91
        4
176
     1
 64
     7
176
     1
 65
   257
176
     1
 75
     1
176
     1
175
     1
176
     1
 42
1.0
176
     1
 92
        8
176
     1
 66
     8
424
  8421504
176
     1
 43
1.0
176
     1
 76
     1
176
     1
 77
     6
176
     1
 78
     2
176
     1
 67
     7
176
     1
 79
     5
176
     1
170
     0
176
     1
171
     0
176
     1
290
     0
176
     1
 93
        1
176
     1
 44
0.0
176
     1
173
     0
176
     1
  0
VISUALSTYLE
  5
34
102
{ACAD_REACTORS
330
2A
102
}
330
2A
100
AcDbVisualStyle
  2
Conceptual
 70
     9
177
     2
291
     0
 71
     3
176
     1
 72
     2
176
     1
 73
     0
176
     1
 90
        0
176
     1
 40
-0.6
176
     1
 41
-30.0
176
     1
 62
     5
 63
     7
421
 16777215
176
     1
 74
     2
176
     1
 91
        2
176
     1
 64
     7
176
     1
 65
   257
176
     1
 75
     1
176
     1
175
     1
176
     1
 42
40.0
176
     1
 92
        8
176
     1
 66
     7
176
     1
 43
1.0
176
     1
 76
     1
176
     1
 77
     6
176
     1
 78
     2
176
     1
 67
     7
176
     1
 79
     3
176
     1
170
     0
176
     1
171
     0
176
     1
290
     0
176
     1
 93
        1
176
     1
 44
0.0
176
     1
173
     0
176
     1
  0
VISUALSTYLE
  5
35
102
{ACAD_REACTORS
330
2A
102
}
330
2A
100
AcDbVisualStyle
  2
Dim
 70
    11
177
     2
291
     1
 71
     2
176
     1
 72
     2
176
     1
 73
     0
176
     1
 90
        0
176
     1
 40
-0.6
176
     1
 41
-30.0
176
     1
 62
     5
 63
     7
421
 16777215
176
     1
 74
     1
176
     1
 91
        4
176
     1
 64
     7
176
     1
 65
   257
176
     1
 75
     1
176
     1
175
     1
176
     1
 42
1.0
176
     1
 92
        8
176
     1
 66
     7
176
     1
 43
1.0
176
     1
 76
     1
176
     1
 77
     6
176
     1
 78
     2
176
     1
 67
     7
176
     1
 79
     5
176
     1
170
     0
176
     1
171
     0
176
     1
290
     0
176
     1
 93
        1
176
     1
 44
-50.0
176
     1
173
     0
176
     1
  0
VISUALSTYLE
  5
39
102
{ACAD_REACTORS
330
2A
102
}
330
2A
100
AcDbVisualStyle
  2
Facepattern
 70
    15
177
     2
291
     1
 71
     2
176
     1
 72
     2
176
     1
 73
     0
176
     1
 90
        0
176
     1
 40
-0.6
176
     1
 41
-30.0
176
     1
 62
     5
 63
     7
421
 16777215
176
     1
 74
     1
176
     1
 91
        4
176
     1
 64
     7
176
     1
 65
   257
176
     1
 75
     1
176
     1
175
     1
176
     1
 42
1.0
176
     1
 92
        8
176
     1
 66
     7
176
     1
 43
1.0
176
     1
 76
     1
176
     1
 77
     6
176
     1
 78
     2
176
     1
 67
     7
176
     1
 79
     5
176
     1
170
     0
176
     1
171
     0
176
     1
290
     0
176
     1
 93
        1
176
     1
 44
0.0
176
     1
173
     0
176
     1
  0
VISUALSTYLE
  5
2B
102
{ACAD_REACTORS
330
2A
102
}
330
2A
100
AcDbVisualStyle
  2
Flat
 70
     0
177
     2
291
     1
 71
     2
176
     1
 72
     1
176
     1
 73
     1
176
     1
 90
        2
176
     1
 40
-0.6
176
     1
 41
30.0
176
     1
 62
     5
 63
     7
421
 16777215
176
     1
 74
     0
176
     1
 91
        4
176
     1
 64
     7
176
     1
 65
   257
176
     1
 75
     1
176
     1
175
     1
176
     1
 42
1.0
176
     1
 92
        8
176
     1
 66
     7
176
     1
 43
1.0
176
     1
 76
     1
176
     1
 77
     6
176
     1
 78
     2
176
     1
 67
     7
176
     1
 79
     5
176
     1
170
     0
176
     1
171
     0
176
     1
290
     0
176
     1
 93
       13
176
     1
 44
0.0
176
     1
173
     0
176
     1
  0
VISUALSTYLE
  5
2C
102
{ACAD_REACTORS
330
2A
102
}
330
2A
100
AcDbVisualStyle
  2
FlatWithEdges
 70
     1
177
     2
291
     1
 71
     2
176
     1
 72
     1
176
     1
 73
     1
176
     1
 90
        2
176
     1
 40
-0.6
176
     1
 41
30.0
176
     1
 62
     5
 63
     7
421
 16777215
176
     1
 74
     1
176
     1
 91
        4
176
     1
 64
     7
176
     1
 65
   257
176
     1
 75
     1
176
     1
175
     1
176
     1
 42
1.0
176
     1
 92
        0
176
     1
 66
   257
176
     1
 43
1.0
176
     1
 76
     1
176
     1
 77
     6
176
     1
 78
     2
176
     1
 67
     7
176
     1
 79
     5
176
     1
170
     0
176
     1
171
     0
176
     1
290
     0
176
     1
 93
       13
176
     1
 44
0.0
176
     1
173
     0
176
     1
  0
VISUALSTYLE
  5
2D
102
{ACAD_REACTORS
330
2A
102
}
330
2A
100
AcDbVisualStyle
  2
Gouraud
 70
     2
177
     2
291
     1
 71
     2
176
     1
 72
     2
176
     1
 73
     1
176
     1
 90
        2
176
     1
 40
-0.6
176
     1
 41
30.0
176
     1
 62
     5
 63
     7
421
 16777215
176
     1
 74
     0
176
     1
 91
        4
176
     1
 64
     7
176
     1
 65
   257
176
     1
 75
     1
176
     1
175
     1
176
     1
 42
1.0
176
     1
 92
        0
176
     1
 66
     7
176
     1
 43
1.0
176
     1
 76
     1
176
     1
 77
     6
176
     1
 78
     2
176
     1
 67
     7
176
     1
 79
     5
176
     1
170
     0
176
     1
171
     0
176
     1
290
     0
176
     1
 93
       13
176
     1
 44
0.0
176
     1
173
     0
176
     1
  0
VISUALSTYLE
  5
2E
102
{ACAD_REACTORS
330
2A
102
}
330
2A
100
AcDbVisualStyle
  2
GouraudWithEdges
 70
     3
177
     2
291
     1
 71
     2
176
     1
 72
     2
176
     1
 73
     1
176
     1
 90
        2
176
     1
 40
-0.6
176
     1
 41
30.0
176
     1
 62
     5
 63
     7
421
 16777215
176
     1
 74
     1
176
     1
 91
        4
176
     1
 64
     7
176
     1
 65
   257
176
     1
 75
     1
176
     1
175
     1
176
     1
 42
1.0
176
     1
 92
        0
176
     1
 66
   257
176
     1
 43
1.0
176
     1
 76
     1
176
     1
 77
     6
176
     1
 78
     2
176
     1
 67
     7
176
     1
 79
     5
176
     1
170
     0
176
     1
171
     0
176
     1
290
     0
176
     1
 93
       13
176
     1
 44
0.0
176
     1
173
     0
176
     1
  0
VISUALSTYLE
  5
38
102
{ACAD_REACTORS
330
2A
102
}
330
2A
100
AcDbVisualStyle
  2
Linepattern
 70
    14
177
     2
291
     1
 71
     2
176
     1
 72
     2
176
     1
 73
     0
176
     1
 90
        0
176
     1
 40
-0.6
176
     1
 41
-30.0
176
     1
 62
     5
 63
     7
421
 16777215
176
     1
 74
     1
176
     1
 91
        4
176
     1
 64
     7
176
     1
 65
   257
176
     1
 75
     7
176
     1
175
     7
176
     1
 42
1.0
176
     1
 92
        8
176
     1
 66
     7
176
     1
 43
1.0
176
     1
 76
     1
176
     1
 77
     6
176
     1
 78
     2
176
     1
 67
     7
176
     1
 79
     5
176
     1
170
     0
176
     1
171
     0
176
     1
290
     0
176
     1
 93
        1
176
     1
 44
0.0
176
     1
173
     0
176
     1
  0
VISUALSTYLE
  5
33
102
{ACAD_REACTORS
330
2A
102
}
330
2A
100
AcDbVisualStyle
  2
Realistic
 70
     8
177
     2
291
     0
 71
     2
176
     1
 72
     2
176
     1
 73
     0
176
     1
 90
        0
176
     1
 40
-0.6
176
     1
 41
-30.0
176
     1
 62
     5
 63
     7
421
 16777215
176
     1
 74
     1
176
     1
 91
        0
176
     1
 64
     7
176
     1
 65
   257
176
     1
 75
     1
176
     1
175
     1
176
     1
 42
1.0
176
     1
 92
        8
176
     1
 66
     8
424
  7895160
176
     1
 43
1.0
176
     1
 76
     1
176
     1
 77
     6
176
     1
 78
     2
176
     1
 67
     7
176
     1
 79
     5
176
     1
170
     0
176
     1
171
     0
176
     1
290
     0
176
     1
 93
       13
176
     1
 44
0.0
176
     1
173
     0
176
     1
  0
VISUALSTYLE
  5
37
102
{ACAD_REACTORS
330
2A
102
}
330
2A
100
AcDbVisualStyle
  2
Thicken
 70
    13
177
     2
291
     1
 71
     2
176
     1
 72
     2
176
     1
 73
     0
176
     1
 90
        0
176
     1
 40
-0.6
176
     1
 41
-30.0
176
     1
 62
     5
 63
     7
421
 16777215
176
     1
 74
     1
176
     1
 91
        4
176
     1
 64
     7
176
     1
 65
   257
176
     1
 75
     1
176
     1
175
     1
176
     1
 42
1.0
176
     1
 92
       12
176
     1
 66
     7
176
     1
 43
1.0
176
     1
 76
     1
176
     1
 77
     6
176
     1
 78
     2
176
     1
 67
     7
176
     1
 79
     5
176
     1
170
     0
176
     1
171
     0
176
     1
290
     0
176
     1
 93
        1
176
     1
 44
0.0
176
     1
173
     0
176
     1
  0
ENDSEC
  0
EOF
