  0
SECTION
  2
HEADER
  9
$ACADVER
  1
AC1024
  9
$ACADMAINTVER
 70
     6
  9
$DWGCODEPAGE
  3
UNDEFINED
  9
$INSBASE
 10
0.0
 20
0.0
 30
0.0
  9
$EXTMIN
 10
1.000000000000000E+20
 20
1.000000000000000E+20
 30
1.000000000000000E+20
  9
$EXTMAX
 10
-1.000000000000000E+20
 20
-1.000000000000000E+20
 30
-1.000000000000000E+20
  9
$LIMMIN
 10
0.0
 20
0.0
  9
$LIMMAX
 10
12.0
 20
9.0
  9
$ORTHOMODE
 70
     0
  9
$REGENMODE
 70
     1
  9
$FILLMODE
 70
     1
  9
$QTEXTMODE
 70
     0
  9
$MIRRTEXT
 70
     1
  9
$LTSCALE
 40
1.0
  9
$ATTMODE
 70
     1
  9
$TEXTSIZE
 40
0.2
  9
$TRACEWID
 40
0.05
  9
$TEXTSTYLE
  7
Standard
  9
$CLAYER
  8
0
  9
$CELTYPE
  6
ByLayer
  9
$CECOLOR
 62
   256
  9
$CELTSCALE
 40
1.0
  9
$DISPSILH
 70
     0
  9
$DIMSCALE
 40
1.0
  9
$DIMASZ
 40
0.18
  9
$DIMEXO
 40
0.0625
  9
$DIMDLI
 40
0.38
  9
$DIMRND
 40
0.0
  9
$DIMDLE
 40
0.0
  9
$DIMEXE
 40
0.18
  9
$DIMTP
 40
0.0
  9
$DIMTM
 40
0.0
  9
$DIMTXT
 40
0.18
  9
$DIMCEN
 40
0.09
  9
$DIMTSZ
 40
0.0
  9
$DIMTOL
 70
     0
  9
$DIMLIM
 70
     0
  9
$DIMTIH
 70
     1
  9
$DIMTOH
 70
     1
  9
$DIMSE1
 70
     0
  9
$DIMSE2
 70
     0
  9
$DIMTAD
 70
     0
  9
$DIMZIN
 70
     0
  9
$DIMBLK
  1

  9
$DIMASO
 70
     1
  9
$DIMSHO
 70
     1
  9
$DIMPOST
  1

  9
$DIMAPOST
  1

  9
$DIMALT
 70
     0
  9
$DIMALTD
 70
     2
  9
$DIMALTF
 40
25.4
  9
$DIMLFAC
 40
1.0
  9
$DIMTOFL
 70
     0
  9
$DIMTVP
 40
0.0
  9
$DIMTIX
 70
     0
  9
$DIMSOXD
 70
     0
  9
$DIMSAH
 70
     0
  9
$DIMBLK1
  1

  9
$DIMBLK2
  1

  9
$DIMSTYLE
  2
Standard
  9
$DIMCLRD
 70
     0
  9
$DIMCLRE
 70
     0
  9
$DIMCLRT
 70
     0
  9
$DIMTFAC
 40
1.0
  9
$DIMGAP
 40
0.09
  9
$DIMJUST
 70
     0
  9
$DIMSD1
 70
     0
  9
$DIMSD2
 70
     0
  9
$DIMTOLJ
 70
     1
  9
$DIMTZIN
 70
     0
  9
$DIMALTZ
 70
     0
  9
$DIMALTTZ
 70
     0
  9
$DIMUPT
 70
     0
  9
$DIMDEC
 70
     4
  9
$DIMTDEC
 70
     4
  9
$DIMALTU
 70
     2
  9
$DIMALTTD
 70
     2
  9
$DIMTXSTY
  7
Standard
  9
$DIMAUNIT
 70
     0
  9
$DIMADEC
 70
     0
  9
$DIMALTRND
 40
0.0
  9
$DIMAZIN
 70
     0
  9
$DIMDSEP
 70
    46
  9
$DIMATFIT
 70
     3
  9
$DIMFRAC
 70
     0
  9
$DIMLDRBLK
  1

  9
$DIMLUNIT
 70
     2
  9
$DIMLWD
 70
    -2
  9
$DIMLWE
 70
    -2
  9
$DIMTMOVE
 70
     0
  9
$DIMFXL
 40
1.0
  9
$DIMFXLON
 70
     0
  9
$DIMJOGANG
 40
0.7853981633974483
  9
$DIMTFILL
 70
     0
  9
$DIMTFILLCLR
 70
     0
  9
$DIMARCSYM
 70
     0
  9
$DIMLTYPE
  6

  9
$DIMLTEX1
  6

  9
$DIMLTEX2
  6

  9
$DIMTXTDIRECTION
 70
     0
  9
$LUNITS
 70
     2
  9
$LUPREC
 70
     4
  9
$SKETCHINC
 40
0.1
  9
$FILLETRAD
 40
0.5
  9
$AUNITS
 70
     0
  9
$AUPREC
 70
     0
  9
$MENU
  1
.
  9
$ELEVATION
 40
0.0
  9
$PELEVATION
 40
0.0
  9
$THICKNESS
 40
0.0
  9
$LIMCHECK
 70
     0
  9
$CHAMFERA
 40
0.5
  9
$CHAMFERB
 40
0.5
  9
$CHAMFERC
 40
1.0
  9
$CHAMFERD
 40
0.0
  9
$SKPOLY
 70
     0
  9
$TDCREATE
 40
2457917.623310173
  9
$TDUCREATE
 40
2457917.248310185
  9
$TDUPDATE
 40
2457917.623310173
  9
$TDUUPDATE
 40
2457917.248310185
  9
$TDINDWG
 40
0.0000000116
  9
$TDUSRTIMER
 40
0.0000000116
  9
$USRTIMER
 70
     1
  9
$ANGBASE
 50
0.0
  9
$ANGDIR
 70
     0
  9
$PDMODE
 70
     0
  9
$PDSIZE
 40
0.0
  9
$PLINEWID
 40
0.0
  9
$SPLFRAME
 70
     0
  9
$SPLINETYPE
 70
     6
  9
$SPLINESEGS
 70
     8
  9
$HANDSEED
  5
12B
  9
$SURFTAB1
 70
     6
  9
$SURFTAB2
 70
     6
  9
$SURFTYPE
 70
     6
  9
$SURFU
 70
     6
  9
$SURFV
 70
     6
  9
$UCSBASE
  2

  9
$UCSNAME
  2

  9
$UCSORG
 10
0.0
 20
0.0
 30
0.0
  9
$UCSXDIR
 10
1.0
 20
0.0
 30
0.0
  9
$UCSYDIR
 10
0.0
 20
1.0
 30
0.0
  9
$UCSORTHOREF
  2

  9
$UCSORTHOVIEW
 70
     0
  9
$UCSORGTOP
 10
0.0
 20
0.0
 30
0.0
  9
$UCSORGBOTTOM
 10
0.0
 20
0.0
 30
0.0
  9
$UCSORGLEFT
 10
0.0
 20
0.0
 30
0.0
  9
$UCSORGRIGHT
 10
0.0
 20
0.0
 30
0.0
  9
$UCSORGFRONT
 10
0.0
 20
0.0
 30
0.0
  9
$UCSORGBACK
 10
0.0
 20
0.0
 30
0.0
  9
$PUCSBASE
  2

  9
$PUCSNAME
  2

  9
$PUCSORG
 10
0.0
 20
0.0
 30
0.0
  9
$PUCSXDIR
 10
1.0
 20
0.0
 30
0.0
  9
$PUCSYDIR
 10
0.0
 20
1.0
 30
0.0
  9
$PUCSORTHOREF
  2

  9
$PUCSORTHOVIEW
 70
     0
  9
$PUCSORGTOP
 10
0.0
 20
0.0
 30
0.0
  9
$PUCSORGBOTTOM
 10
0.0
 20
0.0
 30
0.0
  9
$PUCSORGLEFT
 10
0.0
 20
0.0
 30
0.0
  9
$PUCSORGRIGHT
 10
0.0
 20
0.0
 30
0.0
  9
$PUCSORGFRONT
 10
0.0
 20
0.0
 30
0.0
  9
$PUCSORGBACK
 10
0.0
 20
0.0
 30
0.0
  9
$USERI1
 70
     0
  9
$USERI2
 70
     0
  9
$USERI3
 70
     0
  9
$USERI4
 70
     0
  9
$USERI5
 70
     0
  9
$USERR1
 40
0.0
  9
$USERR2
 40
0.0
  9
$USERR3
 40
0.0
  9
$USERR4
 40
0.0
  9
$USERR5
 40
0.0
  9
$WORLDVIEW
 70
     1
  9
$SHADEDGE
 70
     3
  9
$SHADEDIF
 70
    70
  9
$TILEMODE
 70
     1
  9
$MAXACTVP
 70
    64
  9
$PINSBASE
 10
0.0
 20
0.0
 30
0.0
  9
$PLIMCHECK
 70
     0
  9
$PEXTMIN
 10
1.000000000000000E+20
 20
1.000000000000000E+20
 30
1.000000000000000E+20
  9
$PEXTMAX
 10
-1.000000000000000E+20
 20
-1.000000000000000E+20
 30
-1.000000000000000E+20
  9
$PLIMMIN
 10
0.0
 20
0.0
  9
$PLIMMAX
 10
12.0
 20
9.0
  9
$UNITMODE
 70
     0
  9
$VISRETAIN
 70
     1
  9
$PLINEGEN
 70
     0
  9
$PSLTSCALE
 70
     1
  9
$TREEDEPTH
 70
  3020
  9
$CMLSTYLE
  2
Standard
  9
$CMLJUST
 70
     0
  9
$CMLSCALE
 40
1.0
  9
$PROXYGRAPHICS
 70
     1
  9
$MEASUREMENT
 70
     0
  9
$CELWEIGHT
370
    -1
  9
$ENDCAPS
280
     0
  9
$JOINSTYLE
280
     0
  9
$LWDISPLAY
290
     1
  9
$INSUNITS
 70
     1
  9
$HYPERLINKBASE
  1

  9
$STYLESHEET
  1

  9
$XEDIT
290
     1
  9
$CEPSNTYPE
380
     0
  9
$PSTYLEMODE
290
     1
  9
$FINGERPRINTGUID
  2
{DB9652B8-D810-5BB4-D5DF-F0F575533989}
  9
$VERSIONGUID
  2
{FAEB1C32-E019-11D5-929B-00C0DF256EC4}
  9
$EXTNAMES
290
     1
  9
$PSVPSCALE
 40
0.0
  9
$OLESTARTUP
290
     0
  9
$SORTENTS
280
   127
  9
$INDEXCTL
280
     0
  9
$HIDETEXT
280
     1
  9
$XCLIPFRAME
280
     2
  9
$HALOGAP
280
     0
  9
$OBSCOLOR
 70
   257
  9
$OBSLTYPE
280
     0
  9
$INTERSECTIONDISPLAY
280
     0
  9
$INTERSECTIONCOLOR
 70
   257
  9
$DIMASSOC
280
     2
  9
$PROJECTNAME
  1

  9
$CAMERADISPLAY
290
     0
  9
$LENSLENGTH
 40
50.0
  9
$CAMERAHEIGHT
 40
0.0
  9
$STEPSPERSEC
 40
2.0
  9
$STEPSIZE
 40
6.0
  9
$3DDWFPREC
 40
2.0
  9
$PSOLWIDTH
 40
0.25
  9
$PSOLHEIGHT
 40
4.0
  9
$LOFTANG1
 40
1.570796326794897
  9
$LOFTANG2
 40
1.570796326794897
  9
$LOFTMAG1
 40
0.0
  9
$LOFTMAG2
 40
0.0
  9
$LOFTPARAM
 70
     7
  9
$LOFTNORMALS
280
     1
  9
$LATITUDE
 40
37.795
  9
$LONGITUDE
 40
-122.394
  9
$NORTHDIRECTION
 40
0.0
  9
$TIMEZONE
 70
 -8000
  9
$LIGHTGLYPHDISPLAY
280
     1
  9
$TILEMODELIGHTSYNCH
280
     1
  9
$CMATERIAL
347
3C
  9
$SOLIDHIST
280
     1
  9
$SHOWHIST
280
     1
  9
$DWFFRAME
280
     2
  9
$DGNFRAME
280
     2
  9
$REALWORLDSCALE
290
     1
  9
$INTERFERECOLOR
 62
   256
  9
$CSHADOW
280
     0
  9
$SHADOWPLANELOCATION
 40
0.0
  0
ENDSEC
  0
SECTION
  2
CLASSES
  0
CLASS
  1
ACDBDICTIONARYWDFLT
  2
AcDbDictionaryWithDefault
  3
ObjectDBX Classes
 90
        0
 91
        4
280
     0
281
     0
  0
CLASS
  1
VISUALSTYLE
  2
AcDbVisualStyle
  3
ObjectDBX Classes
 90
     4095
 91
        4
280
     0
281
     0
  0
CLASS
  1
MATERIAL
  2
AcDbMaterial
  3
ObjectDBX Classes
 90
     1153
 91
        4
280
     0
281
     0
  0
CLASS
  1
SUN
  2
AcDbSun
  3
SCENEOE
 90
     1024
 91
        4
280
     0
281
     0
  0
ENDSEC
  0
SECTION
  2
TABLES
  0
TABLE
  2
VPORT
  5
8
330
0
100
AcDbSymbolTable
 70
     1
  0
VPORT
  5
29
330
8
100
AcDbSymbolTableRecord
100
AcDbViewportTableRecord
  2
*Active
 70
     0
 10
0.0
 20
0.0
 11
1.0
 21
1.0
 12
0.0
 22
0.0
 13
0.0
 23
0.0
 14
0.5
 24
0.5
 15
0.5
 25
0.5
 16
0.0
 26
0.0
 36
1.0
 17
91.00082462281999
 27
-128.4993055234307
 37
0.0
 40
256.9986110468615
 41
0.7081814508812795
 42
50.0
 43
0.0
 44
0.0
 50
0.0
 51
0.0
 71
     0
 72
   100
 73
     1
 74
     3
 75
     0
 76
     0
 77
     0
 78
     0
281
     0
 65
     1
110
0.0
120
0.0
130
0.0
111
1.0
121
0.0
131
0.0
112
0.0
122
1.0
132
0.0
 79
     0
146
0.0
 60
     3
 61
     5
292
     1
282
     1
141
0.0
142
0.0
 63
   250
361
3F
  0
ENDTAB
  0
TABLE
  2
LTYPE
  5
5
330
0
100
AcDbSymbolTable
 70
     1
  0
LTYPE
  5
14
330
5
100
AcDbSymbolTableRecord
100
AcDbLinetypeTableRecord
  2
ByBlock
 70
     0
  3

 72
    65
 73
     0
 40
0.0
  0
LTYPE
  5
15
330
5
100
AcDbSymbolTableRecord
100
AcDbLinetypeTableRecord
  2
ByLayer
 70
     0
  3

 72
    65
 73
     0
 40
0.0
  0
LTYPE
  5
16
330
5
100
AcDbSymbolTableRecord
100
AcDbLinetypeTableRecord
  2
Continuous
 70
     0
  3
Solid line
 72
    65
 73
     0
 40
0.0
  0
ENDTAB
  0
TABLE
  2
LAYER
  5
2
330
0
100
AcDbSymbolTable
 70
     2
  0
LAYER
  5
10
330
2
100
AcDbSymbolTableRecord
100
AcDbLayerTableRecord
  2
0
 70
     0
 62
     7
  6
Continuous
370
    -3
390
F
347
3E
  0
LAYER
  5
40
330
2
100
AcDbSymbolTableRecord
100
AcDbLayerTableRecord
  2
_U+30EC_U+30A4_U+30E4_U+30FC 1
 70
     0
 62
     7
  6
Continuous
370
    -3
390
F
347
3E
  0
ENDTAB
  0
TABLE
  2
STYLE
  5
3
330
0
100
AcDbSymbolTable
 70
     1
  0
STYLE
  5
11
330
3
100
AcDbSymbolTableRecord
100
AcDbTextStyleTableRecord
  2
Standard
 70
     0
 40
0.0
 41
1.0
 50
0.0
 71
     0
 42
0.2
  3
txt
  4

  0
ENDTAB
  0
TABLE
  2
VIEW
  5
6
330
0
100
AcDbSymbolTable
 70
     0
  0
ENDTAB
  0
TABLE
  2
UCS
  5
7
330
0
100
AcDbSymbolTable
 70
     0
  0
ENDTAB
  0
TABLE
  2
APPID
  5
9
330
0
100
AcDbSymbolTable
 70
     1
  0
APPID
  5
12
330
9
100
AcDbSymbolTableRecord
100
AcDbRegAppTableRecord
  2
ACAD
 70
     0
  0
ENDTAB
  0
TABLE
  2
DIMSTYLE
  5
A
330
0
100
AcDbSymbolTable
 70
     1
100
AcDbDimStyleTable
  0
DIMSTYLE
105
27
330
A
100
AcDbSymbolTableRecord
100
AcDbDimStyleTableRecord
  2
Standard
 70
     0
178
     0
340
11
  0
ENDTAB
  0
TABLE
  2
BLOCK_RECORD
  5
1
330
0
100
AcDbSymbolTable
 70
     7
  0
BLOCK_RECORD
  5
1F
330
1
100
AcDbSymbolTableRecord
100
AcDbBlockTableRecord
  2
*Model_Space
340
22
 70
     0
280
     1
281
     0
  0
BLOCK_RECORD
  5
1B
330
1
100
AcDbSymbolTableRecord
100
AcDbBlockTableRecord
  2
*Paper_Space
340
1E
 70
     0
280
     1
281
     0
  0
BLOCK_RECORD
  5
23
330
1
100
AcDbSymbolTableRecord
100
AcDbBlockTableRecord
  2
*Paper_Space0
340
26
 70
     0
280
     1
281
     0
  0
BLOCK_RECORD
  5
A1
330
1
100
AcDbSymbolTableRecord
100
AcDbBlockTableRecord
  2
block 2
340
0
102
{BLKREFS
331
A2
102
}
 70
     0
280
     1
281
     0
  0
BLOCK_RECORD
  5
AF
330
1
100
AcDbSymbolTableRecord
100
AcDbBlockTableRecord
  2
block 3
340
0
102
{BLKREFS
331
B0
102
}
 70
     0
280
     1
281
     0
  0
BLOCK_RECORD
  5
C7
330
1
100
AcDbSymbolTableRecord
100
AcDbBlockTableRecord
  2
block 4
340
0
102
{BLKREFS
331
C8
102
}
 70
     0
280
     1
281
     0
  0
BLOCK_RECORD
  5
E3
330
1
100
AcDbSymbolTableRecord
100
AcDbBlockTableRecord
  2
block 5
340
0
102
{BLKREFS
331
E4
102
}
 70
     0
280
     1
281
     0
  0
BLOCK_RECORD
  5
106
330
1
100
AcDbSymbolTableRecord
100
AcDbBlockTableRecord
  2
block 6
340
0
102
{BLKREFS
331
107
102
}
 70
     0
280
     1
281
     0
  0
BLOCK_RECORD
  5
119
330
1
100
AcDbSymbolTableRecord
100
AcDbBlockTableRecord
  2
block 7
340
0
102
{BLKREFS
331
11A
102
}
 70
     0
280
     1
281
     0
  0
ENDTAB
  0
ENDSEC
  0
SECTION
  2
BLOCKS
  0
BLOCK
  5
20
330
1F
100
AcDbEntity
  8
0
100
AcDbBlockBegin
  2
*Model_Space
 70
     0
 10
0.0
 20
0.0
 30
0.0
  3
*Model_Space
  1

  0
ENDBLK
  5
21
330
1F
100
AcDbEntity
  8
0
100
AcDbBlockEnd
  0
BLOCK
  5
1C
330
1B
100
AcDbEntity
 67
     1
  8
0
100
AcDbBlockBegin
  2
*Paper_Space
 70
     0
 10
0.0
 20
0.0
 30
0.0
  3
*Paper_Space
  1

  0
ENDBLK
  5
1D
330
1B
100
AcDbEntity
 67
     1
  8
0
100
AcDbBlockEnd
  0
BLOCK
  5
24
330
23
100
AcDbEntity
  8
0
100
AcDbBlockBegin
  2
*Paper_Space0
 70
     0
 10
0.0
 20
0.0
 30
0.0
  3
*Paper_Space0
  1

  0
ENDBLK
  5
25
330
23
100
AcDbEntity
  8
0
100
AcDbBlockEnd
  0
BLOCK
  5
A3
330
A1
100
AcDbEntity
  8
0
100
AcDbBlockBegin
  2
block 2
 70
     0
 10
0.0
 20
0.0
 30
0.0
  3
block 2
  1

  0
SPLINE
  5
A5
330
A1
100
AcDbEntity
  8
_U+30EC_U+30A4_U+30E4_U+30FC 1
370
     0
100
AcDbSpline
210
0.0
220
0.0
230
1.0
 70
    11
 71
     3
 72
    26
 73
    22
 74
     0
 42
0.0000000001
 43
0.0000000001
 12
1.0
 22
0.0
 32
0.0
 13
1.0
 23
0.0
 33
0.0
 40
0.0
 40
0.0
 40
0.0
 40
0.0
 40
1.0
 40
1.0
 40
1.0
 40
2.0
 40
2.0
 40
2.0
 40
3.0
 40
3.0
 40
3.0
 40
4.0
 40
4.0
 40
4.0
 40
5.0
 40
5.0
 40
5.0
 40
6.0
 40
6.0
 40
6.0
 40
7.0
 40
7.0
 40
7.0
 40
7.0
 10
88.02218964813335
 20
-124.3800048517175
 30
0.0
 10
88.02218964813335
 20
-124.3800048517175
 30
0.0
 10
87.76897512996749
 20
-124.3800048517175
 30
0.0
 10
87.76897512996749
 20
-124.3800048517175
 30
0.0
 10
87.79619138430095
 20
-124.0711520414649
 30
0.0
 10
88.00186358477038
 20
-123.552837425709
 30
0.0
 10
88.43594561591185
 20
-123.0472696632486
 30
0.0
 10
88.43594561591185
 20
-123.0472696632486
 30
0.0
 10
87.54073755406968
 20
-123.0472696632486
 30
0.0
 10
87.54073755406968
 20
-123.0472696632486
 30
0.0
 10
87.54073755406968
 20
-123.0472696632486
 30
0.0
 10
87.54073755406968
 20
-122.8357408004543
 30
0.0
 10
87.54073755406968
 20
-122.8357408004543
 30
0.0
 10
87.54073755406968
 20
-122.8357408004543
 30
0.0
 10
88.68916013407771
 20
-122.8357408004543
 30
0.0
 10
88.68916013407771
 20
-122.8357408004543
 30
0.0
 10
88.68916013407771
 20
-122.8357408004543
 30
0.0
 10
88.68916013407771
 20
-123.0472696632486
 30
0.0
 10
88.68916013407771
 20
-123.0472696632486
 30
0.0
 10
88.34327254735864
 20
-123.3370021935581
 30
0.0
 10
88.05836315072847
 20
-123.9293863622468
 30
0.0
 10
88.02218964813335
 20
-124.3800048517175
 30
0.0
  0
HATCH
  5
A6
330
A1
100
AcDbEntity
  8
_U+30EC_U+30A4_U+30E4_U+30FC 1
 62
   179
420
  2234388
100
AcDbHatch
 10
0.0
 20
0.0
 30
0.0
210
0.0
220
0.0
230
1.0
  2
SOLID
 70
     1
 71
     0
 91
        1
 92
        1
 93
        1
 72
     4
 94
        3
 73
     0
 74
     1
 95
       26
 96
       22
 40
0.0
 40
0.0
 40
0.0
 40
0.0
 40
1.0
 40
1.0
 40
1.0
 40
2.0
 40
2.0
 40
2.0
 40
3.0
 40
3.0
 40
3.0
 40
4.0
 40
4.0
 40
4.0
 40
5.0
 40
5.0
 40
5.0
 40
6.0
 40
6.0
 40
6.0
 40
7.0
 40
7.0
 40
7.0
 40
7.0
 10
88.02218964813335
 20
-124.3800048517175
 10
88.02218964813335
 20
-124.3800048517175
 10
87.76897512996749
 20
-124.3800048517175
 10
87.76897512996749
 20
-124.3800048517175
 10
87.79619138430095
 20
-124.0711520414649
 10
88.00186358477038
 20
-123.552837425709
 10
88.43594561591185
 20
-123.0472696632486
 10
88.43594561591185
 20
-123.0472696632486
 10
87.54073755406968
 20
-123.0472696632486
 10
87.54073755406968
 20
-123.0472696632486
 10
87.54073755406968
 20
-123.0472696632486
 10
87.54073755406968
 20
-122.8357408004543
 10
87.54073755406968
 20
-122.8357408004543
 10
87.54073755406968
 20
-122.8357408004543
 10
88.68916013407771
 20
-122.8357408004543
 10
88.68916013407771
 20
-122.8357408004543
 10
88.68916013407771
 20
-122.8357408004543
 10
88.68916013407771
 20
-123.0472696632486
 10
88.68916013407771
 20
-123.0472696632486
 10
88.34327254735864
 20
-123.3370021935581
 10
88.05836315072847
 20
-123.9293863622468
 10
88.02218964813335
 20
-124.3800048517175
 97
        0
 97
        0
 75
     2
 76
     1
 98
        0
  0
ENDBLK
  5
A4
330
A1
100
AcDbEntity
  8
0
100
AcDbBlockEnd
  0
BLOCK
  5
B1
330
AF
100
AcDbEntity
  8
0
100
AcDbBlockBegin
  2
block 3
 70
     0
 10
0.0
 20
0.0
 30
0.0
  3
block 3
  1

  0
SPLINE
  5
B3
330
AF
100
AcDbEntity
  8
_U+30EC_U+30A4_U+30E4_U+30FC 1
370
     0
100
AcDbSpline
210
0.0
220
0.0
230
1.0
 70
    11
 71
     3
 72
    53
 73
    49
 74
     0
 42
0.0000000001
 43
0.0000000001
 12
1.0
 22
0.0
 32
0.0
 13
1.0
 23
0.0
 33
0.0
 40
0.0
 40
0.0
 40
0.0
 40
0.0
 40
1.0
 40
1.0
 40
1.0
 40
2.0
 40
2.0
 40
2.0
 40
3.0
 40
3.0
 40
3.0
 40
4.0
 40
4.0
 40
4.0
 40
5.0
 40
5.0
 40
5.0
 40
6.0
 40
6.0
 40
6.0
 40
7.0
 40
7.0
 40
7.0
 40
8.0
 40
8.0
 40
8.0
 40
9.0
 40
9.0
 40
9.0
 40
10.0
 40
10.0
 40
10.0
 40
11.0
 40
11.0
 40
11.0
 40
12.0
 40
12.0
 40
12.0
 40
13.0
 40
13.0
 40
13.0
 40
14.0
 40
14.0
 40
14.0
 40
15.0
 40
15.0
 40
15.0
 40
16.0
 40
16.0
 40
16.0
 40
16.0
 10
93.53020830995078
 20
-124.4303032458022
 30
0.0
 10
93.44683699920773
 20
-124.4303032458022
 30
0.0
 10
93.33797198187385
 20
-124.4134222779244
 30
0.0
 10
93.229795983637
 20
-124.3500325209958
 30
0.0
 10
93.0437608274335
 20
-124.2401339750164
 30
0.0
 10
93.02171221632791
 20
-124.1088758370283
 30
0.0
 10
93.00104164341641
 20
-124.00104434834
 30
0.0
 10
93.00104164341641
 20
-124.00104434834
 30
0.0
 10
93.23875323189866
 20
-124.00104434834
 30
0.0
 10
93.23875323189866
 20
-124.00104434834
 30
0.0
 10
93.29731985514789
 20
-124.1998263578389
 30
0.0
 10
93.43305661726674
 20
-124.2294541790121
 30
0.0
 10
93.53227536724194
 20
-124.2294541790121
 30
0.0
 10
93.68179251130178
 20
-124.2294541790121
 30
0.0
 10
93.84440101820557
 20
-124.1298909194884
 30
0.0
 10
93.84440101820557
 20
-123.897346974234
 30
0.0
 10
93.84440101820557
 20
-123.6413763796799
 30
0.0
 10
93.65216469012863
 20
-123.5714409413294
 30
0.0
 10
93.52331811898028
 20
-123.5714409413294
 30
0.0
 10
93.48955618322483
 20
-123.5714409413294
 30
0.0
 10
93.33797198187385
 20
-123.5714409413294
 30
0.0
 10
93.24288734648096
 20
-123.7006320220262
 30
0.0
 10
93.24288734648096
 20
-123.7006320220262
 30
0.0
 10
93.05547415208336
 20
-123.6816839968574
 30
0.0
 10
93.05547415208336
 20
-123.6816839968574
 30
0.0
 10
93.05547415208336
 20
-123.6816839968574
 30
0.0
 10
93.1843207232317
 20
-122.8352240361315
 30
0.0
 10
93.1843207232317
 20
-122.8352240361315
 30
0.0
 10
93.1843207232317
 20
-122.8352240361315
 30
0.0
 10
94.01596677337102
 20
-122.8352240361315
 30
0.0
 10
94.01596677337102
 20
-122.8352240361315
 30
0.0
 10
94.01596677337102
 20
-122.8352240361315
 30
0.0
 10
94.01596677337102
 20
-123.0298719310481
 30
0.0
 10
94.01596677337102
 20
-123.0298719310481
 30
0.0
 10
94.01596677337102
 20
-123.0298719310481
 30
0.0
 10
93.35864255478535
 20
-123.0298719310481
 30
0.0
 10
93.35864255478535
 20
-123.0298719310481
 30
0.0
 10
93.35864255478535
 20
-123.0298719310481
 30
0.0
 10
93.28836260688625
 20
-123.4529296566368
 30
0.0
 10
93.28836260688625
 20
-123.4529296566368
 30
0.0
 10
93.353819421106
 20
-123.4191677208813
 30
0.0
 10
93.4420138655284
 20
-123.3788601037039
 30
0.0
 10
93.56879337938558
 20
-123.3788601037039
 30
0.0
 10
93.83957788452622
 20
-123.3788601037039
 30
0.0
 10
94.09313691224061
 20
-123.5652397694559
 30
0.0
 10
94.09313691224061
 20
-123.8783989490651
 30
0.0
 10
94.09313691224061
 20
-124.1956922432566
 30
0.0
 10
93.85335826646723
 20
-124.4303032458022
 30
0.0
 10
93.53020830995078
 20
-124.4303032458022
 30
0.0
  0
HATCH
  5
B4
330
AF
100
AcDbEntity
  8
_U+30EC_U+30A4_U+30E4_U+30FC 1
 62
   179
420
  2234388
100
AcDbHatch
 10
0.0
 20
0.0
 30
0.0
210
0.0
220
0.0
230
1.0
  2
SOLID
 70
     1
 71
     0
 91
        1
 92
        1
 93
        1
 72
     4
 94
        3
 73
     0
 74
     1
 95
       53
 96
       49
 40
0.0
 40
0.0
 40
0.0
 40
0.0
 40
1.0
 40
1.0
 40
1.0
 40
2.0
 40
2.0
 40
2.0
 40
3.0
 40
3.0
 40
3.0
 40
4.0
 40
4.0
 40
4.0
 40
5.0
 40
5.0
 40
5.0
 40
6.0
 40
6.0
 40
6.0
 40
7.0
 40
7.0
 40
7.0
 40
8.0
 40
8.0
 40
8.0
 40
9.0
 40
9.0
 40
9.0
 40
10.0
 40
10.0
 40
10.0
 40
11.0
 40
11.0
 40
11.0
 40
12.0
 40
12.0
 40
12.0
 40
13.0
 40
13.0
 40
13.0
 40
14.0
 40
14.0
 40
14.0
 40
15.0
 40
15.0
 40
15.0
 40
16.0
 40
16.0
 40
16.0
 40
16.0
 10
93.53020830995078
 20
-124.4303032458022
 10
93.44683699920773
 20
-124.4303032458022
 10
93.33797198187385
 20
-124.4134222779244
 10
93.229795983637
 20
-124.3500325209958
 10
93.0437608274335
 20
-124.2401339750164
 10
93.02171221632791
 20
-124.1088758370283
 10
93.00104164341641
 20
-124.00104434834
 10
93.00104164341641
 20
-124.00104434834
 10
93.23875323189866
 20
-124.00104434834
 10
93.23875323189866
 20
-124.00104434834
 10
93.29731985514789
 20
-124.1998263578389
 10
93.43305661726674
 20
-124.2294541790121
 10
93.53227536724194
 20
-124.2294541790121
 10
93.68179251130178
 20
-124.2294541790121
 10
93.84440101820557
 20
-124.1298909194884
 10
93.84440101820557
 20
-123.897346974234
 10
93.84440101820557
 20
-123.6413763796799
 10
93.65216469012863
 20
-123.5714409413294
 10
93.52331811898028
 20
-123.5714409413294
 10
93.48955618322483
 20
-123.5714409413294
 10
93.33797198187385
 20
-123.5714409413294
 10
93.24288734648096
 20
-123.7006320220262
 10
93.24288734648096
 20
-123.7006320220262
 10
93.05547415208336
 20
-123.6816839968574
 10
93.05547415208336
 20
-123.6816839968574
 10
93.05547415208336
 20
-123.6816839968574
 10
93.1843207232317
 20
-122.8352240361315
 10
93.1843207232317
 20
-122.8352240361315
 10
93.1843207232317
 20
-122.8352240361315
 10
94.01596677337102
 20
-122.8352240361315
 10
94.01596677337102
 20
-122.8352240361315
 10
94.01596677337102
 20
-122.8352240361315
 10
94.01596677337102
 20
-123.0298719310481
 10
94.01596677337102
 20
-123.0298719310481
 10
94.01596677337102
 20
-123.0298719310481
 10
93.35864255478535
 20
-123.0298719310481
 10
93.35864255478535
 20
-123.0298719310481
 10
93.35864255478535
 20
-123.0298719310481
 10
93.28836260688625
 20
-123.4529296566368
 10
93.28836260688625
 20
-123.4529296566368
 10
93.353819421106
 20
-123.4191677208813
 10
93.4420138655284
 20
-123.3788601037039
 10
93.56879337938558
 20
-123.3788601037039
 10
93.83957788452622
 20
-123.3788601037039
 10
94.09313691224061
 20
-123.5652397694559
 10
94.09313691224061
 20
-123.8783989490651
 10
94.09313691224061
 20
-124.1956922432566
 10
93.85335826646723
 20
-124.4303032458022
 10
93.53020830995078
 20
-124.4303032458022
 97
        0
 97
        0
 75
     2
 76
     1
 98
        0
  0
POLYLINE
  5
B5
330
AF
100
AcDbEntity
  8
_U+30EC_U+30A4_U+30E4_U+30FC 1
370
     0
100
AcDb2dPolyline
 66
     1
 10
0.0
 20
0.0
 30
0.0
  0
VERTEX
  5
B6
330
B5
100
AcDbEntity
  8
_U+30EC_U+30A4_U+30E4_U+30FC 1
370
     0
100
AcDbVertex
100
AcDb2dVertex
 10
94.33773869169335
 20
-124.379660342169
 30
0.0
  0
VERTEX
  5
B7
330
B5
100
AcDbEntity
  8
_U+30EC_U+30A4_U+30E4_U+30FC 1
370
     0
100
AcDbVertex
100
AcDb2dVertex
 10
94.33773869169335
 20
-124.1278238621972
 30
0.0
  0
VERTEX
  5
B8
330
B5
100
AcDbEntity
  8
_U+30EC_U+30A4_U+30E4_U+30FC 1
370
     0
100
AcDbVertex
100
AcDb2dVertex
 10
94.60714515863988
 20
-124.1278238621972
 30
0.0
  0
VERTEX
  5
B9
330
B5
100
AcDbEntity
  8
_U+30EC_U+30A4_U+30E4_U+30FC 1
370
     0
100
AcDbVertex
100
AcDb2dVertex
 10
94.60714515863988
 20
-124.379660342169
 30
0.0
  0
VERTEX
  5
BA
330
B5
100
AcDbEntity
  8
_U+30EC_U+30A4_U+30E4_U+30FC 1
370
     0
100
AcDbVertex
100
AcDb2dVertex
 10
94.33773869169335
 20
-124.379660342169
 30
0.0
  0
SEQEND
  5
BB
330
B5
100
AcDbEntity
  8
_U+30EC_U+30A4_U+30E4_U+30FC 1
370
     0
  0
HATCH
  5
BC
330
AF
100
AcDbEntity
  8
_U+30EC_U+30A4_U+30E4_U+30FC 1
 62
   179
420
  2234388
100
AcDbHatch
 10
0.0
 20
0.0
 30
0.0
210
0.0
220
0.0
230
1.0
  2
SOLID
 70
     1
 71
     0
 91
        1
 92
        1
 93
        4
 72
     1
 10
94.33773869169335
 20
-124.379660342169
 11
94.33773869169335
 21
-124.1278238621972
 72
     1
 10
94.33773869169335
 20
-124.1278238621972
 11
94.60714515863988
 21
-124.1278238621972
 72
     1
 10
94.60714515863988
 20
-124.1278238621972
 11
94.60714515863988
 21
-124.379660342169
 72
     1
 10
94.60714515863988
 20
-124.379660342169
 11
94.33773869169335
 21
-124.379660342169
 97
        0
 75
     2
 76
     1
 98
        0
  0
SPLINE
  5
BD
330
AF
100
AcDbEntity
  8
_U+30EC_U+30A4_U+30E4_U+30FC 1
370
     0
100
AcDbSpline
210
0.0
220
0.0
230
1.0
 70
    11
 71
     3
 72
    53
 73
    49
 74
     0
 42
0.0000000001
 43
0.0000000001
 12
1.0
 22
0.0
 32
0.0
 13
1.0
 23
0.0
 33
0.0
 40
0.0
 40
0.0
 40
0.0
 40
0.0
 40
1.0
 40
1.0
 40
1.0
 40
2.0
 40
2.0
 40
2.0
 40
3.0
 40
3.0
 40
3.0
 40
4.0
 40
4.0
 40
4.0
 40
5.0
 40
5.0
 40
5.0
 40
6.0
 40
6.0
 40
6.0
 40
7.0
 40
7.0
 40
7.0
 40
8.0
 40
8.0
 40
8.0
 40
9.0
 40
9.0
 40
9.0
 40
10.0
 40
10.0
 40
10.0
 40
11.0
 40
11.0
 40
11.0
 40
12.0
 40
12.0
 40
12.0
 40
13.0
 40
13.0
 40
13.0
 40
14.0
 40
14.0
 40
14.0
 40
15.0
 40
15.0
 40
15.0
 40
16.0
 40
16.0
 40
16.0
 40
16.0
 10
95.3740234136565
 20
-124.4303032458022
 30
0.0
 10
95.29065210291346
 20
-124.4303032458022
 30
0.0
 10
95.18178708557956
 20
-124.4134222779244
 30
0.0
 10
95.07361108734271
 20
-124.3500325209958
 30
0.0
 10
94.88757593113922
 20
-124.2401339750164
 30
0.0
 10
94.86552732003362
 20
-124.1088758370283
 30
0.0
 10
94.84485674712212
 20
-124.00104434834
 30
0.0
 10
94.84485674712212
 20
-124.00104434834
 30
0.0
 10
95.08256833560436
 20
-124.00104434834
 30
0.0
 10
95.08256833560436
 20
-124.00104434834
 30
0.0
 10
95.14113495885361
 20
-124.1998263578389
 30
0.0
 10
95.27687172097245
 20
-124.2294541790121
 30
0.0
 10
95.37609047094764
 20
-124.2294541790121
 30
0.0
 10
95.52560761500749
 20
-124.2294541790121
 30
0.0
 10
95.68821612191128
 20
-124.1298909194884
 30
0.0
 10
95.68821612191128
 20
-123.897346974234
 30
0.0
 10
95.68821612191128
 20
-123.6413763796799
 30
0.0
 10
95.49597979383434
 20
-123.5714409413294
 30
0.0
 10
95.367133222686
 20
-123.5714409413294
 30
0.0
 10
95.33337128693056
 20
-123.5714409413294
 30
0.0
 10
95.18178708557956
 20
-123.5714409413294
 30
0.0
 10
95.08670245018666
 20
-123.7006320220262
 30
0.0
 10
95.08670245018666
 20
-123.7006320220262
 30
0.0
 10
94.89928925578907
 20
-123.6816839968574
 30
0.0
 10
94.89928925578907
 20
-123.6816839968574
 30
0.0
 10
94.89928925578907
 20
-123.6816839968574
 30
0.0
 10
95.02813582693742
 20
-122.8352240361315
 30
0.0
 10
95.02813582693742
 20
-122.8352240361315
 30
0.0
 10
95.02813582693742
 20
-122.8352240361315
 30
0.0
 10
95.85978187707673
 20
-122.8352240361315
 30
0.0
 10
95.85978187707673
 20
-122.8352240361315
 30
0.0
 10
95.85978187707673
 20
-122.8352240361315
 30
0.0
 10
95.85978187707673
 20
-123.0298719310481
 30
0.0
 10
95.85978187707673
 20
-123.0298719310481
 30
0.0
 10
95.85978187707673
 20
-123.0298719310481
 30
0.0
 10
95.20245765849106
 20
-123.0298719310481
 30
0.0
 10
95.20245765849106
 20
-123.0298719310481
 30
0.0
 10
95.20245765849106
 20
-123.0298719310481
 30
0.0
 10
95.13217771059196
 20
-123.4529296566368
 30
0.0
 10
95.13217771059196
 20
-123.4529296566368
 30
0.0
 10
95.1976345248117
 20
-123.4191677208813
 30
0.0
 10
95.2858289692341
 20
-123.3788601037039
 30
0.0
 10
95.41260848309129
 20
-123.3788601037039
 30
0.0
 10
95.68339298823193
 20
-123.3788601037039
 30
0.0
 10
95.93695201594632
 20
-123.5652397694559
 30
0.0
 10
95.93695201594632
 20
-123.8783989490651
 30
0.0
 10
95.93695201594632
 20
-124.1956922432566
 30
0.0
 10
95.69717337017293
 20
-124.4303032458022
 30
0.0
 10
95.3740234136565
 20
-124.4303032458022
 30
0.0
  0
HATCH
  5
BE
330
AF
100
AcDbEntity
  8
_U+30EC_U+30A4_U+30E4_U+30FC 1
 62
   179
420
  2234388
100
AcDbHatch
 10
0.0
 20
0.0
 30
0.0
210
0.0
220
0.0
230
1.0
  2
SOLID
 70
     1
 71
     0
 91
        1
 92
        1
 93
        1
 72
     4
 94
        3
 73
     0
 74
     1
 95
       53
 96
       49
 40
0.0
 40
0.0
 40
0.0
 40
0.0
 40
1.0
 40
1.0
 40
1.0
 40
2.0
 40
2.0
 40
2.0
 40
3.0
 40
3.0
 40
3.0
 40
4.0
 40
4.0
 40
4.0
 40
5.0
 40
5.0
 40
5.0
 40
6.0
 40
6.0
 40
6.0
 40
7.0
 40
7.0
 40
7.0
 40
8.0
 40
8.0
 40
8.0
 40
9.0
 40
9.0
 40
9.0
 40
10.0
 40
10.0
 40
10.0
 40
11.0
 40
11.0
 40
11.0
 40
12.0
 40
12.0
 40
12.0
 40
13.0
 40
13.0
 40
13.0
 40
14.0
 40
14.0
 40
14.0
 40
15.0
 40
15.0
 40
15.0
 40
16.0
 40
16.0
 40
16.0
 40
16.0
 10
95.3740234136565
 20
-124.4303032458022
 10
95.29065210291346
 20
-124.4303032458022
 10
95.18178708557956
 20
-124.4134222779244
 10
95.07361108734271
 20
-124.3500325209958
 10
94.88757593113922
 20
-124.2401339750164
 10
94.86552732003362
 20
-124.1088758370283
 10
94.84485674712212
 20
-124.00104434834
 10
94.84485674712212
 20
-124.00104434834
 10
95.08256833560436
 20
-124.00104434834
 10
95.08256833560436
 20
-124.00104434834
 10
95.14113495885361
 20
-124.1998263578389
 10
95.27687172097245
 20
-124.2294541790121
 10
95.37609047094764
 20
-124.2294541790121
 10
95.52560761500749
 20
-124.2294541790121
 10
95.68821612191128
 20
-124.1298909194884
 10
95.68821612191128
 20
-123.897346974234
 10
95.68821612191128
 20
-123.6413763796799
 10
95.49597979383434
 20
-123.5714409413294
 10
95.367133222686
 20
-123.5714409413294
 10
95.33337128693056
 20
-123.5714409413294
 10
95.18178708557956
 20
-123.5714409413294
 10
95.08670245018666
 20
-123.7006320220262
 10
95.08670245018666
 20
-123.7006320220262
 10
94.89928925578907
 20
-123.6816839968574
 10
94.89928925578907
 20
-123.6816839968574
 10
94.89928925578907
 20
-123.6816839968574
 10
95.02813582693742
 20
-122.8352240361315
 10
95.02813582693742
 20
-122.8352240361315
 10
95.02813582693742
 20
-122.8352240361315
 10
95.85978187707673
 20
-122.8352240361315
 10
95.85978187707673
 20
-122.8352240361315
 10
95.85978187707673
 20
-122.8352240361315
 10
95.85978187707673
 20
-123.0298719310481
 10
95.85978187707673
 20
-123.0298719310481
 10
95.85978187707673
 20
-123.0298719310481
 10
95.20245765849106
 20
-123.0298719310481
 10
95.20245765849106
 20
-123.0298719310481
 10
95.20245765849106
 20
-123.0298719310481
 10
95.13217771059196
 20
-123.4529296566368
 10
95.13217771059196
 20
-123.4529296566368
 10
95.1976345248117
 20
-123.4191677208813
 10
95.2858289692341
 20
-123.3788601037039
 10
95.41260848309129
 20
-123.3788601037039
 10
95.68339298823193
 20
-123.3788601037039
 10
95.93695201594632
 20
-123.5652397694559
 10
95.93695201594632
 20
-123.8783989490651
 10
95.93695201594632
 20
-124.1956922432566
 10
95.69717337017293
 20
-124.4303032458022
 10
95.3740234136565
 20
-124.4303032458022
 97
        0
 97
        0
 75
     2
 76
     1
 98
        0
  0
ENDBLK
  5
B2
330
AF
100
AcDbEntity
  8
0
100
AcDbBlockEnd
  0
BLOCK
  5
C9
330
C7
100
AcDbEntity
  8
0
100
AcDbBlockBegin
  2
block 4
 70
     0
 10
0.0
 20
0.0
 30
0.0
  3
block 4
  1

  0
SPLINE
  5
CB
330
C7
100
AcDbEntity
  8
_U+30EC_U+30A4_U+30E4_U+30FC 1
370
     0
100
AcDbSpline
210
0.0
220
0.0
230
1.0
 70
    11
 71
     3
 72
    53
 73
    49
 74
     0
 42
0.0000000001
 43
0.0000000001
 12
1.0
 22
0.0
 32
0.0
 13
1.0
 23
0.0
 33
0.0
 40
0.0
 40
0.0
 40
0.0
 40
0.0
 40
1.0
 40
1.0
 40
1.0
 40
2.0
 40
2.0
 40
2.0
 40
3.0
 40
3.0
 40
3.0
 40
4.0
 40
4.0
 40
4.0
 40
5.0
 40
5.0
 40
5.0
 40
6.0
 40
6.0
 40
6.0
 40
7.0
 40
7.0
 40
7.0
 40
8.0
 40
8.0
 40
8.0
 40
9.0
 40
9.0
 40
9.0
 40
10.0
 40
10.0
 40
10.0
 40
11.0
 40
11.0
 40
11.0
 40
12.0
 40
12.0
 40
12.0
 40
13.0
 40
13.0
 40
13.0
 40
14.0
 40
14.0
 40
14.0
 40
15.0
 40
15.0
 40
15.0
 40
16.0
 40
16.0
 40
16.0
 40
16.0
 10
81.03002385127027
 20
-124.4303032458022
 30
0.0
 10
80.9463080309787
 20
-124.4303032458022
 30
0.0
 10
80.83778752319334
 20
-124.4134222779244
 30
0.0
 10
80.72926701540797
 20
-124.3500325209958
 30
0.0
 10
80.54392087830152
 20
-124.2401339750164
 30
0.0
 10
80.52118324809888
 20
-124.1088758370283
 30
0.0
 10
80.5008571847359
 20
-124.00104434834
 30
0.0
 10
80.5008571847359
 20
-124.00104434834
 30
0.0
 10
80.73822426366961
 20
-124.00104434834
 30
0.0
 10
80.73822426366961
 20
-124.00104434834
 30
0.0
 10
80.79713539646738
 20
-124.1998263578389
 30
0.0
 10
80.93287215858624
 20
-124.2294541790121
 30
0.0
 10
81.03209090856143
 20
-124.2294541790121
 30
0.0
 10
81.18126354307275
 20
-124.2294541790121
 30
0.0
 10
81.34421655952507
 20
-124.1298909194884
 30
0.0
 10
81.34421655952507
 20
-123.897346974234
 30
0.0
 10
81.34421655952507
 20
-123.6413763796799
 30
0.0
 10
81.15198023144812
 20
-123.5714409413294
 30
0.0
 10
81.02313366029978
 20
-123.5714409413294
 30
0.0
 10
80.98937172454433
 20
-123.5714409413294
 30
0.0
 10
80.83778752319334
 20
-123.5714409413294
 30
0.0
 10
80.74270288780043
 20
-123.7006320220262
 30
0.0
 10
80.74270288780043
 20
-123.7006320220262
 30
0.0
 10
80.55511743862859
 20
-123.6816839968574
 30
0.0
 10
80.55511743862859
 20
-123.6816839968574
 30
0.0
 10
80.55511743862859
 20
-123.6816839968574
 30
0.0
 10
80.68413626455119
 20
-122.8352240361315
 30
0.0
 10
80.68413626455119
 20
-122.8352240361315
 30
0.0
 10
80.68413626455119
 20
-122.8352240361315
 30
0.0
 10
81.51612682423902
 20
-122.8352240361315
 30
0.0
 10
81.51612682423902
 20
-122.8352240361315
 30
0.0
 10
81.51612682423902
 20
-122.8352240361315
 30
0.0
 10
81.51612682423902
 20
-123.0298719310481
 30
0.0
 10
81.51612682423902
 20
-123.0298719310481
 30
0.0
 10
81.51612682423902
 20
-123.0298719310481
 30
0.0
 10
80.85811358655631
 20
-123.0298719310481
 30
0.0
 10
80.85811358655631
 20
-123.0298719310481
 30
0.0
 10
80.85811358655631
 20
-123.0298719310481
 30
0.0
 10
80.78817814820573
 20
-123.4529296566368
 30
0.0
 10
80.78817814820573
 20
-123.4529296566368
 30
0.0
 10
80.85363496242549
 20
-123.4191677208813
 30
0.0
 10
80.94182940684787
 20
-123.3788601037039
 30
0.0
 10
81.06826441115655
 20
-123.3788601037039
 30
0.0
 10
81.33973793539424
 20
-123.3788601037039
 30
0.0
 10
81.5929524535601
 20
-123.5652397694559
 30
0.0
 10
81.5929524535601
 20
-123.8783989490651
 30
0.0
 10
81.5929524535601
 20
-124.1956922432566
 30
0.0
 10
81.3531738077867
 20
-124.4303032458022
 30
0.0
 10
81.03002385127027
 20
-124.4303032458022
 30
0.0
  0
HATCH
  5
CC
330
C7
100
AcDbEntity
  8
_U+30EC_U+30A4_U+30E4_U+30FC 1
 62
   179
420
  2234388
100
AcDbHatch
 10
0.0
 20
0.0
 30
0.0
210
0.0
220
0.0
230
1.0
  2
SOLID
 70
     1
 71
     0
 91
        1
 92
        1
 93
        1
 72
     4
 94
        3
 73
     0
 74
     1
 95
       53
 96
       49
 40
0.0
 40
0.0
 40
0.0
 40
0.0
 40
1.0
 40
1.0
 40
1.0
 40
2.0
 40
2.0
 40
2.0
 40
3.0
 40
3.0
 40
3.0
 40
4.0
 40
4.0
 40
4.0
 40
5.0
 40
5.0
 40
5.0
 40
6.0
 40
6.0
 40
6.0
 40
7.0
 40
7.0
 40
7.0
 40
8.0
 40
8.0
 40
8.0
 40
9.0
 40
9.0
 40
9.0
 40
10.0
 40
10.0
 40
10.0
 40
11.0
 40
11.0
 40
11.0
 40
12.0
 40
12.0
 40
12.0
 40
13.0
 40
13.0
 40
13.0
 40
14.0
 40
14.0
 40
14.0
 40
15.0
 40
15.0
 40
15.0
 40
16.0
 40
16.0
 40
16.0
 40
16.0
 10
81.03002385127027
 20
-124.4303032458022
 10
80.9463080309787
 20
-124.4303032458022
 10
80.83778752319334
 20
-124.4134222779244
 10
80.72926701540797
 20
-124.3500325209958
 10
80.54392087830152
 20
-124.2401339750164
 10
80.52118324809888
 20
-124.1088758370283
 10
80.5008571847359
 20
-124.00104434834
 10
80.5008571847359
 20
-124.00104434834
 10
80.73822426366961
 20
-124.00104434834
 10
80.73822426366961
 20
-124.00104434834
 10
80.79713539646738
 20
-124.1998263578389
 10
80.93287215858624
 20
-124.2294541790121
 10
81.03209090856143
 20
-124.2294541790121
 10
81.18126354307275
 20
-124.2294541790121
 10
81.34421655952507
 20
-124.1298909194884
 10
81.34421655952507
 20
-123.897346974234
 10
81.34421655952507
 20
-123.6413763796799
 10
81.15198023144812
 20
-123.5714409413294
 10
81.02313366029978
 20
-123.5714409413294
 10
80.98937172454433
 20
-123.5714409413294
 10
80.83778752319334
 20
-123.5714409413294
 10
80.74270288780043
 20
-123.7006320220262
 10
80.74270288780043
 20
-123.7006320220262
 10
80.55511743862859
 20
-123.6816839968574
 10
80.55511743862859
 20
-123.6816839968574
 10
80.55511743862859
 20
-123.6816839968574
 10
80.68413626455119
 20
-122.8352240361315
 10
80.68413626455119
 20
-122.8352240361315
 10
80.68413626455119
 20
-122.8352240361315
 10
81.51612682423902
 20
-122.8352240361315
 10
81.51612682423902
 20
-122.8352240361315
 10
81.51612682423902
 20
-122.8352240361315
 10
81.51612682423902
 20
-123.0298719310481
 10
81.51612682423902
 20
-123.0298719310481
 10
81.51612682423902
 20
-123.0298719310481
 10
80.85811358655631
 20
-123.0298719310481
 10
80.85811358655631
 20
-123.0298719310481
 10
80.85811358655631
 20
-123.0298719310481
 10
80.78817814820573
 20
-123.4529296566368
 10
80.78817814820573
 20
-123.4529296566368
 10
80.85363496242549
 20
-123.4191677208813
 10
80.94182940684787
 20
-123.3788601037039
 10
81.06826441115655
 20
-123.3788601037039
 10
81.33973793539424
 20
-123.3788601037039
 10
81.5929524535601
 20
-123.5652397694559
 10
81.5929524535601
 20
-123.8783989490651
 10
81.5929524535601
 20
-124.1956922432566
 10
81.3531738077867
 20
-124.4303032458022
 10
81.03002385127027
 20
-124.4303032458022
 97
        0
 97
        0
 75
     2
 76
     1
 98
        0
  0
POLYLINE
  5
CD
330
C7
100
AcDbEntity
  8
_U+30EC_U+30A4_U+30E4_U+30FC 1
370
     0
100
AcDb2dPolyline
 66
     1
 10
0.0
 20
0.0
 30
0.0
  0
VERTEX
  5
CE
330
CD
100
AcDbEntity
  8
_U+30EC_U+30A4_U+30E4_U+30FC 1
370
     0
100
AcDbVertex
100
AcDb2dVertex
 10
81.83755423301284
 20
-124.379660342169
 30
0.0
  0
VERTEX
  5
CF
330
CD
100
AcDbEntity
  8
_U+30EC_U+30A4_U+30E4_U+30FC 1
370
     0
100
AcDbVertex
100
AcDb2dVertex
 10
81.83755423301284
 20
-124.1278238621972
 30
0.0
  0
VERTEX
  5
D0
330
CD
100
AcDbEntity
  8
_U+30EC_U+30A4_U+30E4_U+30FC 1
370
     0
100
AcDbVertex
100
AcDb2dVertex
 10
82.10661619041085
 20
-124.1278238621972
 30
0.0
  0
VERTEX
  5
D1
330
CD
100
AcDbEntity
  8
_U+30EC_U+30A4_U+30E4_U+30FC 1
370
     0
100
AcDbVertex
100
AcDb2dVertex
 10
82.10661619041085
 20
-124.379660342169
 30
0.0
  0
VERTEX
  5
D2
330
CD
100
AcDbEntity
  8
_U+30EC_U+30A4_U+30E4_U+30FC 1
370
     0
100
AcDbVertex
100
AcDb2dVertex
 10
81.83755423301284
 20
-124.379660342169
 30
0.0
  0
SEQEND
  5
D3
330
CD
100
AcDbEntity
  8
_U+30EC_U+30A4_U+30E4_U+30FC 1
370
     0
  0
HATCH
  5
D4
330
C7
100
AcDbEntity
  8
_U+30EC_U+30A4_U+30E4_U+30FC 1
 62
   179
420
  2234388
100
AcDbHatch
 10
0.0
 20
0.0
 30
0.0
210
0.0
220
0.0
230
1.0
  2
SOLID
 70
     1
 71
     0
 91
        1
 92
        1
 93
        4
 72
     1
 10
81.83755423301284
 20
-124.379660342169
 11
81.83755423301284
 21
-124.1278238621972
 72
     1
 10
81.83755423301284
 20
-124.1278238621972
 11
82.10661619041085
 21
-124.1278238621972
 72
     1
 10
82.10661619041085
 20
-124.1278238621972
 11
82.10661619041085
 21
-124.379660342169
 72
     1
 10
82.10661619041085
 20
-124.379660342169
 11
81.83755423301284
 21
-124.379660342169
 97
        0
 75
     2
 76
     1
 98
        0
  0
SPLINE
  5
D5
330
C7
100
AcDbEntity
  8
_U+30EC_U+30A4_U+30E4_U+30FC 1
370
     0
100
AcDbSpline
210
0.0
220
0.0
230
1.0
 70
    11
 71
     3
 72
    53
 73
    49
 74
     0
 42
0.0000000001
 43
0.0000000001
 12
1.0
 22
0.0
 32
0.0
 13
1.0
 23
0.0
 33
0.0
 40
0.0
 40
0.0
 40
0.0
 40
0.0
 40
1.0
 40
1.0
 40
1.0
 40
2.0
 40
2.0
 40
2.0
 40
3.0
 40
3.0
 40
3.0
 40
4.0
 40
4.0
 40
4.0
 40
5.0
 40
5.0
 40
5.0
 40
6.0
 40
6.0
 40
6.0
 40
7.0
 40
7.0
 40
7.0
 40
8.0
 40
8.0
 40
8.0
 40
9.0
 40
9.0
 40
9.0
 40
10.0
 40
10.0
 40
10.0
 40
11.0
 40
11.0
 40
11.0
 40
12.0
 40
12.0
 40
12.0
 40
13.0
 40
13.0
 40
13.0
 40
14.0
 40
14.0
 40
14.0
 40
15.0
 40
15.0
 40
15.0
 40
16.0
 40
16.0
 40
16.0
 40
16.0
 10
82.87349444542747
 20
-124.4303032458022
 30
0.0
 10
82.79012313468442
 20
-124.4303032458022
 30
0.0
 10
82.68125811735052
 20
-124.4134222779244
 30
0.0
 10
82.57308211911368
 20
-124.3500325209958
 30
0.0
 10
82.38739147245872
 20
-124.2401339750164
 30
0.0
 10
82.36499835180459
 20
-124.1088758370283
 30
0.0
 10
82.34467228844161
 20
-124.00104434834
 30
0.0
 10
82.34467228844161
 20
-124.00104434834
 30
0.0
 10
82.58203936737533
 20
-124.00104434834
 30
0.0
 10
82.58203936737533
 20
-124.00104434834
 30
0.0
 10
82.64060599062458
 20
-124.1998263578389
 30
0.0
 10
82.77634275274342
 20
-124.2294541790121
 30
0.0
 10
82.87590601226714
 20
-124.2294541790121
 30
0.0
 10
83.02507864677845
 20
-124.2294541790121
 30
0.0
 10
83.18768715368225
 20
-124.1298909194884
 30
0.0
 10
83.18768715368225
 20
-123.897346974234
 30
0.0
 10
83.18768715368225
 20
-123.6413763796799
 30
0.0
 10
82.99579533515383
 20
-123.5714409413294
 30
0.0
 10
82.86694876400549
 20
-123.5714409413294
 30
0.0
 10
82.83284231870151
 20
-123.5714409413294
 30
0.0
 10
82.68125811735052
 20
-123.5714409413294
 30
0.0
 10
82.58651799150616
 20
-123.7006320220262
 30
0.0
 10
82.58651799150616
 20
-123.7006320220262
 30
0.0
 10
82.39876028756004
 20
-123.6816839968574
 30
0.0
 10
82.39876028756004
 20
-123.6816839968574
 30
0.0
 10
82.39876028756004
 20
-123.6816839968574
 30
0.0
 10
82.52760685870838
 20
-122.8352240361315
 30
0.0
 10
82.52760685870838
 20
-122.8352240361315
 30
0.0
 10
82.52760685870838
 20
-122.8352240361315
 30
0.0
 10
83.35959741839622
 20
-122.8352240361315
 30
0.0
 10
83.35959741839622
 20
-122.8352240361315
 30
0.0
 10
83.35959741839622
 20
-122.8352240361315
 30
0.0
 10
83.35959741839622
 20
-123.0298719310481
 30
0.0
 10
83.35959741839622
 20
-123.0298719310481
 30
0.0
 10
83.35959741839622
 20
-123.0298719310481
 30
0.0
 10
82.70192869026202
 20
-123.0298719310481
 30
0.0
 10
82.70192869026202
 20
-123.0298719310481
 30
0.0
 10
82.70192869026202
 20
-123.0298719310481
 30
0.0
 10
82.63164874236293
 20
-123.4529296566368
 30
0.0
 10
82.63164874236293
 20
-123.4529296566368
 30
0.0
 10
82.69710555658267
 20
-123.4191677208813
 30
0.0
 10
82.78530000100507
 20
-123.3788601037039
 30
0.0
 10
82.91207951486226
 20
-123.3788601037039
 30
0.0
 10
83.18320852955142
 20
-123.3788601037039
 30
0.0
 10
83.43642304771728
 20
-123.5652397694559
 30
0.0
 10
83.43642304771728
 20
-123.8783989490651
 30
0.0
 10
83.43642304771728
 20
-124.1956922432566
 30
0.0
 10
83.19698891149243
 20
-124.4303032458022
 30
0.0
 10
82.87349444542747
 20
-124.4303032458022
 30
0.0
  0
HATCH
  5
D6
330
C7
100
AcDbEntity
  8
_U+30EC_U+30A4_U+30E4_U+30FC 1
 62
   179
420
  2234388
100
AcDbHatch
 10
0.0
 20
0.0
 30
0.0
210
0.0
220
0.0
230
1.0
  2
SOLID
 70
     1
 71
     0
 91
        1
 92
        1
 93
        1
 72
     4
 94
        3
 73
     0
 74
     1
 95
       53
 96
       49
 40
0.0
 40
0.0
 40
0.0
 40
0.0
 40
1.0
 40
1.0
 40
1.0
 40
2.0
 40
2.0
 40
2.0
 40
3.0
 40
3.0
 40
3.0
 40
4.0
 40
4.0
 40
4.0
 40
5.0
 40
5.0
 40
5.0
 40
6.0
 40
6.0
 40
6.0
 40
7.0
 40
7.0
 40
7.0
 40
8.0
 40
8.0
 40
8.0
 40
9.0
 40
9.0
 40
9.0
 40
10.0
 40
10.0
 40
10.0
 40
11.0
 40
11.0
 40
11.0
 40
12.0
 40
12.0
 40
12.0
 40
13.0
 40
13.0
 40
13.0
 40
14.0
 40
14.0
 40
14.0
 40
15.0
 40
15.0
 40
15.0
 40
16.0
 40
16.0
 40
16.0
 40
16.0
 10
82.87349444542747
 20
-124.4303032458022
 10
82.79012313468442
 20
-124.4303032458022
 10
82.68125811735052
 20
-124.4134222779244
 10
82.57308211911368
 20
-124.3500325209958
 10
82.38739147245872
 20
-124.2401339750164
 10
82.36499835180459
 20
-124.1088758370283
 10
82.34467228844161
 20
-124.00104434834
 10
82.34467228844161
 20
-124.00104434834
 10
82.58203936737533
 20
-124.00104434834
 10
82.58203936737533
 20
-124.00104434834
 10
82.64060599062458
 20
-124.1998263578389
 10
82.77634275274342
 20
-124.2294541790121
 10
82.87590601226714
 20
-124.2294541790121
 10
83.02507864677845
 20
-124.2294541790121
 10
83.18768715368225
 20
-124.1298909194884
 10
83.18768715368225
 20
-123.897346974234
 10
83.18768715368225
 20
-123.6413763796799
 10
82.99579533515383
 20
-123.5714409413294
 10
82.86694876400549
 20
-123.5714409413294
 10
82.83284231870151
 20
-123.5714409413294
 10
82.68125811735052
 20
-123.5714409413294
 10
82.58651799150616
 20
-123.7006320220262
 10
82.58651799150616
 20
-123.7006320220262
 10
82.39876028756004
 20
-123.6816839968574
 10
82.39876028756004
 20
-123.6816839968574
 10
82.39876028756004
 20
-123.6816839968574
 10
82.52760685870838
 20
-122.8352240361315
 10
82.52760685870838
 20
-122.8352240361315
 10
82.52760685870838
 20
-122.8352240361315
 10
83.35959741839622
 20
-122.8352240361315
 10
83.35959741839622
 20
-122.8352240361315
 10
83.35959741839622
 20
-122.8352240361315
 10
83.35959741839622
 20
-123.0298719310481
 10
83.35959741839622
 20
-123.0298719310481
 10
83.35959741839622
 20
-123.0298719310481
 10
82.70192869026202
 20
-123.0298719310481
 10
82.70192869026202
 20
-123.0298719310481
 10
82.70192869026202
 20
-123.0298719310481
 10
82.63164874236293
 20
-123.4529296566368
 10
82.63164874236293
 20
-123.4529296566368
 10
82.69710555658267
 20
-123.4191677208813
 10
82.78530000100507
 20
-123.3788601037039
 10
82.91207951486226
 20
-123.3788601037039
 10
83.18320852955142
 20
-123.3788601037039
 10
83.43642304771728
 20
-123.5652397694559
 10
83.43642304771728
 20
-123.8783989490651
 10
83.43642304771728
 20
-124.1956922432566
 10
83.19698891149243
 20
-124.4303032458022
 10
82.87349444542747
 20
-124.4303032458022
 97
        0
 97
        0
 75
     2
 76
     1
 98
        0
  0
ENDBLK
  5
CA
330
C7
100
AcDbEntity
  8
0
100
AcDbBlockEnd
  0
BLOCK
  5
E5
330
E3
100
AcDbEntity
  8
0
100
AcDbBlockBegin
  2
block 5
 70
     0
 10
0.0
 20
0.0
 30
0.0
  3
block 5
  1

  0
POLYLINE
  5
E7
330
E3
100
AcDbEntity
  8
_U+30EC_U+30A4_U+30E4_U+30FC 1
370
     0
100
AcDb2dPolyline
 66
     1
 10
0.0
 20
0.0
 30
0.0
  0
VERTEX
  5
E8
330
E7
100
AcDbEntity
  8
_U+30EC_U+30A4_U+30E4_U+30FC 1
370
     0
100
AcDbVertex
100
AcDb2dVertex
 10
100.131355769238
 20
-132.0787597326053
 30
0.0
  0
VERTEX
  5
E9
330
E7
100
AcDbEntity
  8
_U+30EC_U+30A4_U+30E4_U+30FC 1
370
     0
100
AcDbVertex
100
AcDb2dVertex
 10
100.4782768846027
 20
-132.0787597326053
 30
0.0
  0
VERTEX
  5
EA
330
E7
100
AcDbEntity
  8
_U+30EC_U+30A4_U+30E4_U+30FC 1
370
     0
100
AcDbVertex
100
AcDb2dVertex
 10
100.4782768846027
 20
-132.3116481874082
 30
0.0
  0
VERTEX
  5
EB
330
E7
100
AcDbEntity
  8
_U+30EC_U+30A4_U+30E4_U+30FC 1
370
     0
100
AcDbVertex
100
AcDb2dVertex
 10
100.131355769238
 20
-132.3116481874082
 30
0.0
  0
VERTEX
  5
EC
330
E7
100
AcDbEntity
  8
_U+30EC_U+30A4_U+30E4_U+30FC 1
370
     0
100
AcDbVertex
100
AcDb2dVertex
 10
100.131355769238
 20
-133.0127251186565
 30
0.0
  0
VERTEX
  5
ED
330
E7
100
AcDbEntity
  8
_U+30EC_U+30A4_U+30E4_U+30FC 1
370
     0
100
AcDbVertex
100
AcDb2dVertex
 10
99.90708005314823
 20
-133.0127251186565
 30
0.0
  0
VERTEX
  5
EE
330
E7
100
AcDbEntity
  8
_U+30EC_U+30A4_U+30E4_U+30FC 1
370
     0
100
AcDbVertex
100
AcDb2dVertex
 10
98.93384057856515
 20
-132.2868434999144
 30
0.0
  0
VERTEX
  5
EF
330
E7
100
AcDbEntity
  8
_U+30EC_U+30A4_U+30E4_U+30FC 1
370
     0
100
AcDbVertex
100
AcDb2dVertex
 10
98.93384057856515
 20
-132.0787597326053
 30
0.0
  0
VERTEX
  5
F0
330
E7
100
AcDbEntity
  8
_U+30EC_U+30A4_U+30E4_U+30FC 1
370
     0
100
AcDbVertex
100
AcDb2dVertex
 10
99.93257375973909
 20
-132.0787597326053
 30
0.0
  0
VERTEX
  5
F1
330
E7
100
AcDbEntity
  8
_U+30EC_U+30A4_U+30E4_U+30FC 1
370
     0
100
AcDbVertex
100
AcDb2dVertex
 10
99.93257375973909
 20
-131.8572400929038
 30
0.0
  0
VERTEX
  5
F2
330
E7
100
AcDbEntity
  8
_U+30EC_U+30A4_U+30E4_U+30FC 1
370
     0
100
AcDbVertex
100
AcDb2dVertex
 10
100.131355769238
 20
-131.8572400929038
 30
0.0
  0
VERTEX
  5
F3
330
E7
100
AcDbEntity
  8
_U+30EC_U+30A4_U+30E4_U+30FC 1
370
     0
100
AcDbVertex
100
AcDb2dVertex
 10
100.131355769238
 20
-132.0787597326053
 30
0.0
  0
SEQEND
  5
F4
330
E7
100
AcDbEntity
  8
_U+30EC_U+30A4_U+30E4_U+30FC 1
370
     0
  0
POLYLINE
  5
F5
330
E3
100
AcDbEntity
  8
_U+30EC_U+30A4_U+30E4_U+30FC 1
370
     0
100
AcDb2dPolyline
 66
     1
 10
0.0
 20
0.0
 30
0.0
  0
VERTEX
  5
F6
330
F5
100
AcDbEntity
  8
_U+30EC_U+30A4_U+30E4_U+30FC 1
370
     0
100
AcDbVertex
100
AcDb2dVertex
 10
99.27662757934752
 20
-132.3116481874082
 30
0.0
  0
VERTEX
  5
F7
330
F5
100
AcDbEntity
  8
_U+30EC_U+30A4_U+30E4_U+30FC 1
370
     0
100
AcDbVertex
100
AcDb2dVertex
 10
99.93257375973909
 20
-132.8001627272166
 30
0.0
  0
VERTEX
  5
F8
330
F5
100
AcDbEntity
  8
_U+30EC_U+30A4_U+30E4_U+30FC 1
370
     0
100
AcDbVertex
100
AcDb2dVertex
 10
99.93257375973909
 20
-132.3116481874082
 30
0.0
  0
VERTEX
  5
F9
330
F5
100
AcDbEntity
  8
_U+30EC_U+30A4_U+30E4_U+30FC 1
370
     0
100
AcDbVertex
100
AcDb2dVertex
 10
99.27662757934752
 20
-132.3116481874082
 30
0.0
  0
SEQEND
  5
FA
330
F5
100
AcDbEntity
  8
_U+30EC_U+30A4_U+30E4_U+30FC 1
370
     0
  0
HATCH
  5
FB
330
E3
100
AcDbEntity
  8
_U+30EC_U+30A4_U+30E4_U+30FC 1
 62
   179
420
  2234388
100
AcDbHatch
 10
0.0
 20
0.0
 30
0.0
210
0.0
220
0.0
230
1.0
  2
SOLID
 70
     1
 71
     0
 91
        2
 92
        1
 93
       11
 72
     1
 10
100.131355769238
 20
-132.0787597326053
 11
100.4782768846027
 21
-132.0787597326053
 72
     1
 10
100.4782768846027
 20
-132.0787597326053
 11
100.4782768846027
 21
-132.3116481874082
 72
     1
 10
100.4782768846027
 20
-132.3116481874082
 11
100.131355769238
 21
-132.3116481874082
 72
     1
 10
100.131355769238
 20
-132.3116481874082
 11
100.131355769238
 21
-133.0127251186565
 72
     1
 10
100.131355769238
 20
-133.0127251186565
 11
99.90708005314823
 21
-133.0127251186565
 72
     1
 10
99.90708005314823
 20
-133.0127251186565
 11
98.93384057856515
 21
-132.2868434999144
 72
     1
 10
98.93384057856515
 20
-132.2868434999144
 11
98.93384057856515
 21
-132.0787597326053
 72
     1
 10
98.93384057856515
 20
-132.0787597326053
 11
99.93257375973909
 21
-132.0787597326053
 72
     1
 10
99.93257375973909
 20
-132.0787597326053
 11
99.93257375973909
 21
-131.8572400929038
 72
     1
 10
99.93257375973909
 20
-131.8572400929038
 11
100.131355769238
 21
-131.8572400929038
 72
     1
 10
100.131355769238
 20
-131.8572400929038
 11
100.131355769238
 21
-132.0787597326053
 97
        0
 92
        1
 93
        3
 72
     1
 10
99.27662757934752
 20
-132.3116481874082
 11
99.93257375973909
 21
-132.8001627272166
 72
     1
 10
99.93257375973909
 20
-132.8001627272166
 11
99.93257375973909
 21
-132.3116481874082
 72
     1
 10
99.93257375973909
 20
-132.3116481874082
 11
99.27662757934752
 21
-132.3116481874082
 97
        0
 75
     2
 76
     1
 98
        0
  0
ENDBLK
  5
E6
330
E3
100
AcDbEntity
  8
0
100
AcDbBlockEnd
  0
BLOCK
  5
108
330
106
100
AcDbEntity
  8
0
100
AcDbBlockBegin
  2
block 6
 70
     0
 10
0.0
 20
0.0
 30
0.0
  3
block 6
  1

  0
SPLINE
  5
10A
330
106
100
AcDbEntity
  8
_U+30EC_U+30A4_U+30E4_U+30FC 1
370
     0
100
AcDbSpline
210
0.0
220
0.0
230
1.0
 70
    11
 71
     3
 72
    26
 73
    22
 74
     0
 42
0.0000000001
 43
0.0000000001
 12
1.0
 22
0.0
 32
0.0
 13
1.0
 23
0.0
 33
0.0
 40
0.0
 40
0.0
 40
0.0
 40
0.0
 40
1.0
 40
1.0
 40
1.0
 40
2.0
 40
2.0
 40
2.0
 40
3.0
 40
3.0
 40
3.0
 40
4.0
 40
4.0
 40
4.0
 40
5.0
 40
5.0
 40
5.0
 40
6.0
 40
6.0
 40
6.0
 40
7.0
 40
7.0
 40
7.0
 40
7.0
 10
87.01553274734334
 20
-131.6646592552783
 30
0.0
 10
87.01553274734334
 20
-131.6646592552783
 30
0.0
 10
87.01553274734334
 20
-130.5601616427072
 30
0.0
 10
87.01553274734334
 20
-130.5601616427072
 30
0.0
 10
87.01553274734334
 20
-130.5601616427072
 30
0.0
 10
86.66292722442802
 20
-130.5601616427072
 30
0.0
 10
86.66292722442802
 20
-130.5601616427072
 30
0.0
 10
86.66292722442802
 20
-130.5601616427072
 30
0.0
 10
86.66292722442802
 20
-130.41236704639
 30
0.0
 10
86.66292722442802
 20
-130.41236704639
 30
0.0
 10
87.01794431418301
 20
-130.3975531358034
 30
0.0
 10
87.06755368917061
 20
-130.2346001193511
 30
0.0
 10
87.09924856763492
 20
-130.1205674587893
 30
0.0
 10
87.09924856763492
 20
-130.1205674587893
 30
0.0
 10
87.25531139311673
 20
-130.1205674587893
 30
0.0
 10
87.25531139311673
 20
-130.1205674587893
 30
0.0
 10
87.25531139311673
 20
-130.1205674587893
 30
0.0
 10
87.25531139311673
 20
-131.6646592552783
 30
0.0
 10
87.25531139311673
 20
-131.6646592552783
 30
0.0
 10
87.25531139311673
 20
-131.6646592552783
 30
0.0
 10
87.01553274734334
 20
-131.6646592552783
 30
0.0
 10
87.01553274734334
 20
-131.6646592552783
 30
0.0
  0
HATCH
  5
10B
330
106
100
AcDbEntity
  8
_U+30EC_U+30A4_U+30E4_U+30FC 1
 62
   179
420
  2234388
100
AcDbHatch
 10
0.0
 20
0.0
 30
0.0
210
0.0
220
0.0
230
1.0
  2
SOLID
 70
     1
 71
     0
 91
        1
 92
        1
 93
        1
 72
     4
 94
        3
 73
     0
 74
     1
 95
       26
 96
       22
 40
0.0
 40
0.0
 40
0.0
 40
0.0
 40
1.0
 40
1.0
 40
1.0
 40
2.0
 40
2.0
 40
2.0
 40
3.0
 40
3.0
 40
3.0
 40
4.0
 40
4.0
 40
4.0
 40
5.0
 40
5.0
 40
5.0
 40
6.0
 40
6.0
 40
6.0
 40
7.0
 40
7.0
 40
7.0
 40
7.0
 10
87.01553274734334
 20
-131.6646592552783
 10
87.01553274734334
 20
-131.6646592552783
 10
87.01553274734334
 20
-130.5601616427072
 10
87.01553274734334
 20
-130.5601616427072
 10
87.01553274734334
 20
-130.5601616427072
 10
86.66292722442802
 20
-130.5601616427072
 10
86.66292722442802
 20
-130.5601616427072
 10
86.66292722442802
 20
-130.5601616427072
 10
86.66292722442802
 20
-130.41236704639
 10
86.66292722442802
 20
-130.41236704639
 10
87.01794431418301
 20
-130.3975531358034
 10
87.06755368917061
 20
-130.2346001193511
 10
87.09924856763492
 20
-130.1205674587893
 10
87.09924856763492
 20
-130.1205674587893
 10
87.25531139311673
 20
-130.1205674587893
 10
87.25531139311673
 20
-130.1205674587893
 10
87.25531139311673
 20
-130.1205674587893
 10
87.25531139311673
 20
-131.6646592552783
 10
87.25531139311673
 20
-131.6646592552783
 10
87.25531139311673
 20
-131.6646592552783
 10
87.01553274734334
 20
-131.6646592552783
 10
87.01553274734334
 20
-131.6646592552783
 97
        0
 97
        0
 75
     2
 76
     1
 98
        0
  0
ENDBLK
  5
109
330
106
100
AcDbEntity
  8
0
100
AcDbBlockEnd
  0
BLOCK
  5
11B
330
119
100
AcDbEntity
  8
0
100
AcDbBlockBegin
  2
block 7
 70
     0
 10
0.0
 20
0.0
 30
0.0
  3
block 7
  1

  0
SPLINE
  5
11D
330
119
100
AcDbEntity
  8
_U+30EC_U+30A4_U+30E4_U+30FC 1
370
     0
100
AcDbSpline
210
0.0
220
0.0
230
1.0
 70
    11
 71
     3
 72
    26
 73
    22
 74
     0
 42
0.0000000001
 43
0.0000000001
 12
1.0
 22
0.0
 32
0.0
 13
1.0
 23
0.0
 33
0.0
 40
0.0
 40
0.0
 40
0.0
 40
0.0
 40
1.0
 40
1.0
 40
1.0
 40
2.0
 40
2.0
 40
2.0
 40
3.0
 40
3.0
 40
3.0
 40
4.0
 40
4.0
 40
4.0
 40
5.0
 40
5.0
 40
5.0
 40
6.0
 40
6.0
 40
6.0
 40
7.0
 40
7.0
 40
7.0
 40
7.0
 10
100.4286675096151
 20
-127.6504339958652
 30
0.0
 10
100.4286675096151
 20
-127.6504339958652
 30
0.0
 10
99.32451440659248
 20
-127.6504339958652
 30
0.0
 10
99.32451440659248
 20
-127.6504339958652
 30
0.0
 10
99.32451440659248
 20
-127.6504339958652
 30
0.0
 10
99.32451440659248
 20
-128.0028672640062
 30
0.0
 10
99.32451440659248
 20
-128.0028672640062
 30
0.0
 10
99.32451440659248
 20
-128.0028672640062
 30
0.0
 10
99.17637530072675
 20
-128.0028672640062
 30
0.0
 10
99.17637530072675
 20
-128.0028672640062
 30
0.0
 10
99.16156139014016
 20
-127.6480224290255
 30
0.0
 10
98.99860837368786
 20
-127.5984130540379
 30
0.0
 10
98.88423120357756
 20
-127.5667181755736
 30
0.0
 10
98.88423120357756
 20
-127.5667181755736
 30
0.0
 10
98.88423120357756
 20
-127.4106553500918
 30
0.0
 10
98.88423120357756
 20
-127.4106553500918
 30
0.0
 10
98.88423120357756
 20
-127.4106553500918
 30
0.0
 10
100.4286675096151
 20
-127.4106553500918
 30
0.0
 10
100.4286675096151
 20
-127.4106553500918
 30
0.0
 10
100.4286675096151
 20
-127.4106553500918
 30
0.0
 10
100.4286675096151
 20
-127.6504339958652
 30
0.0
 10
100.4286675096151
 20
-127.6504339958652
 30
0.0
  0
HATCH
  5
11E
330
119
100
AcDbEntity
  8
_U+30EC_U+30A4_U+30E4_U+30FC 1
 62
   179
420
  2234388
100
AcDbHatch
 10
0.0
 20
0.0
 30
0.0
210
0.0
220
0.0
230
1.0
  2
SOLID
 70
     1
 71
     0
 91
        1
 92
        1
 93
        1
 72
     4
 94
        3
 73
     0
 74
     1
 95
       26
 96
       22
 40
0.0
 40
0.0
 40
0.0
 40
0.0
 40
1.0
 40
1.0
 40
1.0
 40
2.0
 40
2.0
 40
2.0
 40
3.0
 40
3.0
 40
3.0
 40
4.0
 40
4.0
 40
4.0
 40
5.0
 40
5.0
 40
5.0
 40
6.0
 40
6.0
 40
6.0
 40
7.0
 40
7.0
 40
7.0
 40
7.0
 10
100.4286675096151
 20
-127.6504339958652
 10
100.4286675096151
 20
-127.6504339958652
 10
99.32451440659248
 20
-127.6504339958652
 10
99.32451440659248
 20
-127.6504339958652
 10
99.32451440659248
 20
-127.6504339958652
 10
99.32451440659248
 20
-128.0028672640062
 10
99.32451440659248
 20
-128.0028672640062
 10
99.32451440659248
 20
-128.0028672640062
 10
99.17637530072675
 20
-128.0028672640062
 10
99.17637530072675
 20
-128.0028672640062
 10
99.16156139014016
 20
-127.6480224290255
 10
98.99860837368786
 20
-127.5984130540379
 10
98.88423120357756
 20
-127.5667181755736
 10
98.88423120357756
 20
-127.5667181755736
 10
98.88423120357756
 20
-127.4106553500918
 10
98.88423120357756
 20
-127.4106553500918
 10
98.88423120357756
 20
-127.4106553500918
 10
100.4286675096151
 20
-127.4106553500918
 10
100.4286675096151
 20
-127.4106553500918
 10
100.4286675096151
 20
-127.4106553500918
 10
100.4286675096151
 20
-127.6504339958652
 10
100.4286675096151
 20
-127.6504339958652
 97
        0
 97
        0
 75
     2
 76
     1
 98
        0
  0
POLYLINE
  5
11F
330
119
100
AcDbEntity
  8
_U+30EC_U+30A4_U+30E4_U+30FC 1
370
     0
100
AcDb2dPolyline
 66
     1
 10
0.0
 20
0.0
 30
0.0
  0
VERTEX
  5
120
330
11F
100
AcDbEntity
  8
_U+30EC_U+30A4_U+30E4_U+30FC 1
370
     0
100
AcDbVertex
100
AcDb2dVertex
 10
100.4286675096151
 20
-126.8108642261098
 30
0.0
  0
VERTEX
  5
121
330
11F
100
AcDbEntity
  8
_U+30EC_U+30A4_U+30E4_U+30FC 1
370
     0
100
AcDbVertex
100
AcDb2dVertex
 10
100.1768310296433
 20
-126.8108642261098
 30
0.0
  0
VERTEX
  5
122
330
11F
100
AcDbEntity
  8
_U+30EC_U+30A4_U+30E4_U+30FC 1
370
     0
100
AcDbVertex
100
AcDb2dVertex
 10
100.1768310296433
 20
-126.5418022687118
 30
0.0
  0
VERTEX
  5
123
330
11F
100
AcDbEntity
  8
_U+30EC_U+30A4_U+30E4_U+30FC 1
370
     0
100
AcDbVertex
100
AcDb2dVertex
 10
100.4286675096151
 20
-126.5418022687118
 30
0.0
  0
VERTEX
  5
124
330
11F
100
AcDbEntity
  8
_U+30EC_U+30A4_U+30E4_U+30FC 1
370
     0
100
AcDbVertex
100
AcDb2dVertex
 10
100.4286675096151
 20
-126.8108642261098
 30
0.0
  0
SEQEND
  5
125
330
11F
100
AcDbEntity
  8
_U+30EC_U+30A4_U+30E4_U+30FC 1
370
     0
  0
HATCH
  5
126
330
119
100
AcDbEntity
  8
_U+30EC_U+30A4_U+30E4_U+30FC 1
 62
   179
420
  2234388
100
AcDbHatch
 10
0.0
 20
0.0
 30
0.0
210
0.0
220
0.0
230
1.0
  2
SOLID
 70
     1
 71
     0
 91
        1
 92
        1
 93
        4
 72
     1
 10
100.4286675096151
 20
-126.8108642261098
 11
100.1768310296433
 21
-126.8108642261098
 72
     1
 10
100.1768310296433
 20
-126.8108642261098
 11
100.1768310296433
 21
-126.5418022687118
 72
     1
 10
100.1768310296433
 20
-126.5418022687118
 11
100.4286675096151
 21
-126.5418022687118
 72
     1
 10
100.4286675096151
 20
-126.5418022687118
 11
100.4286675096151
 21
-126.8108642261098
 97
        0
 75
     2
 76
     1
 98
        0
  0
SPLINE
  5
127
330
119
100
AcDbEntity
  8
_U+30EC_U+30A4_U+30E4_U+30FC 1
370
     0
100
AcDbSpline
210
0.0
220
0.0
230
1.0
 70
    11
 71
     3
 72
    53
 73
    49
 74
     0
 42
0.0000000001
 43
0.0000000001
 12
1.0
 22
0.0
 32
0.0
 13
1.0
 23
0.0
 33
0.0
 40
0.0
 40
0.0
 40
0.0
 40
0.0
 40
1.0
 40
1.0
 40
1.0
 40
2.0
 40
2.0
 40
2.0
 40
3.0
 40
3.0
 40
3.0
 40
4.0
 40
4.0
 40
4.0
 40
5.0
 40
5.0
 40
5.0
 40
6.0
 40
6.0
 40
6.0
 40
7.0
 40
7.0
 40
7.0
 40
8.0
 40
8.0
 40
8.0
 40
9.0
 40
9.0
 40
9.0
 40
10.0
 40
10.0
 40
10.0
 40
11.0
 40
11.0
 40
11.0
 40
12.0
 40
12.0
 40
12.0
 40
13.0
 40
13.0
 40
13.0
 40
14.0
 40
14.0
 40
14.0
 40
15.0
 40
15.0
 40
15.0
 40
16.0
 40
16.0
 40
16.0
 40
16.0
 10
100.4793104132482
 20
-125.7749240136952
 30
0.0
 10
100.4793104132482
 20
-125.8582953244382
 30
0.0
 10
100.4624294453705
 20
-125.9671603417721
 30
0.0
 10
100.3990396884419
 20
-126.0753363400089
 30
0.0
 10
100.2891411424624
 20
-126.2610269866639
 30
0.0
 10
100.1578830044744
 20
-126.283420107318
 30
0.0
 10
100.0500515157861
 20
-126.303746170681
 30
0.0
 10
100.0500515157861
 20
-126.303746170681
 30
0.0
 10
100.0500515157861
 20
-126.0663790917473
 30
0.0
 10
100.0500515157861
 20
-126.0663790917473
 30
0.0
 10
100.248833525285
 20
-126.0078124684981
 30
0.0
 10
100.2784613464582
 20
-125.8720757063792
 30
0.0
 10
100.2784613464582
 20
-125.7725124468555
 30
0.0
 10
100.2784613464582
 20
-125.6233398123442
 30
0.0
 10
100.1788980869345
 20
-125.4607313054404
 30
0.0
 10
99.94635414168009
 20
-125.4607313054404
 30
0.0
 10
99.69038354712602
 20
-125.4607313054404
 30
0.0
 10
99.62044810877545
 20
-125.6526231239688
 30
0.0
 10
99.62044810877545
 20
-125.7814696951171
 30
0.0
 10
99.62044810877545
 20
-125.8155761404211
 30
0.0
 10
99.62044810877545
 20
-125.9671603417721
 30
0.0
 10
99.74963918947232
 20
-126.0619004676165
 30
0.0
 10
99.74963918947232
 20
-126.0619004676165
 30
0.0
 10
99.73069116430344
 20
-126.2496581715626
 30
0.0
 10
99.73069116430344
 20
-126.2496581715626
 30
0.0
 10
99.73069116430344
 20
-126.2496581715626
 30
0.0
 10
98.88423120357756
 20
-126.1208116004142
 30
0.0
 10
98.88423120357756
 20
-126.1208116004142
 30
0.0
 10
98.88423120357756
 20
-126.1208116004142
 30
0.0
 10
98.88423120357756
 20
-125.2888210407264
 30
0.0
 10
98.88423120357756
 20
-125.2888210407264
 30
0.0
 10
98.88423120357756
 20
-125.2888210407264
 30
0.0
 10
99.07887909849417
 20
-125.2888210407264
 30
0.0
 10
99.07887909849417
 20
-125.2888210407264
 30
0.0
 10
99.07887909849417
 20
-125.2888210407264
 30
0.0
 10
99.07887909849417
 20
-125.9464897688606
 30
0.0
 10
99.07887909849417
 20
-125.9464897688606
 30
0.0
 10
99.07887909849417
 20
-125.9464897688606
 30
0.0
 10
99.50193682408285
 20
-126.0167697167597
 30
0.0
 10
99.50193682408285
 20
-126.0167697167597
 30
0.0
 10
99.46817488832741
 20
-125.95131290254
 30
0.0
 10
99.42786727114998
 20
-125.8631184581176
 30
0.0
 10
99.42786727114998
 20
-125.7363389442604
 30
0.0
 10
99.42786727114998
 20
-125.4652099295712
 30
0.0
 10
99.61424693690199
 20
-125.2119954114053
 30
0.0
 10
99.92740611651121
 20
-125.2119954114053
 30
0.0
 10
100.2446994107027
 20
-125.2119954114053
 30
0.0
 10
100.4793104132482
 20
-125.4514295476302
 30
0.0
 10
100.4793104132482
 20
-125.7749240136952
 30
0.0
  0
HATCH
  5
128
330
119
100
AcDbEntity
  8
_U+30EC_U+30A4_U+30E4_U+30FC 1
 62
   179
420
  2234388
100
AcDbHatch
 10
0.0
 20
0.0
 30
0.0
210
0.0
220
0.0
230
1.0
  2
SOLID
 70
     1
 71
     0
 91
        1
 92
        1
 93
        1
 72
     4
 94
        3
 73
     0
 74
     1
 95
       53
 96
       49
 40
0.0
 40
0.0
 40
0.0
 40
0.0
 40
1.0
 40
1.0
 40
1.0
 40
2.0
 40
2.0
 40
2.0
 40
3.0
 40
3.0
 40
3.0
 40
4.0
 40
4.0
 40
4.0
 40
5.0
 40
5.0
 40
5.0
 40
6.0
 40
6.0
 40
6.0
 40
7.0
 40
7.0
 40
7.0
 40
8.0
 40
8.0
 40
8.0
 40
9.0
 40
9.0
 40
9.0
 40
10.0
 40
10.0
 40
10.0
 40
11.0
 40
11.0
 40
11.0
 40
12.0
 40
12.0
 40
12.0
 40
13.0
 40
13.0
 40
13.0
 40
14.0
 40
14.0
 40
14.0
 40
15.0
 40
15.0
 40
15.0
 40
16.0
 40
16.0
 40
16.0
 40
16.0
 10
100.4793104132482
 20
-125.7749240136952
 10
100.4793104132482
 20
-125.8582953244382
 10
100.4624294453705
 20
-125.9671603417721
 10
100.3990396884419
 20
-126.0753363400089
 10
100.2891411424624
 20
-126.2610269866639
 10
100.1578830044744
 20
-126.283420107318
 10
100.0500515157861
 20
-126.303746170681
 10
100.0500515157861
 20
-126.303746170681
 10
100.0500515157861
 20
-126.0663790917473
 10
100.0500515157861
 20
-126.0663790917473
 10
100.248833525285
 20
-126.0078124684981
 10
100.2784613464582
 20
-125.8720757063792
 10
100.2784613464582
 20
-125.7725124468555
 10
100.2784613464582
 20
-125.6233398123442
 10
100.1788980869345
 20
-125.4607313054404
 10
99.94635414168009
 20
-125.4607313054404
 10
99.69038354712602
 20
-125.4607313054404
 10
99.62044810877545
 20
-125.6526231239688
 10
99.62044810877545
 20
-125.7814696951171
 10
99.62044810877545
 20
-125.8155761404211
 10
99.62044810877545
 20
-125.9671603417721
 10
99.74963918947232
 20
-126.0619004676165
 10
99.74963918947232
 20
-126.0619004676165
 10
99.73069116430344
 20
-126.2496581715626
 10
99.73069116430344
 20
-126.2496581715626
 10
99.73069116430344
 20
-126.2496581715626
 10
98.88423120357756
 20
-126.1208116004142
 10
98.88423120357756
 20
-126.1208116004142
 10
98.88423120357756
 20
-126.1208116004142
 10
98.88423120357756
 20
-125.2888210407264
 10
98.88423120357756
 20
-125.2888210407264
 10
98.88423120357756
 20
-125.2888210407264
 10
99.07887909849417
 20
-125.2888210407264
 10
99.07887909849417
 20
-125.2888210407264
 10
99.07887909849417
 20
-125.2888210407264
 10
99.07887909849417
 20
-125.9464897688606
 10
99.07887909849417
 20
-125.9464897688606
 10
99.07887909849417
 20
-125.9464897688606
 10
99.50193682408285
 20
-126.0167697167597
 10
99.50193682408285
 20
-126.0167697167597
 10
99.46817488832741
 20
-125.95131290254
 10
99.42786727114998
 20
-125.8631184581176
 10
99.42786727114998
 20
-125.7363389442604
 10
99.42786727114998
 20
-125.4652099295712
 10
99.61424693690199
 20
-125.2119954114053
 10
99.92740611651121
 20
-125.2119954114053
 10
100.2446994107027
 20
-125.2119954114053
 10
100.4793104132482
 20
-125.4514295476302
 10
100.4793104132482
 20
-125.7749240136952
 97
        0
 97
        0
 75
     2
 76
     1
 98
        0
  0
ENDBLK
  5
11C
330
119
100
AcDbEntity
  8
0
100
AcDbBlockEnd
  0
ENDSEC
  0
SECTION
  2
ENTITIES
  0
SPLINE
  5
41
330
1F
100
AcDbEntity
  8
_U+30EC_U+30A4_U+30E4_U+30FC 1
370
     0
100
AcDbSpline
210
0.0
220
0.0
230
1.0
 70
    11
 71
     3
 72
    71
 73
    67
 74
     0
 42
0.0000000001
 43
0.0000000001
 12
1.0
 22
0.0
 32
0.0
 13
1.0
 23
0.0
 33
0.0
 40
0.0
 40
0.0
 40
0.0
 40
0.0
 40
1.0
 40
1.0
 40
1.0
 40
2.0
 40
2.0
 40
2.0
 40
3.0
 40
3.0
 40
3.0
 40
4.0
 40
4.0
 40
4.0
 40
5.0
 40
5.0
 40
5.0
 40
6.0
 40
6.0
 40
6.0
 40
7.0
 40
7.0
 40
7.0
 40
8.0
 40
8.0
 40
8.0
 40
9.0
 40
9.0
 40
9.0
 40
10.0
 40
10.0
 40
10.0
 40
11.0
 40
11.0
 40
11.0
 40
12.0
 40
12.0
 40
12.0
 40
13.0
 40
13.0
 40
13.0
 40
14.0
 40
14.0
 40
14.0
 40
15.0
 40
15.0
 40
15.0
 40
16.0
 40
16.0
 40
16.0
 40
17.0
 40
17.0
 40
17.0
 40
18.0
 40
18.0
 40
18.0
 40
19.0
 40
19.0
 40
19.0
 40
20.0
 40
20.0
 40
20.0
 40
21.0
 40
21.0
 40
21.0
 40
22.0
 40
22.0
 40
22.0
 40
22.0
 10
96.07475671559543
 20
-128.9764374677562
 30
0.0
 10
96.07475671559543
 20
-128.9764374677562
 30
0.0
 10
91.57476108821754
 20
-128.9764374677562
 30
0.0
 10
91.57476108821754
 20
-128.9764374677562
 30
0.0
 10
91.57476108821754
 20
-128.9764374677562
 30
0.0
 10
91.57476108821754
 20
-131.1765008005394
 30
0.0
 10
91.57476108821754
 20
-131.1765008005394
 30
0.0
 10
91.85105432335105
 20
-131.1765008005394
 30
0.0
 10
92.07499997698126
 20
-131.4004088560386
 30
0.0
 10
92.07499997698126
 20
-131.6760341337476
 30
0.0
 10
92.07499997698126
 20
-131.6760341337476
 30
0.0
 10
92.07499997698126
 20
-133.4764355221862
 30
0.0
 10
92.07499997698126
 20
-133.4764355221862
 30
0.0
 10
92.07499997698126
 20
-133.4764355221862
 30
0.0
 10
84.0749856328462
 20
-133.4764355221862
 30
0.0
 10
84.0749856328462
 20
-133.4764355221862
 30
0.0
 10
84.0749856328462
 20
-133.4764355221862
 30
0.0
 10
84.0749856328462
 20
-131.6760341337476
 30
0.0
 10
84.0749856328462
 20
-131.6760341337476
 30
0.0
 10
84.0749856328462
 20
-131.4004088560386
 30
0.0
 10
84.2985409049206
 20
-131.1765008005394
 30
0.0
 10
84.57483645342728
 20
-131.1765008005394
 30
0.0
 10
84.57483645342728
 20
-131.1765008005394
 30
0.0
 10
84.57483645342728
 20
-128.9764374677562
 30
0.0
 10
84.57483645342728
 20
-128.9764374677562
 30
0.0
 10
84.57483645342728
 20
-128.9764374677562
 30
0.0
 10
80.07487379045311
 20
-128.9764374677562
 30
0.0
 10
80.07487379045311
 20
-128.9764374677562
 30
0.0
 10
79.52263547120855
 20
-128.9764374677562
 30
0.0
 10
79.07492520485282
 20
-129.4243241343108
 30
0.0
 10
79.07492520485282
 20
-129.9762096897281
 30
0.0
 10
79.07492520485282
 20
-129.9762096897281
 30
0.0
 10
79.07492520485282
 20
-130.4764485784918
 30
0.0
 10
79.07492520485282
 20
-130.4764485784918
 30
0.0
 10
79.07492520485282
 20
-130.4764485784918
 30
0.0
 10
80.57493627769546
 20
-130.4764485784918
 30
0.0
 10
80.57493627769546
 20
-130.4764485784918
 30
0.0
 10
80.57493627769546
 20
-130.4764485784918
 30
0.0
 10
80.57493627769546
 20
-129.9762096897281
 30
0.0
 10
80.57493627769546
 20
-129.9762096897281
 30
0.0
 10
80.57493627769546
 20
-129.9762096897281
 30
0.0
 10
83.07486065836152
 20
-129.9762096897281
 30
0.0
 10
83.07486065836152
 20
-129.9762096897281
 30
0.0
 10
83.07486065836152
 20
-129.9762096897281
 30
0.0
 10
83.07486065836152
 20
-134.4762077441587
 30
0.0
 10
83.07486065836152
 20
-134.4762077441587
 30
0.0
 10
83.07486065836152
 20
-134.4762077441587
 30
0.0
 10
93.0747721989538
 20
-134.4762077441587
 30
0.0
 10
93.0747721989538
 20
-134.4762077441587
 30
0.0
 10
93.0747721989538
 20
-134.4762077441587
 30
0.0
 10
93.0747721989538
 20
-129.9762096897281
 30
0.0
 10
93.0747721989538
 20
-129.9762096897281
 30
0.0
 10
93.0747721989538
 20
-129.9762096897281
 30
0.0
 10
95.57522339500625
 20
-129.9762096897281
 30
0.0
 10
95.57522339500625
 20
-129.9762096897281
 30
0.0
 10
95.57522339500625
 20
-129.9762096897281
 30
0.0
 10
95.57522339500625
 20
-130.4764485784918
 30
0.0
 10
95.57522339500625
 20
-130.4764485784918
 30
0.0
 10
95.57522339500625
 20
-130.4764485784918
 30
0.0
 10
97.07519919007201
 20
-130.4764485784918
 30
0.0
 10
97.07519919007201
 20
-130.4764485784918
 30
0.0
 10
97.07519919007201
 20
-130.4764485784918
 30
0.0
 10
97.07519919007201
 20
-129.9762096897281
 30
0.0
 10
97.07519919007201
 20
-129.9762096897281
 30
0.0
 10
97.07519919007201
 20
-129.4243241343108
 30
0.0
 10
96.62734781260876
 20
-128.9764374677562
 30
0.0
 10
96.07475671559543
 20
-128.9764374677562
 30
0.0
  0
HATCH
  5
42
330
1F
100
AcDbEntity
  8
_U+30EC_U+30A4_U+30E4_U+30FC 1
 62
   253
420
 11711154
100
AcDbHatch
 10
0.0
 20
0.0
 30
0.0
210
0.0
220
0.0
230
1.0
  2
SOLID
 70
     1
 71
     0
 91
        1
 92
        1
 93
        1
 72
     4
 94
        3
 73
     0
 74
     1
 95
       71
 96
       67
 40
0.0
 40
0.0
 40
0.0
 40
0.0
 40
1.0
 40
1.0
 40
1.0
 40
2.0
 40
2.0
 40
2.0
 40
3.0
 40
3.0
 40
3.0
 40
4.0
 40
4.0
 40
4.0
 40
5.0
 40
5.0
 40
5.0
 40
6.0
 40
6.0
 40
6.0
 40
7.0
 40
7.0
 40
7.0
 40
8.0
 40
8.0
 40
8.0
 40
9.0
 40
9.0
 40
9.0
 40
10.0
 40
10.0
 40
10.0
 40
11.0
 40
11.0
 40
11.0
 40
12.0
 40
12.0
 40
12.0
 40
13.0
 40
13.0
 40
13.0
 40
14.0
 40
14.0
 40
14.0
 40
15.0
 40
15.0
 40
15.0
 40
16.0
 40
16.0
 40
16.0
 40
17.0
 40
17.0
 40
17.0
 40
18.0
 40
18.0
 40
18.0
 40
19.0
 40
19.0
 40
19.0
 40
20.0
 40
20.0
 40
20.0
 40
21.0
 40
21.0
 40
21.0
 40
22.0
 40
22.0
 40
22.0
 40
22.0
 10
96.07475671559543
 20
-128.9764374677562
 10
96.07475671559543
 20
-128.9764374677562
 10
91.57476108821754
 20
-128.9764374677562
 10
91.57476108821754
 20
-128.9764374677562
 10
91.57476108821754
 20
-128.9764374677562
 10
91.57476108821754
 20
-131.1765008005394
 10
91.57476108821754
 20
-131.1765008005394
 10
91.85105432335105
 20
-131.1765008005394
 10
92.07499997698126
 20
-131.4004088560386
 10
92.07499997698126
 20
-131.6760341337476
 10
92.07499997698126
 20
-131.6760341337476
 10
92.07499997698126
 20
-133.4764355221862
 10
92.07499997698126
 20
-133.4764355221862
 10
92.07499997698126
 20
-133.4764355221862
 10
84.0749856328462
 20
-133.4764355221862
 10
84.0749856328462
 20
-133.4764355221862
 10
84.0749856328462
 20
-133.4764355221862
 10
84.0749856328462
 20
-131.6760341337476
 10
84.0749856328462
 20
-131.6760341337476
 10
84.0749856328462
 20
-131.4004088560386
 10
84.2985409049206
 20
-131.1765008005394
 10
84.57483645342728
 20
-131.1765008005394
 10
84.57483645342728
 20
-131.1765008005394
 10
84.57483645342728
 20
-128.9764374677562
 10
84.57483645342728
 20
-128.9764374677562
 10
84.57483645342728
 20
-128.9764374677562
 10
80.07487379045311
 20
-128.9764374677562
 10
80.07487379045311
 20
-128.9764374677562
 10
79.52263547120855
 20
-128.9764374677562
 10
79.07492520485282
 20
-129.4243241343108
 10
79.07492520485282
 20
-129.9762096897281
 10
79.07492520485282
 20
-129.9762096897281
 10
79.07492520485282
 20
-130.4764485784918
 10
79.07492520485282
 20
-130.4764485784918
 10
79.07492520485282
 20
-130.4764485784918
 10
80.57493627769546
 20
-130.4764485784918
 10
80.57493627769546
 20
-130.4764485784918
 10
80.57493627769546
 20
-130.4764485784918
 10
80.57493627769546
 20
-129.9762096897281
 10
80.57493627769546
 20
-129.9762096897281
 10
80.57493627769546
 20
-129.9762096897281
 10
83.07486065836152
 20
-129.9762096897281
 10
83.07486065836152
 20
-129.9762096897281
 10
83.07486065836152
 20
-129.9762096897281
 10
83.07486065836152
 20
-134.4762077441587
 10
83.07486065836152
 20
-134.4762077441587
 10
83.07486065836152
 20
-134.4762077441587
 10
93.0747721989538
 20
-134.4762077441587
 10
93.0747721989538
 20
-134.4762077441587
 10
93.0747721989538
 20
-134.4762077441587
 10
93.0747721989538
 20
-129.9762096897281
 10
93.0747721989538
 20
-129.9762096897281
 10
93.0747721989538
 20
-129.9762096897281
 10
95.57522339500625
 20
-129.9762096897281
 10
95.57522339500625
 20
-129.9762096897281
 10
95.57522339500625
 20
-129.9762096897281
 10
95.57522339500625
 20
-130.4764485784918
 10
95.57522339500625
 20
-130.4764485784918
 10
95.57522339500625
 20
-130.4764485784918
 10
97.07519919007201
 20
-130.4764485784918
 10
97.07519919007201
 20
-130.4764485784918
 10
97.07519919007201
 20
-130.4764485784918
 10
97.07519919007201
 20
-129.9762096897281
 10
97.07519919007201
 20
-129.9762096897281
 10
97.07519919007201
 20
-129.4243241343108
 10
96.62734781260876
 20
-128.9764374677562
 10
96.07475671559543
 20
-128.9764374677562
 97
        0
 97
        0
 75
     2
 76
     1
 98
        0
  0
POLYLINE
  5
43
330
1F
100
AcDbEntity
  8
_U+30EC_U+30A4_U+30E4_U+30FC 1
 62
   179
420
  2234388
370
    25
100
AcDb2dPolyline
 66
     1
 10
0.0
 20
0.0
 30
0.0
  0
VERTEX
  5
44
330
43
100
AcDbEntity
  8
_U+30EC_U+30A4_U+30E4_U+30FC 1
 62
   179
420
  2234388
370
    25
100
AcDbVertex
100
AcDb2dVertex
 10
83.07486065836152
 20
-134.4762077441587
 30
0.0
  0
VERTEX
  5
45
330
43
100
AcDbEntity
  8
_U+30EC_U+30A4_U+30E4_U+30FC 1
 62
   179
420
  2234388
370
    25
100
AcDbVertex
100
AcDb2dVertex
 10
93.0747721989538
 20
-134.4762077441587
 30
0.0
  0
SEQEND
  5
46
330
43
100
AcDbEntity
  8
_U+30EC_U+30A4_U+30E4_U+30FC 1
 62
   179
420
  2234388
370
    25
  0
POLYLINE
  5
47
330
1F
100
AcDbEntity
  8
_U+30EC_U+30A4_U+30E4_U+30FC 1
 62
   179
420
  2234388
370
    25
100
AcDb2dPolyline
 66
     1
 10
0.0
 20
0.0
 30
0.0
  0
VERTEX
  5
48
330
47
100
AcDbEntity
  8
_U+30EC_U+30A4_U+30E4_U+30FC 1
 62
   179
420
  2234388
370
    25
100
AcDbVertex
100
AcDb2dVertex
 10
91.57476108821754
 20
-128.9764374677562
 30
0.0
  0
VERTEX
  5
49
330
47
100
AcDbEntity
  8
_U+30EC_U+30A4_U+30E4_U+30FC 1
 62
   179
420
  2234388
370
    25
100
AcDbVertex
100
AcDb2dVertex
 10
96.07475671559543
 20
-128.9764374677562
 30
0.0
  0
SEQEND
  5
4A
330
47
100
AcDbEntity
  8
_U+30EC_U+30A4_U+30E4_U+30FC 1
 62
   179
420
  2234388
370
    25
  0
POLYLINE
  5
4B
330
1F
100
AcDbEntity
  8
_U+30EC_U+30A4_U+30E4_U+30FC 1
 62
   179
420
  2234388
370
    25
100
AcDb2dPolyline
 66
     1
 10
0.0
 20
0.0
 30
0.0
  0
VERTEX
  5
4C
330
4B
100
AcDbEntity
  8
_U+30EC_U+30A4_U+30E4_U+30FC 1
 62
   179
420
  2234388
370
    25
100
AcDbVertex
100
AcDb2dVertex
 10
91.57476108821754
 20
-128.9764374677562
 30
0.0
  0
VERTEX
  5
4D
330
4B
100
AcDbEntity
  8
_U+30EC_U+30A4_U+30E4_U+30FC 1
 62
   179
420
  2234388
370
    25
100
AcDbVertex
100
AcDb2dVertex
 10
91.57476108821754
 20
-131.1765008005394
 30
0.0
  0
SEQEND
  5
4E
330
4B
100
AcDbEntity
  8
_U+30EC_U+30A4_U+30E4_U+30FC 1
 62
   179
420
  2234388
370
    25
  0
POLYLINE
  5
4F
330
1F
100
AcDbEntity
  8
_U+30EC_U+30A4_U+30E4_U+30FC 1
 62
   179
420
  2234388
370
    25
100
AcDb2dPolyline
 66
     1
 10
0.0
 20
0.0
 30
0.0
  0
VERTEX
  5
50
330
4F
100
AcDbEntity
  8
_U+30EC_U+30A4_U+30E4_U+30FC 1
 62
   179
420
  2234388
370
    25
100
AcDbVertex
100
AcDb2dVertex
 10
97.07519919007201
 20
-129.9762096897281
 30
0.0
  0
VERTEX
  5
51
330
4F
100
AcDbEntity
  8
_U+30EC_U+30A4_U+30E4_U+30FC 1
 62
   179
420
  2234388
370
    25
100
AcDbVertex
100
AcDb2dVertex
 10
97.07519919007201
 20
-130.4764485784918
 30
0.0
  0
SEQEND
  5
52
330
4F
100
AcDbEntity
  8
_U+30EC_U+30A4_U+30E4_U+30FC 1
 62
   179
420
  2234388
370
    25
  0
POLYLINE
  5
53
330
1F
100
AcDbEntity
  8
_U+30EC_U+30A4_U+30E4_U+30FC 1
 62
   179
420
  2234388
370
    25
100
AcDb2dPolyline
 66
     1
 10
0.0
 20
0.0
 30
0.0
  0
VERTEX
  5
54
330
53
100
AcDbEntity
  8
_U+30EC_U+30A4_U+30E4_U+30FC 1
 62
   179
420
  2234388
370
    25
100
AcDbVertex
100
AcDb2dVertex
 10
92.07499997698126
 20
-131.6760341337476
 30
0.0
  0
VERTEX
  5
55
330
53
100
AcDbEntity
  8
_U+30EC_U+30A4_U+30E4_U+30FC 1
 62
   179
420
  2234388
370
    25
100
AcDbVertex
100
AcDb2dVertex
 10
92.07499997698126
 20
-133.4764355221862
 30
0.0
  0
SEQEND
  5
56
330
53
100
AcDbEntity
  8
_U+30EC_U+30A4_U+30E4_U+30FC 1
 62
   179
420
  2234388
370
    25
  0
POLYLINE
  5
57
330
1F
100
AcDbEntity
  8
_U+30EC_U+30A4_U+30E4_U+30FC 1
 62
   179
420
  2234388
370
    25
100
AcDb2dPolyline
 66
     1
 10
0.0
 20
0.0
 30
0.0
  0
VERTEX
  5
58
330
57
100
AcDbEntity
  8
_U+30EC_U+30A4_U+30E4_U+30FC 1
 62
   179
420
  2234388
370
    25
100
AcDbVertex
100
AcDb2dVertex
 10
84.0749856328462
 20
-133.4764355221862
 30
0.0
  0
VERTEX
  5
59
330
57
100
AcDbEntity
  8
_U+30EC_U+30A4_U+30E4_U+30FC 1
 62
   179
420
  2234388
370
    25
100
AcDbVertex
100
AcDb2dVertex
 10
92.07499997698126
 20
-133.4764355221862
 30
0.0
  0
SEQEND
  5
5A
330
57
100
AcDbEntity
  8
_U+30EC_U+30A4_U+30E4_U+30FC 1
 62
   179
420
  2234388
370
    25
  0
POLYLINE
  5
5B
330
1F
100
AcDbEntity
  8
_U+30EC_U+30A4_U+30E4_U+30FC 1
 62
   179
420
  2234388
370
    25
100
AcDb2dPolyline
 66
     1
 10
0.0
 20
0.0
 30
0.0
  0
VERTEX
  5
5C
330
5B
100
AcDbEntity
  8
_U+30EC_U+30A4_U+30E4_U+30FC 1
 62
   179
420
  2234388
370
    25
100
AcDbVertex
100
AcDb2dVertex
 10
95.57522339500625
 20
-129.9762096897281
 30
0.0
  0
VERTEX
  5
5D
330
5B
100
AcDbEntity
  8
_U+30EC_U+30A4_U+30E4_U+30FC 1
 62
   179
420
  2234388
370
    25
100
AcDbVertex
100
AcDb2dVertex
 10
95.57522339500625
 20
-130.4764485784918
 30
0.0
  0
SEQEND
  5
5E
330
5B
100
AcDbEntity
  8
_U+30EC_U+30A4_U+30E4_U+30FC 1
 62
   179
420
  2234388
370
    25
  0
POLYLINE
  5
5F
330
1F
100
AcDbEntity
  8
_U+30EC_U+30A4_U+30E4_U+30FC 1
 62
   179
420
  2234388
370
    25
100
AcDb2dPolyline
 66
     1
 10
0.0
 20
0.0
 30
0.0
  0
VERTEX
  5
60
330
5F
100
AcDbEntity
  8
_U+30EC_U+30A4_U+30E4_U+30FC 1
 62
   179
420
  2234388
370
    25
100
AcDbVertex
100
AcDb2dVertex
 10
93.0747721989538
 20
-129.9762096897281
 30
0.0
  0
VERTEX
  5
61
330
5F
100
AcDbEntity
  8
_U+30EC_U+30A4_U+30E4_U+30FC 1
 62
   179
420
  2234388
370
    25
100
AcDbVertex
100
AcDb2dVertex
 10
95.57522339500625
 20
-129.9762096897281
 30
0.0
  0
SEQEND
  5
62
330
5F
100
AcDbEntity
  8
_U+30EC_U+30A4_U+30E4_U+30FC 1
 62
   179
420
  2234388
370
    25
  0
POLYLINE
  5
63
330
1F
100
AcDbEntity
  8
_U+30EC_U+30A4_U+30E4_U+30FC 1
 62
   179
420
  2234388
370
    25
100
AcDb2dPolyline
 66
     1
 10
0.0
 20
0.0
 30
0.0
  0
VERTEX
  5
64
330
63
100
AcDbEntity
  8
_U+30EC_U+30A4_U+30E4_U+30FC 1
 62
   179
420
  2234388
370
    25
100
AcDbVertex
100
AcDb2dVertex
 10
93.0747721989538
 20
-129.9762096897281
 30
0.0
  0
VERTEX
  5
65
330
63
100
AcDbEntity
  8
_U+30EC_U+30A4_U+30E4_U+30FC 1
 62
   179
420
  2234388
370
    25
100
AcDbVertex
100
AcDb2dVertex
 10
93.0747721989538
 20
-134.4762077441587
 30
0.0
  0
SEQEND
  5
66
330
63
100
AcDbEntity
  8
_U+30EC_U+30A4_U+30E4_U+30FC 1
 62
   179
420
  2234388
370
    25
  0
POLYLINE
  5
67
330
1F
100
AcDbEntity
  8
_U+30EC_U+30A4_U+30E4_U+30FC 1
 62
   179
420
  2234388
370
    25
100
AcDb2dPolyline
 66
     1
 10
0.0
 20
0.0
 30
0.0
  0
VERTEX
  5
68
330
67
100
AcDbEntity
  8
_U+30EC_U+30A4_U+30E4_U+30FC 1
 62
   179
420
  2234388
370
    25
100
AcDbVertex
100
AcDb2dVertex
 10
95.57522339500625
 20
-130.4764485784918
 30
0.0
  0
VERTEX
  5
69
330
67
100
AcDbEntity
  8
_U+30EC_U+30A4_U+30E4_U+30FC 1
 62
   179
420
  2234388
370
    25
100
AcDbVertex
100
AcDb2dVertex
 10
97.07519919007201
 20
-130.4764485784918
 30
0.0
  0
SEQEND
  5
6A
330
67
100
AcDbEntity
  8
_U+30EC_U+30A4_U+30E4_U+30FC 1
 62
   179
420
  2234388
370
    25
  0
POLYLINE
  5
6B
330
1F
100
AcDbEntity
  8
_U+30EC_U+30A4_U+30E4_U+30FC 1
 62
   179
420
  2234388
370
    25
100
AcDb2dPolyline
 66
     1
 10
0.0
 20
0.0
 30
0.0
  0
VERTEX
  5
6C
330
6B
100
AcDbEntity
  8
_U+30EC_U+30A4_U+30E4_U+30FC 1
 62
   179
420
  2234388
370
    25
100
AcDbVertex
100
AcDb2dVertex
 10
80.57493627769546
 20
-129.9762096897281
 30
0.0
  0
VERTEX
  5
6D
330
6B
100
AcDbEntity
  8
_U+30EC_U+30A4_U+30E4_U+30FC 1
 62
   179
420
  2234388
370
    25
100
AcDbVertex
100
AcDb2dVertex
 10
80.57493627769546
 20
-130.4764485784918
 30
0.0
  0
SEQEND
  5
6E
330
6B
100
AcDbEntity
  8
_U+30EC_U+30A4_U+30E4_U+30FC 1
 62
   179
420
  2234388
370
    25
  0
POLYLINE
  5
6F
330
1F
100
AcDbEntity
  8
_U+30EC_U+30A4_U+30E4_U+30FC 1
 62
   179
420
  2234388
370
    25
100
AcDb2dPolyline
 66
     1
 10
0.0
 20
0.0
 30
0.0
  0
VERTEX
  5
70
330
6F
100
AcDbEntity
  8
_U+30EC_U+30A4_U+30E4_U+30FC 1
 62
   179
420
  2234388
370
    25
100
AcDbVertex
100
AcDb2dVertex
 10
83.07486065836152
 20
-129.9762096897281
 30
0.0
  0
VERTEX
  5
71
330
6F
100
AcDbEntity
  8
_U+30EC_U+30A4_U+30E4_U+30FC 1
 62
   179
420
  2234388
370
    25
100
AcDbVertex
100
AcDb2dVertex
 10
83.07486065836152
 20
-134.4762077441587
 30
0.0
  0
SEQEND
  5
72
330
6F
100
AcDbEntity
  8
_U+30EC_U+30A4_U+30E4_U+30FC 1
 62
   179
420
  2234388
370
    25
  0
POLYLINE
  5
73
330
1F
100
AcDbEntity
  8
_U+30EC_U+30A4_U+30E4_U+30FC 1
 62
   179
420
  2234388
370
    25
100
AcDb2dPolyline
 66
     1
 10
0.0
 20
0.0
 30
0.0
  0
VERTEX
  5
74
330
73
100
AcDbEntity
  8
_U+30EC_U+30A4_U+30E4_U+30FC 1
 62
   179
420
  2234388
370
    25
100
AcDbVertex
100
AcDb2dVertex
 10
84.0749856328462
 20
-131.6760341337476
 30
0.0
  0
VERTEX
  5
75
330
73
100
AcDbEntity
  8
_U+30EC_U+30A4_U+30E4_U+30FC 1
 62
   179
420
  2234388
370
    25
100
AcDbVertex
100
AcDb2dVertex
 10
84.0749856328462
 20
-133.4764355221862
 30
0.0
  0
SEQEND
  5
76
330
73
100
AcDbEntity
  8
_U+30EC_U+30A4_U+30E4_U+30FC 1
 62
   179
420
  2234388
370
    25
  0
POLYLINE
  5
77
330
1F
100
AcDbEntity
  8
_U+30EC_U+30A4_U+30E4_U+30FC 1
 62
   179
420
  2234388
370
    25
100
AcDb2dPolyline
 66
     1
 10
0.0
 20
0.0
 30
0.0
  0
VERTEX
  5
78
330
77
100
AcDbEntity
  8
_U+30EC_U+30A4_U+30E4_U+30FC 1
 62
   179
420
  2234388
370
    25
100
AcDbVertex
100
AcDb2dVertex
 10
83.07486065836152
 20
-129.9762096897281
 30
0.0
  0
VERTEX
  5
79
330
77
100
AcDbEntity
  8
_U+30EC_U+30A4_U+30E4_U+30FC 1
 62
   179
420
  2234388
370
    25
100
AcDbVertex
100
AcDb2dVertex
 10
80.57493627769546
 20
-129.9762096897281
 30
0.0
  0
SEQEND
  5
7A
330
77
100
AcDbEntity
  8
_U+30EC_U+30A4_U+30E4_U+30FC 1
 62
   179
420
  2234388
370
    25
  0
POLYLINE
  5
7B
330
1F
100
AcDbEntity
  8
_U+30EC_U+30A4_U+30E4_U+30FC 1
 62
   179
420
  2234388
370
    25
100
AcDb2dPolyline
 66
     1
 10
0.0
 20
0.0
 30
0.0
  0
VERTEX
  5
7C
330
7B
100
AcDbEntity
  8
_U+30EC_U+30A4_U+30E4_U+30FC 1
 62
   179
420
  2234388
370
    25
100
AcDbVertex
100
AcDb2dVertex
 10
79.07492520485282
 20
-129.9762096897281
 30
0.0
  0
VERTEX
  5
7D
330
7B
100
AcDbEntity
  8
_U+30EC_U+30A4_U+30E4_U+30FC 1
 62
   179
420
  2234388
370
    25
100
AcDbVertex
100
AcDb2dVertex
 10
79.07492520485282
 20
-130.4764485784918
 30
0.0
  0
SEQEND
  5
7E
330
7B
100
AcDbEntity
  8
_U+30EC_U+30A4_U+30E4_U+30FC 1
 62
   179
420
  2234388
370
    25
  0
POLYLINE
  5
7F
330
1F
100
AcDbEntity
  8
_U+30EC_U+30A4_U+30E4_U+30FC 1
 62
   179
420
  2234388
370
    25
100
AcDb2dPolyline
 66
     1
 10
0.0
 20
0.0
 30
0.0
  0
VERTEX
  5
80
330
7F
100
AcDbEntity
  8
_U+30EC_U+30A4_U+30E4_U+30FC 1
 62
   179
420
  2234388
370
    25
100
AcDbVertex
100
AcDb2dVertex
 10
84.57483645342728
 20
-128.9764374677562
 30
0.0
  0
VERTEX
  5
81
330
7F
100
AcDbEntity
  8
_U+30EC_U+30A4_U+30E4_U+30FC 1
 62
   179
420
  2234388
370
    25
100
AcDbVertex
100
AcDb2dVertex
 10
84.57483645342728
 20
-131.1765008005394
 30
0.0
  0
SEQEND
  5
82
330
7F
100
AcDbEntity
  8
_U+30EC_U+30A4_U+30E4_U+30FC 1
 62
   179
420
  2234388
370
    25
  0
POLYLINE
  5
83
330
1F
100
AcDbEntity
  8
_U+30EC_U+30A4_U+30E4_U+30FC 1
 62
   179
420
  2234388
370
    25
100
AcDb2dPolyline
 66
     1
 10
0.0
 20
0.0
 30
0.0
  0
VERTEX
  5
84
330
83
100
AcDbEntity
  8
_U+30EC_U+30A4_U+30E4_U+30FC 1
 62
   179
420
  2234388
370
    25
100
AcDbVertex
100
AcDb2dVertex
 10
84.57483645342728
 20
-128.9764374677562
 30
0.0
  0
VERTEX
  5
85
330
83
100
AcDbEntity
  8
_U+30EC_U+30A4_U+30E4_U+30FC 1
 62
   179
420
  2234388
370
    25
100
AcDbVertex
100
AcDb2dVertex
 10
80.07487379045311
 20
-128.9764374677562
 30
0.0
  0
SEQEND
  5
86
330
83
100
AcDbEntity
  8
_U+30EC_U+30A4_U+30E4_U+30FC 1
 62
   179
420
  2234388
370
    25
  0
POLYLINE
  5
87
330
1F
100
AcDbEntity
  8
_U+30EC_U+30A4_U+30E4_U+30FC 1
 62
   179
420
  2234388
370
    25
100
AcDb2dPolyline
 66
     1
 10
0.0
 20
0.0
 30
0.0
  0
VERTEX
  5
88
330
87
100
AcDbEntity
  8
_U+30EC_U+30A4_U+30E4_U+30FC 1
 62
   179
420
  2234388
370
    25
100
AcDbVertex
100
AcDb2dVertex
 10
80.57493627769546
 20
-130.4764485784918
 30
0.0
  0
VERTEX
  5
89
330
87
100
AcDbEntity
  8
_U+30EC_U+30A4_U+30E4_U+30FC 1
 62
   179
420
  2234388
370
    25
100
AcDbVertex
100
AcDb2dVertex
 10
79.07492520485282
 20
-130.4764485784918
 30
0.0
  0
SEQEND
  5
8A
330
87
100
AcDbEntity
  8
_U+30EC_U+30A4_U+30E4_U+30FC 1
 62
   179
420
  2234388
370
    25
  0
SPLINE
  5
8B
330
1F
100
AcDbEntity
  8
_U+30EC_U+30A4_U+30E4_U+30FC 1
 62
   179
420
  2234388
370
    25
100
AcDbSpline
210
0.0
220
0.0
230
1.0
 70
     8
 71
     3
 72
     8
 73
     4
 74
     0
 42
0.0000000001
 43
0.0000000001
 12
1.0
 22
0.0
 32
0.0
 13
1.0
 23
0.0
 33
0.0
 40
0.0
 40
0.0
 40
0.0
 40
0.0
 40
1.0
 40
1.0
 40
1.0
 40
1.0
 10
97.07519919007201
 20
-129.9762096897281
 30
0.0
 10
97.07519919007201
 20
-129.4243241343108
 30
0.0
 10
96.62734781260876
 20
-128.9764374677562
 30
0.0
 10
96.07475671559543
 20
-128.9764374677562
 30
0.0
  0
SPLINE
  5
8C
330
1F
100
AcDbEntity
  8
_U+30EC_U+30A4_U+30E4_U+30FC 1
 62
   179
420
  2234388
370
    25
100
AcDbSpline
210
0.0
220
0.0
230
1.0
 70
     8
 71
     3
 72
     8
 73
     4
 74
     0
 42
0.0000000001
 43
0.0000000001
 12
1.0
 22
0.0
 32
0.0
 13
1.0
 23
0.0
 33
0.0
 40
0.0
 40
0.0
 40
0.0
 40
0.0
 40
1.0
 40
1.0
 40
1.0
 40
1.0
 10
92.07499997698126
 20
-131.6760341337476
 30
0.0
 10
92.07499997698126
 20
-131.4004088560386
 30
0.0
 10
91.85105432335105
 20
-131.1765008005394
 30
0.0
 10
91.57476108821754
 20
-131.1765008005394
 30
0.0
  0
SPLINE
  5
8D
330
1F
100
AcDbEntity
  8
_U+30EC_U+30A4_U+30E4_U+30FC 1
 62
   179
420
  2234388
370
    25
100
AcDbSpline
210
0.0
220
0.0
230
1.0
 70
     8
 71
     3
 72
     8
 73
     4
 74
     0
 42
0.0000000001
 43
0.0000000001
 12
1.0
 22
0.0
 32
0.0
 13
1.0
 23
0.0
 33
0.0
 40
0.0
 40
0.0
 40
0.0
 40
0.0
 40
1.0
 40
1.0
 40
1.0
 40
1.0
 10
80.07487379045311
 20
-128.9764374677562
 30
0.0
 10
79.52263547120855
 20
-128.9764374677562
 30
0.0
 10
79.07492520485282
 20
-129.4243241343108
 30
0.0
 10
79.07492520485282
 20
-129.9762096897281
 30
0.0
  0
SPLINE
  5
8E
330
1F
100
AcDbEntity
  8
_U+30EC_U+30A4_U+30E4_U+30FC 1
 62
   179
420
  2234388
370
    25
100
AcDbSpline
210
0.0
220
0.0
230
1.0
 70
     8
 71
     3
 72
     8
 73
     4
 74
     0
 42
0.0000000001
 43
0.0000000001
 12
1.0
 22
0.0
 32
0.0
 13
1.0
 23
0.0
 33
0.0
 40
0.0
 40
0.0
 40
0.0
 40
0.0
 40
1.0
 40
1.0
 40
1.0
 40
1.0
 10
84.57483645342728
 20
-131.1765008005394
 30
0.0
 10
84.2985409049206
 20
-131.1765008005394
 30
0.0
 10
84.0749856328462
 20
-131.4004088560386
 30
0.0
 10
84.0749856328462
 20
-131.6760341337476
 30
0.0
  0
SPLINE
  5
8F
330
1F
100
AcDbEntity
  8
_U+30EC_U+30A4_U+30E4_U+30FC 1
 62
   179
420
  2234388
370
     9
100
AcDbSpline
210
0.0
220
0.0
230
1.0
 70
     8
 71
     3
 72
    14
 73
    10
 74
     0
 42
0.0000000001
 43
0.0000000001
 12
1.0
 22
0.0
 32
0.0
 13
1.0
 23
0.0
 33
0.0
 40
0.0
 40
0.0
 40
0.0
 40
0.0
 40
1.0
 40
1.0
 40
1.0
 40
2.0
 40
2.0
 40
2.0
 40
3.0
 40
3.0
 40
3.0
 40
3.0
 10
101.0749582546963
 20
-134.3763010775171
 30
0.0
 10
101.0198543672132
 20
-134.3763010775171
 30
0.0
 10
100.9750515905785
 20
-134.4210685775056
 30
0.0
 10
100.9750515905785
 20
-134.4762077441587
 30
0.0
 10
100.9750515905785
 20
-134.5313116330336
 30
0.0
 10
101.0198543672132
 20
-134.5761144108003
 30
0.0
 10
101.0749582546963
 20
-134.5761144108003
 30
0.0
 10
101.1300999747174
 20
-134.5761144108003
 30
0.0
 10
101.1748649188142
 20
-134.5313116330336
 30
0.0
 10
101.1748649188142
 20
-134.4762077441587
 30
0.0
  0
SPLINE
  5
90
330
1F
100
AcDbEntity
  8
_U+30EC_U+30A4_U+30E4_U+30FC 1
 62
   179
420
  2234388
370
     9
100
AcDbSpline
210
0.0
220
0.0
230
1.0
 70
    11
 71
     3
 72
    17
 73
    13
 74
     0
 42
0.0000000001
 43
0.0000000001
 12
1.0
 22
0.0
 32
0.0
 13
1.0
 23
0.0
 33
0.0
 40
0.0
 40
0.0
 40
0.0
 40
0.0
 40
1.0
 40
1.0
 40
1.0
 40
2.0
 40
2.0
 40
2.0
 40
3.0
 40
3.0
 40
3.0
 40
4.0
 40
4.0
 40
4.0
 40
4.0
 10
101.1748649188142
 20
-130.4764485784918
 30
0.0
 10
101.1748649188142
 20
-130.4213094118394
 30
0.0
 10
101.1300999747174
 20
-130.3765419118502
 30
0.0
 10
101.0749582546963
 20
-130.3765419118502
 30
0.0
 10
101.0198543672132
 20
-130.3765419118502
 30
0.0
 10
100.9750515905785
 20
-130.4213094118394
 30
0.0
 10
100.9750515905785
 20
-130.4764485784918
 30
0.0
 10
100.9750515905785
 20
-130.5315524673674
 30
0.0
 10
101.0198543672132
 20
-130.5763552451334
 30
0.0
 10
101.0749582546963
 20
-130.5763552451334
 30
0.0
 10
101.1300999747174
 20
-130.5763552451334
 30
0.0
 10
101.1748649188142
 20
-130.5315524673674
 30
0.0
 10
101.1748649188142
 20
-130.4764485784918
 30
0.0
  0
SPLINE
  5
91
330
1F
100
AcDbEntity
  8
_U+30EC_U+30A4_U+30E4_U+30FC 1
 62
   179
420
  2234388
370
     9
100
AcDbSpline
210
0.0
220
0.0
230
1.0
 70
    11
 71
     3
 72
    17
 73
    13
 74
     0
 42
0.0000000001
 43
0.0000000001
 12
1.0
 22
0.0
 32
0.0
 13
1.0
 23
0.0
 33
0.0
 40
0.0
 40
0.0
 40
0.0
 40
0.0
 40
1.0
 40
1.0
 40
1.0
 40
2.0
 40
2.0
 40
2.0
 40
3.0
 40
3.0
 40
3.0
 40
4.0
 40
4.0
 40
4.0
 40
4.0
 10
97.17510830903967
 20
-124.9760080243116
 30
0.0
 10
97.17510830903967
 20
-124.9208688576586
 30
0.0
 10
97.13033835533196
 20
-124.87610135767
 30
0.0
 10
97.07519919007201
 20
-124.87610135767
 30
0.0
 10
97.01938974705138
 20
-124.87610135767
 30
0.0
 10
96.9746222481935
 20
-124.9208688576586
 30
0.0
 10
96.9746222481935
 20
-124.9760080243116
 30
0.0
 10
96.9746222481935
 20
-125.0318174687421
 30
0.0
 10
97.01938974705138
 20
-125.0766202465085
 30
0.0
 10
97.07519919007201
 20
-125.0766202465085
 30
0.0
 10
97.13033835533196
 20
-125.0766202465085
 30
0.0
 10
97.17510830903967
 20
-125.0318174687421
 30
0.0
 10
97.17510830903967
 20
-124.9760080243116
 30
0.0
  0
SPLINE
  5
92
330
1F
100
AcDbEntity
  8
_U+30EC_U+30A4_U+30E4_U+30FC 1
 62
   179
420
  2234388
370
     9
100
AcDbSpline
210
0.0
220
0.0
230
1.0
 70
    11
 71
     3
 72
    17
 73
    13
 74
     0
 42
0.0000000001
 43
0.0000000001
 12
1.0
 22
0.0
 32
0.0
 13
1.0
 23
0.0
 33
0.0
 40
0.0
 40
0.0
 40
0.0
 40
0.0
 40
1.0
 40
1.0
 40
1.0
 40
2.0
 40
2.0
 40
2.0
 40
3.0
 40
3.0
 40
3.0
 40
4.0
 40
4.0
 40
4.0
 40
4.0
 10
91.67466543896221
 20
-124.9760080243116
 30
0.0
 10
91.67466543896221
 20
-124.9208688576586
 30
0.0
 10
91.62989794010433
 20
-124.87610135767
 30
0.0
 10
91.57476108821754
 20
-124.87610135767
 30
0.0
 10
91.51965488736131
 20
-124.87610135767
 30
0.0
 10
91.47485211072654
 20
-124.9208688576586
 30
0.0
 10
91.47485211072654
 20
-124.9760080243116
 30
0.0
 10
91.47485211072654
 20
-125.0318174687421
 30
0.0
 10
91.51965488736131
 20
-125.0766202465085
 30
0.0
 10
91.57476108821754
 20
-125.0766202465085
 30
0.0
 10
91.62989794010433
 20
-125.0766202465085
 30
0.0
 10
91.67466543896221
 20
-125.0318174687421
 30
0.0
 10
91.67466543896221
 20
-124.9760080243116
 30
0.0
  0
SPLINE
  5
93
330
1F
100
AcDbEntity
  8
_U+30EC_U+30A4_U+30E4_U+30FC 1
 62
   179
420
  2234388
370
     9
100
AcDbSpline
210
0.0
220
0.0
230
1.0
 70
    11
 71
     3
 72
    17
 73
    13
 74
     0
 42
0.0000000001
 43
0.0000000001
 12
1.0
 22
0.0
 32
0.0
 13
1.0
 23
0.0
 33
0.0
 40
0.0
 40
0.0
 40
0.0
 40
0.0
 40
1.0
 40
1.0
 40
1.0
 40
2.0
 40
2.0
 40
2.0
 40
3.0
 40
3.0
 40
3.0
 40
4.0
 40
4.0
 40
4.0
 40
4.0
 10
84.6747431175451
 20
-124.9760080243116
 30
0.0
 10
84.6747431175451
 20
-124.9208688576586
 30
0.0
 10
84.62997775662019
 20
-124.87610135767
 30
0.0
 10
84.57483645342728
 20
-124.87610135767
 30
0.0
 10
84.51973256594421
 20
-124.87610135767
 30
0.0
 10
84.47492978930944
 20
-124.9208688576586
 30
0.0
 10
84.47492978930944
 20
-124.9760080243116
 30
0.0
 10
84.47492978930944
 20
-125.0318174687421
 30
0.0
 10
84.51973256594421
 20
-125.0766202465085
 30
0.0
 10
84.57483645342728
 20
-125.0766202465085
 30
0.0
 10
84.62997775662019
 20
-125.0766202465085
 30
0.0
 10
84.6747431175451
 20
-125.0318174687421
 30
0.0
 10
84.6747431175451
 20
-124.9760080243116
 30
0.0
  0
SPLINE
  5
94
330
1F
100
AcDbEntity
  8
_U+30EC_U+30A4_U+30E4_U+30FC 1
 62
   179
420
  2234388
370
     9
100
AcDbSpline
210
0.0
220
0.0
230
1.0
 70
    11
 71
     3
 72
    17
 73
    13
 74
     0
 42
0.0000000001
 43
0.0000000001
 12
1.0
 22
0.0
 32
0.0
 13
1.0
 23
0.0
 33
0.0
 40
0.0
 40
0.0
 40
0.0
 40
0.0
 40
1.0
 40
1.0
 40
1.0
 40
2.0
 40
2.0
 40
2.0
 40
3.0
 40
3.0
 40
3.0
 40
4.0
 40
4.0
 40
4.0
 40
4.0
 10
79.17500825785504
 20
-124.9760080243116
 30
0.0
 10
79.17500825785504
 20
-124.9208688576586
 30
0.0
 10
79.13024075899715
 20
-124.87610135767
 30
0.0
 10
79.07492520485282
 20
-124.87610135767
 30
0.0
 10
79.01964492848535
 20
-124.87610135767
 30
0.0
 10
78.97484215185058
 20
-124.9208688576586
 30
0.0
 10
78.97484215185058
 20
-124.9760080243116
 30
0.0
 10
78.97484215185058
 20
-125.0318174687421
 30
0.0
 10
79.01964492848535
 20
-125.0766202465085
 30
0.0
 10
79.07492520485282
 20
-125.0766202465085
 30
0.0
 10
79.13024075899715
 20
-125.0766202465085
 30
0.0
 10
79.17500825785504
 20
-125.0318174687421
 30
0.0
 10
79.17500825785504
 20
-124.9760080243116
 30
0.0
  0
POLYLINE
  5
95
330
1F
100
AcDbEntity
  8
_U+30EC_U+30A4_U+30E4_U+30FC 1
 62
   179
420
  2234388
370
     9
100
AcDb2dPolyline
 66
     1
 10
0.0
 20
0.0
 30
0.0
  0
VERTEX
  5
96
330
95
100
AcDbEntity
  8
_U+30EC_U+30A4_U+30E4_U+30FC 1
 62
   179
420
  2234388
370
     9
100
AcDbVertex
100
AcDb2dVertex
 10
84.57483645342728
 20
-124.9760080243116
 30
0.0
  0
VERTEX
  5
97
330
95
100
AcDbEntity
  8
_U+30EC_U+30A4_U+30E4_U+30FC 1
 62
   179
420
  2234388
370
     9
100
AcDbVertex
100
AcDb2dVertex
 10
91.57476108821754
 20
-124.9760080243116
 30
0.0
  0
SEQEND
  5
98
330
95
100
AcDbEntity
  8
_U+30EC_U+30A4_U+30E4_U+30FC 1
 62
   179
420
  2234388
370
     9
  0
POLYLINE
  5
99
330
1F
100
AcDbEntity
  8
_U+30EC_U+30A4_U+30E4_U+30FC 1
 62
   179
420
  2234388
370
     9
100
AcDb2dPolyline
 66
     1
 10
0.0
 20
0.0
 30
0.0
  0
VERTEX
  5
9A
330
99
100
AcDbEntity
  8
_U+30EC_U+30A4_U+30E4_U+30FC 1
 62
   179
420
  2234388
370
     9
100
AcDbVertex
100
AcDb2dVertex
 10
84.57483645342728
 20
-126.4360494128353
 30
0.0
  0
VERTEX
  5
9B
330
99
100
AcDbEntity
  8
_U+30EC_U+30A4_U+30E4_U+30FC 1
 62
   179
420
  2234388
370
     9
100
AcDbVertex
100
AcDb2dVertex
 10
84.57483645342728
 20
-123.9762358023394
 30
0.0
  0
SEQEND
  5
9C
330
99
100
AcDbEntity
  8
_U+30EC_U+30A4_U+30E4_U+30FC 1
 62
   179
420
  2234388
370
     9
  0
POLYLINE
  5
9D
330
1F
100
AcDbEntity
  8
_U+30EC_U+30A4_U+30E4_U+30FC 1
 62
   179
420
  2234388
370
     9
100
AcDb2dPolyline
 66
     1
 10
0.0
 20
0.0
 30
0.0
  0
VERTEX
  5
9E
330
9D
100
AcDbEntity
  8
_U+30EC_U+30A4_U+30E4_U+30FC 1
 62
   179
420
  2234388
370
     9
100
AcDbVertex
100
AcDb2dVertex
 10
91.57476108821754
 20
-126.4360494128353
 30
0.0
  0
VERTEX
  5
9F
330
9D
100
AcDbEntity
  8
_U+30EC_U+30A4_U+30E4_U+30FC 1
 62
   179
420
  2234388
370
     9
100
AcDbVertex
100
AcDb2dVertex
 10
91.57476108821754
 20
-123.9762358023394
 30
0.0
  0
SEQEND
  5
A0
330
9D
100
AcDbEntity
  8
_U+30EC_U+30A4_U+30E4_U+30FC 1
 62
   179
420
  2234388
370
     9
  0
INSERT
  5
A2
330
1F
100
AcDbEntity
  8
_U+30EC_U+30A4_U+30E4_U+30FC 1
100
AcDbBlockReference
  2
block 2
 10
0.0
 20
0.0
 30
0.0
  0
POLYLINE
  5
A7
330
1F
100
AcDbEntity
  8
_U+30EC_U+30A4_U+30E4_U+30FC 1
 62
   179
420
  2234388
370
     9
100
AcDb2dPolyline
 66
     1
 10
0.0
 20
0.0
 30
0.0
  0
VERTEX
  5
A8
330
A7
100
AcDbEntity
  8
_U+30EC_U+30A4_U+30E4_U+30FC 1
 62
   179
420
  2234388
370
     9
100
AcDbVertex
100
AcDb2dVertex
 10
91.57476108821754
 20
-124.9760080243116
 30
0.0
  0
VERTEX
  5
A9
330
A7
100
AcDbEntity
  8
_U+30EC_U+30A4_U+30E4_U+30FC 1
 62
   179
420
  2234388
370
     9
100
AcDbVertex
100
AcDb2dVertex
 10
97.07519919007201
 20
-124.9760080243116
 30
0.0
  0
SEQEND
  5
AA
330
A7
100
AcDbEntity
  8
_U+30EC_U+30A4_U+30E4_U+30FC 1
 62
   179
420
  2234388
370
     9
  0
POLYLINE
  5
AB
330
1F
100
AcDbEntity
  8
_U+30EC_U+30A4_U+30E4_U+30FC 1
 62
   179
420
  2234388
370
     9
100
AcDb2dPolyline
 66
     1
 10
0.0
 20
0.0
 30
0.0
  0
VERTEX
  5
AC
330
AB
100
AcDbEntity
  8
_U+30EC_U+30A4_U+30E4_U+30FC 1
 62
   179
420
  2234388
370
     9
100
AcDbVertex
100
AcDb2dVertex
 10
97.07519919007201
 20
-127.4364919125853
 30
0.0
  0
VERTEX
  5
AD
330
AB
100
AcDbEntity
  8
_U+30EC_U+30A4_U+30E4_U+30FC 1
 62
   179
420
  2234388
370
     9
100
AcDbVertex
100
AcDb2dVertex
 10
97.07519919007201
 20
-123.9762358023394
 30
0.0
  0
SEQEND
  5
AE
330
AB
100
AcDbEntity
  8
_U+30EC_U+30A4_U+30E4_U+30FC 1
 62
   179
420
  2234388
370
     9
  0
INSERT
  5
B0
330
1F
100
AcDbEntity
  8
_U+30EC_U+30A4_U+30E4_U+30FC 1
100
AcDbBlockReference
  2
block 3
 10
0.0
 20
0.0
 30
0.0
  0
POLYLINE
  5
BF
330
1F
100
AcDbEntity
  8
_U+30EC_U+30A4_U+30E4_U+30FC 1
 62
   179
420
  2234388
370
     9
100
AcDb2dPolyline
 66
     1
 10
0.0
 20
0.0
 30
0.0
  0
VERTEX
  5
C0
330
BF
100
AcDbEntity
  8
_U+30EC_U+30A4_U+30E4_U+30FC 1
 62
   179
420
  2234388
370
     9
100
AcDbVertex
100
AcDb2dVertex
 10
84.57483645342728
 20
-124.9760080243116
 30
0.0
  0
VERTEX
  5
C1
330
BF
100
AcDbEntity
  8
_U+30EC_U+30A4_U+30E4_U+30FC 1
 62
   179
420
  2234388
370
     9
100
AcDbVertex
100
AcDb2dVertex
 10
79.07492520485282
 20
-124.9760080243116
 30
0.0
  0
SEQEND
  5
C2
330
BF
100
AcDbEntity
  8
_U+30EC_U+30A4_U+30E4_U+30FC 1
 62
   179
420
  2234388
370
     9
  0
POLYLINE
  5
C3
330
1F
100
AcDbEntity
  8
_U+30EC_U+30A4_U+30E4_U+30FC 1
 62
   179
420
  2234388
370
     9
100
AcDb2dPolyline
 66
     1
 10
0.0
 20
0.0
 30
0.0
  0
VERTEX
  5
C4
330
C3
100
AcDbEntity
  8
_U+30EC_U+30A4_U+30E4_U+30FC 1
 62
   179
420
  2234388
370
     9
100
AcDbVertex
100
AcDb2dVertex
 10
79.07492520485282
 20
-127.4364919125853
 30
0.0
  0
VERTEX
  5
C5
330
C3
100
AcDbEntity
  8
_U+30EC_U+30A4_U+30E4_U+30FC 1
 62
   179
420
  2234388
370
     9
100
AcDbVertex
100
AcDb2dVertex
 10
79.07492520485282
 20
-123.9762358023394
 30
0.0
  0
SEQEND
  5
C6
330
C3
100
AcDbEntity
  8
_U+30EC_U+30A4_U+30E4_U+30FC 1
 62
   179
420
  2234388
370
     9
  0
INSERT
  5
C8
330
1F
100
AcDbEntity
  8
_U+30EC_U+30A4_U+30E4_U+30FC 1
100
AcDbBlockReference
  2
block 4
 10
0.0
 20
0.0
 30
0.0
  0
POLYLINE
  5
D7
330
1F
100
AcDbEntity
  8
_U+30EC_U+30A4_U+30E4_U+30FC 1
 62
   179
420
  2234388
370
     9
100
AcDb2dPolyline
 66
     1
 10
0.0
 20
0.0
 30
0.0
  0
VERTEX
  5
D8
330
D7
100
AcDbEntity
  8
_U+30EC_U+30A4_U+30E4_U+30FC 1
 62
   179
420
  2234388
370
     9
100
AcDbVertex
100
AcDb2dVertex
 10
101.0749582546963
 20
-134.4762077441587
 30
0.0
  0
VERTEX
  5
D9
330
D7
100
AcDbEntity
  8
_U+30EC_U+30A4_U+30E4_U+30FC 1
 62
   179
420
  2234388
370
     9
100
AcDbVertex
100
AcDb2dVertex
 10
101.0749582546963
 20
-130.4764485784918
 30
0.0
  0
SEQEND
  5
DA
330
D7
100
AcDbEntity
  8
_U+30EC_U+30A4_U+30E4_U+30FC 1
 62
   179
420
  2234388
370
     9
  0
POLYLINE
  5
DB
330
1F
100
AcDbEntity
  8
_U+30EC_U+30A4_U+30E4_U+30FC 1
 62
   179
420
  2234388
370
     9
100
AcDb2dPolyline
 66
     1
 10
0.0
 20
0.0
 30
0.0
  0
VERTEX
  5
DC
330
DB
100
AcDbEntity
  8
_U+30EC_U+30A4_U+30E4_U+30FC 1
 62
   179
420
  2234388
370
     9
100
AcDbVertex
100
AcDb2dVertex
 10
95.61519311620876
 20
-134.4762077441587
 30
0.0
  0
VERTEX
  5
DD
330
DB
100
AcDbEntity
  8
_U+30EC_U+30A4_U+30E4_U+30FC 1
 62
   179
420
  2234388
370
     9
100
AcDbVertex
100
AcDb2dVertex
 10
102.0747304514122
 20
-134.4762077441587
 30
0.0
  0
SEQEND
  5
DE
330
DB
100
AcDbEntity
  8
_U+30EC_U+30A4_U+30E4_U+30FC 1
 62
   179
420
  2234388
370
     9
  0
POLYLINE
  5
DF
330
1F
100
AcDbEntity
  8
_U+30EC_U+30A4_U+30E4_U+30FC 1
 62
   179
420
  2234388
370
     9
100
AcDb2dPolyline
 66
     1
 10
0.0
 20
0.0
 30
0.0
  0
VERTEX
  5
E0
330
DF
100
AcDbEntity
  8
_U+30EC_U+30A4_U+30E4_U+30FC 1
 62
   179
420
  2234388
370
     9
100
AcDbVertex
100
AcDb2dVertex
 10
99.61491941954057
 20
-130.4764485784918
 30
0.0
  0
VERTEX
  5
E1
330
DF
100
AcDbEntity
  8
_U+30EC_U+30A4_U+30E4_U+30FC 1
 62
   179
420
  2234388
370
     9
100
AcDbVertex
100
AcDb2dVertex
 10
102.0747304514122
 20
-130.4764485784918
 30
0.0
  0
SEQEND
  5
E2
330
DF
100
AcDbEntity
  8
_U+30EC_U+30A4_U+30E4_U+30FC 1
 62
   179
420
  2234388
370
     9
  0
INSERT
  5
E4
330
1F
100
AcDbEntity
  8
_U+30EC_U+30A4_U+30E4_U+30FC 1
100
AcDbBlockReference
  2
block 5
 10
0.0
 20
0.0
 30
0.0
  0
SPLINE
  5
FC
330
1F
100
AcDbEntity
  8
_U+30EC_U+30A4_U+30E4_U+30FC 1
 62
   179
420
  2234388
370
     9
100
AcDbSpline
210
0.0
220
0.0
230
1.0
 70
    11
 71
     3
 72
    17
 73
    13
 74
     0
 42
0.0000000001
 43
0.0000000001
 12
1.0
 22
0.0
 32
0.0
 13
1.0
 23
0.0
 33
0.0
 40
0.0
 40
0.0
 40
0.0
 40
0.0
 40
1.0
 40
1.0
 40
1.0
 40
2.0
 40
2.0
 40
2.0
 40
3.0
 40
3.0
 40
3.0
 40
4.0
 40
4.0
 40
4.0
 40
4.0
 10
83.1680666458748
 20
-132.3106108002558
 30
0.0
 10
83.1680666458748
 20
-132.2555069113803
 30
0.0
 10
83.12326386810808
 20
-132.2107041336142
 30
0.0
 10
83.06815788075474
 20
-132.2107041336142
 30
0.0
 10
83.01266593772601
 20
-132.2107041336142
 30
0.0
 10
82.96789843886812
 20
-132.2555069113803
 30
0.0
 10
82.96789843886812
 20
-132.3106108002558
 30
0.0
 10
82.96789843886812
 20
-132.3657499669083
 30
0.0
 10
83.01266593772601
 20
-132.4105174668975
 30
0.0
 10
83.06815788075474
 20
-132.4105174668975
 30
0.0
 10
83.12326386810808
 20
-132.4105174668975
 30
0.0
 10
83.1680666458748
 20
-132.3657499669083
 30
0.0
 10
83.1680666458748
 20
-132.3106108002558
 30
0.0
  0
SPLINE
  5
FD
330
1F
100
AcDbEntity
  8
_U+30EC_U+30A4_U+30E4_U+30FC 1
 62
   179
420
  2234388
370
     9
100
AcDbSpline
210
0.0
220
0.0
230
1.0
 70
    11
 71
     3
 72
    17
 73
    13
 74
     0
 42
0.0000000001
 43
0.0000000001
 12
1.0
 22
0.0
 32
0.0
 13
1.0
 23
0.0
 33
0.0
 40
0.0
 40
0.0
 40
0.0
 40
0.0
 40
1.0
 40
1.0
 40
1.0
 40
2.0
 40
2.0
 40
2.0
 40
3.0
 40
3.0
 40
3.0
 40
4.0
 40
4.0
 40
4.0
 40
4.0
 10
84.16815424158038
 20
-132.3106108002558
 30
0.0
 10
84.16815424158038
 20
-132.2555069113803
 30
0.0
 10
84.12338886785805
 20
-132.2107041336142
 30
0.0
 10
84.06824757746254
 20
-132.2107041336142
 30
0.0
 10
84.01314368997947
 20
-132.2107041336142
 30
0.0
 10
83.9683409133447
 20
-132.2555069113803
 30
0.0
 10
83.9683409133447
 20
-132.3106108002558
 30
0.0
 10
83.9683409133447
 20
-132.3657499669083
 30
0.0
 10
84.01314368997947
 20
-132.4105174668975
 30
0.0
 10
84.06824757746254
 20
-132.4105174668975
 30
0.0
 10
84.12338886785805
 20
-132.4105174668975
 30
0.0
 10
84.16815424158038
 20
-132.3657499669083
 30
0.0
 10
84.16815424158038
 20
-132.3106108002558
 30
0.0
  0
POLYLINE
  5
FE
330
1F
100
AcDbEntity
  8
_U+30EC_U+30A4_U+30E4_U+30FC 1
 62
   179
420
  2234388
370
     9
100
AcDb2dPolyline
 66
     1
 10
0.0
 20
0.0
 30
0.0
  0
VERTEX
  5
FF
330
FE
100
AcDbEntity
  8
_U+30EC_U+30A4_U+30E4_U+30FC 1
 62
   179
420
  2234388
370
     9
100
AcDbVertex
100
AcDb2dVertex
 10
84.06824757746254
 20
-132.3106108002558
 30
0.0
  0
VERTEX
  5
100
330
FE
100
AcDbEntity
  8
_U+30EC_U+30A4_U+30E4_U+30FC 1
 62
   179
420
  2234388
370
     9
100
AcDbVertex
100
AcDb2dVertex
 10
87.83855998127386
 20
-132.3106108002558
 30
0.0
  0
SEQEND
  5
101
330
FE
100
AcDbEntity
  8
_U+30EC_U+30A4_U+30E4_U+30FC 1
 62
   179
420
  2234388
370
     9
  0
POLYLINE
  5
102
330
1F
100
AcDbEntity
  8
_U+30EC_U+30A4_U+30E4_U+30FC 1
 62
   179
420
  2234388
370
     9
100
AcDb2dPolyline
 66
     1
 10
0.0
 20
0.0
 30
0.0
  0
VERTEX
  5
103
330
102
100
AcDbEntity
  8
_U+30EC_U+30A4_U+30E4_U+30FC 1
 62
   179
420
  2234388
370
     9
100
AcDbVertex
100
AcDb2dVertex
 10
82.06803290627005
 20
-132.3106108002558
 30
0.0
  0
VERTEX
  5
104
330
102
100
AcDbEntity
  8
_U+30EC_U+30A4_U+30E4_U+30FC 1
 62
   179
420
  2234388
370
     9
100
AcDbVertex
100
AcDb2dVertex
 10
84.06824757746254
 20
-132.3106108002558
 30
0.0
  0
SEQEND
  5
105
330
102
100
AcDbEntity
  8
_U+30EC_U+30A4_U+30E4_U+30FC 1
 62
   179
420
  2234388
370
     9
  0
INSERT
  5
107
330
1F
100
AcDbEntity
  8
_U+30EC_U+30A4_U+30E4_U+30FC 1
100
AcDbBlockReference
  2
block 6
 10
0.0
 20
0.0
 30
0.0
  0
SPLINE
  5
10C
330
1F
100
AcDbEntity
  8
_U+30EC_U+30A4_U+30E4_U+30FC 1
 62
   179
420
  2234388
370
     9
100
AcDbSpline
210
0.0
220
0.0
230
1.0
 70
    11
 71
     3
 72
    17
 73
    13
 74
     0
 42
0.0000000001
 43
0.0000000001
 12
1.0
 22
0.0
 32
0.0
 13
1.0
 23
0.0
 33
0.0
 40
0.0
 40
0.0
 40
0.0
 40
0.0
 40
1.0
 40
1.0
 40
1.0
 40
2.0
 40
2.0
 40
2.0
 40
3.0
 40
3.0
 40
3.0
 40
4.0
 40
4.0
 40
4.0
 40
4.0
 10
101.1748649188142
 20
-128.9750616344227
 30
0.0
 10
101.1748649188142
 20
-128.9192521899922
 30
0.0
 10
101.1300999747174
 20
-128.8744846900037
 30
0.0
 10
101.0749582546963
 20
-128.8744846900037
 30
0.0
 10
101.0198543672132
 20
-128.8744846900037
 30
0.0
 10
100.9750515905785
 20
-128.9192521899922
 30
0.0
 10
100.9750515905785
 20
-128.9750616344227
 30
0.0
 10
100.9750515905785
 20
-129.0302008010758
 30
0.0
 10
101.0198543672132
 20
-129.0749683010643
 30
0.0
 10
101.0749582546963
 20
-129.0749683010643
 30
0.0
 10
101.1300999747174
 20
-129.0749683010643
 30
0.0
 10
101.1748649188142
 20
-129.0302008010758
 30
0.0
 10
101.1748649188142
 20
-128.9750616344227
 30
0.0
  0
POLYLINE
  5
10D
330
1F
100
AcDbEntity
  8
_U+30EC_U+30A4_U+30E4_U+30FC 1
 62
   179
420
  2234388
370
     9
100
AcDb2dPolyline
 66
     1
 10
0.0
 20
0.0
 30
0.0
  0
VERTEX
  5
10E
330
10D
100
AcDbEntity
  8
_U+30EC_U+30A4_U+30E4_U+30FC 1
 62
   179
420
  2234388
370
     9
100
AcDbVertex
100
AcDb2dVertex
 10
101.0749582546963
 20
-128.9750616344227
 30
0.0
  0
VERTEX
  5
10F
330
10D
100
AcDbEntity
  8
_U+30EC_U+30A4_U+30E4_U+30FC 1
 62
   179
420
  2234388
370
     9
100
AcDbVertex
100
AcDb2dVertex
 10
101.0749582546963
 20
-125.2047491353656
 30
0.0
  0
SEQEND
  5
110
330
10D
100
AcDbEntity
  8
_U+30EC_U+30A4_U+30E4_U+30FC 1
 62
   179
420
  2234388
370
     9
  0
POLYLINE
  5
111
330
1F
100
AcDbEntity
  8
_U+30EC_U+30A4_U+30E4_U+30FC 1
 62
   179
420
  2234388
370
     9
100
AcDb2dPolyline
 66
     1
 10
0.0
 20
0.0
 30
0.0
  0
VERTEX
  5
112
330
111
100
AcDbEntity
  8
_U+30EC_U+30A4_U+30E4_U+30FC 1
 62
   179
420
  2234388
370
     9
100
AcDbVertex
100
AcDb2dVertex
 10
101.0749582546963
 20
-130.4764485784918
 30
0.0
  0
VERTEX
  5
113
330
111
100
AcDbEntity
  8
_U+30EC_U+30A4_U+30E4_U+30FC 1
 62
   179
420
  2234388
370
     9
100
AcDbVertex
100
AcDb2dVertex
 10
101.0749582546963
 20
-128.9750616344227
 30
0.0
  0
SEQEND
  5
114
330
111
100
AcDbEntity
  8
_U+30EC_U+30A4_U+30E4_U+30FC 1
 62
   179
420
  2234388
370
     9
  0
POLYLINE
  5
115
330
1F
100
AcDbEntity
  8
_U+30EC_U+30A4_U+30E4_U+30FC 1
 62
   179
420
  2234388
370
     9
100
AcDb2dPolyline
 66
     1
 10
0.0
 20
0.0
 30
0.0
  0
VERTEX
  5
116
330
115
100
AcDbEntity
  8
_U+30EC_U+30A4_U+30E4_U+30FC 1
 62
   179
420
  2234388
370
     9
100
AcDbVertex
100
AcDb2dVertex
 10
98.6144744285796
 20
-128.9750616344227
 30
0.0
  0
VERTEX
  5
117
330
115
100
AcDbEntity
  8
_U+30EC_U+30A4_U+30E4_U+30FC 1
 62
   179
420
  2234388
370
     9
100
AcDbVertex
100
AcDb2dVertex
 10
102.0747304514122
 20
-128.9750616344227
 30
0.0
  0
SEQEND
  5
118
330
115
100
AcDbEntity
  8
_U+30EC_U+30A4_U+30E4_U+30FC 1
 62
   179
420
  2234388
370
     9
  0
INSERT
  5
11A
330
1F
100
AcDbEntity
  8
_U+30EC_U+30A4_U+30E4_U+30FC 1
100
AcDbBlockReference
  2
block 7
 10
0.0
 20
0.0
 30
0.0
  0
ENDSEC
  0
SECTION
  2
OBJECTS
  0
DICTIONARY
  5
C
330
0
100
AcDbDictionary
281
     1
  3
ACAD_GROUP
350
D
  3
ACAD_LAYOUT
350
1A
  3
ACAD_MATERIAL
350
3B
  3
ACAD_MLEADERSTYLE
350
12A
  3
ACAD_MLINESTYLE
350
17
  3
ACAD_PLOTSETTINGS
350
19
  3
ACAD_PLOTSTYLENAME
350
E
  3
ACAD_TABLESTYLE
350
129
  3
ACAD_VISUALSTYLE
350
2A
  0
SUN
  5
3F
330
29
100
AcDbSun
 90
        1
290
     0
 63
     7
421
 16777215
 40
1.0
291
     1
 91
  2455826
 92
 54000000
292
     0
 70
     2
 71
   256
280
     1
  0
DICTIONARY
  5
D
102
{ACAD_REACTORS
330
C
102
}
330
C
100
AcDbDictionary
281
     1
  0
DICTIONARY
  5
1A
102
{ACAD_REACTORS
330
C
102
}
330
C
100
AcDbDictionary
281
     1
  3
Layout1
350
1E
  3
Layout2
350
26
  3
Model
350
22
  0
DICTIONARY
  5
3B
102
{ACAD_REACTORS
330
C
102
}
330
C
100
AcDbDictionary
281
     1
  3
ByBlock
350
3D
  3
ByLayer
350
3C
  3
Global
350
3E
  0
DICTIONARY
  5
12A
102
{ACAD_REACTORS
330
C
102
}
330
C
100
AcDbDictionary
281
     1
  0
DICTIONARY
  5
17
102
{ACAD_REACTORS
330
C
102
}
330
C
100
AcDbDictionary
281
     1
  3
Standard
350
18
  0
DICTIONARY
  5
19
102
{ACAD_REACTORS
330
C
102
}
330
C
100
AcDbDictionary
281
     1
  0
ACDBDICTIONARYWDFLT
  5
E
102
{ACAD_REACTORS
330
C
102
}
330
C
100
AcDbDictionary
281
     1
  3
Normal
350
F
100
AcDbDictionaryWithDefault
340
F
  0
DICTIONARY
  5
129
102
{ACAD_REACTORS
330
C
102
}
330
C
100
AcDbDictionary
281
     1
  0
DICTIONARY
  5
2A
102
{ACAD_REACTORS
330
C
102
}
330
C
100
AcDbDictionary
281
     1
  3
2dWireframe
350
2F
  3
3D Hidden
350
31
  3
3dWireframe
350
30
  3
Basic
350
32
  3
Brighten
350
36
  3
ColorChange
350
3A
  3
Conceptual
350
34
  3
Dim
350
35
  3
Facepattern
350
39
  3
Flat
350
2B
  3
FlatWithEdges
350
2C
  3
Gouraud
350
2D
  3
GouraudWithEdges
350
2E
  3
Linepattern
350
38
  3
Realistic
350
33
  3
Thicken
350
37
  0
LAYOUT
  5
1E
102
{ACAD_REACTORS
330
1A
102
}
330
1A
100
AcDbPlotSettings
  1

  2
none_device
  4

  6

 40
0.0
 41
0.0
 42
0.0
 43
0.0
 44
0.0
 45
0.0
 46
0.0
 47
0.0
 48
0.0
 49
0.0
140
0.0
141
0.0
142
1.0
143
1.0
 70
   688
 72
     0
 73
     0
 74
     5
  7

 75
    16
 76
     0
 77
     2
 78
   300
147
1.0
148
0.0
149
0.0
100
AcDbLayout
  1
Layout1
 70
     1
 71
     1
 10
0.0
 20
0.0
 11
12.0
 21
9.0
 12
0.0
 22
0.0
 32
0.0
 14
1.000000000000000E+20
 24
1.000000000000000E+20
 34
1.000000000000000E+20
 15
-1.000000000000000E+20
 25
-1.000000000000000E+20
 35
-1.000000000000000E+20
146
0.0
 13
0.0
 23
0.0
 33
0.0
 16
1.0
 26
0.0
 36
0.0
 17
0.0
 27
1.0
 37
0.0
 76
     0
330
1B
  0
LAYOUT
  5
26
102
{ACAD_REACTORS
330
1A
102
}
330
1A
100
AcDbPlotSettings
  1

  2
none_device
  4

  6

 40
0.0
 41
0.0
 42
0.0
 43
0.0
 44
0.0
 45
0.0
 46
0.0
 47
0.0
 48
0.0
 49
0.0
140
0.0
141
0.0
142
1.0
143
1.0
 70
   688
 72
     0
 73
     0
 74
     5
  7

 75
    16
 76
     0
 77
     2
 78
   300
147
1.0
148
0.0
149
0.0
100
AcDbLayout
  1
Layout2
 70
     1
 71
     2
 10
0.0
 20
0.0
 11
0.0
 21
0.0
 12
0.0
 22
0.0
 32
0.0
 14
0.0
 24
0.0
 34
0.0
 15
0.0
 25
0.0
 35
0.0
146
0.0
 13
0.0
 23
0.0
 33
0.0
 16
1.0
 26
0.0
 36
0.0
 17
0.0
 27
1.0
 37
0.0
 76
     0
330
23
  0
LAYOUT
  5
22
102
{ACAD_REACTORS
330
1A
102
}
330
1A
100
AcDbPlotSettings
  1

  2
none_device
  4

  6

 40
0.0
 41
0.0
 42
0.0
 43
0.0
 44
0.0
 45
0.0
 46
0.0
 47
0.0
 48
0.0
 49
0.0
140
0.0
141
0.0
142
1.0
143
1.0
 70
  1712
 72
     0
 73
     0
 74
     0
  7

 75
     0
 76
     0
 77
     2
 78
   300
147
1.0
148
0.0
149
0.0
100
AcDbLayout
  1
Model
 70
     1
 71
     0
 10
0.0
 20
0.0
 11
12.0
 21
9.0
 12
0.0
 22
0.0
 32
0.0
 14
1.000000000000000E+20
 24
1.000000000000000E+20
 34
1.000000000000000E+20
 15
-1.000000000000000E+20
 25
-1.000000000000000E+20
 35
-1.000000000000000E+20
146
0.0
 13
0.0
 23
0.0
 33
0.0
 16
1.0
 26
0.0
 36
0.0
 17
0.0
 27
1.0
 37
0.0
 76
     0
330
1F
331
29
  0
MATERIAL
  5
3D
102
{ACAD_REACTORS
330
3B
102
}
330
3B
100
AcDbMaterial
  1
ByBlock
 72
     1
 94
      127
  0
MATERIAL
  5
3C
102
{ACAD_REACTORS
330
3B
102
}
330
3B
100
AcDbMaterial
  1
ByLayer
 72
     1
 94
      127
  0
MATERIAL
  5
3E
102
{ACAD_REACTORS
330
3B
102
}
330
3B
100
AcDbMaterial
  1
Global
 72
     1
 94
      127
  0
MLINESTYLE
  5
18
102
{ACAD_REACTORS
330
17
102
}
330
17
100
AcDbMlineStyle
  2
Standard
 70
     0
  3

 62
   256
 51
90.0
 52
90.0
 71
     2
 49
0.5
 62
   256
  6
BYLAYER
 49
-0.5
 62
   256
  6
BYLAYER
  0
ACDBPLACEHOLDER
  5
F
102
{ACAD_REACTORS
330
E
102
}
330
E
  0
VISUALSTYLE
  5
2F
102
{ACAD_REACTORS
330
2A
102
}
330
2A
100
AcDbVisualStyle
  2
2dWireframe
 70
     4
177
     2
291
     0
 71
     0
176
     1
 72
     2
176
     1
 73
     0
176
     1
 90
        0
176
     1
 40
-0.6
176
     1
 41
-30.0
176
     1
 62
     5
 63
     7
421
 16777215
176
     1
 74
     1
176
     1
 91
        4
176
     1
 64
     7
176
     1
 65
   257
176
     1
 75
     1
176
     1
175
     1
176
     1
 42
1.0
176
     1
 92
        0
176
     1
 66
   257
176
     1
 43
1.0
176
     1
 76
     1
176
     1
 77
     6
176
     1
 78
     2
176
     1
 67
     7
176
     1
 79
     5
176
     1
170
     0
176
     1
171
     0
176
     1
290
     0
176
     1
 93
        1
176
     1
 44
0.0
176
     1
173
     0
176
     1
  0
VISUALSTYLE
  5
31
102
{ACAD_REACTORS
330
2A
102
}
330
2A
100
AcDbVisualStyle
  2
3D Hidden
 70
     6
177
     2
291
     0
 71
     1
176
     1
 72
     2
176
     1
 73
     2
176
     1
 90
        0
176
     1
 40
-0.6
176
     1
 41
-30.0
176
     1
 62
     5
 63
     7
421
 16777215
176
     1
 74
     2
176
     1
 91
        2
176
     1
 64
     7
176
     1
 65
   257
176
     1
 75
     2
176
     1
175
     1
176
     1
 42
40.0
176
     1
 92
        0
176
     1
 66
   257
176
     1
 43
1.0
176
     1
 76
     1
176
     1
 77
     6
176
     1
 78
     2
176
     1
 67
     7
176
     1
 79
     3
176
     1
170
     0
176
     1
171
     0
176
     1
290
     0
176
     1
 93
        1
176
     1
 44
0.0
176
     1
173
     0
176
     1
  0
VISUALSTYLE
  5
30
102
{ACAD_REACTORS
330
2A
102
}
330
2A
100
AcDbVisualStyle
  2
3dWireframe
 70
     5
177
     2
291
     0
 71
     0
176
     1
 72
     2
176
     1
 73
     0
176
     1
 90
        0
176
     1
 40
-0.6
176
     1
 41
-30.0
176
     1
 62
     5
 63
     7
421
 16777215
176
     1
 74
     1
176
     1
 91
        4
176
     1
 64
     7
176
     1
 65
   257
176
     1
 75
     1
176
     1
175
     1
176
     1
 42
1.0
176
     1
 92
        0
176
     1
 66
   257
176
     1
 43
1.0
176
     1
 76
     1
176
     1
 77
     6
176
     1
 78
     2
176
     1
 67
     7
176
     1
 79
     5
176
     1
170
     0
176
     1
171
     0
176
     1
290
     0
176
     1
 93
        1
176
     1
 44
0.0
176
     1
173
     0
176
     1
  0
VISUALSTYLE
  5
32
102
{ACAD_REACTORS
330
2A
102
}
330
2A
100
AcDbVisualStyle
  2
Basic
 70
     7
177
     2
291
     1
 71
     1
176
     1
 72
     0
176
     1
 73
     1
176
     1
 90
        0
176
     1
 40
-0.6
176
     1
 41
-30.0
176
     1
 62
     5
 63
     7
421
 16777215
176
     1
 74
     0
176
     1
 91
        4
176
     1
 64
     7
176
     1
 65
   257
176
     1
 75
     1
176
     1
175
     1
176
     1
 42
1.0
176
     1
 92
        8
176
     1
 66
     7
176
     1
 43
1.0
176
     1
 76
     1
176
     1
 77
     6
176
     1
 78
     2
176
     1
 67
     7
176
     1
 79
     5
176
     1
170
     0
176
     1
171
     0
176
     1
290
     0
176
     1
 93
        1
176
     1
 44
0.0
176
     1
173
     0
176
     1
  0
VISUALSTYLE
  5
36
102
{ACAD_REACTORS
330
2A
102
}
330
2A
100
AcDbVisualStyle
  2
Brighten
 70
    12
177
     2
291
     1
 71
     2
176
     1
 72
     2
176
     1
 73
     0
176
     1
 90
        0
176
     1
 40
-0.6
176
     1
 41
-30.0
176
     1
 62
     5
 63
     7
421
 16777215
176
     1
 74
     1
176
     1
 91
        4
176
     1
 64
     7
176
     1
 65
   257
176
     1
 75
     1
176
     1
175
     1
176
     1
 42
1.0
176
     1
 92
        8
176
     1
 66
     7
176
     1
 43
1.0
176
     1
 76
     1
176
     1
 77
     6
176
     1
 78
     2
176
     1
 67
     7
176
     1
 79
     5
176
     1
170
     0
176
     1
171
     0
176
     1
290
     0
176
     1
 93
        1
176
     1
 44
50.0
176
     1
173
     0
176
     1
  0
VISUALSTYLE
  5
3A
102
{ACAD_REACTORS
330
2A
102
}
330
2A
100
AcDbVisualStyle
  2
ColorChange
 70
    16
177
     2
291
     1
 71
     2
176
     1
 72
     2
176
     1
 73
     3
176
     1
 90
        0
176
     1
 40
-0.6
176
     1
 41
-30.0
176
     1
 62
     5
 63
     8
421
  8421504
176
     1
 74
     1
176
     1
 91
        4
176
     1
 64
     7
176
     1
 65
   257
176
     1
 75
     1
176
     1
175
     1
176
     1
 42
1.0
176
     1
 92
        8
176
     1
 66
     8
424
  8421504
176
     1
 43
1.0
176
     1
 76
     1
176
     1
 77
     6
176
     1
 78
     2
176
     1
 67
     7
176
     1
 79
     5
176
     1
170
     0
176
     1
171
     0
176
     1
290
     0
176
     1
 93
        1
176
     1
 44
0.0
176
     1
173
     0
176
     1
  0
VISUALSTYLE
  5
34
102
{ACAD_REACTORS
330
2A
102
}
330
2A
100
AcDbVisualStyle
  2
Conceptual
 70
     9
177
     2
291
     0
 71
     3
176
     1
 72
     2
176
     1
 73
     0
176
     1
 90
        0
176
     1
 40
-0.6
176
     1
 41
-30.0
176
     1
 62
     5
 63
     7
421
 16777215
176
     1
 74
     2
176
     1
 91
        2
176
     1
 64
     7
176
     1
 65
   257
176
     1
 75
     1
176
     1
175
     1
176
     1
 42
40.0
176
     1
 92
        8
176
     1
 66
     7
176
     1
 43
1.0
176
     1
 76
     1
176
     1
 77
     6
176
     1
 78
     2
176
     1
 67
     7
176
     1
 79
     3
176
     1
170
     0
176
     1
171
     0
176
     1
290
     0
176
     1
 93
        1
176
     1
 44
0.0
176
     1
173
     0
176
     1
  0
VISUALSTYLE
  5
35
102
{ACAD_REACTORS
330
2A
102
}
330
2A
100
AcDbVisualStyle
  2
Dim
 70
    11
177
     2
291
     1
 71
     2
176
     1
 72
     2
176
     1
 73
     0
176
     1
 90
        0
176
     1
 40
-0.6
176
     1
 41
-30.0
176
     1
 62
     5
 63
     7
421
 16777215
176
     1
 74
     1
176
     1
 91
        4
176
     1
 64
     7
176
     1
 65
   257
176
     1
 75
     1
176
     1
175
     1
176
     1
 42
1.0
176
     1
 92
        8
176
     1
 66
     7
176
     1
 43
1.0
176
     1
 76
     1
176
     1
 77
     6
176
     1
 78
     2
176
     1
 67
     7
176
     1
 79
     5
176
     1
170
     0
176
     1
171
     0
176
     1
290
     0
176
     1
 93
        1
176
     1
 44
-50.0
176
     1
173
     0
176
     1
  0
VISUALSTYLE
  5
39
102
{ACAD_REACTORS
330
2A
102
}
330
2A
100
AcDbVisualStyle
  2
Facepattern
 70
    15
177
     2
291
     1
 71
     2
176
     1
 72
     2
176
     1
 73
     0
176
     1
 90
        0
176
     1
 40
-0.6
176
     1
 41
-30.0
176
     1
 62
     5
 63
     7
421
 16777215
176
     1
 74
     1
176
     1
 91
        4
176
     1
 64
     7
176
     1
 65
   257
176
     1
 75
     1
176
     1
175
     1
176
     1
 42
1.0
176
     1
 92
        8
176
     1
 66
     7
176
     1
 43
1.0
176
     1
 76
     1
176
     1
 77
     6
176
     1
 78
     2
176
     1
 67
     7
176
     1
 79
     5
176
     1
170
     0
176
     1
171
     0
176
     1
290
     0
176
     1
 93
        1
176
     1
 44
0.0
176
     1
173
     0
176
     1
  0
VISUALSTYLE
  5
2B
102
{ACAD_REACTORS
330
2A
102
}
330
2A
100
AcDbVisualStyle
  2
Flat
 70
     0
177
     2
291
     1
 71
     2
176
     1
 72
     1
176
     1
 73
     1
176
     1
 90
        2
176
     1
 40
-0.6
176
     1
 41
30.0
176
     1
 62
     5
 63
     7
421
 16777215
176
     1
 74
     0
176
     1
 91
        4
176
     1
 64
     7
176
     1
 65
   257
176
     1
 75
     1
176
     1
175
     1
176
     1
 42
1.0
176
     1
 92
        8
176
     1
 66
     7
176
     1
 43
1.0
176
     1
 76
     1
176
     1
 77
     6
176
     1
 78
     2
176
     1
 67
     7
176
     1
 79
     5
176
     1
170
     0
176
     1
171
     0
176
     1
290
     0
176
     1
 93
       13
176
     1
 44
0.0
176
     1
173
     0
176
     1
  0
VISUALSTYLE
  5
2C
102
{ACAD_REACTORS
330
2A
102
}
330
2A
100
AcDbVisualStyle
  2
FlatWithEdges
 70
     1
177
     2
291
     1
 71
     2
176
     1
 72
     1
176
     1
 73
     1
176
     1
 90
        2
176
     1
 40
-0.6
176
     1
 41
30.0
176
     1
 62
     5
 63
     7
421
 16777215
176
     1
 74
     1
176
     1
 91
        4
176
     1
 64
     7
176
     1
 65
   257
176
     1
 75
     1
176
     1
175
     1
176
     1
 42
1.0
176
     1
 92
        0
176
     1
 66
   257
176
     1
 43
1.0
176
     1
 76
     1
176
     1
 77
     6
176
     1
 78
     2
176
     1
 67
     7
176
     1
 79
     5
176
     1
170
     0
176
     1
171
     0
176
     1
290
     0
176
     1
 93
       13
176
     1
 44
0.0
176
     1
173
     0
176
     1
  0
VISUALSTYLE
  5
2D
102
{ACAD_REACTORS
330
2A
102
}
330
2A
100
AcDbVisualStyle
  2
Gouraud
 70
     2
177
     2
291
     1
 71
     2
176
     1
 72
     2
176
     1
 73
     1
176
     1
 90
        2
176
     1
 40
-0.6
176
     1
 41
30.0
176
     1
 62
     5
 63
     7
421
 16777215
176
     1
 74
     0
176
     1
 91
        4
176
     1
 64
     7
176
     1
 65
   257
176
     1
 75
     1
176
     1
175
     1
176
     1
 42
1.0
176
     1
 92
        0
176
     1
 66
     7
176
     1
 43
1.0
176
     1
 76
     1
176
     1
 77
     6
176
     1
 78
     2
176
     1
 67
     7
176
     1
 79
     5
176
     1
170
     0
176
     1
171
     0
176
     1
290
     0
176
     1
 93
       13
176
     1
 44
0.0
176
     1
173
     0
176
     1
  0
VISUALSTYLE
  5
2E
102
{ACAD_REACTORS
330
2A
102
}
330
2A
100
AcDbVisualStyle
  2
GouraudWithEdges
 70
     3
177
     2
291
     1
 71
     2
176
     1
 72
     2
176
     1
 73
     1
176
     1
 90
        2
176
     1
 40
-0.6
176
     1
 41
30.0
176
     1
 62
     5
 63
     7
421
 16777215
176
     1
 74
     1
176
     1
 91
        4
176
     1
 64
     7
176
     1
 65
   257
176
     1
 75
     1
176
     1
175
     1
176
     1
 42
1.0
176
     1
 92
        0
176
     1
 66
   257
176
     1
 43
1.0
176
     1
 76
     1
176
     1
 77
     6
176
     1
 78
     2
176
     1
 67
     7
176
     1
 79
     5
176
     1
170
     0
176
     1
171
     0
176
     1
290
     0
176
     1
 93
       13
176
     1
 44
0.0
176
     1
173
     0
176
     1
  0
VISUALSTYLE
  5
38
102
{ACAD_REACTORS
330
2A
102
}
330
2A
100
AcDbVisualStyle
  2
Linepattern
 70
    14
177
     2
291
     1
 71
     2
176
     1
 72
     2
176
     1
 73
     0
176
     1
 90
        0
176
     1
 40
-0.6
176
     1
 41
-30.0
176
     1
 62
     5
 63
     7
421
 16777215
176
     1
 74
     1
176
     1
 91
        4
176
     1
 64
     7
176
     1
 65
   257
176
     1
 75
     7
176
     1
175
     7
176
     1
 42
1.0
176
     1
 92
        8
176
     1
 66
     7
176
     1
 43
1.0
176
     1
 76
     1
176
     1
 77
     6
176
     1
 78
     2
176
     1
 67
     7
176
     1
 79
     5
176
     1
170
     0
176
     1
171
     0
176
     1
290
     0
176
     1
 93
        1
176
     1
 44
0.0
176
     1
173
     0
176
     1
  0
VISUALSTYLE
  5
33
102
{ACAD_REACTORS
330
2A
102
}
330
2A
100
AcDbVisualStyle
  2
Realistic
 70
     8
177
     2
291
     0
 71
     2
176
     1
 72
     2
176
     1
 73
     0
176
     1
 90
        0
176
     1
 40
-0.6
176
     1
 41
-30.0
176
     1
 62
     5
 63
     7
421
 16777215
176
     1
 74
     1
176
     1
 91
        0
176
     1
 64
     7
176
     1
 65
   257
176
     1
 75
     1
176
     1
175
     1
176
     1
 42
1.0
176
     1
 92
        8
176
     1
 66
     8
424
  7895160
176
     1
 43
1.0
176
     1
 76
     1
176
     1
 77
     6
176
     1
 78
     2
176
     1
 67
     7
176
     1
 79
     5
176
     1
170
     0
176
     1
171
     0
176
     1
290
     0
176
     1
 93
       13
176
     1
 44
0.0
176
     1
173
     0
176
     1
  0
VISUALSTYLE
  5
37
102
{ACAD_REACTORS
330
2A
102
}
330
2A
100
AcDbVisualStyle
  2
Thicken
 70
    13
177
     2
291
     1
 71
     2
176
     1
 72
     2
176
     1
 73
     0
176
     1
 90
        0
176
     1
 40
-0.6
176
     1
 41
-30.0
176
     1
 62
     5
 63
     7
421
 16777215
176
     1
 74
     1
176
     1
 91
        4
176
     1
 64
     7
176
     1
 65
   257
176
     1
 75
     1
176
     1
175
     1
176
     1
 42
1.0
176
     1
 92
       12
176
     1
 66
     7
176
     1
 43
1.0
176
     1
 76
     1
176
     1
 77
     6
176
     1
 78
     2
176
     1
 67
     7
176
     1
 79
     5
176
     1
170
     0
176
     1
171
     0
176
     1
290
     0
176
     1
 93
        1
176
     1
 44
0.0
176
     1
173
     0
176
     1
  0
ENDSEC
  0
EOF
