  0
SECTION
  2
HEADER
  9
$ACADVER
  1
AC1024
  9
$ACADMAINTVER
 70
     6
  9
$DWGCODEPAGE
  3
UNDEFINED
  9
$INSBASE
 10
0.0
 20
0.0
 30
0.0
  9
$EXTMIN
 10
1.000000000000000E+20
 20
1.000000000000000E+20
 30
1.000000000000000E+20
  9
$EXTMAX
 10
-1.000000000000000E+20
 20
-1.000000000000000E+20
 30
-1.000000000000000E+20
  9
$LIMMIN
 10
0.0
 20
0.0
  9
$LIMMAX
 10
12.0
 20
9.0
  9
$ORTHOMODE
 70
     0
  9
$REGENMODE
 70
     1
  9
$FILLMODE
 70
     1
  9
$QTEXTMODE
 70
     0
  9
$MIRRTEXT
 70
     1
  9
$LTSCALE
 40
1.0
  9
$ATTMODE
 70
     1
  9
$TEXTSIZE
 40
0.2
  9
$TRACEWID
 40
0.05
  9
$TEXTSTYLE
  7
Standard
  9
$CLAYER
  8
0
  9
$CELTYPE
  6
ByLayer
  9
$CECOLOR
 62
   256
  9
$CELTSCALE
 40
1.0
  9
$DISPSILH
 70
     0
  9
$DIMSCALE
 40
1.0
  9
$DIMASZ
 40
0.18
  9
$DIMEXO
 40
0.0625
  9
$DIMDLI
 40
0.38
  9
$DIMRND
 40
0.0
  9
$DIMDLE
 40
0.0
  9
$DIMEXE
 40
0.18
  9
$DIMTP
 40
0.0
  9
$DIMTM
 40
0.0
  9
$DIMTXT
 40
0.18
  9
$DIMCEN
 40
0.09
  9
$DIMTSZ
 40
0.0
  9
$DIMTOL
 70
     0
  9
$DIMLIM
 70
     0
  9
$DIMTIH
 70
     1
  9
$DIMTOH
 70
     1
  9
$DIMSE1
 70
     0
  9
$DIMSE2
 70
     0
  9
$DIMTAD
 70
     0
  9
$DIMZIN
 70
     0
  9
$DIMBLK
  1

  9
$DIMASO
 70
     1
  9
$DIMSHO
 70
     1
  9
$DIMPOST
  1

  9
$DIMAPOST
  1

  9
$DIMALT
 70
     0
  9
$DIMALTD
 70
     2
  9
$DIMALTF
 40
25.4
  9
$DIMLFAC
 40
1.0
  9
$DIMTOFL
 70
     0
  9
$DIMTVP
 40
0.0
  9
$DIMTIX
 70
     0
  9
$DIMSOXD
 70
     0
  9
$DIMSAH
 70
     0
  9
$DIMBLK1
  1

  9
$DIMBLK2
  1

  9
$DIMSTYLE
  2
Standard
  9
$DIMCLRD
 70
     0
  9
$DIMCLRE
 70
     0
  9
$DIMCLRT
 70
     0
  9
$DIMTFAC
 40
1.0
  9
$DIMGAP
 40
0.09
  9
$DIMJUST
 70
     0
  9
$DIMSD1
 70
     0
  9
$DIMSD2
 70
     0
  9
$DIMTOLJ
 70
     1
  9
$DIMTZIN
 70
     0
  9
$DIMALTZ
 70
     0
  9
$DIMALTTZ
 70
     0
  9
$DIMUPT
 70
     0
  9
$DIMDEC
 70
     4
  9
$DIMTDEC
 70
     4
  9
$DIMALTU
 70
     2
  9
$DIMALTTD
 70
     2
  9
$DIMTXSTY
  7
Standard
  9
$DIMAUNIT
 70
     0
  9
$DIMADEC
 70
     0
  9
$DIMALTRND
 40
0.0
  9
$DIMAZIN
 70
     0
  9
$DIMDSEP
 70
    46
  9
$DIMATFIT
 70
     3
  9
$DIMFRAC
 70
     0
  9
$DIMLDRBLK
  1

  9
$DIMLUNIT
 70
     2
  9
$DIMLWD
 70
    -2
  9
$DIMLWE
 70
    -2
  9
$DIMTMOVE
 70
     0
  9
$DIMFXL
 40
1.0
  9
$DIMFXLON
 70
     0
  9
$DIMJOGANG
 40
0.7853981633974483
  9
$DIMTFILL
 70
     0
  9
$DIMTFILLCLR
 70
     0
  9
$DIMARCSYM
 70
     0
  9
$DIMLTYPE
  6

  9
$DIMLTEX1
  6

  9
$DIMLTEX2
  6

  9
$DIMTXTDIRECTION
 70
     0
  9
$LUNITS
 70
     2
  9
$LUPREC
 70
     4
  9
$SKETCHINC
 40
0.1
  9
$FILLETRAD
 40
0.5
  9
$AUNITS
 70
     0
  9
$AUPREC
 70
     0
  9
$MENU
  1
.
  9
$ELEVATION
 40
0.0
  9
$PELEVATION
 40
0.0
  9
$THICKNESS
 40
0.0
  9
$LIMCHECK
 70
     0
  9
$CHAMFERA
 40
0.5
  9
$CHAMFERB
 40
0.5
  9
$CHAMFERC
 40
1.0
  9
$CHAMFERD
 40
0.0
  9
$SKPOLY
 70
     0
  9
$TDCREATE
 40
2457917.623287025
  9
$TDUCREATE
 40
2457917.248287037
  9
$TDUPDATE
 40
2457917.623287025
  9
$TDUUPDATE
 40
2457917.248287037
  9
$TDINDWG
 40
0.0000000116
  9
$TDUSRTIMER
 40
0.0000000116
  9
$USRTIMER
 70
     1
  9
$ANGBASE
 50
0.0
  9
$ANGDIR
 70
     0
  9
$PDMODE
 70
     0
  9
$PDSIZE
 40
0.0
  9
$PLINEWID
 40
0.0
  9
$SPLFRAME
 70
     0
  9
$SPLINETYPE
 70
     6
  9
$SPLINESEGS
 70
     8
  9
$HANDSEED
  5
E0
  9
$SURFTAB1
 70
     6
  9
$SURFTAB2
 70
     6
  9
$SURFTYPE
 70
     6
  9
$SURFU
 70
     6
  9
$SURFV
 70
     6
  9
$UCSBASE
  2

  9
$UCSNAME
  2

  9
$UCSORG
 10
0.0
 20
0.0
 30
0.0
  9
$UCSXDIR
 10
1.0
 20
0.0
 30
0.0
  9
$UCSYDIR
 10
0.0
 20
1.0
 30
0.0
  9
$UCSORTHOREF
  2

  9
$UCSORTHOVIEW
 70
     0
  9
$UCSORGTOP
 10
0.0
 20
0.0
 30
0.0
  9
$UCSORGBOTTOM
 10
0.0
 20
0.0
 30
0.0
  9
$UCSORGLEFT
 10
0.0
 20
0.0
 30
0.0
  9
$UCSORGRIGHT
 10
0.0
 20
0.0
 30
0.0
  9
$UCSORGFRONT
 10
0.0
 20
0.0
 30
0.0
  9
$UCSORGBACK
 10
0.0
 20
0.0
 30
0.0
  9
$PUCSBASE
  2

  9
$PUCSNAME
  2

  9
$PUCSORG
 10
0.0
 20
0.0
 30
0.0
  9
$PUCSXDIR
 10
1.0
 20
0.0
 30
0.0
  9
$PUCSYDIR
 10
0.0
 20
1.0
 30
0.0
  9
$PUCSORTHOREF
  2

  9
$PUCSORTHOVIEW
 70
     0
  9
$PUCSORGTOP
 10
0.0
 20
0.0
 30
0.0
  9
$PUCSORGBOTTOM
 10
0.0
 20
0.0
 30
0.0
  9
$PUCSORGLEFT
 10
0.0
 20
0.0
 30
0.0
  9
$PUCSORGRIGHT
 10
0.0
 20
0.0
 30
0.0
  9
$PUCSORGFRONT
 10
0.0
 20
0.0
 30
0.0
  9
$PUCSORGBACK
 10
0.0
 20
0.0
 30
0.0
  9
$USERI1
 70
     0
  9
$USERI2
 70
     0
  9
$USERI3
 70
     0
  9
$USERI4
 70
     0
  9
$USERI5
 70
     0
  9
$USERR1
 40
0.0
  9
$USERR2
 40
0.0
  9
$USERR3
 40
0.0
  9
$USERR4
 40
0.0
  9
$USERR5
 40
0.0
  9
$WORLDVIEW
 70
     1
  9
$SHADEDGE
 70
     3
  9
$SHADEDIF
 70
    70
  9
$TILEMODE
 70
     1
  9
$MAXACTVP
 70
    64
  9
$PINSBASE
 10
0.0
 20
0.0
 30
0.0
  9
$PLIMCHECK
 70
     0
  9
$PEXTMIN
 10
1.000000000000000E+20
 20
1.000000000000000E+20
 30
1.000000000000000E+20
  9
$PEXTMAX
 10
-1.000000000000000E+20
 20
-1.000000000000000E+20
 30
-1.000000000000000E+20
  9
$PLIMMIN
 10
0.0
 20
0.0
  9
$PLIMMAX
 10
12.0
 20
9.0
  9
$UNITMODE
 70
     0
  9
$VISRETAIN
 70
     1
  9
$PLINEGEN
 70
     0
  9
$PSLTSCALE
 70
     1
  9
$TREEDEPTH
 70
  3020
  9
$CMLSTYLE
  2
Standard
  9
$CMLJUST
 70
     0
  9
$CMLSCALE
 40
1.0
  9
$PROXYGRAPHICS
 70
     1
  9
$MEASUREMENT
 70
     0
  9
$CELWEIGHT
370
    -1
  9
$ENDCAPS
280
     0
  9
$JOINSTYLE
280
     0
  9
$LWDISPLAY
290
     1
  9
$INSUNITS
 70
     1
  9
$HYPERLINKBASE
  1

  9
$STYLESHEET
  1

  9
$XEDIT
290
     1
  9
$CEPSNTYPE
380
     0
  9
$PSTYLEMODE
290
     1
  9
$FINGERPRINTGUID
  2
{1A4DE423-1223-C954-B5BD-526D530F30A3}
  9
$VERSIONGUID
  2
{FAEB1C32-E019-11D5-929B-00C0DF256EC4}
  9
$EXTNAMES
290
     1
  9
$PSVPSCALE
 40
0.0
  9
$OLESTARTUP
290
     0
  9
$SORTENTS
280
   127
  9
$INDEXCTL
280
     0
  9
$HIDETEXT
280
     1
  9
$XCLIPFRAME
280
     2
  9
$HALOGAP
280
     0
  9
$OBSCOLOR
 70
   257
  9
$OBSLTYPE
280
     0
  9
$INTERSECTIONDISPLAY
280
     0
  9
$INTERSECTIONCOLOR
 70
   257
  9
$DIMASSOC
280
     2
  9
$PROJECTNAME
  1

  9
$CAMERADISPLAY
290
     0
  9
$LENSLENGTH
 40
50.0
  9
$CAMERAHEIGHT
 40
0.0
  9
$STEPSPERSEC
 40
2.0
  9
$STEPSIZE
 40
6.0
  9
$3DDWFPREC
 40
2.0
  9
$PSOLWIDTH
 40
0.25
  9
$PSOLHEIGHT
 40
4.0
  9
$LOFTANG1
 40
1.570796326794897
  9
$LOFTANG2
 40
1.570796326794897
  9
$LOFTMAG1
 40
0.0
  9
$LOFTMAG2
 40
0.0
  9
$LOFTPARAM
 70
     7
  9
$LOFTNORMALS
280
     1
  9
$LATITUDE
 40
37.795
  9
$LONGITUDE
 40
-122.394
  9
$NORTHDIRECTION
 40
0.0
  9
$TIMEZONE
 70
 -8000
  9
$LIGHTGLYPHDISPLAY
280
     1
  9
$TILEMODELIGHTSYNCH
280
     1
  9
$CMATERIAL
347
3C
  9
$SOLIDHIST
280
     1
  9
$SHOWHIST
280
     1
  9
$DWFFRAME
280
     2
  9
$DGNFRAME
280
     2
  9
$REALWORLDSCALE
290
     1
  9
$INTERFERECOLOR
 62
   256
  9
$CSHADOW
280
     0
  9
$SHADOWPLANELOCATION
 40
0.0
  0
ENDSEC
  0
SECTION
  2
CLASSES
  0
CLASS
  1
ACDBDICTIONARYWDFLT
  2
AcDbDictionaryWithDefault
  3
ObjectDBX Classes
 90
        0
 91
        4
280
     0
281
     0
  0
CLASS
  1
VISUALSTYLE
  2
AcDbVisualStyle
  3
ObjectDBX Classes
 90
     4095
 91
        4
280
     0
281
     0
  0
CLASS
  1
MATERIAL
  2
AcDbMaterial
  3
ObjectDBX Classes
 90
     1153
 91
        4
280
     0
281
     0
  0
CLASS
  1
SUN
  2
AcDbSun
  3
SCENEOE
 90
     1024
 91
        4
280
     0
281
     0
  0
ENDSEC
  0
SECTION
  2
TABLES
  0
TABLE
  2
VPORT
  5
8
330
0
100
AcDbSymbolTable
 70
     1
  0
VPORT
  5
29
330
8
100
AcDbSymbolTableRecord
100
AcDbViewportTableRecord
  2
*Active
 70
     0
 10
0.0
 20
0.0
 11
1.0
 21
1.0
 12
0.0
 22
0.0
 13
0.0
 23
0.0
 14
0.5
 24
0.5
 15
0.5
 25
0.5
 16
0.0
 26
0.0
 36
1.0
 17
91.00082462281999
 27
-128.4993055234307
 37
0.0
 40
256.9986110468615
 41
0.7081814508812795
 42
50.0
 43
0.0
 44
0.0
 50
0.0
 51
0.0
 71
     0
 72
   100
 73
     1
 74
     3
 75
     0
 76
     0
 77
     0
 78
     0
281
     0
 65
     1
110
0.0
120
0.0
130
0.0
111
1.0
121
0.0
131
0.0
112
0.0
122
1.0
132
0.0
 79
     0
146
0.0
 60
     3
 61
     5
292
     1
282
     1
141
0.0
142
0.0
 63
   250
361
3F
  0
ENDTAB
  0
TABLE
  2
LTYPE
  5
5
330
0
100
AcDbSymbolTable
 70
     1
  0
LTYPE
  5
14
330
5
100
AcDbSymbolTableRecord
100
AcDbLinetypeTableRecord
  2
ByBlock
 70
     0
  3

 72
    65
 73
     0
 40
0.0
  0
LTYPE
  5
15
330
5
100
AcDbSymbolTableRecord
100
AcDbLinetypeTableRecord
  2
ByLayer
 70
     0
  3

 72
    65
 73
     0
 40
0.0
  0
LTYPE
  5
16
330
5
100
AcDbSymbolTableRecord
100
AcDbLinetypeTableRecord
  2
Continuous
 70
     0
  3
Solid line
 72
    65
 73
     0
 40
0.0
  0
ENDTAB
  0
TABLE
  2
LAYER
  5
2
330
0
100
AcDbSymbolTable
 70
     2
  0
LAYER
  5
10
330
2
100
AcDbSymbolTableRecord
100
AcDbLayerTableRecord
  2
0
 70
     0
 62
     7
  6
Continuous
370
    -3
390
F
347
3E
  0
LAYER
  5
40
330
2
100
AcDbSymbolTableRecord
100
AcDbLayerTableRecord
  2
_U+30EC_U+30A4_U+30E4_U+30FC 1
 70
     0
 62
     7
  6
Continuous
370
    -3
390
F
347
3E
  0
ENDTAB
  0
TABLE
  2
STYLE
  5
3
330
0
100
AcDbSymbolTable
 70
     1
  0
STYLE
  5
11
330
3
100
AcDbSymbolTableRecord
100
AcDbTextStyleTableRecord
  2
Standard
 70
     0
 40
0.0
 41
1.0
 50
0.0
 71
     0
 42
0.2
  3
txt
  4

  0
ENDTAB
  0
TABLE
  2
VIEW
  5
6
330
0
100
AcDbSymbolTable
 70
     0
  0
ENDTAB
  0
TABLE
  2
UCS
  5
7
330
0
100
AcDbSymbolTable
 70
     0
  0
ENDTAB
  0
TABLE
  2
APPID
  5
9
330
0
100
AcDbSymbolTable
 70
     1
  0
APPID
  5
12
330
9
100
AcDbSymbolTableRecord
100
AcDbRegAppTableRecord
  2
ACAD
 70
     0
  0
ENDTAB
  0
TABLE
  2
DIMSTYLE
  5
A
330
0
100
AcDbSymbolTable
 70
     1
100
AcDbDimStyleTable
  0
DIMSTYLE
105
27
330
A
100
AcDbSymbolTableRecord
100
AcDbDimStyleTableRecord
  2
Standard
 70
     0
178
     0
340
11
  0
ENDTAB
  0
TABLE
  2
BLOCK_RECORD
  5
1
330
0
100
AcDbSymbolTable
 70
     7
  0
BLOCK_RECORD
  5
1F
330
1
100
AcDbSymbolTableRecord
100
AcDbBlockTableRecord
  2
*Model_Space
340
22
 70
     0
280
     1
281
     0
  0
BLOCK_RECORD
  5
1B
330
1
100
AcDbSymbolTableRecord
100
AcDbBlockTableRecord
  2
*Paper_Space
340
1E
 70
     0
280
     1
281
     0
  0
BLOCK_RECORD
  5
23
330
1
100
AcDbSymbolTableRecord
100
AcDbBlockTableRecord
  2
*Paper_Space0
340
26
 70
     0
280
     1
281
     0
  0
BLOCK_RECORD
  5
75
330
1
100
AcDbSymbolTableRecord
100
AcDbBlockTableRecord
  2
block 2
340
0
102
{BLKREFS
331
76
102
}
 70
     0
280
     1
281
     0
  0
BLOCK_RECORD
  5
7C
330
1
100
AcDbSymbolTableRecord
100
AcDbBlockTableRecord
  2
block 3
340
0
102
{BLKREFS
331
7D
102
}
 70
     0
280
     1
281
     0
  0
BLOCK_RECORD
  5
82
330
1
100
AcDbSymbolTableRecord
100
AcDbBlockTableRecord
  2
block 4
340
0
102
{BLKREFS
331
83
102
}
 70
     0
280
     1
281
     0
  0
BLOCK_RECORD
  5
98
330
1
100
AcDbSymbolTableRecord
100
AcDbBlockTableRecord
  2
block 5
340
0
102
{BLKREFS
331
99
102
}
 70
     0
280
     1
281
     0
  0
BLOCK_RECORD
  5
AA
330
1
100
AcDbSymbolTableRecord
100
AcDbBlockTableRecord
  2
block 6
340
0
102
{BLKREFS
331
AB
102
}
 70
     0
280
     1
281
     0
  0
BLOCK_RECORD
  5
D8
330
1
100
AcDbSymbolTableRecord
100
AcDbBlockTableRecord
  2
block 7
340
0
102
{BLKREFS
331
D9
102
}
 70
     0
280
     1
281
     0
  0
ENDTAB
  0
ENDSEC
  0
SECTION
  2
BLOCKS
  0
BLOCK
  5
20
330
1F
100
AcDbEntity
  8
0
100
AcDbBlockBegin
  2
*Model_Space
 70
     0
 10
0.0
 20
0.0
 30
0.0
  3
*Model_Space
  1

  0
ENDBLK
  5
21
330
1F
100
AcDbEntity
  8
0
100
AcDbBlockEnd
  0
BLOCK
  5
1C
330
1B
100
AcDbEntity
 67
     1
  8
0
100
AcDbBlockBegin
  2
*Paper_Space
 70
     0
 10
0.0
 20
0.0
 30
0.0
  3
*Paper_Space
  1

  0
ENDBLK
  5
1D
330
1B
100
AcDbEntity
 67
     1
  8
0
100
AcDbBlockEnd
  0
BLOCK
  5
24
330
23
100
AcDbEntity
  8
0
100
AcDbBlockBegin
  2
*Paper_Space0
 70
     0
 10
0.0
 20
0.0
 30
0.0
  3
*Paper_Space0
  1

  0
ENDBLK
  5
25
330
23
100
AcDbEntity
  8
0
100
AcDbBlockEnd
  0
BLOCK
  5
77
330
75
100
AcDbEntity
  8
0
100
AcDbBlockBegin
  2
block 2
 70
     0
 10
0.0
 20
0.0
 30
0.0
  3
block 2
  1

  0
SPLINE
  5
79
330
75
100
AcDbEntity
  8
_U+30EC_U+30A4_U+30E4_U+30FC 1
370
     0
100
AcDbSpline
210
0.0
220
0.0
230
1.0
 70
    11
 71
     3
 72
    32
 73
    28
 74
     0
 42
0.0000000001
 43
0.0000000001
 12
1.0
 22
0.0
 32
0.0
 13
1.0
 23
0.0
 33
0.0
 40
0.0
 40
0.0
 40
0.0
 40
0.0
 40
1.0
 40
1.0
 40
1.0
 40
2.0
 40
2.0
 40
2.0
 40
3.0
 40
3.0
 40
3.0
 40
4.0
 40
4.0
 40
4.0
 40
5.0
 40
5.0
 40
5.0
 40
6.0
 40
6.0
 40
6.0
 40
7.0
 40
7.0
 40
7.0
 40
8.0
 40
8.0
 40
8.0
 40
9.0
 40
9.0
 40
9.0
 40
9.0
 10
88.18548717413418
 20
-120.7960720184121
 30
0.0
 10
87.66941187044377
 20
-120.7960720184121
 30
0.0
 10
87.66079913173064
 20
-120.2421006643839
 30
0.0
 10
87.66079913173064
 20
-120.0281602347499
 30
0.0
 10
87.66079913173064
 20
-119.7976833467867
 30
0.0
 10
87.68009166644804
 20
-119.1503499051083
 30
0.0
 10
88.22372773402046
 20
-119.1503499051083
 30
0.0
 10
88.39701603692853
 20
-119.1503499051083
 30
0.0
 10
88.64265134502683
 20
-119.2202853434588
 30
0.0
 10
88.68054739536458
 20
-119.5523925482369
 30
0.0
 10
88.68054739536458
 20
-119.5523925482369
 30
0.0
 10
88.4669514752791
 20
-119.5523925482369
 30
0.0
 10
88.4669514752791
 20
-119.5523925482369
 30
0.0
 10
88.45627167927482
 20
-119.4952039631818
 30
0.0
 10
88.42457680081053
 20
-119.347064857316
 30
0.0
 10
88.22166067672931
 20
-119.347064857316
 30
0.0
 10
87.92951657958012
 20
-119.347064857316
 30
0.0
 10
87.88955347195123
 20
-119.6750379475118
 30
0.0
 10
87.8768066186558
 20
-119.8800211288842
 30
0.0
 10
87.96982419675754
 20
-119.801817461369
 30
0.0
 10
88.03769257781697
 20
-119.7425618190227
 30
0.0
 10
88.21959361943816
 20
-119.7425618190227
 30
0.0
 10
88.3994276037682
 20
-119.7425618190227
 30
0.0
 10
88.70190698737314
 20
-119.8507378172595
 30
0.0
 10
88.70190698737314
 20
-120.2569145749705
 30
0.0
 10
88.70190698737314
 20
-120.5762749264532
 30
0.0
 10
88.5027804683257
 20
-120.7960720184121
 30
0.0
 10
88.18548717413418
 20
-120.7960720184121
 30
0.0
  0
SPLINE
  5
7A
330
75
100
AcDbEntity
  8
_U+30EC_U+30A4_U+30E4_U+30FC 1
370
     0
100
AcDbSpline
210
0.0
220
0.0
230
1.0
 70
    11
 71
     3
 72
    17
 73
    13
 74
     0
 42
0.0000000001
 43
0.0000000001
 12
1.0
 22
0.0
 32
0.0
 13
1.0
 23
0.0
 33
0.0
 40
0.0
 40
0.0
 40
0.0
 40
0.0
 40
1.0
 40
1.0
 40
1.0
 40
2.0
 40
2.0
 40
2.0
 40
3.0
 40
3.0
 40
3.0
 40
4.0
 40
4.0
 40
4.0
 40
4.0
 10
88.2023681420119
 20
-119.9372097139393
 30
0.0
 10
87.94019637558439
 20
-119.9372097139393
 30
0.0
 10
87.90230032524666
 20
-120.1487385767336
 30
0.0
 10
87.90230032524666
 20
-120.2651828041351
 30
0.0
 10
87.90230032524666
 20
-120.4408826738828
 30
0.0
 10
87.99738496063955
 20
-120.6038356903352
 30
0.0
 10
88.18135305955188
 20
-120.6038356903352
 30
0.0
 10
88.30193140153563
 20
-120.6038356903352
 30
0.0
 10
88.47763127128337
 20
-120.5445800479889
 30
0.0
 10
88.47763127128337
 20
-120.2589816322617
 30
0.0
 10
88.47763127128337
 20
-120.0347059161719
 30
0.0
 10
88.33810490413076
 20
-119.9372097139393
 30
0.0
 10
88.2023681420119
 20
-119.9372097139393
 30
0.0
  0
HATCH
  5
7B
330
75
100
AcDbEntity
  8
_U+30EC_U+30A4_U+30E4_U+30FC 1
 62
     7
420
 16777215
100
AcDbHatch
 10
0.0
 20
0.0
 30
0.0
210
0.0
220
0.0
230
1.0
  2
SOLID
 70
     1
 71
     0
 91
        2
 92
        1
 93
        1
 72
     4
 94
        3
 73
     0
 74
     1
 95
       32
 96
       28
 40
0.0
 40
0.0
 40
0.0
 40
0.0
 40
1.0
 40
1.0
 40
1.0
 40
2.0
 40
2.0
 40
2.0
 40
3.0
 40
3.0
 40
3.0
 40
4.0
 40
4.0
 40
4.0
 40
5.0
 40
5.0
 40
5.0
 40
6.0
 40
6.0
 40
6.0
 40
7.0
 40
7.0
 40
7.0
 40
8.0
 40
8.0
 40
8.0
 40
9.0
 40
9.0
 40
9.0
 40
9.0
 10
88.18548717413418
 20
-120.7960720184121
 10
87.66941187044377
 20
-120.7960720184121
 10
87.66079913173064
 20
-120.2421006643839
 10
87.66079913173064
 20
-120.0281602347499
 10
87.66079913173064
 20
-119.7976833467867
 10
87.68009166644804
 20
-119.1503499051083
 10
88.22372773402046
 20
-119.1503499051083
 10
88.39701603692853
 20
-119.1503499051083
 10
88.64265134502683
 20
-119.2202853434588
 10
88.68054739536458
 20
-119.5523925482369
 10
88.68054739536458
 20
-119.5523925482369
 10
88.4669514752791
 20
-119.5523925482369
 10
88.4669514752791
 20
-119.5523925482369
 10
88.45627167927482
 20
-119.4952039631818
 10
88.42457680081053
 20
-119.347064857316
 10
88.22166067672931
 20
-119.347064857316
 10
87.92951657958012
 20
-119.347064857316
 10
87.88955347195123
 20
-119.6750379475118
 10
87.8768066186558
 20
-119.8800211288842
 10
87.96982419675754
 20
-119.801817461369
 10
88.03769257781697
 20
-119.7425618190227
 10
88.21959361943816
 20
-119.7425618190227
 10
88.3994276037682
 20
-119.7425618190227
 10
88.70190698737314
 20
-119.8507378172595
 10
88.70190698737314
 20
-120.2569145749705
 10
88.70190698737314
 20
-120.5762749264532
 10
88.5027804683257
 20
-120.7960720184121
 10
88.18548717413418
 20
-120.7960720184121
 97
        0
 97
        0
 92
        1
 93
        1
 72
     4
 94
        3
 73
     0
 74
     1
 95
       17
 96
       13
 40
0.0
 40
0.0
 40
0.0
 40
0.0
 40
1.0
 40
1.0
 40
1.0
 40
2.0
 40
2.0
 40
2.0
 40
3.0
 40
3.0
 40
3.0
 40
4.0
 40
4.0
 40
4.0
 40
4.0
 10
88.2023681420119
 20
-119.9372097139393
 10
87.94019637558439
 20
-119.9372097139393
 10
87.90230032524666
 20
-120.1487385767336
 10
87.90230032524666
 20
-120.2651828041351
 10
87.90230032524666
 20
-120.4408826738828
 10
87.99738496063955
 20
-120.6038356903352
 10
88.18135305955188
 20
-120.6038356903352
 10
88.30193140153563
 20
-120.6038356903352
 10
88.47763127128337
 20
-120.5445800479889
 10
88.47763127128337
 20
-120.2589816322617
 10
88.47763127128337
 20
-120.0347059161719
 10
88.33810490413076
 20
-119.9372097139393
 10
88.2023681420119
 20
-119.9372097139393
 97
        0
 97
        0
 75
     2
 76
     1
 98
        0
  0
ENDBLK
  5
78
330
75
100
AcDbEntity
  8
0
100
AcDbBlockEnd
  0
BLOCK
  5
7E
330
7C
100
AcDbEntity
  8
0
100
AcDbBlockBegin
  2
block 3
 70
     0
 10
0.0
 20
0.0
 30
0.0
  3
block 3
  1

  0
SPLINE
  5
80
330
7C
100
AcDbEntity
  8
_U+30EC_U+30A4_U+30E4_U+30FC 1
370
     0
100
AcDbSpline
210
0.0
220
0.0
230
1.0
 70
    11
 71
     3
 72
    26
 73
    22
 74
     0
 42
0.0000000001
 43
0.0000000001
 12
1.0
 22
0.0
 32
0.0
 13
1.0
 23
0.0
 33
0.0
 40
0.0
 40
0.0
 40
0.0
 40
0.0
 40
1.0
 40
1.0
 40
1.0
 40
2.0
 40
2.0
 40
2.0
 40
3.0
 40
3.0
 40
3.0
 40
4.0
 40
4.0
 40
4.0
 40
5.0
 40
5.0
 40
5.0
 40
6.0
 40
6.0
 40
6.0
 40
7.0
 40
7.0
 40
7.0
 40
7.0
 10
81.65565319139165
 20
-120.7454291147789
 30
0.0
 10
81.65565319139165
 20
-120.7454291147789
 30
0.0
 10
81.41863062200646
 20
-120.7454291147789
 30
0.0
 10
81.41863062200646
 20
-120.7454291147789
 30
0.0
 10
81.44412432859731
 20
-120.436404049752
 30
0.0
 10
81.63670516622277
 20
-119.9182616887704
 30
0.0
 10
82.04288192393373
 20
-119.4125216715358
 30
0.0
 10
82.04288192393373
 20
-119.4125216715358
 30
0.0
 10
81.20503470192097
 20
-119.4125216715358
 30
0.0
 10
81.20503470192097
 20
-119.4125216715358
 30
0.0
 10
81.20503470192097
 20
-119.4125216715358
 30
0.0
 10
81.20503470192097
 20
-119.2009928087414
 30
0.0
 10
81.20503470192097
 20
-119.2009928087414
 30
0.0
 10
81.20503470192097
 20
-119.2009928087414
 30
0.0
 10
82.27990449331891
 20
-119.2009928087414
 30
0.0
 10
82.27990449331891
 20
-119.2009928087414
 30
0.0
 10
82.27990449331891
 20
-119.2009928087414
 30
0.0
 10
82.27990449331891
 20
-119.4125216715358
 30
0.0
 10
82.27990449331891
 20
-119.4125216715358
 30
0.0
 10
81.95606551770543
 20
-119.7025987113938
 30
0.0
 10
81.6894151271471
 20
-120.2948106253082
 30
0.0
 10
81.65565319139165
 20
-120.7454291147789
 30
0.0
  0
HATCH
  5
81
330
7C
100
AcDbEntity
  8
_U+30EC_U+30A4_U+30E4_U+30FC 1
 62
     7
420
 16777215
100
AcDbHatch
 10
0.0
 20
0.0
 30
0.0
210
0.0
220
0.0
230
1.0
  2
SOLID
 70
     1
 71
     0
 91
        1
 92
        1
 93
        1
 72
     4
 94
        3
 73
     0
 74
     1
 95
       26
 96
       22
 40
0.0
 40
0.0
 40
0.0
 40
0.0
 40
1.0
 40
1.0
 40
1.0
 40
2.0
 40
2.0
 40
2.0
 40
3.0
 40
3.0
 40
3.0
 40
4.0
 40
4.0
 40
4.0
 40
5.0
 40
5.0
 40
5.0
 40
6.0
 40
6.0
 40
6.0
 40
7.0
 40
7.0
 40
7.0
 40
7.0
 10
81.65565319139165
 20
-120.7454291147789
 10
81.65565319139165
 20
-120.7454291147789
 10
81.41863062200646
 20
-120.7454291147789
 10
81.41863062200646
 20
-120.7454291147789
 10
81.44412432859731
 20
-120.436404049752
 10
81.63670516622277
 20
-119.9182616887704
 10
82.04288192393373
 20
-119.4125216715358
 10
82.04288192393373
 20
-119.4125216715358
 10
81.20503470192097
 20
-119.4125216715358
 10
81.20503470192097
 20
-119.4125216715358
 10
81.20503470192097
 20
-119.4125216715358
 10
81.20503470192097
 20
-119.2009928087414
 10
81.20503470192097
 20
-119.2009928087414
 10
81.20503470192097
 20
-119.2009928087414
 10
82.27990449331891
 20
-119.2009928087414
 10
82.27990449331891
 20
-119.2009928087414
 10
82.27990449331891
 20
-119.2009928087414
 10
82.27990449331891
 20
-119.4125216715358
 10
82.27990449331891
 20
-119.4125216715358
 10
81.95606551770543
 20
-119.7025987113938
 10
81.6894151271471
 20
-120.2948106253082
 10
81.65565319139165
 20
-120.7454291147789
 97
        0
 97
        0
 75
     2
 76
     1
 98
        0
  0
ENDBLK
  5
7F
330
7C
100
AcDbEntity
  8
0
100
AcDbBlockEnd
  0
BLOCK
  5
84
330
82
100
AcDbEntity
  8
0
100
AcDbBlockBegin
  2
block 4
 70
     0
 10
0.0
 20
0.0
 30
0.0
  3
block 4
  1

  0
SPLINE
  5
86
330
82
100
AcDbEntity
  8
_U+30EC_U+30A4_U+30E4_U+30FC 1
370
     0
100
AcDbSpline
210
0.0
220
0.0
230
1.0
 70
    11
 71
     3
 72
    26
 73
    22
 74
     0
 42
0.0000000001
 43
0.0000000001
 12
1.0
 22
0.0
 32
0.0
 13
1.0
 23
0.0
 33
0.0
 40
0.0
 40
0.0
 40
0.0
 40
0.0
 40
1.0
 40
1.0
 40
1.0
 40
2.0
 40
2.0
 40
2.0
 40
3.0
 40
3.0
 40
3.0
 40
4.0
 40
4.0
 40
4.0
 40
5.0
 40
5.0
 40
5.0
 40
6.0
 40
6.0
 40
6.0
 40
7.0
 40
7.0
 40
7.0
 40
7.0
 10
94.3756347420311
 20
-120.7454291147789
 30
0.0
 10
94.3756347420311
 20
-120.7454291147789
 30
0.0
 10
94.1386121726459
 20
-120.7454291147789
 30
0.0
 10
94.1386121726459
 20
-120.7454291147789
 30
0.0
 10
94.16410587923676
 20
-120.436404049752
 30
0.0
 10
94.35668671686223
 20
-119.9182616887704
 30
0.0
 10
94.76286347457318
 20
-119.4125216715358
 30
0.0
 10
94.76286347457318
 20
-119.4125216715358
 30
0.0
 10
93.92501625256041
 20
-119.4125216715358
 30
0.0
 10
93.92501625256041
 20
-119.4125216715358
 30
0.0
 10
93.92501625256041
 20
-119.4125216715358
 30
0.0
 10
93.92501625256041
 20
-119.2009928087414
 30
0.0
 10
93.92501625256041
 20
-119.2009928087414
 30
0.0
 10
93.92501625256041
 20
-119.2009928087414
 30
0.0
 10
94.99988604395837
 20
-119.2009928087414
 30
0.0
 10
94.99988604395837
 20
-119.2009928087414
 30
0.0
 10
94.99988604395837
 20
-119.2009928087414
 30
0.0
 10
94.99988604395837
 20
-119.4125216715358
 30
0.0
 10
94.99988604395837
 20
-119.4125216715358
 30
0.0
 10
94.67604706834489
 20
-119.7025987113938
 30
0.0
 10
94.40939667778655
 20
-120.2948106253082
 30
0.0
 10
94.3756347420311
 20
-120.7454291147789
 30
0.0
  0
HATCH
  5
87
330
82
100
AcDbEntity
  8
_U+30EC_U+30A4_U+30E4_U+30FC 1
 62
     7
420
 16777215
100
AcDbHatch
 10
0.0
 20
0.0
 30
0.0
210
0.0
220
0.0
230
1.0
  2
SOLID
 70
     1
 71
     0
 91
        1
 92
        1
 93
        1
 72
     4
 94
        3
 73
     0
 74
     1
 95
       26
 96
       22
 40
0.0
 40
0.0
 40
0.0
 40
0.0
 40
1.0
 40
1.0
 40
1.0
 40
2.0
 40
2.0
 40
2.0
 40
3.0
 40
3.0
 40
3.0
 40
4.0
 40
4.0
 40
4.0
 40
5.0
 40
5.0
 40
5.0
 40
6.0
 40
6.0
 40
6.0
 40
7.0
 40
7.0
 40
7.0
 40
7.0
 10
94.3756347420311
 20
-120.7454291147789
 10
94.3756347420311
 20
-120.7454291147789
 10
94.1386121726459
 20
-120.7454291147789
 10
94.1386121726459
 20
-120.7454291147789
 10
94.16410587923676
 20
-120.436404049752
 10
94.35668671686223
 20
-119.9182616887704
 10
94.76286347457318
 20
-119.4125216715358
 10
94.76286347457318
 20
-119.4125216715358
 10
93.92501625256041
 20
-119.4125216715358
 10
93.92501625256041
 20
-119.4125216715358
 10
93.92501625256041
 20
-119.4125216715358
 10
93.92501625256041
 20
-119.2009928087414
 10
93.92501625256041
 20
-119.2009928087414
 10
93.92501625256041
 20
-119.2009928087414
 10
94.99988604395837
 20
-119.2009928087414
 10
94.99988604395837
 20
-119.2009928087414
 10
94.99988604395837
 20
-119.2009928087414
 10
94.99988604395837
 20
-119.4125216715358
 10
94.99988604395837
 20
-119.4125216715358
 10
94.67604706834489
 20
-119.7025987113938
 10
94.40939667778655
 20
-120.2948106253082
 10
94.3756347420311
 20
-120.7454291147789
 97
        0
 97
        0
 75
     2
 76
     1
 98
        0
  0
ENDBLK
  5
85
330
82
100
AcDbEntity
  8
0
100
AcDbBlockEnd
  0
BLOCK
  5
9A
330
98
100
AcDbEntity
  8
0
100
AcDbBlockBegin
  2
block 5
 70
     0
 10
0.0
 20
0.0
 30
0.0
  3
block 5
  1

  0
SPLINE
  5
9C
330
98
100
AcDbEntity
  8
_U+30EC_U+30A4_U+30E4_U+30FC 1
370
     0
100
AcDbSpline
210
0.0
220
0.0
230
1.0
 70
    11
 71
     3
 72
    26
 73
    22
 74
     0
 42
0.0000000001
 43
0.0000000001
 12
1.0
 22
0.0
 32
0.0
 13
1.0
 23
0.0
 33
0.0
 40
0.0
 40
0.0
 40
0.0
 40
0.0
 40
1.0
 40
1.0
 40
1.0
 40
2.0
 40
2.0
 40
2.0
 40
3.0
 40
3.0
 40
3.0
 40
4.0
 40
4.0
 40
4.0
 40
5.0
 40
5.0
 40
5.0
 40
6.0
 40
6.0
 40
6.0
 40
7.0
 40
7.0
 40
7.0
 40
7.0
 10
101.9135036637577
 20
-133.6207844718031
 30
0.0
 10
101.9135036637577
 20
-133.6207844718031
 30
0.0
 10
100.8090060511866
 20
-133.6207844718031
 30
0.0
 10
100.8090060511866
 20
-133.6207844718031
 30
0.0
 10
100.8090060511866
 20
-133.6207844718031
 30
0.0
 10
100.8090060511866
 20
-133.9508246192901
 30
0.0
 10
100.8090060511866
 20
-133.9508246192901
 30
0.0
 10
100.8090060511866
 20
-133.9508246192901
 30
0.0
 10
100.6612114548694
 20
-133.9508246192901
 30
0.0
 10
100.6612114548694
 20
-133.9508246192901
 30
0.0
 10
100.6463975442828
 20
-133.618717414512
 30
0.0
 10
100.4834445278305
 20
-133.5722086254611
 30
0.0
 10
100.3690673577202
 20
-133.542580804288
 30
0.0
 10
100.3690673577202
 20
-133.542580804288
 30
0.0
 10
100.3690673577202
 20
-133.3965087557134
 30
0.0
 10
100.3690673577202
 20
-133.3965087557134
 30
0.0
 10
100.3690673577202
 20
-133.3965087557134
 30
0.0
 10
101.9135036637577
 20
-133.3965087557134
 30
0.0
 10
101.9135036637577
 20
-133.3965087557134
 30
0.0
 10
101.9135036637577
 20
-133.3965087557134
 30
0.0
 10
101.9135036637577
 20
-133.6207844718031
 30
0.0
 10
101.9135036637577
 20
-133.6207844718031
 30
0.0
  0
HATCH
  5
9D
330
98
100
AcDbEntity
  8
_U+30EC_U+30A4_U+30E4_U+30FC 1
 62
     7
420
 16777215
100
AcDbHatch
 10
0.0
 20
0.0
 30
0.0
210
0.0
220
0.0
230
1.0
  2
SOLID
 70
     1
 71
     0
 91
        1
 92
        1
 93
        1
 72
     4
 94
        3
 73
     0
 74
     1
 95
       26
 96
       22
 40
0.0
 40
0.0
 40
0.0
 40
0.0
 40
1.0
 40
1.0
 40
1.0
 40
2.0
 40
2.0
 40
2.0
 40
3.0
 40
3.0
 40
3.0
 40
4.0
 40
4.0
 40
4.0
 40
5.0
 40
5.0
 40
5.0
 40
6.0
 40
6.0
 40
6.0
 40
7.0
 40
7.0
 40
7.0
 40
7.0
 10
101.9135036637577
 20
-133.6207844718031
 10
101.9135036637577
 20
-133.6207844718031
 10
100.8090060511866
 20
-133.6207844718031
 10
100.8090060511866
 20
-133.6207844718031
 10
100.8090060511866
 20
-133.6207844718031
 10
100.8090060511866
 20
-133.9508246192901
 10
100.8090060511866
 20
-133.9508246192901
 10
100.8090060511866
 20
-133.9508246192901
 10
100.6612114548694
 20
-133.9508246192901
 10
100.6612114548694
 20
-133.9508246192901
 10
100.6463975442828
 20
-133.618717414512
 10
100.4834445278305
 20
-133.5722086254611
 10
100.3690673577202
 20
-133.542580804288
 10
100.3690673577202
 20
-133.542580804288
 10
100.3690673577202
 20
-133.3965087557134
 10
100.3690673577202
 20
-133.3965087557134
 10
100.3690673577202
 20
-133.3965087557134
 10
101.9135036637577
 20
-133.3965087557134
 10
101.9135036637577
 20
-133.3965087557134
 10
101.9135036637577
 20
-133.3965087557134
 10
101.9135036637577
 20
-133.6207844718031
 10
101.9135036637577
 20
-133.6207844718031
 97
        0
 97
        0
 75
     2
 76
     1
 98
        0
  0
SPLINE
  5
9E
330
98
100
AcDbEntity
  8
_U+30EC_U+30A4_U+30E4_U+30FC 1
370
     0
100
AcDbSpline
210
0.0
220
0.0
230
1.0
 70
    11
 71
     3
 72
    44
 73
    40
 74
     0
 42
0.0000000001
 43
0.0000000001
 12
1.0
 22
0.0
 32
0.0
 13
1.0
 23
0.0
 33
0.0
 40
0.0
 40
0.0
 40
0.0
 40
0.0
 40
1.0
 40
1.0
 40
1.0
 40
2.0
 40
2.0
 40
2.0
 40
3.0
 40
3.0
 40
3.0
 40
4.0
 40
4.0
 40
4.0
 40
5.0
 40
5.0
 40
5.0
 40
6.0
 40
6.0
 40
6.0
 40
7.0
 40
7.0
 40
7.0
 40
8.0
 40
8.0
 40
8.0
 40
9.0
 40
9.0
 40
9.0
 40
10.0
 40
10.0
 40
10.0
 40
11.0
 40
11.0
 40
11.0
 40
12.0
 40
12.0
 40
12.0
 40
13.0
 40
13.0
 40
13.0
 40
13.0
 10
101.331627036299
 20
-132.302346429598
 30
0.0
 10
101.4904459381691
 20
-132.5200764642658
 30
0.0
 10
101.5645154911019
 20
-132.6130940423676
 30
0.0
 10
101.7081759728369
 20
-132.6620143982581
 30
0.0
 10
101.7081759728369
 20
-132.6620143982581
 30
0.0
 10
101.7081759728369
 20
-131.8834228185916
 30
0.0
 10
101.7081759728369
 20
-131.8834228185916
 30
0.0
 10
101.7081759728369
 20
-131.8834228185916
 30
0.0
 10
101.9135036637577
 20
-131.8834228185916
 30
0.0
 10
101.9135036637577
 20
-131.8834228185916
 30
0.0
 10
101.9135036637577
 20
-131.8834228185916
 30
0.0
 10
101.9135036637577
 20
-132.9114393113902
 30
0.0
 10
101.9135036637577
 20
-132.9114393113902
 30
0.0
 10
101.5559027523888
 20
-132.8797444329259
 30
0.0
 10
101.4776990848736
 20
-132.8142876187061
 30
0.0
 10
101.179353815851
 20
-132.4291259434552
 30
0.0
 10
100.9805718063521
 20
-132.1731553489012
 30
0.0
 10
100.9127034252927
 20
-132.1076985346814
 30
0.0
 10
100.7752441154312
 20
-132.1076985346814
 30
0.0
 10
100.6567328307386
 20
-132.1076985346814
 30
0.0
 10
100.5258192022991
 20
-132.1797010303231
 30
0.0
 10
100.5258192022991
 20
-132.3764159825309
 30
0.0
 10
100.5258192022991
 20
-132.6365206916673
 30
0.0
 10
100.7562960902623
 20
-132.6451334303804
 30
0.0
 10
100.8727403176638
 20
-132.6492675449627
 30
0.0
 10
100.8727403176638
 20
-132.6492675449627
 30
0.0
 10
100.8727403176638
 20
-132.8735432610524
 30
0.0
 10
100.8727403176638
 20
-132.8735432610524
 30
0.0
 10
100.745616294258
 20
-132.8649305223393
 30
0.0
 10
100.6336506909874
 20
-132.8542507263351
 30
0.0
 10
100.5151394062948
 20
-132.7739800015287
 30
0.0
 10
100.3542534471337
 20
-132.6640814555493
 30
0.0
 10
100.3204915113782
 20
-132.4777017897972
 30
0.0
 10
100.3204915113782
 20
-132.3616020719443
 30
0.0
 10
100.3204915113782
 20
-132.0842718853817
 30
0.0
 10
100.5044596102906
 20
-131.8768771371697
 30
0.0
 10
100.7773111727223
 20
-131.8768771371697
 30
0.0
 10
101.0057210033944
 20
-131.8768771371697
 30
0.0
 10
101.1052842629181
 20
-131.9933213645711
 30
0.0
 10
101.331627036299
 20
-132.302346429598
 30
0.0
  0
HATCH
  5
9F
330
98
100
AcDbEntity
  8
_U+30EC_U+30A4_U+30E4_U+30FC 1
 62
     7
420
 16777215
100
AcDbHatch
 10
0.0
 20
0.0
 30
0.0
210
0.0
220
0.0
230
1.0
  2
SOLID
 70
     1
 71
     0
 91
        1
 92
        1
 93
        1
 72
     4
 94
        3
 73
     0
 74
     1
 95
       44
 96
       40
 40
0.0
 40
0.0
 40
0.0
 40
0.0
 40
1.0
 40
1.0
 40
1.0
 40
2.0
 40
2.0
 40
2.0
 40
3.0
 40
3.0
 40
3.0
 40
4.0
 40
4.0
 40
4.0
 40
5.0
 40
5.0
 40
5.0
 40
6.0
 40
6.0
 40
6.0
 40
7.0
 40
7.0
 40
7.0
 40
8.0
 40
8.0
 40
8.0
 40
9.0
 40
9.0
 40
9.0
 40
10.0
 40
10.0
 40
10.0
 40
11.0
 40
11.0
 40
11.0
 40
12.0
 40
12.0
 40
12.0
 40
13.0
 40
13.0
 40
13.0
 40
13.0
 10
101.331627036299
 20
-132.302346429598
 10
101.4904459381691
 20
-132.5200764642658
 10
101.5645154911019
 20
-132.6130940423676
 10
101.7081759728369
 20
-132.6620143982581
 10
101.7081759728369
 20
-132.6620143982581
 10
101.7081759728369
 20
-131.8834228185916
 10
101.7081759728369
 20
-131.8834228185916
 10
101.7081759728369
 20
-131.8834228185916
 10
101.9135036637577
 20
-131.8834228185916
 10
101.9135036637577
 20
-131.8834228185916
 10
101.9135036637577
 20
-131.8834228185916
 10
101.9135036637577
 20
-132.9114393113902
 10
101.9135036637577
 20
-132.9114393113902
 10
101.5559027523888
 20
-132.8797444329259
 10
101.4776990848736
 20
-132.8142876187061
 10
101.179353815851
 20
-132.4291259434552
 10
100.9805718063521
 20
-132.1731553489012
 10
100.9127034252927
 20
-132.1076985346814
 10
100.7752441154312
 20
-132.1076985346814
 10
100.6567328307386
 20
-132.1076985346814
 10
100.5258192022991
 20
-132.1797010303231
 10
100.5258192022991
 20
-132.3764159825309
 10
100.5258192022991
 20
-132.6365206916673
 10
100.7562960902623
 20
-132.6451334303804
 10
100.8727403176638
 20
-132.6492675449627
 10
100.8727403176638
 20
-132.6492675449627
 10
100.8727403176638
 20
-132.8735432610524
 10
100.8727403176638
 20
-132.8735432610524
 10
100.745616294258
 20
-132.8649305223393
 10
100.6336506909874
 20
-132.8542507263351
 10
100.5151394062948
 20
-132.7739800015287
 10
100.3542534471337
 20
-132.6640814555493
 10
100.3204915113782
 20
-132.4777017897972
 10
100.3204915113782
 20
-132.3616020719443
 10
100.3204915113782
 20
-132.0842718853817
 10
100.5044596102906
 20
-131.8768771371697
 10
100.7773111727223
 20
-131.8768771371697
 10
101.0057210033944
 20
-131.8768771371697
 10
101.1052842629181
 20
-131.9933213645711
 10
101.331627036299
 20
-132.302346429598
 97
        0
 97
        0
 75
     2
 76
     1
 98
        0
  0
POLYLINE
  5
A0
330
98
100
AcDbEntity
  8
_U+30EC_U+30A4_U+30E4_U+30FC 1
370
     0
100
AcDb2dPolyline
 66
     1
 10
0.0
 20
0.0
 30
0.0
  0
VERTEX
  5
A1
330
A0
100
AcDbEntity
  8
_U+30EC_U+30A4_U+30E4_U+30FC 1
370
     0
100
AcDbVertex
100
AcDb2dVertex
 10
101.9135036637577
 20
-131.6584580834048
 30
0.0
  0
VERTEX
  5
A2
330
A0
100
AcDbEntity
  8
_U+30EC_U+30A4_U+30E4_U+30FC 1
370
     0
100
AcDbVertex
100
AcDb2dVertex
 10
101.661667183786
 20
-131.6584580834048
 30
0.0
  0
VERTEX
  5
A3
330
A0
100
AcDbEntity
  8
_U+30EC_U+30A4_U+30E4_U+30FC 1
370
     0
100
AcDbVertex
100
AcDb2dVertex
 10
101.661667183786
 20
-131.4066216034331
 30
0.0
  0
VERTEX
  5
A4
330
A0
100
AcDbEntity
  8
_U+30EC_U+30A4_U+30E4_U+30FC 1
370
     0
100
AcDbVertex
100
AcDb2dVertex
 10
101.9135036637577
 20
-131.4066216034331
 30
0.0
  0
VERTEX
  5
A5
330
A0
100
AcDbEntity
  8
_U+30EC_U+30A4_U+30E4_U+30FC 1
370
     0
100
AcDbVertex
100
AcDb2dVertex
 10
101.9135036637577
 20
-131.6584580834048
 30
0.0
  0
SEQEND
  5
A6
330
A0
100
AcDbEntity
  8
_U+30EC_U+30A4_U+30E4_U+30FC 1
370
     0
  0
HATCH
  5
A7
330
98
100
AcDbEntity
  8
_U+30EC_U+30A4_U+30E4_U+30FC 1
 62
     7
420
 16777215
100
AcDbHatch
 10
0.0
 20
0.0
 30
0.0
210
0.0
220
0.0
230
1.0
  2
SOLID
 70
     1
 71
     0
 91
        1
 92
        1
 93
        4
 72
     1
 10
101.9135036637577
 20
-131.6584580834048
 11
101.661667183786
 21
-131.6584580834048
 72
     1
 10
101.661667183786
 20
-131.6584580834048
 11
101.661667183786
 21
-131.4066216034331
 72
     1
 10
101.661667183786
 20
-131.4066216034331
 11
101.9135036637577
 21
-131.4066216034331
 72
     1
 10
101.9135036637577
 20
-131.4066216034331
 11
101.9135036637577
 21
-131.6584580834048
 97
        0
 75
     2
 76
     1
 98
        0
  0
SPLINE
  5
A8
330
98
100
AcDbEntity
  8
_U+30EC_U+30A4_U+30E4_U+30FC 1
370
     0
100
AcDbSpline
210
0.0
220
0.0
230
1.0
 70
    11
 71
     3
 72
    53
 73
    49
 74
     0
 42
0.0000000001
 43
0.0000000001
 12
1.0
 22
0.0
 32
0.0
 13
1.0
 23
0.0
 33
0.0
 40
0.0
 40
0.0
 40
0.0
 40
0.0
 40
1.0
 40
1.0
 40
1.0
 40
2.0
 40
2.0
 40
2.0
 40
3.0
 40
3.0
 40
3.0
 40
4.0
 40
4.0
 40
4.0
 40
5.0
 40
5.0
 40
5.0
 40
6.0
 40
6.0
 40
6.0
 40
7.0
 40
7.0
 40
7.0
 40
8.0
 40
8.0
 40
8.0
 40
9.0
 40
9.0
 40
9.0
 40
10.0
 40
10.0
 40
10.0
 40
11.0
 40
11.0
 40
11.0
 40
12.0
 40
12.0
 40
12.0
 40
13.0
 40
13.0
 40
13.0
 40
14.0
 40
14.0
 40
14.0
 40
15.0
 40
15.0
 40
15.0
 40
16.0
 40
16.0
 40
16.0
 40
16.0
 10
101.9641465673909
 20
-130.6893527234041
 30
0.0
 10
101.9641465673909
 20
-130.7675563909192
 30
0.0
 10
101.9472655995132
 20
-130.8691867077341
 30
0.0
 10
101.8838758425846
 20
-130.970817024549
 30
0.0
 10
101.7736327870566
 20
-131.144105327457
 30
0.0
 10
101.6427191586171
 20
-131.1654649194656
 30
0.0
 10
101.5348876699288
 20
-131.1844129446345
 30
0.0
 10
101.5348876699288
 20
-131.1844129446345
 30
0.0
 10
101.5348876699288
 20
-130.9622042858358
 30
0.0
 10
101.5348876699288
 20
-130.9622042858358
 30
0.0
 10
101.7336696794277
 20
-130.9074272676204
 30
0.0
 10
101.7632975006008
 20
-130.7803032442147
 30
0.0
 10
101.7632975006008
 20
-130.6872856661129
 30
0.0
 10
101.7632975006008
 20
-130.5477592989603
 30
0.0
 10
101.6637342410771
 20
-130.3954860785122
 30
0.0
 10
101.4311902958228
 20
-130.3954860785122
 30
0.0
 10
101.1752197012687
 20
-130.3954860785122
 30
0.0
 10
101.1052842629181
 20
-130.5753200628423
 30
0.0
 10
101.1052842629181
 20
-130.695898404826
 30
0.0
 10
101.1052842629181
 20
-130.7275932832903
 30
0.0
 10
101.1052842629181
 20
-130.8691867077341
 30
0.0
 10
101.234475343615
 20
-130.9580701712536
 30
0.0
 10
101.234475343615
 20
-130.9580701712536
 30
0.0
 10
101.2151828088976
 20
-131.1337700410013
 30
0.0
 10
101.2151828088976
 20
-131.1337700410013
 30
0.0
 10
101.2151828088976
 20
-131.1337700410013
 30
0.0
 10
100.3690673577202
 20
-131.0131916990175
 30
0.0
 10
100.3690673577202
 20
-131.0131916990175
 30
0.0
 10
100.3690673577202
 20
-131.0131916990175
 30
0.0
 10
100.3690673577202
 20
-130.2346001193511
 30
0.0
 10
100.3690673577202
 20
-130.2346001193511
 30
0.0
 10
100.3690673577202
 20
-130.2346001193511
 30
0.0
 10
100.5637152526369
 20
-130.2346001193511
 30
0.0
 10
100.5637152526369
 20
-130.2346001193511
 30
0.0
 10
100.5637152526369
 20
-130.2346001193511
 30
0.0
 10
100.5637152526369
 20
-130.8502386825652
 30
0.0
 10
100.5637152526369
 20
-130.8502386825652
 30
0.0
 10
100.5637152526369
 20
-130.8502386825652
 30
0.0
 10
100.9867729782255
 20
-130.915695496785
 30
0.0
 10
100.9867729782255
 20
-130.915695496785
 30
0.0
 10
100.9530110424701
 20
-130.8543727971475
 30
0.0
 10
100.9127034252927
 20
-130.7720350150501
 30
0.0
 10
100.9127034252927
 20
-130.6535237303574
 30
0.0
 10
100.9127034252927
 20
-130.3996201930945
 30
0.0
 10
101.0990830910447
 20
-130.1625976237094
 30
0.0
 10
101.4118977611054
 20
-130.1625976237094
 30
0.0
 10
101.7295355648454
 20
-130.1625976237094
 30
0.0
 10
101.9641465673909
 20
-130.3868733397991
 30
0.0
 10
101.9641465673909
 20
-130.6893527234041
 30
0.0
  0
HATCH
  5
A9
330
98
100
AcDbEntity
  8
_U+30EC_U+30A4_U+30E4_U+30FC 1
 62
     7
420
 16777215
100
AcDbHatch
 10
0.0
 20
0.0
 30
0.0
210
0.0
220
0.0
230
1.0
  2
SOLID
 70
     1
 71
     0
 91
        1
 92
        1
 93
        1
 72
     4
 94
        3
 73
     0
 74
     1
 95
       53
 96
       49
 40
0.0
 40
0.0
 40
0.0
 40
0.0
 40
1.0
 40
1.0
 40
1.0
 40
2.0
 40
2.0
 40
2.0
 40
3.0
 40
3.0
 40
3.0
 40
4.0
 40
4.0
 40
4.0
 40
5.0
 40
5.0
 40
5.0
 40
6.0
 40
6.0
 40
6.0
 40
7.0
 40
7.0
 40
7.0
 40
8.0
 40
8.0
 40
8.0
 40
9.0
 40
9.0
 40
9.0
 40
10.0
 40
10.0
 40
10.0
 40
11.0
 40
11.0
 40
11.0
 40
12.0
 40
12.0
 40
12.0
 40
13.0
 40
13.0
 40
13.0
 40
14.0
 40
14.0
 40
14.0
 40
15.0
 40
15.0
 40
15.0
 40
16.0
 40
16.0
 40
16.0
 40
16.0
 10
101.9641465673909
 20
-130.6893527234041
 10
101.9641465673909
 20
-130.7675563909192
 10
101.9472655995132
 20
-130.8691867077341
 10
101.8838758425846
 20
-130.970817024549
 10
101.7736327870566
 20
-131.144105327457
 10
101.6427191586171
 20
-131.1654649194656
 10
101.5348876699288
 20
-131.1844129446345
 10
101.5348876699288
 20
-131.1844129446345
 10
101.5348876699288
 20
-130.9622042858358
 10
101.5348876699288
 20
-130.9622042858358
 10
101.7336696794277
 20
-130.9074272676204
 10
101.7632975006008
 20
-130.7803032442147
 10
101.7632975006008
 20
-130.6872856661129
 10
101.7632975006008
 20
-130.5477592989603
 10
101.6637342410771
 20
-130.3954860785122
 10
101.4311902958228
 20
-130.3954860785122
 10
101.1752197012687
 20
-130.3954860785122
 10
101.1052842629181
 20
-130.5753200628423
 10
101.1052842629181
 20
-130.695898404826
 10
101.1052842629181
 20
-130.7275932832903
 10
101.1052842629181
 20
-130.8691867077341
 10
101.234475343615
 20
-130.9580701712536
 10
101.234475343615
 20
-130.9580701712536
 10
101.2151828088976
 20
-131.1337700410013
 10
101.2151828088976
 20
-131.1337700410013
 10
101.2151828088976
 20
-131.1337700410013
 10
100.3690673577202
 20
-131.0131916990175
 10
100.3690673577202
 20
-131.0131916990175
 10
100.3690673577202
 20
-131.0131916990175
 10
100.3690673577202
 20
-130.2346001193511
 10
100.3690673577202
 20
-130.2346001193511
 10
100.3690673577202
 20
-130.2346001193511
 10
100.5637152526369
 20
-130.2346001193511
 10
100.5637152526369
 20
-130.2346001193511
 10
100.5637152526369
 20
-130.2346001193511
 10
100.5637152526369
 20
-130.8502386825652
 10
100.5637152526369
 20
-130.8502386825652
 10
100.5637152526369
 20
-130.8502386825652
 10
100.9867729782255
 20
-130.915695496785
 10
100.9867729782255
 20
-130.915695496785
 10
100.9530110424701
 20
-130.8543727971475
 10
100.9127034252927
 20
-130.7720350150501
 10
100.9127034252927
 20
-130.6535237303574
 10
100.9127034252927
 20
-130.3996201930945
 10
101.0990830910447
 20
-130.1625976237094
 10
101.4118977611054
 20
-130.1625976237094
 10
101.7295355648454
 20
-130.1625976237094
 10
101.9641465673909
 20
-130.3868733397991
 10
101.9641465673909
 20
-130.6893527234041
 97
        0
 97
        0
 75
     2
 76
     1
 98
        0
  0
ENDBLK
  5
9B
330
98
100
AcDbEntity
  8
0
100
AcDbBlockEnd
  0
BLOCK
  5
AC
330
AA
100
AcDbEntity
  8
0
100
AcDbBlockBegin
  2
block 6
 70
     0
 10
0.0
 20
0.0
 30
0.0
  3
block 6
  1

  0
SPLINE
  5
AE
330
AA
100
AcDbEntity
  8
_U+30EC_U+30A4_U+30E4_U+30FC 1
370
     0
100
AcDbSpline
210
0.0
220
0.0
230
1.0
 70
    11
 71
     3
 72
    26
 73
    22
 74
     0
 42
0.0000000001
 43
0.0000000001
 12
1.0
 22
0.0
 32
0.0
 13
1.0
 23
0.0
 33
0.0
 40
0.0
 40
0.0
 40
0.0
 40
0.0
 40
1.0
 40
1.0
 40
1.0
 40
2.0
 40
2.0
 40
2.0
 40
3.0
 40
3.0
 40
3.0
 40
4.0
 40
4.0
 40
4.0
 40
5.0
 40
5.0
 40
5.0
 40
6.0
 40
6.0
 40
6.0
 40
7.0
 40
7.0
 40
7.0
 40
7.0
 10
101.9331407080237
 20
-123.2103949344752
 30
0.0
 10
101.9331407080237
 20
-123.2103949344752
 30
0.0
 10
100.8289876050011
 20
-123.2103949344752
 30
0.0
 10
100.8289876050011
 20
-123.2103949344752
 30
0.0
 10
100.8289876050011
 20
-123.2103949344752
 30
0.0
 10
100.8289876050011
 20
-123.5404350819621
 30
0.0
 10
100.8289876050011
 20
-123.5404350819621
 30
0.0
 10
100.8289876050011
 20
-123.5404350819621
 30
0.0
 10
100.6808484991354
 20
-123.5404350819621
 30
0.0
 10
100.6808484991354
 20
-123.5404350819621
 30
0.0
 10
100.6660345885488
 20
-123.208327877184
 30
0.0
 10
100.5030815720965
 20
-123.1618190881332
 30
0.0
 10
100.3890489115347
 20
-123.13219126696
 30
0.0
 10
100.3890489115347
 20
-123.13219126696
 30
0.0
 10
100.3890489115347
 20
-122.9861192183854
 30
0.0
 10
100.3890489115347
 20
-122.9861192183854
 30
0.0
 10
100.3890489115347
 20
-122.9861192183854
 30
0.0
 10
101.9331407080237
 20
-122.9861192183854
 30
0.0
 10
101.9331407080237
 20
-122.9861192183854
 30
0.0
 10
101.9331407080237
 20
-122.9861192183854
 30
0.0
 10
101.9331407080237
 20
-123.2103949344752
 30
0.0
 10
101.9331407080237
 20
-123.2103949344752
 30
0.0
  0
HATCH
  5
AF
330
AA
100
AcDbEntity
  8
_U+30EC_U+30A4_U+30E4_U+30FC 1
 62
     7
420
 16777215
100
AcDbHatch
 10
0.0
 20
0.0
 30
0.0
210
0.0
220
0.0
230
1.0
  2
SOLID
 70
     1
 71
     0
 91
        1
 92
        1
 93
        1
 72
     4
 94
        3
 73
     0
 74
     1
 95
       26
 96
       22
 40
0.0
 40
0.0
 40
0.0
 40
0.0
 40
1.0
 40
1.0
 40
1.0
 40
2.0
 40
2.0
 40
2.0
 40
3.0
 40
3.0
 40
3.0
 40
4.0
 40
4.0
 40
4.0
 40
5.0
 40
5.0
 40
5.0
 40
6.0
 40
6.0
 40
6.0
 40
7.0
 40
7.0
 40
7.0
 40
7.0
 10
101.9331407080237
 20
-123.2103949344752
 10
101.9331407080237
 20
-123.2103949344752
 10
100.8289876050011
 20
-123.2103949344752
 10
100.8289876050011
 20
-123.2103949344752
 10
100.8289876050011
 20
-123.2103949344752
 10
100.8289876050011
 20
-123.5404350819621
 10
100.8289876050011
 20
-123.5404350819621
 10
100.8289876050011
 20
-123.5404350819621
 10
100.6808484991354
 20
-123.5404350819621
 10
100.6808484991354
 20
-123.5404350819621
 10
100.6660345885488
 20
-123.208327877184
 10
100.5030815720965
 20
-123.1618190881332
 10
100.3890489115347
 20
-123.13219126696
 10
100.3890489115347
 20
-123.13219126696
 10
100.3890489115347
 20
-122.9861192183854
 10
100.3890489115347
 20
-122.9861192183854
 10
100.3890489115347
 20
-122.9861192183854
 10
101.9331407080237
 20
-122.9861192183854
 10
101.9331407080237
 20
-122.9861192183854
 10
101.9331407080237
 20
-122.9861192183854
 10
101.9331407080237
 20
-123.2103949344752
 10
101.9331407080237
 20
-123.2103949344752
 97
        0
 97
        0
 75
     2
 76
     1
 98
        0
  0
POLYLINE
  5
B0
330
AA
100
AcDbEntity
  8
_U+30EC_U+30A4_U+30E4_U+30FC 1
370
     0
100
AcDb2dPolyline
 66
     1
 10
0.0
 20
0.0
 30
0.0
  0
VERTEX
  5
B1
330
B0
100
AcDbEntity
  8
_U+30EC_U+30A4_U+30E4_U+30FC 1
370
     0
100
AcDbVertex
100
AcDb2dVertex
 10
101.9331407080237
 20
-122.4249131638382
 30
0.0
  0
VERTEX
  5
B2
330
B0
100
AcDbEntity
  8
_U+30EC_U+30A4_U+30E4_U+30FC 1
370
     0
100
AcDbVertex
100
AcDb2dVertex
 10
101.6816487376004
 20
-122.4249131638382
 30
0.0
  0
VERTEX
  5
B3
330
B0
100
AcDbEntity
  8
_U+30EC_U+30A4_U+30E4_U+30FC 1
370
     0
100
AcDbVertex
100
AcDb2dVertex
 10
101.6816487376004
 20
-122.1730766838665
 30
0.0
  0
VERTEX
  5
B4
330
B0
100
AcDbEntity
  8
_U+30EC_U+30A4_U+30E4_U+30FC 1
370
     0
100
AcDbVertex
100
AcDb2dVertex
 10
101.9331407080237
 20
-122.1730766838665
 30
0.0
  0
VERTEX
  5
B5
330
B0
100
AcDbEntity
  8
_U+30EC_U+30A4_U+30E4_U+30FC 1
370
     0
100
AcDbVertex
100
AcDb2dVertex
 10
101.9331407080237
 20
-122.4249131638382
 30
0.0
  0
SEQEND
  5
B6
330
B0
100
AcDbEntity
  8
_U+30EC_U+30A4_U+30E4_U+30FC 1
370
     0
  0
HATCH
  5
B7
330
AA
100
AcDbEntity
  8
_U+30EC_U+30A4_U+30E4_U+30FC 1
 62
     7
420
 16777215
100
AcDbHatch
 10
0.0
 20
0.0
 30
0.0
210
0.0
220
0.0
230
1.0
  2
SOLID
 70
     1
 71
     0
 91
        1
 92
        1
 93
        4
 72
     1
 10
101.9331407080237
 20
-122.4249131638382
 11
101.6816487376004
 21
-122.4249131638382
 72
     1
 10
101.6816487376004
 20
-122.4249131638382
 11
101.6816487376004
 21
-122.1730766838665
 72
     1
 10
101.6816487376004
 20
-122.1730766838665
 11
101.9331407080237
 21
-122.1730766838665
 72
     1
 10
101.9331407080237
 20
-122.1730766838665
 11
101.9331407080237
 21
-122.4249131638382
 97
        0
 75
     2
 76
     1
 98
        0
  0
SPLINE
  5
B8
330
AA
100
AcDbEntity
  8
_U+30EC_U+30A4_U+30E4_U+30FC 1
370
     0
100
AcDbSpline
210
0.0
220
0.0
230
1.0
 70
    11
 71
     3
 72
    53
 73
    49
 74
     0
 42
0.0000000001
 43
0.0000000001
 12
1.0
 22
0.0
 32
0.0
 13
1.0
 23
0.0
 33
0.0
 40
0.0
 40
0.0
 40
0.0
 40
0.0
 40
1.0
 40
1.0
 40
1.0
 40
2.0
 40
2.0
 40
2.0
 40
3.0
 40
3.0
 40
3.0
 40
4.0
 40
4.0
 40
4.0
 40
5.0
 40
5.0
 40
5.0
 40
6.0
 40
6.0
 40
6.0
 40
7.0
 40
7.0
 40
7.0
 40
8.0
 40
8.0
 40
8.0
 40
9.0
 40
9.0
 40
9.0
 40
10.0
 40
10.0
 40
10.0
 40
11.0
 40
11.0
 40
11.0
 40
12.0
 40
12.0
 40
12.0
 40
13.0
 40
13.0
 40
13.0
 40
14.0
 40
14.0
 40
14.0
 40
15.0
 40
15.0
 40
15.0
 40
16.0
 40
16.0
 40
16.0
 40
16.0
 10
101.9841281212054
 20
-121.4558078038374
 30
0.0
 10
101.9841281212054
 20
-121.5340114713526
 30
0.0
 10
101.9669026437791
 20
-121.6356417881675
 30
0.0
 10
101.9035128868505
 20
-121.7372721049824
 30
0.0
 10
101.793614340871
 20
-121.9105604078904
 30
0.0
 10
101.662356202883
 20
-121.931919999899
 30
0.0
 10
101.5545247141947
 20
-121.9508680250678
 30
0.0
 10
101.5545247141947
 20
-121.9508680250678
 30
0.0
 10
101.5545247141947
 20
-121.7286593662692
 30
0.0
 10
101.5545247141947
 20
-121.7286593662692
 30
0.0
 10
101.7533067236936
 20
-121.6738823480538
 30
0.0
 10
101.7829345448668
 20
-121.546758324648
 30
0.0
 10
101.7829345448668
 20
-121.4537407465463
 30
0.0
 10
101.7829345448668
 20
-121.3142143793937
 30
0.0
 10
101.6837157948916
 20
-121.1619411589456
 30
0.0
 10
101.4508273400887
 20
-121.1619411589456
 30
0.0
 10
101.1948567455346
 20
-121.1619411589456
 30
0.0
 10
101.1252658167326
 20
-121.3417751432757
 30
0.0
 10
101.1252658167326
 20
-121.4623534852594
 30
0.0
 10
101.1252658167326
 20
-121.4940483637237
 30
0.0
 10
101.1252658167326
 20
-121.6356417881675
 30
0.0
 10
101.2541123878809
 20
-121.7245252516869
 30
0.0
 10
101.2541123878809
 20
-121.7245252516869
 30
0.0
 10
101.235164362712
 20
-121.9002251214347
 30
0.0
 10
101.235164362712
 20
-121.9002251214347
 30
0.0
 10
101.235164362712
 20
-121.9002251214347
 30
0.0
 10
100.3890489115347
 20
-121.7796467794509
 30
0.0
 10
100.3890489115347
 20
-121.7796467794509
 30
0.0
 10
100.3890489115347
 20
-121.7796467794509
 30
0.0
 10
100.3890489115347
 20
-121.0010551997845
 30
0.0
 10
100.3890489115347
 20
-121.0010551997845
 30
0.0
 10
100.3890489115347
 20
-121.0010551997845
 30
0.0
 10
100.5836968064513
 20
-121.0010551997845
 30
0.0
 10
100.5836968064513
 20
-121.0010551997845
 30
0.0
 10
100.5836968064513
 20
-121.0010551997845
 30
0.0
 10
100.5836968064513
 20
-121.6166937629986
 30
0.0
 10
100.5836968064513
 20
-121.6166937629986
 30
0.0
 10
100.5836968064513
 20
-121.6166937629986
 30
0.0
 10
101.00675453204
 20
-121.6821505772184
 30
0.0
 10
101.00675453204
 20
-121.6821505772184
 30
0.0
 10
100.972648086736
 20
-121.6208278775809
 30
0.0
 10
100.9326849791071
 20
-121.5384900954834
 30
0.0
 10
100.9326849791071
 20
-121.4199788107908
 30
0.0
 10
100.9326849791071
 20
-121.1660752735279
 30
0.0
 10
101.1187201353106
 20
-120.9290527041427
 30
0.0
 10
101.4318793149198
 20
-120.9290527041427
 30
0.0
 10
101.7491726091113
 20
-120.9290527041427
 30
0.0
 10
101.9841281212054
 20
-121.1533284202325
 30
0.0
 10
101.9841281212054
 20
-121.4558078038374
 30
0.0
  0
HATCH
  5
B9
330
AA
100
AcDbEntity
  8
_U+30EC_U+30A4_U+30E4_U+30FC 1
 62
     7
420
 16777215
100
AcDbHatch
 10
0.0
 20
0.0
 30
0.0
210
0.0
220
0.0
230
1.0
  2
SOLID
 70
     1
 71
     0
 91
        1
 92
        1
 93
        1
 72
     4
 94
        3
 73
     0
 74
     1
 95
       53
 96
       49
 40
0.0
 40
0.0
 40
0.0
 40
0.0
 40
1.0
 40
1.0
 40
1.0
 40
2.0
 40
2.0
 40
2.0
 40
3.0
 40
3.0
 40
3.0
 40
4.0
 40
4.0
 40
4.0
 40
5.0
 40
5.0
 40
5.0
 40
6.0
 40
6.0
 40
6.0
 40
7.0
 40
7.0
 40
7.0
 40
8.0
 40
8.0
 40
8.0
 40
9.0
 40
9.0
 40
9.0
 40
10.0
 40
10.0
 40
10.0
 40
11.0
 40
11.0
 40
11.0
 40
12.0
 40
12.0
 40
12.0
 40
13.0
 40
13.0
 40
13.0
 40
14.0
 40
14.0
 40
14.0
 40
15.0
 40
15.0
 40
15.0
 40
16.0
 40
16.0
 40
16.0
 40
16.0
 10
101.9841281212054
 20
-121.4558078038374
 10
101.9841281212054
 20
-121.5340114713526
 10
101.9669026437791
 20
-121.6356417881675
 10
101.9035128868505
 20
-121.7372721049824
 10
101.793614340871
 20
-121.9105604078904
 10
101.662356202883
 20
-121.931919999899
 10
101.5545247141947
 20
-121.9508680250678
 10
101.5545247141947
 20
-121.9508680250678
 10
101.5545247141947
 20
-121.7286593662692
 10
101.5545247141947
 20
-121.7286593662692
 10
101.7533067236936
 20
-121.6738823480538
 10
101.7829345448668
 20
-121.546758324648
 10
101.7829345448668
 20
-121.4537407465463
 10
101.7829345448668
 20
-121.3142143793937
 10
101.6837157948916
 20
-121.1619411589456
 10
101.4508273400887
 20
-121.1619411589456
 10
101.1948567455346
 20
-121.1619411589456
 10
101.1252658167326
 20
-121.3417751432757
 10
101.1252658167326
 20
-121.4623534852594
 10
101.1252658167326
 20
-121.4940483637237
 10
101.1252658167326
 20
-121.6356417881675
 10
101.2541123878809
 20
-121.7245252516869
 10
101.2541123878809
 20
-121.7245252516869
 10
101.235164362712
 20
-121.9002251214347
 10
101.235164362712
 20
-121.9002251214347
 10
101.235164362712
 20
-121.9002251214347
 10
100.3890489115347
 20
-121.7796467794509
 10
100.3890489115347
 20
-121.7796467794509
 10
100.3890489115347
 20
-121.7796467794509
 10
100.3890489115347
 20
-121.0010551997845
 10
100.3890489115347
 20
-121.0010551997845
 10
100.3890489115347
 20
-121.0010551997845
 10
100.5836968064513
 20
-121.0010551997845
 10
100.5836968064513
 20
-121.0010551997845
 10
100.5836968064513
 20
-121.0010551997845
 10
100.5836968064513
 20
-121.6166937629986
 10
100.5836968064513
 20
-121.6166937629986
 10
100.5836968064513
 20
-121.6166937629986
 10
101.00675453204
 20
-121.6821505772184
 10
101.00675453204
 20
-121.6821505772184
 10
100.972648086736
 20
-121.6208278775809
 10
100.9326849791071
 20
-121.5384900954834
 10
100.9326849791071
 20
-121.4199788107908
 10
100.9326849791071
 20
-121.1660752735279
 10
101.1187201353106
 20
-120.9290527041427
 10
101.4318793149198
 20
-120.9290527041427
 10
101.7491726091113
 20
-120.9290527041427
 10
101.9841281212054
 20
-121.1533284202325
 10
101.9841281212054
 20
-121.4558078038374
 97
        0
 97
        0
 75
     2
 76
     1
 98
        0
  0
ENDBLK
  5
AD
330
AA
100
AcDbEntity
  8
0
100
AcDbBlockEnd
  0
BLOCK
  5
DA
330
D8
100
AcDbEntity
  8
0
100
AcDbBlockBegin
  2
block 7
 70
     0
 10
0.0
 20
0.0
 30
0.0
  3
block 7
  1

  0
SPLINE
  5
DC
330
D8
100
AcDbEntity
  8
_U+30EC_U+30A4_U+30E4_U+30FC 1
370
     0
100
AcDbSpline
210
0.0
220
0.0
230
1.0
 70
    11
 71
     3
 72
    26
 73
    22
 74
     0
 42
0.0000000001
 43
0.0000000001
 12
1.0
 22
0.0
 32
0.0
 13
1.0
 23
0.0
 33
0.0
 40
0.0
 40
0.0
 40
0.0
 40
0.0
 40
1.0
 40
1.0
 40
1.0
 40
2.0
 40
2.0
 40
2.0
 40
3.0
 40
3.0
 40
3.0
 40
4.0
 40
4.0
 40
4.0
 40
5.0
 40
5.0
 40
5.0
 40
6.0
 40
6.0
 40
6.0
 40
7.0
 40
7.0
 40
7.0
 40
7.0
 10
86.34683971365635
 20
-126.1549180457182
 30
0.0
 10
86.34683971365635
 20
-126.1549180457182
 30
0.0
 10
86.34683971365635
 20
-125.0507649426957
 30
0.0
 10
86.34683971365635
 20
-125.0507649426957
 30
0.0
 10
86.34683971365635
 20
-125.0507649426957
 30
0.0
 10
86.01679956616941
 20
-125.0507649426957
 30
0.0
 10
86.01679956616941
 20
-125.0507649426957
 30
0.0
 10
86.01679956616941
 20
-125.0507649426957
 30
0.0
 10
86.01679956616941
 20
-124.9026258368299
 30
0.0
 10
86.01679956616941
 20
-124.9026258368299
 30
0.0
 10
86.3489067709475
 20
-124.8878119262433
 30
0.0
 10
86.39541555999837
 20
-124.724858909791
 30
0.0
 10
86.42504338117152
 20
-124.6104817396807
 30
0.0
 10
86.42504338117152
 20
-124.6104817396807
 30
0.0
 10
86.57111542974611
 20
-124.6104817396807
 30
0.0
 10
86.57111542974611
 20
-124.6104817396807
 30
0.0
 10
86.57111542974611
 20
-124.6104817396807
 30
0.0
 10
86.57111542974611
 20
-126.1549180457182
 30
0.0
 10
86.57111542974611
 20
-126.1549180457182
 30
0.0
 10
86.57111542974611
 20
-126.1549180457182
 30
0.0
 10
86.34683971365635
 20
-126.1549180457182
 30
0.0
 10
86.34683971365635
 20
-126.1549180457182
 30
0.0
  0
HATCH
  5
DD
330
D8
100
AcDbEntity
  8
_U+30EC_U+30A4_U+30E4_U+30FC 1
 62
     7
420
 16777215
100
AcDbHatch
 10
0.0
 20
0.0
 30
0.0
210
0.0
220
0.0
230
1.0
  2
SOLID
 70
     1
 71
     0
 91
        1
 92
        1
 93
        1
 72
     4
 94
        3
 73
     0
 74
     1
 95
       26
 96
       22
 40
0.0
 40
0.0
 40
0.0
 40
0.0
 40
1.0
 40
1.0
 40
1.0
 40
2.0
 40
2.0
 40
2.0
 40
3.0
 40
3.0
 40
3.0
 40
4.0
 40
4.0
 40
4.0
 40
5.0
 40
5.0
 40
5.0
 40
6.0
 40
6.0
 40
6.0
 40
7.0
 40
7.0
 40
7.0
 40
7.0
 10
86.34683971365635
 20
-126.1549180457182
 10
86.34683971365635
 20
-126.1549180457182
 10
86.34683971365635
 20
-125.0507649426957
 10
86.34683971365635
 20
-125.0507649426957
 10
86.34683971365635
 20
-125.0507649426957
 10
86.01679956616941
 20
-125.0507649426957
 10
86.01679956616941
 20
-125.0507649426957
 10
86.01679956616941
 20
-125.0507649426957
 10
86.01679956616941
 20
-124.9026258368299
 10
86.01679956616941
 20
-124.9026258368299
 10
86.3489067709475
 20
-124.8878119262433
 10
86.39541555999837
 20
-124.724858909791
 10
86.42504338117152
 20
-124.6104817396807
 10
86.42504338117152
 20
-124.6104817396807
 10
86.57111542974611
 20
-124.6104817396807
 10
86.57111542974611
 20
-124.6104817396807
 10
86.57111542974611
 20
-124.6104817396807
 10
86.57111542974611
 20
-126.1549180457182
 10
86.57111542974611
 20
-126.1549180457182
 10
86.57111542974611
 20
-126.1549180457182
 10
86.34683971365635
 20
-126.1549180457182
 10
86.34683971365635
 20
-126.1549180457182
 97
        0
 97
        0
 75
     2
 76
     1
 98
        0
  0
ENDBLK
  5
DB
330
D8
100
AcDbEntity
  8
0
100
AcDbBlockEnd
  0
ENDSEC
  0
SECTION
  2
ENTITIES
  0
POLYLINE
  5
41
330
1F
100
AcDbEntity
  8
_U+30EC_U+30A4_U+30E4_U+30FC 1
370
     0
100
AcDb2dPolyline
 66
     1
 10
0.0
 20
0.0
 30
0.0
  0
VERTEX
  5
42
330
41
100
AcDbEntity
  8
_U+30EC_U+30A4_U+30E4_U+30FC 1
370
     0
100
AcDbVertex
100
AcDb2dVertex
 10
78.21365553600201
 20
-125.3026096908966
 30
0.0
  0
VERTEX
  5
43
330
41
100
AcDbEntity
  8
_U+30EC_U+30A4_U+30E4_U+30FC 1
370
     0
100
AcDbVertex
100
AcDb2dVertex
 10
79.2140960346356
 20
-124.3026610800355
 30
0.0
  0
VERTEX
  5
44
330
41
100
AcDbEntity
  8
_U+30EC_U+30A4_U+30E4_U+30FC 1
370
     0
100
AcDbVertex
100
AcDb2dVertex
 10
85.21512810375874
 20
-124.3026610800355
 30
0.0
  0
VERTEX
  5
45
330
41
100
AcDbEntity
  8
_U+30EC_U+30A4_U+30E4_U+30FC 1
370
     0
100
AcDbVertex
100
AcDb2dVertex
 10
85.21512810375874
 20
-137.3029102434518
 30
0.0
  0
VERTEX
  5
46
330
41
100
AcDbEntity
  8
_U+30EC_U+30A4_U+30E4_U+30FC 1
370
     0
100
AcDbVertex
100
AcDb2dVertex
 10
87.91574997802108
 20
-137.3029102434518
 30
0.0
  0
VERTEX
  5
47
330
41
100
AcDbEntity
  8
_U+30EC_U+30A4_U+30E4_U+30FC 1
370
     0
100
AcDbVertex
100
AcDb2dVertex
 10
88.21578524942782
 20
-137.6026302433773
 30
0.0
  0
VERTEX
  5
48
330
41
100
AcDbEntity
  8
_U+30EC_U+30A4_U+30E4_U+30FC 1
370
     0
100
AcDbVertex
100
AcDb2dVertex
 10
88.5155405195582
 20
-137.3029102434518
 30
0.0
  0
VERTEX
  5
49
330
41
100
AcDbEntity
  8
_U+30EC_U+30A4_U+30E4_U+30FC 1
370
     0
100
AcDbVertex
100
AcDb2dVertex
 10
91.216124895105
 20
-137.3029102434518
 30
0.0
  0
VERTEX
  5
4A
330
41
100
AcDbEntity
  8
_U+30EC_U+30A4_U+30E4_U+30FC 1
370
     0
100
AcDbVertex
100
AcDb2dVertex
 10
91.216124895105
 20
-124.3026610800355
 30
0.0
  0
VERTEX
  5
4B
330
41
100
AcDbEntity
  8
_U+30EC_U+30A4_U+30E4_U+30FC 1
370
     0
100
AcDbVertex
100
AcDb2dVertex
 10
97.21715696422814
 20
-124.3026610800355
 30
0.0
  0
VERTEX
  5
4C
330
41
100
AcDbEntity
  8
_U+30EC_U+30A4_U+30E4_U+30FC 1
370
     0
100
AcDbVertex
100
AcDb2dVertex
 10
98.21724666093596
 20
-125.3026096908966
 30
0.0
  0
VERTEX
  5
4D
330
41
100
AcDbEntity
  8
_U+30EC_U+30A4_U+30E4_U+30FC 1
370
     0
100
AcDbVertex
100
AcDb2dVertex
 10
98.21724666093596
 20
-125.8026721907715
 30
0.0
  0
VERTEX
  5
4E
330
41
100
AcDbEntity
  8
_U+30EC_U+30A4_U+30E4_U+30FC 1
370
     0
100
AcDbVertex
100
AcDb2dVertex
 10
97.21715696422814
 20
-125.8026721907715
 30
0.0
  0
VERTEX
  5
4F
330
41
100
AcDbEntity
  8
_U+30EC_U+30A4_U+30E4_U+30FC 1
370
     0
100
AcDbVertex
100
AcDb2dVertex
 10
96.71691808810141
 20
-125.3026096908966
 30
0.0
  0
VERTEX
  5
50
330
41
100
AcDbEntity
  8
_U+30EC_U+30A4_U+30E4_U+30FC 1
370
     0
100
AcDbVertex
100
AcDb2dVertex
 10
92.21624986958969
 20
-125.3026096908966
 30
0.0
  0
VERTEX
  5
51
330
41
100
AcDbEntity
  8
_U+30EC_U+30A4_U+30E4_U+30FC 1
370
     0
100
AcDbVertex
100
AcDb2dVertex
 10
92.21624986958969
 20
-138.3026824654243
 30
0.0
  0
VERTEX
  5
52
330
41
100
AcDbEntity
  8
_U+30EC_U+30A4_U+30E4_U+30FC 1
370
     0
100
AcDbVertex
100
AcDb2dVertex
 10
84.21500312927405
 20
-138.3026824654243
 30
0.0
  0
VERTEX
  5
53
330
41
100
AcDbEntity
  8
_U+30EC_U+30A4_U+30E4_U+30FC 1
370
     0
100
AcDbVertex
100
AcDb2dVertex
 10
84.21468562928216
 20
-125.3026096908966
 30
0.0
  0
VERTEX
  5
54
330
41
100
AcDbEntity
  8
_U+30EC_U+30A4_U+30E4_U+30FC 1
370
     0
100
AcDbVertex
100
AcDb2dVertex
 10
79.71433491076233
 20
-125.3026096908966
 30
0.0
  0
VERTEX
  5
55
330
41
100
AcDbEntity
  8
_U+30EC_U+30A4_U+30E4_U+30FC 1
370
     0
100
AcDbVertex
100
AcDb2dVertex
 10
79.2140960346356
 20
-125.8026721907715
 30
0.0
  0
VERTEX
  5
56
330
41
100
AcDbEntity
  8
_U+30EC_U+30A4_U+30E4_U+30FC 1
370
     0
100
AcDbVertex
100
AcDb2dVertex
 10
78.21365553600201
 20
-125.8026721907715
 30
0.0
  0
VERTEX
  5
57
330
41
100
AcDbEntity
  8
_U+30EC_U+30A4_U+30E4_U+30FC 1
370
     0
100
AcDbVertex
100
AcDb2dVertex
 10
78.21365553600201
 20
-125.3026096908966
 30
0.0
  0
SEQEND
  5
59
330
41
100
AcDbEntity
  8
_U+30EC_U+30A4_U+30E4_U+30FC 1
370
     0
  0
HATCH
  5
58
330
1F
100
AcDbEntity
  8
_U+30EC_U+30A4_U+30E4_U+30FC 1
 62
   253
420
 11711154
100
AcDbHatch
 10
0.0
 20
0.0
 30
0.0
210
0.0
220
0.0
230
1.0
  2
SOLID
 70
     1
 71
     0
 91
        1
 92
        1
 93
       21
 72
     1
 10
78.21365553600201
 20
-125.3026096908966
 11
79.2140960346356
 21
-124.3026610800355
 72
     1
 10
79.2140960346356
 20
-124.3026610800355
 11
85.21512810375874
 21
-124.3026610800355
 72
     1
 10
85.21512810375874
 20
-124.3026610800355
 11
85.21512810375874
 21
-137.3029102434518
 72
     1
 10
85.21512810375874
 20
-137.3029102434518
 11
87.91574997802108
 21
-137.3029102434518
 72
     1
 10
87.91574997802108
 20
-137.3029102434518
 11
88.21578524942782
 21
-137.6026302433773
 72
     1
 10
88.21578524942782
 20
-137.6026302433773
 11
88.5155405195582
 21
-137.3029102434518
 72
     1
 10
88.5155405195582
 20
-137.3029102434518
 11
91.216124895105
 21
-137.3029102434518
 72
     1
 10
91.216124895105
 20
-137.3029102434518
 11
91.216124895105
 21
-124.3026610800355
 72
     1
 10
91.216124895105
 20
-124.3026610800355
 11
97.21715696422814
 21
-124.3026610800355
 72
     1
 10
97.21715696422814
 20
-124.3026610800355
 11
98.21724666093596
 21
-125.3026096908966
 72
     1
 10
98.21724666093596
 20
-125.3026096908966
 11
98.21724666093596
 21
-125.8026721907715
 72
     1
 10
98.21724666093596
 20
-125.8026721907715
 11
97.21715696422814
 21
-125.8026721907715
 72
     1
 10
97.21715696422814
 20
-125.8026721907715
 11
96.71691808810141
 21
-125.3026096908966
 72
     1
 10
96.71691808810141
 20
-125.3026096908966
 11
92.21624986958969
 21
-125.3026096908966
 72
     1
 10
92.21624986958969
 20
-125.3026096908966
 11
92.21624986958969
 21
-138.3026824654243
 72
     1
 10
92.21624986958969
 20
-138.3026824654243
 11
84.21500312927405
 21
-138.3026824654243
 72
     1
 10
84.21500312927405
 20
-138.3026824654243
 11
84.21468562928216
 21
-125.3026096908966
 72
     1
 10
84.21468562928216
 20
-125.3026096908966
 11
79.71433491076233
 21
-125.3026096908966
 72
     1
 10
79.71433491076233
 20
-125.3026096908966
 11
79.2140960346356
 21
-125.8026721907715
 72
     1
 10
79.2140960346356
 20
-125.8026721907715
 11
78.21365553600201
 21
-125.8026721907715
 72
     1
 10
78.21365553600201
 20
-125.8026721907715
 11
78.21365553600201
 21
-125.3026096908966
 97
        0
 75
     2
 76
     1
 98
        0
  0
SPLINE
  5
5A
330
1F
100
AcDbEntity
  8
_U+30EC_U+30A4_U+30E4_U+30FC 1
 62
     7
420
 16777215
370
     9
100
AcDbSpline
210
0.0
220
0.0
230
1.0
 70
    11
 71
     3
 72
    17
 73
    13
 74
     0
 42
0.0000000001
 43
0.0000000001
 12
1.0
 22
0.0
 32
0.0
 13
1.0
 23
0.0
 33
0.0
 40
0.0
 40
0.0
 40
0.0
 40
0.0
 40
1.0
 40
1.0
 40
1.0
 40
2.0
 40
2.0
 40
2.0
 40
3.0
 40
3.0
 40
3.0
 40
4.0
 40
4.0
 40
4.0
 40
4.0
 10
98.31715332505378
 20
-121.4577199696356
 30
0.0
 10
98.31715332505378
 20
-121.4025808029828
 30
0.0
 10
98.2723858261959
 20
-121.3577780252161
 30
0.0
 10
98.21724666093596
 20
-121.3577780252161
 30
0.0
 10
98.16214277345289
 20
-121.3577780252161
 30
0.0
 10
98.11733999681812
 20
-121.4025808029828
 30
0.0
 10
98.11733999681812
 20
-121.4577199696356
 30
0.0
 10
98.11733999681812
 20
-121.5128238585108
 30
0.0
 10
98.16214277345289
 20
-121.5576266362772
 30
0.0
 10
98.21724666093596
 20
-121.5576266362772
 30
0.0
 10
98.2723858261959
 20
-121.5576266362772
 30
0.0
 10
98.31715332505378
 20
-121.5128238585108
 30
0.0
 10
98.31715332505378
 20
-121.4577199696356
 30
0.0
  0
SPLINE
  5
5B
330
1F
100
AcDbEntity
  8
_U+30EC_U+30A4_U+30E4_U+30FC 1
 62
     7
420
 16777215
370
     9
100
AcDbSpline
210
0.0
220
0.0
230
1.0
 70
    11
 71
     3
 72
    17
 73
    13
 74
     0
 42
0.0000000001
 43
0.0000000001
 12
1.0
 22
0.0
 32
0.0
 13
1.0
 23
0.0
 33
0.0
 40
0.0
 40
0.0
 40
0.0
 40
0.0
 40
1.0
 40
1.0
 40
1.0
 40
2.0
 40
2.0
 40
2.0
 40
3.0
 40
3.0
 40
3.0
 40
4.0
 40
4.0
 40
4.0
 40
4.0
 10
102.4891737741722
 20
-138.3712271876291
 30
0.0
 10
102.4891737741722
 20
-138.3154177431987
 30
0.0
 10
102.4444062753143
 20
-138.2713205209875
 30
0.0
 10
102.3892671100544
 20
-138.2713205209875
 30
0.0
 10
102.3341632225713
 20
-138.2713205209875
 30
0.0
 10
102.2893604459366
 20
-138.3154177431987
 30
0.0
 10
102.2893604459366
 20
-138.3712271876291
 30
0.0
 10
102.2893604459366
 20
-138.4263310765047
 30
0.0
 10
102.3341632225713
 20
-138.4711338542714
 30
0.0
 10
102.3892671100544
 20
-138.4711338542714
 30
0.0
 10
102.4444062753143
 20
-138.4711338542714
 30
0.0
 10
102.4891737741722
 20
-138.4263310765047
 30
0.0
 10
102.4891737741722
 20
-138.3712271876291
 30
0.0
  0
SPLINE
  5
5C
330
1F
100
AcDbEntity
  8
_U+30EC_U+30A4_U+30E4_U+30FC 1
 62
     7
420
 16777215
370
     9
100
AcDbSpline
210
0.0
220
0.0
230
1.0
 70
    11
 71
     3
 72
    17
 73
    13
 74
     0
 42
0.0000000001
 43
0.0000000001
 12
1.0
 22
0.0
 32
0.0
 13
1.0
 23
0.0
 33
0.0
 40
0.0
 40
0.0
 40
0.0
 40
0.0
 40
1.0
 40
1.0
 40
1.0
 40
2.0
 40
2.0
 40
2.0
 40
3.0
 40
3.0
 40
3.0
 40
4.0
 40
4.0
 40
4.0
 40
4.0
 10
102.4891737741722
 20
-125.8712169129766
 30
0.0
 10
102.4891737741722
 20
-125.8154074685462
 30
0.0
 10
102.4444062753143
 20
-125.771310246335
 30
0.0
 10
102.3892671100544
 20
-125.771310246335
 30
0.0
 10
102.3341632225713
 20
-125.771310246335
 30
0.0
 10
102.2893604459366
 20
-125.8154074685462
 30
0.0
 10
102.2893604459366
 20
-125.8712169129766
 30
0.0
 10
102.2893604459366
 20
-125.9263208018518
 30
0.0
 10
102.3341632225713
 20
-125.9711235796182
 30
0.0
 10
102.3892671100544
 20
-125.9711235796182
 30
0.0
 10
102.4444062753143
 20
-125.9711235796182
 30
0.0
 10
102.4891737741722
 20
-125.9263208018518
 30
0.0
 10
102.4891737741722
 20
-125.8712169129766
 30
0.0
  0
SPLINE
  5
5D
330
1F
100
AcDbEntity
  8
_U+30EC_U+30A4_U+30E4_U+30FC 1
 62
     7
420
 16777215
370
     9
100
AcDbSpline
210
0.0
220
0.0
230
1.0
 70
    11
 71
     3
 72
    17
 73
    13
 74
     0
 42
0.0000000001
 43
0.0000000001
 12
1.0
 22
0.0
 32
0.0
 13
1.0
 23
0.0
 33
0.0
 40
0.0
 40
0.0
 40
0.0
 40
0.0
 40
1.0
 40
1.0
 40
1.0
 40
2.0
 40
2.0
 40
2.0
 40
3.0
 40
3.0
 40
3.0
 40
4.0
 40
4.0
 40
4.0
 40
4.0
 10
78.31356022427686
 20
-121.4577199696356
 30
0.0
 10
78.31356022427686
 20
-121.4025808029828
 30
0.0
 10
78.26879272541896
 20
-121.3577780252161
 30
0.0
 10
78.21365553600201
 20
-121.3577780252161
 30
0.0
 10
78.15854967267595
 20
-121.3577780252161
 30
0.0
 10
78.11374689604118
 20
-121.4025808029828
 30
0.0
 10
78.11374689604118
 20
-121.4577199696356
 30
0.0
 10
78.11374689604118
 20
-121.5128238585108
 30
0.0
 10
78.15854967267595
 20
-121.5576266362772
 30
0.0
 10
78.21365553600201
 20
-121.5576266362772
 30
0.0
 10
78.26879272541896
 20
-121.5576266362772
 30
0.0
 10
78.31356022427686
 20
-121.5128238585108
 30
0.0
 10
78.31356022427686
 20
-121.4577199696356
 30
0.0
  0
SPLINE
  5
5E
330
1F
100
AcDbEntity
  8
_U+30EC_U+30A4_U+30E4_U+30FC 1
 62
     7
420
 16777215
370
     9
100
AcDbSpline
210
0.0
220
0.0
230
1.0
 70
    11
 71
     3
 72
    17
 73
    13
 74
     0
 42
0.0000000001
 43
0.0000000001
 12
1.0
 22
0.0
 32
0.0
 13
1.0
 23
0.0
 33
0.0
 40
0.0
 40
0.0
 40
0.0
 40
0.0
 40
1.0
 40
1.0
 40
1.0
 40
2.0
 40
2.0
 40
2.0
 40
3.0
 40
3.0
 40
3.0
 40
4.0
 40
4.0
 40
4.0
 40
4.0
 10
102.4891737741722
 20
-124.4029205244549
 30
0.0
 10
102.4891737741722
 20
-124.3474638578019
 30
0.0
 10
102.4444062753143
 20
-124.3026610800355
 30
0.0
 10
102.3892671100544
 20
-124.3026610800355
 30
0.0
 10
102.3341632225713
 20
-124.3026610800355
 30
0.0
 10
102.2893604459366
 20
-124.3474638578019
 30
0.0
 10
102.2893604459366
 20
-124.4029205244549
 30
0.0
 10
102.2893604459366
 20
-124.4580244133299
 30
0.0
 10
102.3341632225713
 20
-124.5028271910966
 30
0.0
 10
102.3892671100544
 20
-124.5028271910966
 30
0.0
 10
102.4444062753143
 20
-124.5028271910966
 30
0.0
 10
102.4891737741722
 20
-124.4580244133299
 30
0.0
 10
102.4891737741722
 20
-124.4029205244549
 30
0.0
  0
POLYLINE
  5
5F
330
1F
100
AcDbEntity
  8
_U+30EC_U+30A4_U+30E4_U+30FC 1
 62
     7
420
 16777215
370
     9
100
AcDb2dPolyline
 66
     1
 10
0.0
 20
0.0
 30
0.0
  0
VERTEX
  5
60
330
5F
100
AcDbEntity
  8
_U+30EC_U+30A4_U+30E4_U+30FC 1
 62
     7
420
 16777215
370
     9
100
AcDbVertex
100
AcDb2dVertex
 10
78.21365553600201
 20
-121.4577199696356
 30
0.0
  0
VERTEX
  5
61
330
5F
100
AcDbEntity
  8
_U+30EC_U+30A4_U+30E4_U+30FC 1
 62
     7
420
 16777215
370
     9
100
AcDbVertex
100
AcDb2dVertex
 10
98.21724666093596
 20
-121.4577199696356
 30
0.0
  0
SEQEND
  5
62
330
5F
100
AcDbEntity
  8
_U+30EC_U+30A4_U+30E4_U+30FC 1
 62
     7
420
 16777215
370
     9
  0
POLYLINE
  5
63
330
1F
100
AcDbEntity
  8
_U+30EC_U+30A4_U+30E4_U+30FC 1
 62
     7
420
 16777215
370
     9
100
AcDb2dPolyline
 66
     1
 10
0.0
 20
0.0
 30
0.0
  0
VERTEX
  5
64
330
63
100
AcDbEntity
  8
_U+30EC_U+30A4_U+30E4_U+30FC 1
 62
     7
420
 16777215
370
     9
100
AcDbVertex
100
AcDb2dVertex
 10
78.21365553600201
 20
-119.197719692423
 30
0.0
  0
VERTEX
  5
65
330
63
100
AcDbEntity
  8
_U+30EC_U+30A4_U+30E4_U+30FC 1
 62
     7
420
 16777215
370
     9
100
AcDbVertex
100
AcDb2dVertex
 10
78.21365553600201
 20
-122.45745691383
 30
0.0
  0
SEQEND
  5
66
330
63
100
AcDbEntity
  8
_U+30EC_U+30A4_U+30E4_U+30FC 1
 62
     7
420
 16777215
370
     9
  0
SPLINE
  5
67
330
1F
100
AcDbEntity
  8
_U+30EC_U+30A4_U+30E4_U+30FC 1
 62
     7
420
 16777215
370
     9
100
AcDbSpline
210
0.0
220
0.0
230
1.0
 70
    11
 71
     3
 72
    17
 73
    13
 74
     0
 42
0.0000000001
 43
0.0000000001
 12
1.0
 22
0.0
 32
0.0
 13
1.0
 23
0.0
 33
0.0
 40
0.0
 40
0.0
 40
0.0
 40
0.0
 40
1.0
 40
1.0
 40
1.0
 40
2.0
 40
2.0
 40
2.0
 40
3.0
 40
3.0
 40
3.0
 40
4.0
 40
4.0
 40
4.0
 40
4.0
 10
85.3146819901078
 20
-121.4577199696356
 30
0.0
 10
85.3146819901078
 20
-121.4025808029828
 30
0.0
 10
85.2699166453492
 20
-121.3577780252161
 30
0.0
 10
85.21477532598996
 20
-121.3577780252161
 30
0.0
 10
85.15967143850689
 20
-121.3577780252161
 30
0.0
 10
85.11486866187212
 20
-121.4025808029828
 30
0.0
 10
85.11486866187212
 20
-121.4577199696356
 30
0.0
 10
85.11486866187212
 20
-121.5128238585108
 30
0.0
 10
85.15967143850689
 20
-121.5576266362772
 30
0.0
 10
85.21477532598996
 20
-121.5576266362772
 30
0.0
 10
85.2699166453492
 20
-121.5576266362772
 30
0.0
 10
85.3146819901078
 20
-121.5128238585108
 30
0.0
 10
85.3146819901078
 20
-121.4577199696356
 30
0.0
  0
POLYLINE
  5
68
330
1F
100
AcDbEntity
  8
_U+30EC_U+30A4_U+30E4_U+30FC 1
 62
     7
420
 16777215
370
     9
100
AcDb2dPolyline
 66
     1
 10
0.0
 20
0.0
 30
0.0
  0
VERTEX
  5
69
330
68
100
AcDbEntity
  8
_U+30EC_U+30A4_U+30E4_U+30FC 1
 62
     7
420
 16777215
370
     9
100
AcDbVertex
100
AcDb2dVertex
 10
85.21477532598996
 20
-119.197719692423
 30
0.0
  0
VERTEX
  5
6A
330
68
100
AcDbEntity
  8
_U+30EC_U+30A4_U+30E4_U+30FC 1
 62
     7
420
 16777215
370
     9
100
AcDbVertex
100
AcDb2dVertex
 10
85.21477532598996
 20
-122.45745691383
 30
0.0
  0
SEQEND
  5
6B
330
68
100
AcDbEntity
  8
_U+30EC_U+30A4_U+30E4_U+30FC 1
 62
     7
420
 16777215
370
     9
  0
SPLINE
  5
6C
330
1F
100
AcDbEntity
  8
_U+30EC_U+30A4_U+30E4_U+30FC 1
 62
     7
420
 16777215
370
     9
100
AcDbSpline
210
0.0
220
0.0
230
1.0
 70
    11
 71
     3
 72
    17
 73
    13
 74
     0
 42
0.0000000001
 43
0.0000000001
 12
1.0
 22
0.0
 32
0.0
 13
1.0
 23
0.0
 33
0.0
 40
0.0
 40
0.0
 40
0.0
 40
0.0
 40
1.0
 40
1.0
 40
1.0
 40
2.0
 40
2.0
 40
2.0
 40
3.0
 40
3.0
 40
3.0
 40
4.0
 40
4.0
 40
4.0
 40
4.0
 10
91.31603155922284
 20
-121.4577199696356
 30
0.0
 10
91.31603155922284
 20
-121.4025808029828
 30
0.0
 10
91.27126406036496
 20
-121.3577780252161
 30
0.0
 10
91.216124895105
 20
-121.3577780252161
 30
0.0
 10
91.16102100762193
 20
-121.3577780252161
 30
0.0
 10
91.11621823098717
 20
-121.4025808029828
 30
0.0
 10
91.11621823098717
 20
-121.4577199696356
 30
0.0
 10
91.11621823098717
 20
-121.5128238585108
 30
0.0
 10
91.16102100762193
 20
-121.5576266362772
 30
0.0
 10
91.216124895105
 20
-121.5576266362772
 30
0.0
 10
91.27126406036496
 20
-121.5576266362772
 30
0.0
 10
91.31603155922284
 20
-121.5128238585108
 30
0.0
 10
91.31603155922284
 20
-121.4577199696356
 30
0.0
  0
POLYLINE
  5
6D
330
1F
100
AcDbEntity
  8
_U+30EC_U+30A4_U+30E4_U+30FC 1
 62
     7
420
 16777215
370
     9
100
AcDb2dPolyline
 66
     1
 10
0.0
 20
0.0
 30
0.0
  0
VERTEX
  5
6E
330
6D
100
AcDbEntity
  8
_U+30EC_U+30A4_U+30E4_U+30FC 1
 62
     7
420
 16777215
370
     9
100
AcDbVertex
100
AcDb2dVertex
 10
91.216124895105
 20
-119.197719692423
 30
0.0
  0
VERTEX
  5
6F
330
6D
100
AcDbEntity
  8
_U+30EC_U+30A4_U+30E4_U+30FC 1
 62
     7
420
 16777215
370
     9
100
AcDbVertex
100
AcDb2dVertex
 10
91.216124895105
 20
-122.45745691383
 30
0.0
  0
SEQEND
  5
70
330
6D
100
AcDbEntity
  8
_U+30EC_U+30A4_U+30E4_U+30FC 1
 62
     7
420
 16777215
370
     9
  0
POLYLINE
  5
71
330
1F
100
AcDbEntity
  8
_U+30EC_U+30A4_U+30E4_U+30FC 1
 62
     7
420
 16777215
370
     9
100
AcDb2dPolyline
 66
     1
 10
0.0
 20
0.0
 30
0.0
  0
VERTEX
  5
72
330
71
100
AcDbEntity
  8
_U+30EC_U+30A4_U+30E4_U+30FC 1
 62
     7
420
 16777215
370
     9
100
AcDbVertex
100
AcDb2dVertex
 10
98.21724666093596
 20
-119.4974396923479
 30
0.0
  0
VERTEX
  5
73
330
71
100
AcDbEntity
  8
_U+30EC_U+30A4_U+30E4_U+30FC 1
 62
     7
420
 16777215
370
     9
100
AcDbVertex
100
AcDb2dVertex
 10
98.21724666093596
 20
-122.45745691383
 30
0.0
  0
SEQEND
  5
74
330
71
100
AcDbEntity
  8
_U+30EC_U+30A4_U+30E4_U+30FC 1
 62
     7
420
 16777215
370
     9
  0
INSERT
  5
76
330
1F
100
AcDbEntity
  8
_U+30EC_U+30A4_U+30E4_U+30FC 1
100
AcDbBlockReference
  2
block 2
 10
0.0
 20
0.0
 30
0.0
  0
INSERT
  5
7D
330
1F
100
AcDbEntity
  8
_U+30EC_U+30A4_U+30E4_U+30FC 1
100
AcDbBlockReference
  2
block 3
 10
0.0
 20
0.0
 30
0.0
  0
INSERT
  5
83
330
1F
100
AcDbEntity
  8
_U+30EC_U+30A4_U+30E4_U+30FC 1
100
AcDbBlockReference
  2
block 4
 10
0.0
 20
0.0
 30
0.0
  0
POLYLINE
  5
88
330
1F
100
AcDbEntity
  8
_U+30EC_U+30A4_U+30E4_U+30FC 1
 62
     7
420
 16777215
370
     9
100
AcDb2dPolyline
 66
     1
 10
0.0
 20
0.0
 30
0.0
  0
VERTEX
  5
89
330
88
100
AcDbEntity
  8
_U+30EC_U+30A4_U+30E4_U+30FC 1
 62
     7
420
 16777215
370
     9
100
AcDbVertex
100
AcDb2dVertex
 10
102.3892671100544
 20
-120.8277646920152
 30
0.0
  0
VERTEX
  5
8A
330
88
100
AcDbEntity
  8
_U+30EC_U+30A4_U+30E4_U+30FC 1
 62
     7
420
 16777215
370
     9
100
AcDbVertex
100
AcDb2dVertex
 10
102.3892671100544
 20
-138.3712271876291
 30
0.0
  0
SEQEND
  5
8B
330
88
100
AcDbEntity
  8
_U+30EC_U+30A4_U+30E4_U+30FC 1
 62
     7
420
 16777215
370
     9
  0
POLYLINE
  5
8C
330
1F
100
AcDbEntity
  8
_U+30EC_U+30A4_U+30E4_U+30FC 1
 62
     7
420
 16777215
370
     9
100
AcDb2dPolyline
 66
     1
 10
0.0
 20
0.0
 30
0.0
  0
VERTEX
  5
8D
330
8C
100
AcDbEntity
  8
_U+30EC_U+30A4_U+30E4_U+30FC 1
 62
     7
420
 16777215
370
     9
100
AcDbVertex
100
AcDb2dVertex
 10
103.3566543075965
 20
-124.3712058022407
 30
0.0
  0
VERTEX
  5
8E
330
8C
100
AcDbEntity
  8
_U+30EC_U+30A4_U+30E4_U+30FC 1
 62
     7
420
 16777215
370
     9
100
AcDbVertex
100
AcDb2dVertex
 10
100.3969546608825
 20
-124.3712058022407
 30
0.0
  0
SEQEND
  5
8F
330
8C
100
AcDbEntity
  8
_U+30EC_U+30A4_U+30E4_U+30FC 1
 62
     7
420
 16777215
370
     9
  0
POLYLINE
  5
90
330
1F
100
AcDbEntity
  8
_U+30EC_U+30A4_U+30E4_U+30FC 1
 62
     7
420
 16777215
370
     9
100
AcDb2dPolyline
 66
     1
 10
0.0
 20
0.0
 30
0.0
  0
VERTEX
  5
91
330
90
100
AcDbEntity
  8
_U+30EC_U+30A4_U+30E4_U+30FC 1
 62
     7
420
 16777215
370
     9
100
AcDbVertex
100
AcDb2dVertex
 10
103.3566543075965
 20
-138.3712271876291
 30
0.0
  0
VERTEX
  5
92
330
90
100
AcDbEntity
  8
_U+30EC_U+30A4_U+30E4_U+30FC 1
 62
     7
420
 16777215
370
     9
100
AcDbVertex
100
AcDb2dVertex
 10
97.21645140869059
 20
-138.3712271876291
 30
0.0
  0
SEQEND
  5
93
330
90
100
AcDbEntity
  8
_U+30EC_U+30A4_U+30E4_U+30FC 1
 62
     7
420
 16777215
370
     9
  0
POLYLINE
  5
94
330
1F
100
AcDbEntity
  8
_U+30EC_U+30A4_U+30E4_U+30FC 1
 62
     7
420
 16777215
370
     9
100
AcDb2dPolyline
 66
     1
 10
0.0
 20
0.0
 30
0.0
  0
VERTEX
  5
95
330
94
100
AcDbEntity
  8
_U+30EC_U+30A4_U+30E4_U+30FC 1
 62
     7
420
 16777215
370
     9
100
AcDbVertex
100
AcDb2dVertex
 10
103.3566543075965
 20
-125.8712169129766
 30
0.0
  0
VERTEX
  5
96
330
94
100
AcDbEntity
  8
_U+30EC_U+30A4_U+30E4_U+30FC 1
 62
     7
420
 16777215
370
     9
100
AcDbVertex
100
AcDb2dVertex
 10
100.3969546608825
 20
-125.8712169129766
 30
0.0
  0
SEQEND
  5
97
330
94
100
AcDbEntity
  8
_U+30EC_U+30A4_U+30E4_U+30FC 1
 62
     7
420
 16777215
370
     9
  0
INSERT
  5
99
330
1F
100
AcDbEntity
  8
_U+30EC_U+30A4_U+30E4_U+30FC 1
100
AcDbBlockReference
  2
block 5
 10
0.0
 20
0.0
 30
0.0
  0
INSERT
  5
AB
330
1F
100
AcDbEntity
  8
_U+30EC_U+30A4_U+30E4_U+30FC 1
100
AcDbBlockReference
  2
block 6
 10
0.0
 20
0.0
 30
0.0
  0
POLYLINE
  5
BA
330
1F
100
AcDbEntity
  8
_U+30EC_U+30A4_U+30E4_U+30FC 1
 62
     7
420
 16777215
370
    25
100
AcDb2dPolyline
 66
     1
 10
0.0
 20
0.0
 30
0.0
  0
VERTEX
  5
BB
330
BA
100
AcDbEntity
  8
_U+30EC_U+30A4_U+30E4_U+30FC 1
 62
     7
420
 16777215
370
    25
100
AcDbVertex
100
AcDb2dVertex
 10
78.21365553600201
 20
-125.3026096908966
 30
0.0
  0
VERTEX
  5
BC
330
BA
100
AcDbEntity
  8
_U+30EC_U+30A4_U+30E4_U+30FC 1
 62
     7
420
 16777215
370
    25
100
AcDbVertex
100
AcDb2dVertex
 10
79.2140960346356
 20
-124.3026610800355
 30
0.0
  0
VERTEX
  5
BD
330
BA
100
AcDbEntity
  8
_U+30EC_U+30A4_U+30E4_U+30FC 1
 62
     7
420
 16777215
370
    25
100
AcDbVertex
100
AcDb2dVertex
 10
85.21512810375874
 20
-124.3026610800355
 30
0.0
  0
VERTEX
  5
BE
330
BA
100
AcDbEntity
  8
_U+30EC_U+30A4_U+30E4_U+30FC 1
 62
     7
420
 16777215
370
    25
100
AcDbVertex
100
AcDb2dVertex
 10
85.21512810375874
 20
-137.3029102434518
 30
0.0
  0
VERTEX
  5
BF
330
BA
100
AcDbEntity
  8
_U+30EC_U+30A4_U+30E4_U+30FC 1
 62
     7
420
 16777215
370
    25
100
AcDbVertex
100
AcDb2dVertex
 10
87.91574997802108
 20
-137.3029102434518
 30
0.0
  0
VERTEX
  5
C0
330
BA
100
AcDbEntity
  8
_U+30EC_U+30A4_U+30E4_U+30FC 1
 62
     7
420
 16777215
370
    25
100
AcDbVertex
100
AcDb2dVertex
 10
88.21578524942782
 20
-137.6026302433773
 30
0.0
  0
VERTEX
  5
C1
330
BA
100
AcDbEntity
  8
_U+30EC_U+30A4_U+30E4_U+30FC 1
 62
     7
420
 16777215
370
    25
100
AcDbVertex
100
AcDb2dVertex
 10
88.5155405195582
 20
-137.3029102434518
 30
0.0
  0
VERTEX
  5
C2
330
BA
100
AcDbEntity
  8
_U+30EC_U+30A4_U+30E4_U+30FC 1
 62
     7
420
 16777215
370
    25
100
AcDbVertex
100
AcDb2dVertex
 10
91.216124895105
 20
-137.3029102434518
 30
0.0
  0
VERTEX
  5
C3
330
BA
100
AcDbEntity
  8
_U+30EC_U+30A4_U+30E4_U+30FC 1
 62
     7
420
 16777215
370
    25
100
AcDbVertex
100
AcDb2dVertex
 10
91.216124895105
 20
-124.3026610800355
 30
0.0
  0
VERTEX
  5
C4
330
BA
100
AcDbEntity
  8
_U+30EC_U+30A4_U+30E4_U+30FC 1
 62
     7
420
 16777215
370
    25
100
AcDbVertex
100
AcDb2dVertex
 10
97.21715696422814
 20
-124.3026610800355
 30
0.0
  0
VERTEX
  5
C5
330
BA
100
AcDbEntity
  8
_U+30EC_U+30A4_U+30E4_U+30FC 1
 62
     7
420
 16777215
370
    25
100
AcDbVertex
100
AcDb2dVertex
 10
98.21724666093596
 20
-125.3026096908966
 30
0.0
  0
VERTEX
  5
C6
330
BA
100
AcDbEntity
  8
_U+30EC_U+30A4_U+30E4_U+30FC 1
 62
     7
420
 16777215
370
    25
100
AcDbVertex
100
AcDb2dVertex
 10
98.21724666093596
 20
-125.8026721907715
 30
0.0
  0
VERTEX
  5
C7
330
BA
100
AcDbEntity
  8
_U+30EC_U+30A4_U+30E4_U+30FC 1
 62
     7
420
 16777215
370
    25
100
AcDbVertex
100
AcDb2dVertex
 10
97.21715696422814
 20
-125.8026721907715
 30
0.0
  0
VERTEX
  5
C8
330
BA
100
AcDbEntity
  8
_U+30EC_U+30A4_U+30E4_U+30FC 1
 62
     7
420
 16777215
370
    25
100
AcDbVertex
100
AcDb2dVertex
 10
96.71691808810141
 20
-125.3026096908966
 30
0.0
  0
VERTEX
  5
C9
330
BA
100
AcDbEntity
  8
_U+30EC_U+30A4_U+30E4_U+30FC 1
 62
     7
420
 16777215
370
    25
100
AcDbVertex
100
AcDb2dVertex
 10
92.21624986958969
 20
-125.3026096908966
 30
0.0
  0
VERTEX
  5
CA
330
BA
100
AcDbEntity
  8
_U+30EC_U+30A4_U+30E4_U+30FC 1
 62
     7
420
 16777215
370
    25
100
AcDbVertex
100
AcDb2dVertex
 10
92.21624986958969
 20
-138.3026824654243
 30
0.0
  0
VERTEX
  5
CB
330
BA
100
AcDbEntity
  8
_U+30EC_U+30A4_U+30E4_U+30FC 1
 62
     7
420
 16777215
370
    25
100
AcDbVertex
100
AcDb2dVertex
 10
84.21500312927405
 20
-138.3026824654243
 30
0.0
  0
VERTEX
  5
CC
330
BA
100
AcDbEntity
  8
_U+30EC_U+30A4_U+30E4_U+30FC 1
 62
     7
420
 16777215
370
    25
100
AcDbVertex
100
AcDb2dVertex
 10
84.21468562928216
 20
-125.3026096908966
 30
0.0
  0
VERTEX
  5
CD
330
BA
100
AcDbEntity
  8
_U+30EC_U+30A4_U+30E4_U+30FC 1
 62
     7
420
 16777215
370
    25
100
AcDbVertex
100
AcDb2dVertex
 10
79.71433491076233
 20
-125.3026096908966
 30
0.0
  0
VERTEX
  5
CE
330
BA
100
AcDbEntity
  8
_U+30EC_U+30A4_U+30E4_U+30FC 1
 62
     7
420
 16777215
370
    25
100
AcDbVertex
100
AcDb2dVertex
 10
79.2140960346356
 20
-125.8026721907715
 30
0.0
  0
VERTEX
  5
CF
330
BA
100
AcDbEntity
  8
_U+30EC_U+30A4_U+30E4_U+30FC 1
 62
     7
420
 16777215
370
    25
100
AcDbVertex
100
AcDb2dVertex
 10
78.21365553600201
 20
-125.8026721907715
 30
0.0
  0
VERTEX
  5
D0
330
BA
100
AcDbEntity
  8
_U+30EC_U+30A4_U+30E4_U+30FC 1
 62
     7
420
 16777215
370
    25
100
AcDbVertex
100
AcDb2dVertex
 10
78.21365553600201
 20
-125.3026096908966
 30
0.0
  0
SEQEND
  5
D1
330
BA
100
AcDbEntity
  8
_U+30EC_U+30A4_U+30E4_U+30FC 1
 62
     7
420
 16777215
370
    25
  0
POLYLINE
  5
D2
330
1F
100
AcDbEntity
  8
_U+30EC_U+30A4_U+30E4_U+30FC 1
 62
     7
420
 16777215
370
     9
100
AcDb2dPolyline
 66
     1
 10
0.0
 20
0.0
 30
0.0
  0
VERTEX
  5
D3
330
D2
100
AcDbEntity
  8
_U+30EC_U+30A4_U+30E4_U+30FC 1
 62
     7
420
 16777215
370
     9
100
AcDbVertex
100
AcDb2dVertex
 10
86.80573250762349
 20
-126.5075221905954
 30
0.0
  0
VERTEX
  5
D4
330
D2
100
AcDbEntity
  8
_U+30EC_U+30A4_U+30E4_U+30FC 1
 62
     7
420
 16777215
370
     9
100
AcDbVertex
100
AcDb2dVertex
 10
83.40439037217674
 20
-126.5075221905954
 30
0.0
  0
SEQEND
  5
D5
330
D2
100
AcDbEntity
  8
_U+30EC_U+30A4_U+30E4_U+30FC 1
 62
     7
420
 16777215
370
     9
  0
SPLINE
  5
D6
330
1F
100
AcDbEntity
  8
_U+30EC_U+30A4_U+30E4_U+30FC 1
 62
     7
420
 16777215
370
     9
100
AcDbSpline
210
0.0
220
0.0
230
1.0
 70
    11
 71
     3
 72
    17
 73
    13
 74
     0
 42
0.0000000001
 43
0.0000000001
 12
1.0
 22
0.0
 32
0.0
 13
1.0
 23
0.0
 33
0.0
 40
0.0
 40
0.0
 40
0.0
 40
0.0
 40
1.0
 40
1.0
 40
1.0
 40
2.0
 40
2.0
 40
2.0
 40
3.0
 40
3.0
 40
3.0
 40
4.0
 40
4.0
 40
4.0
 40
4.0
 10
84.31490979339189
 20
-126.5075221905954
 30
0.0
 10
84.31490979339189
 20
-126.451712746165
 30
0.0
 10
84.27014442337699
 20
-126.4076155239538
 30
0.0
 10
84.21500312927405
 20
-126.4076155239538
 30
0.0
 10
84.1595464640222
 20
-126.4076155239538
 30
0.0
 10
84.11474368738745
 20
-126.451712746165
 30
0.0
 10
84.11474368738745
 20
-126.5075221905954
 30
0.0
 10
84.11474368738745
 20
-126.5626613572482
 30
0.0
 10
84.1595464640222
 20
-126.6074288572371
 30
0.0
 10
84.21500312927405
 20
-126.6074288572371
 30
0.0
 10
84.27014442337699
 20
-126.6074288572371
 30
0.0
 10
84.31490979339189
 20
-126.5626613572482
 30
0.0
 10
84.31490979339189
 20
-126.5075221905954
 30
0.0
  0
SPLINE
  5
D7
330
1F
100
AcDbEntity
  8
_U+30EC_U+30A4_U+30E4_U+30FC 1
 62
     7
420
 16777215
370
     9
100
AcDbSpline
210
0.0
220
0.0
230
1.0
 70
    11
 71
     3
 72
    17
 73
    13
 74
     0
 42
0.0000000001
 43
0.0000000001
 12
1.0
 22
0.0
 32
0.0
 13
1.0
 23
0.0
 33
0.0
 40
0.0
 40
0.0
 40
0.0
 40
0.0
 40
1.0
 40
1.0
 40
1.0
 40
2.0
 40
2.0
 40
2.0
 40
3.0
 40
3.0
 40
3.0
 40
4.0
 40
4.0
 40
4.0
 40
4.0
 10
85.31503476787658
 20
-126.5075221905954
 30
0.0
 10
85.31503476787658
 20
-126.451712746165
 30
0.0
 10
85.27023199124181
 20
-126.4076155239538
 30
0.0
 10
85.21512810375874
 20
-126.4076155239538
 30
0.0
 10
85.15967143850689
 20
-126.4076155239538
 30
0.0
 10
85.11486866187212
 20
-126.451712746165
 30
0.0
 10
85.11486866187212
 20
-126.5075221905954
 30
0.0
 10
85.11486866187212
 20
-126.5626613572482
 30
0.0
 10
85.15967143850689
 20
-126.6074288572371
 30
0.0
 10
85.21512810375874
 20
-126.6074288572371
 30
0.0
 10
85.27023199124181
 20
-126.6074288572371
 30
0.0
 10
85.31503476787658
 20
-126.5626613572482
 30
0.0
 10
85.31503476787658
 20
-126.5075221905954
 30
0.0
  0
INSERT
  5
D9
330
1F
100
AcDbEntity
  8
_U+30EC_U+30A4_U+30E4_U+30FC 1
100
AcDbBlockReference
  2
block 7
 10
0.0
 20
0.0
 30
0.0
  0
ENDSEC
  0
SECTION
  2
OBJECTS
  0
DICTIONARY
  5
C
330
0
100
AcDbDictionary
281
     1
  3
ACAD_GROUP
350
D
  3
ACAD_LAYOUT
350
1A
  3
ACAD_MATERIAL
350
3B
  3
ACAD_MLEADERSTYLE
350
DF
  3
ACAD_MLINESTYLE
350
17
  3
ACAD_PLOTSETTINGS
350
19
  3
ACAD_PLOTSTYLENAME
350
E
  3
ACAD_TABLESTYLE
350
DE
  3
ACAD_VISUALSTYLE
350
2A
  0
SUN
  5
3F
330
29
100
AcDbSun
 90
        1
290
     0
 63
     7
421
 16777215
 40
1.0
291
     1
 91
  2455826
 92
 54000000
292
     0
 70
     2
 71
   256
280
     1
  0
DICTIONARY
  5
D
102
{ACAD_REACTORS
330
C
102
}
330
C
100
AcDbDictionary
281
     1
  0
DICTIONARY
  5
1A
102
{ACAD_REACTORS
330
C
102
}
330
C
100
AcDbDictionary
281
     1
  3
Layout1
350
1E
  3
Layout2
350
26
  3
Model
350
22
  0
DICTIONARY
  5
3B
102
{ACAD_REACTORS
330
C
102
}
330
C
100
AcDbDictionary
281
     1
  3
ByBlock
350
3D
  3
ByLayer
350
3C
  3
Global
350
3E
  0
DICTIONARY
  5
DF
102
{ACAD_REACTORS
330
C
102
}
330
C
100
AcDbDictionary
281
     1
  0
DICTIONARY
  5
17
102
{ACAD_REACTORS
330
C
102
}
330
C
100
AcDbDictionary
281
     1
  3
Standard
350
18
  0
DICTIONARY
  5
19
102
{ACAD_REACTORS
330
C
102
}
330
C
100
AcDbDictionary
281
     1
  0
ACDBDICTIONARYWDFLT
  5
E
102
{ACAD_REACTORS
330
C
102
}
330
C
100
AcDbDictionary
281
     1
  3
Normal
350
F
100
AcDbDictionaryWithDefault
340
F
  0
DICTIONARY
  5
DE
102
{ACAD_REACTORS
330
C
102
}
330
C
100
AcDbDictionary
281
     1
  0
DICTIONARY
  5
2A
102
{ACAD_REACTORS
330
C
102
}
330
C
100
AcDbDictionary
281
     1
  3
2dWireframe
350
2F
  3
3D Hidden
350
31
  3
3dWireframe
350
30
  3
Basic
350
32
  3
Brighten
350
36
  3
ColorChange
350
3A
  3
Conceptual
350
34
  3
Dim
350
35
  3
Facepattern
350
39
  3
Flat
350
2B
  3
FlatWithEdges
350
2C
  3
Gouraud
350
2D
  3
GouraudWithEdges
350
2E
  3
Linepattern
350
38
  3
Realistic
350
33
  3
Thicken
350
37
  0
LAYOUT
  5
1E
102
{ACAD_REACTORS
330
1A
102
}
330
1A
100
AcDbPlotSettings
  1

  2
none_device
  4

  6

 40
0.0
 41
0.0
 42
0.0
 43
0.0
 44
0.0
 45
0.0
 46
0.0
 47
0.0
 48
0.0
 49
0.0
140
0.0
141
0.0
142
1.0
143
1.0
 70
   688
 72
     0
 73
     0
 74
     5
  7

 75
    16
 76
     0
 77
     2
 78
   300
147
1.0
148
0.0
149
0.0
100
AcDbLayout
  1
Layout1
 70
     1
 71
     1
 10
0.0
 20
0.0
 11
12.0
 21
9.0
 12
0.0
 22
0.0
 32
0.0
 14
1.000000000000000E+20
 24
1.000000000000000E+20
 34
1.000000000000000E+20
 15
-1.000000000000000E+20
 25
-1.000000000000000E+20
 35
-1.000000000000000E+20
146
0.0
 13
0.0
 23
0.0
 33
0.0
 16
1.0
 26
0.0
 36
0.0
 17
0.0
 27
1.0
 37
0.0
 76
     0
330
1B
  0
LAYOUT
  5
26
102
{ACAD_REACTORS
330
1A
102
}
330
1A
100
AcDbPlotSettings
  1

  2
none_device
  4

  6

 40
0.0
 41
0.0
 42
0.0
 43
0.0
 44
0.0
 45
0.0
 46
0.0
 47
0.0
 48
0.0
 49
0.0
140
0.0
141
0.0
142
1.0
143
1.0
 70
   688
 72
     0
 73
     0
 74
     5
  7

 75
    16
 76
     0
 77
     2
 78
   300
147
1.0
148
0.0
149
0.0
100
AcDbLayout
  1
Layout2
 70
     1
 71
     2
 10
0.0
 20
0.0
 11
0.0
 21
0.0
 12
0.0
 22
0.0
 32
0.0
 14
0.0
 24
0.0
 34
0.0
 15
0.0
 25
0.0
 35
0.0
146
0.0
 13
0.0
 23
0.0
 33
0.0
 16
1.0
 26
0.0
 36
0.0
 17
0.0
 27
1.0
 37
0.0
 76
     0
330
23
  0
LAYOUT
  5
22
102
{ACAD_REACTORS
330
1A
102
}
330
1A
100
AcDbPlotSettings
  1

  2
none_device
  4

  6

 40
0.0
 41
0.0
 42
0.0
 43
0.0
 44
0.0
 45
0.0
 46
0.0
 47
0.0
 48
0.0
 49
0.0
140
0.0
141
0.0
142
1.0
143
1.0
 70
  1712
 72
     0
 73
     0
 74
     0
  7

 75
     0
 76
     0
 77
     2
 78
   300
147
1.0
148
0.0
149
0.0
100
AcDbLayout
  1
Model
 70
     1
 71
     0
 10
0.0
 20
0.0
 11
12.0
 21
9.0
 12
0.0
 22
0.0
 32
0.0
 14
1.000000000000000E+20
 24
1.000000000000000E+20
 34
1.000000000000000E+20
 15
-1.000000000000000E+20
 25
-1.000000000000000E+20
 35
-1.000000000000000E+20
146
0.0
 13
0.0
 23
0.0
 33
0.0
 16
1.0
 26
0.0
 36
0.0
 17
0.0
 27
1.0
 37
0.0
 76
     0
330
1F
331
29
  0
MATERIAL
  5
3D
102
{ACAD_REACTORS
330
3B
102
}
330
3B
100
AcDbMaterial
  1
ByBlock
 72
     1
 94
      127
  0
MATERIAL
  5
3C
102
{ACAD_REACTORS
330
3B
102
}
330
3B
100
AcDbMaterial
  1
ByLayer
 72
     1
 94
      127
  0
MATERIAL
  5
3E
102
{ACAD_REACTORS
330
3B
102
}
330
3B
100
AcDbMaterial
  1
Global
 72
     1
 94
      127
  0
MLINESTYLE
  5
18
102
{ACAD_REACTORS
330
17
102
}
330
17
100
AcDbMlineStyle
  2
Standard
 70
     0
  3

 62
   256
 51
90.0
 52
90.0
 71
     2
 49
0.5
 62
   256
  6
BYLAYER
 49
-0.5
 62
   256
  6
BYLAYER
  0
ACDBPLACEHOLDER
  5
F
102
{ACAD_REACTORS
330
E
102
}
330
E
  0
VISUALSTYLE
  5
2F
102
{ACAD_REACTORS
330
2A
102
}
330
2A
100
AcDbVisualStyle
  2
2dWireframe
 70
     4
177
     2
291
     0
 71
     0
176
     1
 72
     2
176
     1
 73
     0
176
     1
 90
        0
176
     1
 40
-0.6
176
     1
 41
-30.0
176
     1
 62
     5
 63
     7
421
 16777215
176
     1
 74
     1
176
     1
 91
        4
176
     1
 64
     7
176
     1
 65
   257
176
     1
 75
     1
176
     1
175
     1
176
     1
 42
1.0
176
     1
 92
        0
176
     1
 66
   257
176
     1
 43
1.0
176
     1
 76
     1
176
     1
 77
     6
176
     1
 78
     2
176
     1
 67
     7
176
     1
 79
     5
176
     1
170
     0
176
     1
171
     0
176
     1
290
     0
176
     1
 93
        1
176
     1
 44
0.0
176
     1
173
     0
176
     1
  0
VISUALSTYLE
  5
31
102
{ACAD_REACTORS
330
2A
102
}
330
2A
100
AcDbVisualStyle
  2
3D Hidden
 70
     6
177
     2
291
     0
 71
     1
176
     1
 72
     2
176
     1
 73
     2
176
     1
 90
        0
176
     1
 40
-0.6
176
     1
 41
-30.0
176
     1
 62
     5
 63
     7
421
 16777215
176
     1
 74
     2
176
     1
 91
        2
176
     1
 64
     7
176
     1
 65
   257
176
     1
 75
     2
176
     1
175
     1
176
     1
 42
40.0
176
     1
 92
        0
176
     1
 66
   257
176
     1
 43
1.0
176
     1
 76
     1
176
     1
 77
     6
176
     1
 78
     2
176
     1
 67
     7
176
     1
 79
     3
176
     1
170
     0
176
     1
171
     0
176
     1
290
     0
176
     1
 93
        1
176
     1
 44
0.0
176
     1
173
     0
176
     1
  0
VISUALSTYLE
  5
30
102
{ACAD_REACTORS
330
2A
102
}
330
2A
100
AcDbVisualStyle
  2
3dWireframe
 70
     5
177
     2
291
     0
 71
     0
176
     1
 72
     2
176
     1
 73
     0
176
     1
 90
        0
176
     1
 40
-0.6
176
     1
 41
-30.0
176
     1
 62
     5
 63
     7
421
 16777215
176
     1
 74
     1
176
     1
 91
        4
176
     1
 64
     7
176
     1
 65
   257
176
     1
 75
     1
176
     1
175
     1
176
     1
 42
1.0
176
     1
 92
        0
176
     1
 66
   257
176
     1
 43
1.0
176
     1
 76
     1
176
     1
 77
     6
176
     1
 78
     2
176
     1
 67
     7
176
     1
 79
     5
176
     1
170
     0
176
     1
171
     0
176
     1
290
     0
176
     1
 93
        1
176
     1
 44
0.0
176
     1
173
     0
176
     1
  0
VISUALSTYLE
  5
32
102
{ACAD_REACTORS
330
2A
102
}
330
2A
100
AcDbVisualStyle
  2
Basic
 70
     7
177
     2
291
     1
 71
     1
176
     1
 72
     0
176
     1
 73
     1
176
     1
 90
        0
176
     1
 40
-0.6
176
     1
 41
-30.0
176
     1
 62
     5
 63
     7
421
 16777215
176
     1
 74
     0
176
     1
 91
        4
176
     1
 64
     7
176
     1
 65
   257
176
     1
 75
     1
176
     1
175
     1
176
     1
 42
1.0
176
     1
 92
        8
176
     1
 66
     7
176
     1
 43
1.0
176
     1
 76
     1
176
     1
 77
     6
176
     1
 78
     2
176
     1
 67
     7
176
     1
 79
     5
176
     1
170
     0
176
     1
171
     0
176
     1
290
     0
176
     1
 93
        1
176
     1
 44
0.0
176
     1
173
     0
176
     1
  0
VISUALSTYLE
  5
36
102
{ACAD_REACTORS
330
2A
102
}
330
2A
100
AcDbVisualStyle
  2
Brighten
 70
    12
177
     2
291
     1
 71
     2
176
     1
 72
     2
176
     1
 73
     0
176
     1
 90
        0
176
     1
 40
-0.6
176
     1
 41
-30.0
176
     1
 62
     5
 63
     7
421
 16777215
176
     1
 74
     1
176
     1
 91
        4
176
     1
 64
     7
176
     1
 65
   257
176
     1
 75
     1
176
     1
175
     1
176
     1
 42
1.0
176
     1
 92
        8
176
     1
 66
     7
176
     1
 43
1.0
176
     1
 76
     1
176
     1
 77
     6
176
     1
 78
     2
176
     1
 67
     7
176
     1
 79
     5
176
     1
170
     0
176
     1
171
     0
176
     1
290
     0
176
     1
 93
        1
176
     1
 44
50.0
176
     1
173
     0
176
     1
  0
VISUALSTYLE
  5
3A
102
{ACAD_REACTORS
330
2A
102
}
330
2A
100
AcDbVisualStyle
  2
ColorChange
 70
    16
177
     2
291
     1
 71
     2
176
     1
 72
     2
176
     1
 73
     3
176
     1
 90
        0
176
     1
 40
-0.6
176
     1
 41
-30.0
176
     1
 62
     5
 63
     8
421
  8421504
176
     1
 74
     1
176
     1
 91
        4
176
     1
 64
     7
176
     1
 65
   257
176
     1
 75
     1
176
     1
175
     1
176
     1
 42
1.0
176
     1
 92
        8
176
     1
 66
     8
424
  8421504
176
     1
 43
1.0
176
     1
 76
     1
176
     1
 77
     6
176
     1
 78
     2
176
     1
 67
     7
176
     1
 79
     5
176
     1
170
     0
176
     1
171
     0
176
     1
290
     0
176
     1
 93
        1
176
     1
 44
0.0
176
     1
173
     0
176
     1
  0
VISUALSTYLE
  5
34
102
{ACAD_REACTORS
330
2A
102
}
330
2A
100
AcDbVisualStyle
  2
Conceptual
 70
     9
177
     2
291
     0
 71
     3
176
     1
 72
     2
176
     1
 73
     0
176
     1
 90
        0
176
     1
 40
-0.6
176
     1
 41
-30.0
176
     1
 62
     5
 63
     7
421
 16777215
176
     1
 74
     2
176
     1
 91
        2
176
     1
 64
     7
176
     1
 65
   257
176
     1
 75
     1
176
     1
175
     1
176
     1
 42
40.0
176
     1
 92
        8
176
     1
 66
     7
176
     1
 43
1.0
176
     1
 76
     1
176
     1
 77
     6
176
     1
 78
     2
176
     1
 67
     7
176
     1
 79
     3
176
     1
170
     0
176
     1
171
     0
176
     1
290
     0
176
     1
 93
        1
176
     1
 44
0.0
176
     1
173
     0
176
     1
  0
VISUALSTYLE
  5
35
102
{ACAD_REACTORS
330
2A
102
}
330
2A
100
AcDbVisualStyle
  2
Dim
 70
    11
177
     2
291
     1
 71
     2
176
     1
 72
     2
176
     1
 73
     0
176
     1
 90
        0
176
     1
 40
-0.6
176
     1
 41
-30.0
176
     1
 62
     5
 63
     7
421
 16777215
176
     1
 74
     1
176
     1
 91
        4
176
     1
 64
     7
176
     1
 65
   257
176
     1
 75
     1
176
     1
175
     1
176
     1
 42
1.0
176
     1
 92
        8
176
     1
 66
     7
176
     1
 43
1.0
176
     1
 76
     1
176
     1
 77
     6
176
     1
 78
     2
176
     1
 67
     7
176
     1
 79
     5
176
     1
170
     0
176
     1
171
     0
176
     1
290
     0
176
     1
 93
        1
176
     1
 44
-50.0
176
     1
173
     0
176
     1
  0
VISUALSTYLE
  5
39
102
{ACAD_REACTORS
330
2A
102
}
330
2A
100
AcDbVisualStyle
  2
Facepattern
 70
    15
177
     2
291
     1
 71
     2
176
     1
 72
     2
176
     1
 73
     0
176
     1
 90
        0
176
     1
 40
-0.6
176
     1
 41
-30.0
176
     1
 62
     5
 63
     7
421
 16777215
176
     1
 74
     1
176
     1
 91
        4
176
     1
 64
     7
176
     1
 65
   257
176
     1
 75
     1
176
     1
175
     1
176
     1
 42
1.0
176
     1
 92
        8
176
     1
 66
     7
176
     1
 43
1.0
176
     1
 76
     1
176
     1
 77
     6
176
     1
 78
     2
176
     1
 67
     7
176
     1
 79
     5
176
     1
170
     0
176
     1
171
     0
176
     1
290
     0
176
     1
 93
        1
176
     1
 44
0.0
176
     1
173
     0
176
     1
  0
VISUALSTYLE
  5
2B
102
{ACAD_REACTORS
330
2A
102
}
330
2A
100
AcDbVisualStyle
  2
Flat
 70
     0
177
     2
291
     1
 71
     2
176
     1
 72
     1
176
     1
 73
     1
176
     1
 90
        2
176
     1
 40
-0.6
176
     1
 41
30.0
176
     1
 62
     5
 63
     7
421
 16777215
176
     1
 74
     0
176
     1
 91
        4
176
     1
 64
     7
176
     1
 65
   257
176
     1
 75
     1
176
     1
175
     1
176
     1
 42
1.0
176
     1
 92
        8
176
     1
 66
     7
176
     1
 43
1.0
176
     1
 76
     1
176
     1
 77
     6
176
     1
 78
     2
176
     1
 67
     7
176
     1
 79
     5
176
     1
170
     0
176
     1
171
     0
176
     1
290
     0
176
     1
 93
       13
176
     1
 44
0.0
176
     1
173
     0
176
     1
  0
VISUALSTYLE
  5
2C
102
{ACAD_REACTORS
330
2A
102
}
330
2A
100
AcDbVisualStyle
  2
FlatWithEdges
 70
     1
177
     2
291
     1
 71
     2
176
     1
 72
     1
176
     1
 73
     1
176
     1
 90
        2
176
     1
 40
-0.6
176
     1
 41
30.0
176
     1
 62
     5
 63
     7
421
 16777215
176
     1
 74
     1
176
     1
 91
        4
176
     1
 64
     7
176
     1
 65
   257
176
     1
 75
     1
176
     1
175
     1
176
     1
 42
1.0
176
     1
 92
        0
176
     1
 66
   257
176
     1
 43
1.0
176
     1
 76
     1
176
     1
 77
     6
176
     1
 78
     2
176
     1
 67
     7
176
     1
 79
     5
176
     1
170
     0
176
     1
171
     0
176
     1
290
     0
176
     1
 93
       13
176
     1
 44
0.0
176
     1
173
     0
176
     1
  0
VISUALSTYLE
  5
2D
102
{ACAD_REACTORS
330
2A
102
}
330
2A
100
AcDbVisualStyle
  2
Gouraud
 70
     2
177
     2
291
     1
 71
     2
176
     1
 72
     2
176
     1
 73
     1
176
     1
 90
        2
176
     1
 40
-0.6
176
     1
 41
30.0
176
     1
 62
     5
 63
     7
421
 16777215
176
     1
 74
     0
176
     1
 91
        4
176
     1
 64
     7
176
     1
 65
   257
176
     1
 75
     1
176
     1
175
     1
176
     1
 42
1.0
176
     1
 92
        0
176
     1
 66
     7
176
     1
 43
1.0
176
     1
 76
     1
176
     1
 77
     6
176
     1
 78
     2
176
     1
 67
     7
176
     1
 79
     5
176
     1
170
     0
176
     1
171
     0
176
     1
290
     0
176
     1
 93
       13
176
     1
 44
0.0
176
     1
173
     0
176
     1
  0
VISUALSTYLE
  5
2E
102
{ACAD_REACTORS
330
2A
102
}
330
2A
100
AcDbVisualStyle
  2
GouraudWithEdges
 70
     3
177
     2
291
     1
 71
     2
176
     1
 72
     2
176
     1
 73
     1
176
     1
 90
        2
176
     1
 40
-0.6
176
     1
 41
30.0
176
     1
 62
     5
 63
     7
421
 16777215
176
     1
 74
     1
176
     1
 91
        4
176
     1
 64
     7
176
     1
 65
   257
176
     1
 75
     1
176
     1
175
     1
176
     1
 42
1.0
176
     1
 92
        0
176
     1
 66
   257
176
     1
 43
1.0
176
     1
 76
     1
176
     1
 77
     6
176
     1
 78
     2
176
     1
 67
     7
176
     1
 79
     5
176
     1
170
     0
176
     1
171
     0
176
     1
290
     0
176
     1
 93
       13
176
     1
 44
0.0
176
     1
173
     0
176
     1
  0
VISUALSTYLE
  5
38
102
{ACAD_REACTORS
330
2A
102
}
330
2A
100
AcDbVisualStyle
  2
Linepattern
 70
    14
177
     2
291
     1
 71
     2
176
     1
 72
     2
176
     1
 73
     0
176
     1
 90
        0
176
     1
 40
-0.6
176
     1
 41
-30.0
176
     1
 62
     5
 63
     7
421
 16777215
176
     1
 74
     1
176
     1
 91
        4
176
     1
 64
     7
176
     1
 65
   257
176
     1
 75
     7
176
     1
175
     7
176
     1
 42
1.0
176
     1
 92
        8
176
     1
 66
     7
176
     1
 43
1.0
176
     1
 76
     1
176
     1
 77
     6
176
     1
 78
     2
176
     1
 67
     7
176
     1
 79
     5
176
     1
170
     0
176
     1
171
     0
176
     1
290
     0
176
     1
 93
        1
176
     1
 44
0.0
176
     1
173
     0
176
     1
  0
VISUALSTYLE
  5
33
102
{ACAD_REACTORS
330
2A
102
}
330
2A
100
AcDbVisualStyle
  2
Realistic
 70
     8
177
     2
291
     0
 71
     2
176
     1
 72
     2
176
     1
 73
     0
176
     1
 90
        0
176
     1
 40
-0.6
176
     1
 41
-30.0
176
     1
 62
     5
 63
     7
421
 16777215
176
     1
 74
     1
176
     1
 91
        0
176
     1
 64
     7
176
     1
 65
   257
176
     1
 75
     1
176
     1
175
     1
176
     1
 42
1.0
176
     1
 92
        8
176
     1
 66
     8
424
  7895160
176
     1
 43
1.0
176
     1
 76
     1
176
     1
 77
     6
176
     1
 78
     2
176
     1
 67
     7
176
     1
 79
     5
176
     1
170
     0
176
     1
171
     0
176
     1
290
     0
176
     1
 93
       13
176
     1
 44
0.0
176
     1
173
     0
176
     1
  0
VISUALSTYLE
  5
37
102
{ACAD_REACTORS
330
2A
102
}
330
2A
100
AcDbVisualStyle
  2
Thicken
 70
    13
177
     2
291
     1
 71
     2
176
     1
 72
     2
176
     1
 73
     0
176
     1
 90
        0
176
     1
 40
-0.6
176
     1
 41
-30.0
176
     1
 62
     5
 63
     7
421
 16777215
176
     1
 74
     1
176
     1
 91
        4
176
     1
 64
     7
176
     1
 65
   257
176
     1
 75
     1
176
     1
175
     1
176
     1
 42
1.0
176
     1
 92
       12
176
     1
 66
     7
176
     1
 43
1.0
176
     1
 76
     1
176
     1
 77
     6
176
     1
 78
     2
176
     1
 67
     7
176
     1
 79
     5
176
     1
170
     0
176
     1
171
     0
176
     1
290
     0
176
     1
 93
        1
176
     1
 44
0.0
176
     1
173
     0
176
     1
  0
ENDSEC
  0
EOF
