  0
SECTION
  2
HEADER
  9
$ACADVER
  1
AC1024
  9
$ACADMAINTVER
 70
     6
  9
$DWGCODEPAGE
  3
UNDEFINED
  9
$INSBASE
 10
0.0
 20
0.0
 30
0.0
  9
$EXTMIN
 10
1.000000000000000E+20
 20
1.000000000000000E+20
 30
1.000000000000000E+20
  9
$EXTMAX
 10
-1.000000000000000E+20
 20
-1.000000000000000E+20
 30
-1.000000000000000E+20
  9
$LIMMIN
 10
0.0
 20
0.0
  9
$LIMMAX
 10
12.0
 20
9.0
  9
$ORTHOMODE
 70
     0
  9
$REGENMODE
 70
     1
  9
$FILLMODE
 70
     1
  9
$QTEXTMODE
 70
     0
  9
$MIRRTEXT
 70
     1
  9
$LTSCALE
 40
1.0
  9
$ATTMODE
 70
     1
  9
$TEXTSIZE
 40
0.2
  9
$TRACEWID
 40
0.05
  9
$TEXTSTYLE
  7
Standard
  9
$CLAYER
  8
0
  9
$CELTYPE
  6
ByLayer
  9
$CECOLOR
 62
   256
  9
$CELTSCALE
 40
1.0
  9
$DISPSILH
 70
     0
  9
$DIMSCALE
 40
1.0
  9
$DIMASZ
 40
0.18
  9
$DIMEXO
 40
0.0625
  9
$DIMDLI
 40
0.38
  9
$DIMRND
 40
0.0
  9
$DIMDLE
 40
0.0
  9
$DIMEXE
 40
0.18
  9
$DIMTP
 40
0.0
  9
$DIMTM
 40
0.0
  9
$DIMTXT
 40
0.18
  9
$DIMCEN
 40
0.09
  9
$DIMTSZ
 40
0.0
  9
$DIMTOL
 70
     0
  9
$DIMLIM
 70
     0
  9
$DIMTIH
 70
     1
  9
$DIMTOH
 70
     1
  9
$DIMSE1
 70
     0
  9
$DIMSE2
 70
     0
  9
$DIMTAD
 70
     0
  9
$DIMZIN
 70
     0
  9
$DIMBLK
  1

  9
$DIMASO
 70
     1
  9
$DIMSHO
 70
     1
  9
$DIMPOST
  1

  9
$DIMAPOST
  1

  9
$DIMALT
 70
     0
  9
$DIMALTD
 70
     2
  9
$DIMALTF
 40
25.4
  9
$DIMLFAC
 40
1.0
  9
$DIMTOFL
 70
     0
  9
$DIMTVP
 40
0.0
  9
$DIMTIX
 70
     0
  9
$DIMSOXD
 70
     0
  9
$DIMSAH
 70
     0
  9
$DIMBLK1
  1

  9
$DIMBLK2
  1

  9
$DIMSTYLE
  2
Standard
  9
$DIMCLRD
 70
     0
  9
$DIMCLRE
 70
     0
  9
$DIMCLRT
 70
     0
  9
$DIMTFAC
 40
1.0
  9
$DIMGAP
 40
0.09
  9
$DIMJUST
 70
     0
  9
$DIMSD1
 70
     0
  9
$DIMSD2
 70
     0
  9
$DIMTOLJ
 70
     1
  9
$DIMTZIN
 70
     0
  9
$DIMALTZ
 70
     0
  9
$DIMALTTZ
 70
     0
  9
$DIMUPT
 70
     0
  9
$DIMDEC
 70
     4
  9
$DIMTDEC
 70
     4
  9
$DIMALTU
 70
     2
  9
$DIMALTTD
 70
     2
  9
$DIMTXSTY
  7
Standard
  9
$DIMAUNIT
 70
     0
  9
$DIMADEC
 70
     0
  9
$DIMALTRND
 40
0.0
  9
$DIMAZIN
 70
     0
  9
$DIMDSEP
 70
    46
  9
$DIMATFIT
 70
     3
  9
$DIMFRAC
 70
     0
  9
$DIMLDRBLK
  1

  9
$DIMLUNIT
 70
     2
  9
$DIMLWD
 70
    -2
  9
$DIMLWE
 70
    -2
  9
$DIMTMOVE
 70
     0
  9
$DIMFXL
 40
1.0
  9
$DIMFXLON
 70
     0
  9
$DIMJOGANG
 40
0.7853981633974483
  9
$DIMTFILL
 70
     0
  9
$DIMTFILLCLR
 70
     0
  9
$DIMARCSYM
 70
     0
  9
$DIMLTYPE
  6

  9
$DIMLTEX1
  6

  9
$DIMLTEX2
  6

  9
$DIMTXTDIRECTION
 70
     0
  9
$LUNITS
 70
     2
  9
$LUPREC
 70
     4
  9
$SKETCHINC
 40
0.1
  9
$FILLETRAD
 40
0.5
  9
$AUNITS
 70
     0
  9
$AUPREC
 70
     0
  9
$MENU
  1
.
  9
$ELEVATION
 40
0.0
  9
$PELEVATION
 40
0.0
  9
$THICKNESS
 40
0.0
  9
$LIMCHECK
 70
     0
  9
$CHAMFERA
 40
0.5
  9
$CHAMFERB
 40
0.5
  9
$CHAMFERC
 40
1.0
  9
$CHAMFERD
 40
0.0
  9
$SKPOLY
 70
     0
  9
$TDCREATE
 40
2457917.623275463
  9
$TDUCREATE
 40
2457917.248275463
  9
$TDUPDATE
 40
2457917.623275463
  9
$TDUUPDATE
 40
2457917.248275463
  9
$TDINDWG
 40
0.0000000116
  9
$TDUSRTIMER
 40
0.0000000116
  9
$USRTIMER
 70
     1
  9
$ANGBASE
 50
0.0
  9
$ANGDIR
 70
     0
  9
$PDMODE
 70
     0
  9
$PDSIZE
 40
0.0
  9
$PLINEWID
 40
0.0
  9
$SPLFRAME
 70
     0
  9
$SPLINETYPE
 70
     6
  9
$SPLINESEGS
 70
     8
  9
$HANDSEED
  5
DF
  9
$SURFTAB1
 70
     6
  9
$SURFTAB2
 70
     6
  9
$SURFTYPE
 70
     6
  9
$SURFU
 70
     6
  9
$SURFV
 70
     6
  9
$UCSBASE
  2

  9
$UCSNAME
  2

  9
$UCSORG
 10
0.0
 20
0.0
 30
0.0
  9
$UCSXDIR
 10
1.0
 20
0.0
 30
0.0
  9
$UCSYDIR
 10
0.0
 20
1.0
 30
0.0
  9
$UCSORTHOREF
  2

  9
$UCSORTHOVIEW
 70
     0
  9
$UCSORGTOP
 10
0.0
 20
0.0
 30
0.0
  9
$UCSORGBOTTOM
 10
0.0
 20
0.0
 30
0.0
  9
$UCSORGLEFT
 10
0.0
 20
0.0
 30
0.0
  9
$UCSORGRIGHT
 10
0.0
 20
0.0
 30
0.0
  9
$UCSORGFRONT
 10
0.0
 20
0.0
 30
0.0
  9
$UCSORGBACK
 10
0.0
 20
0.0
 30
0.0
  9
$PUCSBASE
  2

  9
$PUCSNAME
  2

  9
$PUCSORG
 10
0.0
 20
0.0
 30
0.0
  9
$PUCSXDIR
 10
1.0
 20
0.0
 30
0.0
  9
$PUCSYDIR
 10
0.0
 20
1.0
 30
0.0
  9
$PUCSORTHOREF
  2

  9
$PUCSORTHOVIEW
 70
     0
  9
$PUCSORGTOP
 10
0.0
 20
0.0
 30
0.0
  9
$PUCSORGBOTTOM
 10
0.0
 20
0.0
 30
0.0
  9
$PUCSORGLEFT
 10
0.0
 20
0.0
 30
0.0
  9
$PUCSORGRIGHT
 10
0.0
 20
0.0
 30
0.0
  9
$PUCSORGFRONT
 10
0.0
 20
0.0
 30
0.0
  9
$PUCSORGBACK
 10
0.0
 20
0.0
 30
0.0
  9
$USERI1
 70
     0
  9
$USERI2
 70
     0
  9
$USERI3
 70
     0
  9
$USERI4
 70
     0
  9
$USERI5
 70
     0
  9
$USERR1
 40
0.0
  9
$USERR2
 40
0.0
  9
$USERR3
 40
0.0
  9
$USERR4
 40
0.0
  9
$USERR5
 40
0.0
  9
$WORLDVIEW
 70
     1
  9
$SHADEDGE
 70
     3
  9
$SHADEDIF
 70
    70
  9
$TILEMODE
 70
     1
  9
$MAXACTVP
 70
    64
  9
$PINSBASE
 10
0.0
 20
0.0
 30
0.0
  9
$PLIMCHECK
 70
     0
  9
$PEXTMIN
 10
1.000000000000000E+20
 20
1.000000000000000E+20
 30
1.000000000000000E+20
  9
$PEXTMAX
 10
-1.000000000000000E+20
 20
-1.000000000000000E+20
 30
-1.000000000000000E+20
  9
$PLIMMIN
 10
0.0
 20
0.0
  9
$PLIMMAX
 10
12.0
 20
9.0
  9
$UNITMODE
 70
     0
  9
$VISRETAIN
 70
     1
  9
$PLINEGEN
 70
     0
  9
$PSLTSCALE
 70
     1
  9
$TREEDEPTH
 70
  3020
  9
$CMLSTYLE
  2
Standard
  9
$CMLJUST
 70
     0
  9
$CMLSCALE
 40
1.0
  9
$PROXYGRAPHICS
 70
     1
  9
$MEASUREMENT
 70
     0
  9
$CELWEIGHT
370
    -1
  9
$ENDCAPS
280
     0
  9
$JOINSTYLE
280
     0
  9
$LWDISPLAY
290
     1
  9
$INSUNITS
 70
     1
  9
$HYPERLINKBASE
  1

  9
$STYLESHEET
  1

  9
$XEDIT
290
     1
  9
$CEPSNTYPE
380
     0
  9
$PSTYLEMODE
290
     1
  9
$FINGERPRINTGUID
  2
{FBE23AEA-866B-79FB-D170-03C650C91B41}
  9
$VERSIONGUID
  2
{FAEB1C32-E019-11D5-929B-00C0DF256EC4}
  9
$EXTNAMES
290
     1
  9
$PSVPSCALE
 40
0.0
  9
$OLESTARTUP
290
     0
  9
$SORTENTS
280
   127
  9
$INDEXCTL
280
     0
  9
$HIDETEXT
280
     1
  9
$XCLIPFRAME
280
     2
  9
$HALOGAP
280
     0
  9
$OBSCOLOR
 70
   257
  9
$OBSLTYPE
280
     0
  9
$INTERSECTIONDISPLAY
280
     0
  9
$INTERSECTIONCOLOR
 70
   257
  9
$DIMASSOC
280
     2
  9
$PROJECTNAME
  1

  9
$CAMERADISPLAY
290
     0
  9
$LENSLENGTH
 40
50.0
  9
$CAMERAHEIGHT
 40
0.0
  9
$STEPSPERSEC
 40
2.0
  9
$STEPSIZE
 40
6.0
  9
$3DDWFPREC
 40
2.0
  9
$PSOLWIDTH
 40
0.25
  9
$PSOLHEIGHT
 40
4.0
  9
$LOFTANG1
 40
1.570796326794897
  9
$LOFTANG2
 40
1.570796326794897
  9
$LOFTMAG1
 40
0.0
  9
$LOFTMAG2
 40
0.0
  9
$LOFTPARAM
 70
     7
  9
$LOFTNORMALS
280
     1
  9
$LATITUDE
 40
37.795
  9
$LONGITUDE
 40
-122.394
  9
$NORTHDIRECTION
 40
0.0
  9
$TIMEZONE
 70
 -8000
  9
$LIGHTGLYPHDISPLAY
280
     1
  9
$TILEMODELIGHTSYNCH
280
     1
  9
$CMATERIAL
347
3C
  9
$SOLIDHIST
280
     1
  9
$SHOWHIST
280
     1
  9
$DWFFRAME
280
     2
  9
$DGNFRAME
280
     2
  9
$REALWORLDSCALE
290
     1
  9
$INTERFERECOLOR
 62
   256
  9
$CSHADOW
280
     0
  9
$SHADOWPLANELOCATION
 40
0.0
  0
ENDSEC
  0
SECTION
  2
CLASSES
  0
CLASS
  1
ACDBDICTIONARYWDFLT
  2
AcDbDictionaryWithDefault
  3
ObjectDBX Classes
 90
        0
 91
        4
280
     0
281
     0
  0
CLASS
  1
VISUALSTYLE
  2
AcDbVisualStyle
  3
ObjectDBX Classes
 90
     4095
 91
        4
280
     0
281
     0
  0
CLASS
  1
MATERIAL
  2
AcDbMaterial
  3
ObjectDBX Classes
 90
     1153
 91
        4
280
     0
281
     0
  0
CLASS
  1
SUN
  2
AcDbSun
  3
SCENEOE
 90
     1024
 91
        4
280
     0
281
     0
  0
ENDSEC
  0
SECTION
  2
TABLES
  0
TABLE
  2
VPORT
  5
8
330
0
100
AcDbSymbolTable
 70
     1
  0
VPORT
  5
29
330
8
100
AcDbSymbolTableRecord
100
AcDbViewportTableRecord
  2
*Active
 70
     0
 10
0.0
 20
0.0
 11
1.0
 21
1.0
 12
0.0
 22
0.0
 13
0.0
 23
0.0
 14
0.5
 24
0.5
 15
0.5
 25
0.5
 16
0.0
 26
0.0
 36
1.0
 17
91.00082462281999
 27
-128.4993055234307
 37
0.0
 40
256.9986110468615
 41
0.7081814508812795
 42
50.0
 43
0.0
 44
0.0
 50
0.0
 51
0.0
 71
     0
 72
   100
 73
     1
 74
     3
 75
     0
 76
     0
 77
     0
 78
     0
281
     0
 65
     1
110
0.0
120
0.0
130
0.0
111
1.0
121
0.0
131
0.0
112
0.0
122
1.0
132
0.0
 79
     0
146
0.0
 60
     3
 61
     5
292
     1
282
     1
141
0.0
142
0.0
 63
   250
361
3F
  0
ENDTAB
  0
TABLE
  2
LTYPE
  5
5
330
0
100
AcDbSymbolTable
 70
     1
  0
LTYPE
  5
14
330
5
100
AcDbSymbolTableRecord
100
AcDbLinetypeTableRecord
  2
ByBlock
 70
     0
  3

 72
    65
 73
     0
 40
0.0
  0
LTYPE
  5
15
330
5
100
AcDbSymbolTableRecord
100
AcDbLinetypeTableRecord
  2
ByLayer
 70
     0
  3

 72
    65
 73
     0
 40
0.0
  0
LTYPE
  5
16
330
5
100
AcDbSymbolTableRecord
100
AcDbLinetypeTableRecord
  2
Continuous
 70
     0
  3
Solid line
 72
    65
 73
     0
 40
0.0
  0
ENDTAB
  0
TABLE
  2
LAYER
  5
2
330
0
100
AcDbSymbolTable
 70
     2
  0
LAYER
  5
10
330
2
100
AcDbSymbolTableRecord
100
AcDbLayerTableRecord
  2
0
 70
     0
 62
     7
  6
Continuous
370
    -3
390
F
347
3E
  0
LAYER
  5
40
330
2
100
AcDbSymbolTableRecord
100
AcDbLayerTableRecord
  2
_U+30EC_U+30A4_U+30E4_U+30FC 1
 70
     0
 62
     7
  6
Continuous
370
    -3
390
F
347
3E
  0
ENDTAB
  0
TABLE
  2
STYLE
  5
3
330
0
100
AcDbSymbolTable
 70
     1
  0
STYLE
  5
11
330
3
100
AcDbSymbolTableRecord
100
AcDbTextStyleTableRecord
  2
Standard
 70
     0
 40
0.0
 41
1.0
 50
0.0
 71
     0
 42
0.2
  3
txt
  4

  0
ENDTAB
  0
TABLE
  2
VIEW
  5
6
330
0
100
AcDbSymbolTable
 70
     0
  0
ENDTAB
  0
TABLE
  2
UCS
  5
7
330
0
100
AcDbSymbolTable
 70
     0
  0
ENDTAB
  0
TABLE
  2
APPID
  5
9
330
0
100
AcDbSymbolTable
 70
     1
  0
APPID
  5
12
330
9
100
AcDbSymbolTableRecord
100
AcDbRegAppTableRecord
  2
ACAD
 70
     0
  0
ENDTAB
  0
TABLE
  2
DIMSTYLE
  5
A
330
0
100
AcDbSymbolTable
 70
     1
100
AcDbDimStyleTable
  0
DIMSTYLE
105
27
330
A
100
AcDbSymbolTableRecord
100
AcDbDimStyleTableRecord
  2
Standard
 70
     0
178
     0
340
11
  0
ENDTAB
  0
TABLE
  2
BLOCK_RECORD
  5
1
330
0
100
AcDbSymbolTable
 70
     7
  0
BLOCK_RECORD
  5
1F
330
1
100
AcDbSymbolTableRecord
100
AcDbBlockTableRecord
  2
*Model_Space
340
22
 70
     0
280
     1
281
     0
  0
BLOCK_RECORD
  5
1B
330
1
100
AcDbSymbolTableRecord
100
AcDbBlockTableRecord
  2
*Paper_Space
340
1E
 70
     0
280
     1
281
     0
  0
BLOCK_RECORD
  5
23
330
1
100
AcDbSymbolTableRecord
100
AcDbBlockTableRecord
  2
*Paper_Space0
340
26
 70
     0
280
     1
281
     0
  0
BLOCK_RECORD
  5
75
330
1
100
AcDbSymbolTableRecord
100
AcDbBlockTableRecord
  2
block 2
340
0
102
{BLKREFS
331
76
102
}
 70
     0
280
     1
281
     0
  0
BLOCK_RECORD
  5
7C
330
1
100
AcDbSymbolTableRecord
100
AcDbBlockTableRecord
  2
block 3
340
0
102
{BLKREFS
331
7D
102
}
 70
     0
280
     1
281
     0
  0
BLOCK_RECORD
  5
82
330
1
100
AcDbSymbolTableRecord
100
AcDbBlockTableRecord
  2
block 4
340
0
102
{BLKREFS
331
83
102
}
 70
     0
280
     1
281
     0
  0
BLOCK_RECORD
  5
98
330
1
100
AcDbSymbolTableRecord
100
AcDbBlockTableRecord
  2
block 5
340
0
102
{BLKREFS
331
99
102
}
 70
     0
280
     1
281
     0
  0
BLOCK_RECORD
  5
A9
330
1
100
AcDbSymbolTableRecord
100
AcDbBlockTableRecord
  2
block 6
340
0
102
{BLKREFS
331
AA
102
}
 70
     0
280
     1
281
     0
  0
BLOCK_RECORD
  5
D7
330
1
100
AcDbSymbolTableRecord
100
AcDbBlockTableRecord
  2
block 7
340
0
102
{BLKREFS
331
D8
102
}
 70
     0
280
     1
281
     0
  0
ENDTAB
  0
ENDSEC
  0
SECTION
  2
BLOCKS
  0
BLOCK
  5
20
330
1F
100
AcDbEntity
  8
0
100
AcDbBlockBegin
  2
*Model_Space
 70
     0
 10
0.0
 20
0.0
 30
0.0
  3
*Model_Space
  1

  0
ENDBLK
  5
21
330
1F
100
AcDbEntity
  8
0
100
AcDbBlockEnd
  0
BLOCK
  5
1C
330
1B
100
AcDbEntity
 67
     1
  8
0
100
AcDbBlockBegin
  2
*Paper_Space
 70
     0
 10
0.0
 20
0.0
 30
0.0
  3
*Paper_Space
  1

  0
ENDBLK
  5
1D
330
1B
100
AcDbEntity
 67
     1
  8
0
100
AcDbBlockEnd
  0
BLOCK
  5
24
330
23
100
AcDbEntity
  8
0
100
AcDbBlockBegin
  2
*Paper_Space0
 70
     0
 10
0.0
 20
0.0
 30
0.0
  3
*Paper_Space0
  1

  0
ENDBLK
  5
25
330
23
100
AcDbEntity
  8
0
100
AcDbBlockEnd
  0
BLOCK
  5
77
330
75
100
AcDbEntity
  8
0
100
AcDbBlockBegin
  2
block 2
 70
     0
 10
0.0
 20
0.0
 30
0.0
  3
block 2
  1

  0
SPLINE
  5
79
330
75
100
AcDbEntity
  8
_U+30EC_U+30A4_U+30E4_U+30FC 1
370
     0
100
AcDbSpline
210
0.0
220
0.0
230
1.0
 70
    11
 71
     3
 72
    32
 73
    28
 74
     0
 42
0.0000000001
 43
0.0000000001
 12
1.0
 22
0.0
 32
0.0
 13
1.0
 23
0.0
 33
0.0
 40
0.0
 40
0.0
 40
0.0
 40
0.0
 40
1.0
 40
1.0
 40
1.0
 40
2.0
 40
2.0
 40
2.0
 40
3.0
 40
3.0
 40
3.0
 40
4.0
 40
4.0
 40
4.0
 40
5.0
 40
5.0
 40
5.0
 40
6.0
 40
6.0
 40
6.0
 40
7.0
 40
7.0
 40
7.0
 40
8.0
 40
8.0
 40
8.0
 40
9.0
 40
9.0
 40
9.0
 40
9.0
 10
88.27368161855658
 20
-122.0948730163513
 30
0.0
 10
87.75760631486615
 20
-122.0948730163513
 30
0.0
 10
87.74899357615304
 20
-121.5409016623231
 30
0.0
 10
87.74899357615304
 20
-121.3269612326891
 30
0.0
 10
87.74899357615304
 20
-121.0964843447259
 30
0.0
 10
87.76828611087043
 20
-120.4491509030474
 30
0.0
 10
88.31192217844286
 20
-120.4491509030474
 30
0.0
 10
88.48521048135092
 20
-120.4491509030474
 30
0.0
 10
88.73084578944923
 20
-120.519086341398
 30
0.0
 10
88.76874183978698
 20
-120.8511935461761
 30
0.0
 10
88.76874183978698
 20
-120.8511935461761
 30
0.0
 10
88.5551459197015
 20
-120.8511935461761
 30
0.0
 10
88.5551459197015
 20
-120.8511935461761
 30
0.0
 10
88.54446612369722
 20
-120.7940049611209
 30
0.0
 10
88.51277124523293
 20
-120.6458658552552
 30
0.0
 10
88.30985512115171
 20
-120.6458658552552
 30
0.0
 10
88.01771102400252
 20
-120.6458658552552
 30
0.0
 10
87.97774791637362
 20
-120.973838945451
 30
0.0
 10
87.9650010630782
 20
-121.1788221268233
 30
0.0
 10
88.05801864117994
 20
-121.1006184593082
 30
0.0
 10
88.12588702223937
 20
-121.0413628169619
 30
0.0
 10
88.30778806386056
 20
-121.0413628169619
 30
0.0
 10
88.4876220481906
 20
-121.0413628169619
 30
0.0
 10
88.79010143179553
 20
-121.1495388151987
 30
0.0
 10
88.79010143179553
 20
-121.5557155729097
 30
0.0
 10
88.79010143179553
 20
-121.8750759243923
 30
0.0
 10
88.5909749127481
 20
-122.0948730163513
 30
0.0
 10
88.27368161855658
 20
-122.0948730163513
 30
0.0
  0
SPLINE
  5
7A
330
75
100
AcDbEntity
  8
_U+30EC_U+30A4_U+30E4_U+30FC 1
370
     0
100
AcDbSpline
210
0.0
220
0.0
230
1.0
 70
    11
 71
     3
 72
    17
 73
    13
 74
     0
 42
0.0000000001
 43
0.0000000001
 12
1.0
 22
0.0
 32
0.0
 13
1.0
 23
0.0
 33
0.0
 40
0.0
 40
0.0
 40
0.0
 40
0.0
 40
1.0
 40
1.0
 40
1.0
 40
2.0
 40
2.0
 40
2.0
 40
3.0
 40
3.0
 40
3.0
 40
4.0
 40
4.0
 40
4.0
 40
4.0
 10
88.2905625864343
 20
-121.2360107118785
 30
0.0
 10
88.02839082000679
 20
-121.2360107118785
 30
0.0
 10
87.99049476966904
 20
-121.4475395746728
 30
0.0
 10
87.99049476966904
 20
-121.5639838020743
 30
0.0
 10
87.99049476966904
 20
-121.739683671822
 30
0.0
 10
88.08557940506195
 20
-121.9026366882743
 30
0.0
 10
88.26954750397428
 20
-121.9026366882743
 30
0.0
 10
88.39012584595802
 20
-121.9026366882743
 30
0.0
 10
88.56582571570577
 20
-121.8433810459281
 30
0.0
 10
88.56582571570577
 20
-121.5577826302008
 30
0.0
 10
88.56582571570577
 20
-121.3335069141111
 30
0.0
 10
88.42629934855316
 20
-121.2360107118785
 30
0.0
 10
88.2905625864343
 20
-121.2360107118785
 30
0.0
  0
HATCH
  5
7B
330
75
100
AcDbEntity
  8
_U+30EC_U+30A4_U+30E4_U+30FC 1
 62
     7
420
 16777215
100
AcDbHatch
 10
0.0
 20
0.0
 30
0.0
210
0.0
220
0.0
230
1.0
  2
SOLID
 70
     1
 71
     0
 91
        2
 92
        1
 93
        1
 72
     4
 94
        3
 73
     0
 74
     1
 95
       32
 96
       28
 40
0.0
 40
0.0
 40
0.0
 40
0.0
 40
1.0
 40
1.0
 40
1.0
 40
2.0
 40
2.0
 40
2.0
 40
3.0
 40
3.0
 40
3.0
 40
4.0
 40
4.0
 40
4.0
 40
5.0
 40
5.0
 40
5.0
 40
6.0
 40
6.0
 40
6.0
 40
7.0
 40
7.0
 40
7.0
 40
8.0
 40
8.0
 40
8.0
 40
9.0
 40
9.0
 40
9.0
 40
9.0
 10
88.27368161855658
 20
-122.0948730163513
 10
87.75760631486615
 20
-122.0948730163513
 10
87.74899357615304
 20
-121.5409016623231
 10
87.74899357615304
 20
-121.3269612326891
 10
87.74899357615304
 20
-121.0964843447259
 10
87.76828611087043
 20
-120.4491509030474
 10
88.31192217844286
 20
-120.4491509030474
 10
88.48521048135092
 20
-120.4491509030474
 10
88.73084578944923
 20
-120.519086341398
 10
88.76874183978698
 20
-120.8511935461761
 10
88.76874183978698
 20
-120.8511935461761
 10
88.5551459197015
 20
-120.8511935461761
 10
88.5551459197015
 20
-120.8511935461761
 10
88.54446612369722
 20
-120.7940049611209
 10
88.51277124523293
 20
-120.6458658552552
 10
88.30985512115171
 20
-120.6458658552552
 10
88.01771102400252
 20
-120.6458658552552
 10
87.97774791637362
 20
-120.973838945451
 10
87.9650010630782
 20
-121.1788221268233
 10
88.05801864117994
 20
-121.1006184593082
 10
88.12588702223937
 20
-121.0413628169619
 10
88.30778806386056
 20
-121.0413628169619
 10
88.4876220481906
 20
-121.0413628169619
 10
88.79010143179553
 20
-121.1495388151987
 10
88.79010143179553
 20
-121.5557155729097
 10
88.79010143179553
 20
-121.8750759243923
 10
88.5909749127481
 20
-122.0948730163513
 10
88.27368161855658
 20
-122.0948730163513
 97
        0
 97
        0
 92
        1
 93
        1
 72
     4
 94
        3
 73
     0
 74
     1
 95
       17
 96
       13
 40
0.0
 40
0.0
 40
0.0
 40
0.0
 40
1.0
 40
1.0
 40
1.0
 40
2.0
 40
2.0
 40
2.0
 40
3.0
 40
3.0
 40
3.0
 40
4.0
 40
4.0
 40
4.0
 40
4.0
 10
88.2905625864343
 20
-121.2360107118785
 10
88.02839082000679
 20
-121.2360107118785
 10
87.99049476966904
 20
-121.4475395746728
 10
87.99049476966904
 20
-121.5639838020743
 10
87.99049476966904
 20
-121.739683671822
 10
88.08557940506195
 20
-121.9026366882743
 10
88.26954750397428
 20
-121.9026366882743
 10
88.39012584595802
 20
-121.9026366882743
 10
88.56582571570577
 20
-121.8433810459281
 10
88.56582571570577
 20
-121.5577826302008
 10
88.56582571570577
 20
-121.3335069141111
 10
88.42629934855316
 20
-121.2360107118785
 10
88.2905625864343
 20
-121.2360107118785
 97
        0
 97
        0
 75
     2
 76
     1
 98
        0
  0
ENDBLK
  5
78
330
75
100
AcDbEntity
  8
0
100
AcDbBlockEnd
  0
BLOCK
  5
7E
330
7C
100
AcDbEntity
  8
0
100
AcDbBlockBegin
  2
block 3
 70
     0
 10
0.0
 20
0.0
 30
0.0
  3
block 3
  1

  0
SPLINE
  5
80
330
7C
100
AcDbEntity
  8
_U+30EC_U+30A4_U+30E4_U+30FC 1
370
     0
100
AcDbSpline
210
0.0
220
0.0
230
1.0
 70
    11
 71
     3
 72
    26
 73
    22
 74
     0
 42
0.0000000001
 43
0.0000000001
 12
1.0
 22
0.0
 32
0.0
 13
1.0
 23
0.0
 33
0.0
 40
0.0
 40
0.0
 40
0.0
 40
0.0
 40
1.0
 40
1.0
 40
1.0
 40
2.0
 40
2.0
 40
2.0
 40
3.0
 40
3.0
 40
3.0
 40
4.0
 40
4.0
 40
4.0
 40
5.0
 40
5.0
 40
5.0
 40
6.0
 40
6.0
 40
6.0
 40
7.0
 40
7.0
 40
7.0
 40
7.0
 10
81.74384763581403
 20
-122.0442301127181
 30
0.0
 10
81.74384763581403
 20
-122.0442301127181
 30
0.0
 10
81.50682506642886
 20
-122.0442301127181
 30
0.0
 10
81.50682506642886
 20
-122.0442301127181
 30
0.0
 10
81.5323187730197
 20
-121.7352050476912
 30
0.0
 10
81.72489961064517
 20
-121.2170626867096
 30
0.0
 10
82.13107636835612
 20
-120.711322669475
 30
0.0
 10
82.13107636835612
 20
-120.711322669475
 30
0.0
 10
81.29322914634336
 20
-120.711322669475
 30
0.0
 10
81.29322914634336
 20
-120.711322669475
 30
0.0
 10
81.29322914634336
 20
-120.711322669475
 30
0.0
 10
81.29322914634336
 20
-120.4997938066806
 30
0.0
 10
81.29322914634336
 20
-120.4997938066806
 30
0.0
 10
81.29322914634336
 20
-120.4997938066806
 30
0.0
 10
82.36809893774131
 20
-120.4997938066806
 30
0.0
 10
82.36809893774131
 20
-120.4997938066806
 30
0.0
 10
82.36809893774131
 20
-120.4997938066806
 30
0.0
 10
82.36809893774131
 20
-120.711322669475
 30
0.0
 10
82.36809893774131
 20
-120.711322669475
 30
0.0
 10
82.04425996212782
 20
-121.001399709333
 30
0.0
 10
81.77760957156949
 20
-121.5936116232474
 30
0.0
 10
81.74384763581403
 20
-122.0442301127181
 30
0.0
  0
HATCH
  5
81
330
7C
100
AcDbEntity
  8
_U+30EC_U+30A4_U+30E4_U+30FC 1
 62
     7
420
 16777215
100
AcDbHatch
 10
0.0
 20
0.0
 30
0.0
210
0.0
220
0.0
230
1.0
  2
SOLID
 70
     1
 71
     0
 91
        1
 92
        1
 93
        1
 72
     4
 94
        3
 73
     0
 74
     1
 95
       26
 96
       22
 40
0.0
 40
0.0
 40
0.0
 40
0.0
 40
1.0
 40
1.0
 40
1.0
 40
2.0
 40
2.0
 40
2.0
 40
3.0
 40
3.0
 40
3.0
 40
4.0
 40
4.0
 40
4.0
 40
5.0
 40
5.0
 40
5.0
 40
6.0
 40
6.0
 40
6.0
 40
7.0
 40
7.0
 40
7.0
 40
7.0
 10
81.74384763581403
 20
-122.0442301127181
 10
81.74384763581403
 20
-122.0442301127181
 10
81.50682506642886
 20
-122.0442301127181
 10
81.50682506642886
 20
-122.0442301127181
 10
81.5323187730197
 20
-121.7352050476912
 10
81.72489961064517
 20
-121.2170626867096
 10
82.13107636835612
 20
-120.711322669475
 10
82.13107636835612
 20
-120.711322669475
 10
81.29322914634336
 20
-120.711322669475
 10
81.29322914634336
 20
-120.711322669475
 10
81.29322914634336
 20
-120.711322669475
 10
81.29322914634336
 20
-120.4997938066806
 10
81.29322914634336
 20
-120.4997938066806
 10
81.29322914634336
 20
-120.4997938066806
 10
82.36809893774131
 20
-120.4997938066806
 10
82.36809893774131
 20
-120.4997938066806
 10
82.36809893774131
 20
-120.4997938066806
 10
82.36809893774131
 20
-120.711322669475
 10
82.36809893774131
 20
-120.711322669475
 10
82.04425996212782
 20
-121.001399709333
 10
81.77760957156949
 20
-121.5936116232474
 10
81.74384763581403
 20
-122.0442301127181
 97
        0
 97
        0
 75
     2
 76
     1
 98
        0
  0
ENDBLK
  5
7F
330
7C
100
AcDbEntity
  8
0
100
AcDbBlockEnd
  0
BLOCK
  5
84
330
82
100
AcDbEntity
  8
0
100
AcDbBlockBegin
  2
block 4
 70
     0
 10
0.0
 20
0.0
 30
0.0
  3
block 4
  1

  0
SPLINE
  5
86
330
82
100
AcDbEntity
  8
_U+30EC_U+30A4_U+30E4_U+30FC 1
370
     0
100
AcDbSpline
210
0.0
220
0.0
230
1.0
 70
    11
 71
     3
 72
    26
 73
    22
 74
     0
 42
0.0000000001
 43
0.0000000001
 12
1.0
 22
0.0
 32
0.0
 13
1.0
 23
0.0
 33
0.0
 40
0.0
 40
0.0
 40
0.0
 40
0.0
 40
1.0
 40
1.0
 40
1.0
 40
2.0
 40
2.0
 40
2.0
 40
3.0
 40
3.0
 40
3.0
 40
4.0
 40
4.0
 40
4.0
 40
5.0
 40
5.0
 40
5.0
 40
6.0
 40
6.0
 40
6.0
 40
7.0
 40
7.0
 40
7.0
 40
7.0
 10
94.4638291864535
 20
-122.0442301127181
 30
0.0
 10
94.4638291864535
 20
-122.0442301127181
 30
0.0
 10
94.2268066170683
 20
-122.0442301127181
 30
0.0
 10
94.2268066170683
 20
-122.0442301127181
 30
0.0
 10
94.25230032365916
 20
-121.7352050476912
 30
0.0
 10
94.44488116128461
 20
-121.2170626867096
 30
0.0
 10
94.85105791899558
 20
-120.711322669475
 30
0.0
 10
94.85105791899558
 20
-120.711322669475
 30
0.0
 10
94.01321069698281
 20
-120.711322669475
 30
0.0
 10
94.01321069698281
 20
-120.711322669475
 30
0.0
 10
94.01321069698281
 20
-120.711322669475
 30
0.0
 10
94.01321069698281
 20
-120.4997938066806
 30
0.0
 10
94.01321069698281
 20
-120.4997938066806
 30
0.0
 10
94.01321069698281
 20
-120.4997938066806
 30
0.0
 10
95.08808048838077
 20
-120.4997938066806
 30
0.0
 10
95.08808048838077
 20
-120.4997938066806
 30
0.0
 10
95.08808048838077
 20
-120.4997938066806
 30
0.0
 10
95.08808048838077
 20
-120.711322669475
 30
0.0
 10
95.08808048838077
 20
-120.711322669475
 30
0.0
 10
94.76424151276727
 20
-121.001399709333
 30
0.0
 10
94.49759112220895
 20
-121.5936116232474
 30
0.0
 10
94.4638291864535
 20
-122.0442301127181
 30
0.0
  0
HATCH
  5
87
330
82
100
AcDbEntity
  8
_U+30EC_U+30A4_U+30E4_U+30FC 1
 62
     7
420
 16777215
100
AcDbHatch
 10
0.0
 20
0.0
 30
0.0
210
0.0
220
0.0
230
1.0
  2
SOLID
 70
     1
 71
     0
 91
        1
 92
        1
 93
        1
 72
     4
 94
        3
 73
     0
 74
     1
 95
       26
 96
       22
 40
0.0
 40
0.0
 40
0.0
 40
0.0
 40
1.0
 40
1.0
 40
1.0
 40
2.0
 40
2.0
 40
2.0
 40
3.0
 40
3.0
 40
3.0
 40
4.0
 40
4.0
 40
4.0
 40
5.0
 40
5.0
 40
5.0
 40
6.0
 40
6.0
 40
6.0
 40
7.0
 40
7.0
 40
7.0
 40
7.0
 10
94.4638291864535
 20
-122.0442301127181
 10
94.4638291864535
 20
-122.0442301127181
 10
94.2268066170683
 20
-122.0442301127181
 10
94.2268066170683
 20
-122.0442301127181
 10
94.25230032365916
 20
-121.7352050476912
 10
94.44488116128461
 20
-121.2170626867096
 10
94.85105791899558
 20
-120.711322669475
 10
94.85105791899558
 20
-120.711322669475
 10
94.01321069698281
 20
-120.711322669475
 10
94.01321069698281
 20
-120.711322669475
 10
94.01321069698281
 20
-120.711322669475
 10
94.01321069698281
 20
-120.4997938066806
 10
94.01321069698281
 20
-120.4997938066806
 10
94.01321069698281
 20
-120.4997938066806
 10
95.08808048838077
 20
-120.4997938066806
 10
95.08808048838077
 20
-120.4997938066806
 10
95.08808048838077
 20
-120.4997938066806
 10
95.08808048838077
 20
-120.711322669475
 10
95.08808048838077
 20
-120.711322669475
 10
94.76424151276727
 20
-121.001399709333
 10
94.49759112220895
 20
-121.5936116232474
 10
94.4638291864535
 20
-122.0442301127181
 97
        0
 97
        0
 75
     2
 76
     1
 98
        0
  0
ENDBLK
  5
85
330
82
100
AcDbEntity
  8
0
100
AcDbBlockEnd
  0
BLOCK
  5
9A
330
98
100
AcDbEntity
  8
0
100
AcDbBlockBegin
  2
block 5
 70
     0
 10
0.0
 20
0.0
 30
0.0
  3
block 5
  1

  0
SPLINE
  5
9C
330
98
100
AcDbEntity
  8
_U+30EC_U+30A4_U+30E4_U+30FC 1
370
     0
100
AcDbSpline
210
0.0
220
0.0
230
1.0
 70
    11
 71
     3
 72
    32
 73
    28
 74
     0
 42
0.0000000001
 43
0.0000000001
 12
1.0
 22
0.0
 32
0.0
 13
1.0
 23
0.0
 33
0.0
 40
0.0
 40
0.0
 40
0.0
 40
0.0
 40
1.0
 40
1.0
 40
1.0
 40
2.0
 40
2.0
 40
2.0
 40
3.0
 40
3.0
 40
3.0
 40
4.0
 40
4.0
 40
4.0
 40
5.0
 40
5.0
 40
5.0
 40
6.0
 40
6.0
 40
6.0
 40
7.0
 40
7.0
 40
7.0
 40
8.0
 40
8.0
 40
8.0
 40
9.0
 40
9.0
 40
9.0
 40
9.0
 10
102.0523410118133
 20
-132.8256564338075
 30
0.0
 10
102.0523410118133
 20
-132.9989447367155
 30
0.0
 10
101.9824055734627
 20
-133.2445800448139
 30
0.0
 10
101.6502983686847
 20
-133.2824760951516
 30
0.0
 10
101.6502983686847
 20
-133.2824760951516
 30
0.0
 10
101.6502983686847
 20
-133.0688801750661
 30
0.0
 10
101.6502983686847
 20
-133.0688801750661
 30
0.0
 10
101.7095540110309
 20
-133.0582003790618
 30
0.0
 10
101.8576931168967
 20
-133.0265055005976
 30
0.0
 10
101.8576931168967
 20
-132.8235893765163
 30
0.0
 10
101.8576931168967
 20
-132.5314452793671
 30
0.0
 10
101.5276529694098
 20
-132.4935492290294
 30
0.0
 10
101.3226697880374
 20
-132.480802375734
 30
0.0
 10
101.4029405128437
 20
-132.5717528965446
 30
0.0
 10
101.4601290978989
 20
-132.6392767680555
 30
0.0
 10
101.4601290978989
 20
-132.8211778096767
 30
0.0
 10
101.4601290978989
 20
-133.0010117940067
 30
0.0
 10
101.3543646665017
 20
-133.3038356871602
 30
0.0
 10
100.9481879087907
 20
-133.3038356871602
 30
0.0
 10
100.6284830477595
 20
-133.3038356871602
 30
0.0
 10
100.4086859558006
 20
-133.1047091681127
 30
0.0
 10
100.4086859558006
 20
-132.7874158739212
 30
0.0
 10
100.4086859558006
 20
-132.2734076275219
 30
0.0
 10
100.9630018193773
 20
-132.2627278315177
 30
0.0
 10
101.1765977394628
 20
-132.2627278315177
 30
0.0
 10
101.407074627426
 20
-132.2627278315177
 30
0.0
 10
102.0523410118133
 20
-132.2820203662351
 30
0.0
 10
102.0523410118133
 20
-132.8256564338075
 30
0.0
  0
SPLINE
  5
9D
330
98
100
AcDbEntity
  8
_U+30EC_U+30A4_U+30E4_U+30FC 1
370
     0
100
AcDbSpline
210
0.0
220
0.0
230
1.0
 70
    11
 71
     3
 72
    17
 73
    13
 74
     0
 42
0.0000000001
 43
0.0000000001
 12
1.0
 22
0.0
 32
0.0
 13
1.0
 23
0.0
 33
0.0
 40
0.0
 40
0.0
 40
0.0
 40
0.0
 40
1.0
 40
1.0
 40
1.0
 40
2.0
 40
2.0
 40
2.0
 40
3.0
 40
3.0
 40
3.0
 40
4.0
 40
4.0
 40
4.0
 40
4.0
 10
100.6012667934261
 20
-132.7853488166301
 30
0.0
 10
100.6012667934261
 20
-132.9038601013227
 30
0.0
 10
100.6581108689327
 20
-133.0795599710704
 30
0.0
 10
100.9437092846599
 20
-133.0795599710704
 30
0.0
 10
101.1700520580408
 20
-133.0795599710704
 30
0.0
 10
101.2654812029822
 20
-132.9396890943692
 30
0.0
 10
101.2654812029822
 20
-132.8042968417989
 30
0.0
 10
101.2654812029822
 20
-132.5421250753714
 30
0.0
 10
101.0560193974791
 20
-132.5038845154851
 30
0.0
 10
100.9395751700776
 20
-132.5038845154851
 30
0.0
 10
100.7638753003299
 20
-132.5038845154851
 30
0.0
 10
100.6012667934261
 20
-132.5993136604266
 30
0.0
 10
100.6012667934261
 20
-132.7853488166301
 30
0.0
  0
HATCH
  5
9E
330
98
100
AcDbEntity
  8
_U+30EC_U+30A4_U+30E4_U+30FC 1
 62
     7
420
 16777215
100
AcDbHatch
 10
0.0
 20
0.0
 30
0.0
210
0.0
220
0.0
230
1.0
  2
SOLID
 70
     1
 71
     0
 91
        2
 92
        1
 93
        1
 72
     4
 94
        3
 73
     0
 74
     1
 95
       32
 96
       28
 40
0.0
 40
0.0
 40
0.0
 40
0.0
 40
1.0
 40
1.0
 40
1.0
 40
2.0
 40
2.0
 40
2.0
 40
3.0
 40
3.0
 40
3.0
 40
4.0
 40
4.0
 40
4.0
 40
5.0
 40
5.0
 40
5.0
 40
6.0
 40
6.0
 40
6.0
 40
7.0
 40
7.0
 40
7.0
 40
8.0
 40
8.0
 40
8.0
 40
9.0
 40
9.0
 40
9.0
 40
9.0
 10
102.0523410118133
 20
-132.8256564338075
 10
102.0523410118133
 20
-132.9989447367155
 10
101.9824055734627
 20
-133.2445800448139
 10
101.6502983686847
 20
-133.2824760951516
 10
101.6502983686847
 20
-133.2824760951516
 10
101.6502983686847
 20
-133.0688801750661
 10
101.6502983686847
 20
-133.0688801750661
 10
101.7095540110309
 20
-133.0582003790618
 10
101.8576931168967
 20
-133.0265055005976
 10
101.8576931168967
 20
-132.8235893765163
 10
101.8576931168967
 20
-132.5314452793671
 10
101.5276529694098
 20
-132.4935492290294
 10
101.3226697880374
 20
-132.480802375734
 10
101.4029405128437
 20
-132.5717528965446
 10
101.4601290978989
 20
-132.6392767680555
 10
101.4601290978989
 20
-132.8211778096767
 10
101.4601290978989
 20
-133.0010117940067
 10
101.3543646665017
 20
-133.3038356871602
 10
100.9481879087907
 20
-133.3038356871602
 10
100.6284830477595
 20
-133.3038356871602
 10
100.4086859558006
 20
-133.1047091681127
 10
100.4086859558006
 20
-132.7874158739212
 10
100.4086859558006
 20
-132.2734076275219
 10
100.9630018193773
 20
-132.2627278315177
 10
101.1765977394628
 20
-132.2627278315177
 10
101.407074627426
 20
-132.2627278315177
 10
102.0523410118133
 20
-132.2820203662351
 10
102.0523410118133
 20
-132.8256564338075
 97
        0
 97
        0
 92
        1
 93
        1
 72
     4
 94
        3
 73
     0
 74
     1
 95
       17
 96
       13
 40
0.0
 40
0.0
 40
0.0
 40
0.0
 40
1.0
 40
1.0
 40
1.0
 40
2.0
 40
2.0
 40
2.0
 40
3.0
 40
3.0
 40
3.0
 40
4.0
 40
4.0
 40
4.0
 40
4.0
 10
100.6012667934261
 20
-132.7853488166301
 10
100.6012667934261
 20
-132.9038601013227
 10
100.6581108689327
 20
-133.0795599710704
 10
100.9437092846599
 20
-133.0795599710704
 10
101.1700520580408
 20
-133.0795599710704
 10
101.2654812029822
 20
-132.9396890943692
 10
101.2654812029822
 20
-132.8042968417989
 10
101.2654812029822
 20
-132.5421250753714
 10
101.0560193974791
 20
-132.5038845154851
 10
100.9395751700776
 20
-132.5038845154851
 10
100.7638753003299
 20
-132.5038845154851
 10
100.6012667934261
 20
-132.5993136604266
 10
100.6012667934261
 20
-132.7853488166301
 97
        0
 97
        0
 75
     2
 76
     1
 98
        0
  0
POLYLINE
  5
9F
330
98
100
AcDbEntity
  8
_U+30EC_U+30A4_U+30E4_U+30FC 1
370
     0
100
AcDb2dPolyline
 66
     1
 10
0.0
 20
0.0
 30
0.0
  0
VERTEX
  5
A0
330
9F
100
AcDbEntity
  8
_U+30EC_U+30A4_U+30E4_U+30FC 1
370
     0
100
AcDbVertex
100
AcDb2dVertex
 10
102.0016981081801
 20
-132.046375835044
 30
0.0
  0
VERTEX
  5
A1
330
9F
100
AcDbEntity
  8
_U+30EC_U+30A4_U+30E4_U+30FC 1
370
     0
100
AcDbVertex
100
AcDb2dVertex
 10
101.7498616282084
 20
-132.046375835044
 30
0.0
  0
VERTEX
  5
A2
330
9F
100
AcDbEntity
  8
_U+30EC_U+30A4_U+30E4_U+30FC 1
370
     0
100
AcDbVertex
100
AcDb2dVertex
 10
101.7498616282084
 20
-131.7945393550722
 30
0.0
  0
VERTEX
  5
A3
330
9F
100
AcDbEntity
  8
_U+30EC_U+30A4_U+30E4_U+30FC 1
370
     0
100
AcDbVertex
100
AcDb2dVertex
 10
102.0016981081801
 20
-131.7945393550722
 30
0.0
  0
VERTEX
  5
A4
330
9F
100
AcDbEntity
  8
_U+30EC_U+30A4_U+30E4_U+30FC 1
370
     0
100
AcDbVertex
100
AcDb2dVertex
 10
102.0016981081801
 20
-132.046375835044
 30
0.0
  0
SEQEND
  5
A5
330
9F
100
AcDbEntity
  8
_U+30EC_U+30A4_U+30E4_U+30FC 1
370
     0
  0
HATCH
  5
A6
330
98
100
AcDbEntity
  8
_U+30EC_U+30A4_U+30E4_U+30FC 1
 62
     7
420
 16777215
100
AcDbHatch
 10
0.0
 20
0.0
 30
0.0
210
0.0
220
0.0
230
1.0
  2
SOLID
 70
     1
 71
     0
 91
        1
 92
        1
 93
        4
 72
     1
 10
102.0016981081801
 20
-132.046375835044
 11
101.7498616282084
 21
-132.046375835044
 72
     1
 10
101.7498616282084
 20
-132.046375835044
 11
101.7498616282084
 21
-131.7945393550722
 72
     1
 10
101.7498616282084
 20
-131.7945393550722
 11
102.0016981081801
 21
-131.7945393550722
 72
     1
 10
102.0016981081801
 20
-131.7945393550722
 11
102.0016981081801
 21
-132.046375835044
 97
        0
 75
     2
 76
     1
 98
        0
  0
SPLINE
  5
A7
330
98
100
AcDbEntity
  8
_U+30EC_U+30A4_U+30E4_U+30FC 1
370
     0
100
AcDbSpline
210
0.0
220
0.0
230
1.0
 70
    11
 71
     3
 72
    53
 73
    49
 74
     0
 42
0.0000000001
 43
0.0000000001
 12
1.0
 22
0.0
 32
0.0
 13
1.0
 23
0.0
 33
0.0
 40
0.0
 40
0.0
 40
0.0
 40
0.0
 40
1.0
 40
1.0
 40
1.0
 40
2.0
 40
2.0
 40
2.0
 40
3.0
 40
3.0
 40
3.0
 40
4.0
 40
4.0
 40
4.0
 40
5.0
 40
5.0
 40
5.0
 40
6.0
 40
6.0
 40
6.0
 40
7.0
 40
7.0
 40
7.0
 40
8.0
 40
8.0
 40
8.0
 40
9.0
 40
9.0
 40
9.0
 40
10.0
 40
10.0
 40
10.0
 40
11.0
 40
11.0
 40
11.0
 40
12.0
 40
12.0
 40
12.0
 40
13.0
 40
13.0
 40
13.0
 40
14.0
 40
14.0
 40
14.0
 40
15.0
 40
15.0
 40
15.0
 40
16.0
 40
16.0
 40
16.0
 40
16.0
 10
102.0523410118133
 20
-131.0772704750432
 30
0.0
 10
102.0523410118133
 20
-131.1554741425583
 30
0.0
 10
102.0354600439356
 20
-131.2571044593732
 30
0.0
 10
101.972070287007
 20
-131.3587347761881
 30
0.0
 10
101.861827231479
 20
-131.5320230790962
 30
0.0
 10
101.7309136030395
 20
-131.5533826711047
 30
0.0
 10
101.6230821143512
 20
-131.5723306962736
 30
0.0
 10
101.6230821143512
 20
-131.5723306962736
 30
0.0
 10
101.6230821143512
 20
-131.350122037475
 30
0.0
 10
101.6230821143512
 20
-131.350122037475
 30
0.0
 10
101.8218641238501
 20
-131.2953450192595
 30
0.0
 10
101.8514919450232
 20
-131.1682209958538
 30
0.0
 10
101.8514919450232
 20
-131.075203417752
 30
0.0
 10
101.8514919450232
 20
-130.9356770505994
 30
0.0
 10
101.7519286854995
 20
-130.7834038301514
 30
0.0
 10
101.5193847402452
 20
-130.7834038301514
 30
0.0
 10
101.2634141456911
 20
-130.7834038301514
 30
0.0
 10
101.1934787073405
 20
-130.9632378144814
 30
0.0
 10
101.1934787073405
 20
-131.0838161564652
 30
0.0
 10
101.1934787073405
 20
-131.1155110349295
 30
0.0
 10
101.1934787073405
 20
-131.2571044593732
 30
0.0
 10
101.3226697880374
 20
-131.3459879228927
 30
0.0
 10
101.3226697880374
 20
-131.3459879228927
 30
0.0
 10
101.30337725332
 20
-131.5216877926404
 30
0.0
 10
101.30337725332
 20
-131.5216877926404
 30
0.0
 10
101.30337725332
 20
-131.5216877926404
 30
0.0
 10
100.4572618021426
 20
-131.4011094506567
 30
0.0
 10
100.4572618021426
 20
-131.4011094506567
 30
0.0
 10
100.4572618021426
 20
-131.4011094506567
 30
0.0
 10
100.4572618021426
 20
-130.6225178709902
 30
0.0
 10
100.4572618021426
 20
-130.6225178709902
 30
0.0
 10
100.4572618021426
 20
-130.6225178709902
 30
0.0
 10
100.6519096970593
 20
-130.6225178709902
 30
0.0
 10
100.6519096970593
 20
-130.6225178709902
 30
0.0
 10
100.6519096970593
 20
-130.6225178709902
 30
0.0
 10
100.6519096970593
 20
-131.2381564342043
 30
0.0
 10
100.6519096970593
 20
-131.2381564342043
 30
0.0
 10
100.6519096970593
 20
-131.2381564342043
 30
0.0
 10
101.0749674226479
 20
-131.3036132484241
 30
0.0
 10
101.0749674226479
 20
-131.3036132484241
 30
0.0
 10
101.0412054868925
 20
-131.2422905487867
 30
0.0
 10
101.0008978697151
 20
-131.1599527666892
 30
0.0
 10
101.0008978697151
 20
-131.0414414819966
 30
0.0
 10
101.0008978697151
 20
-130.7875379447337
 30
0.0
 10
101.1872775354671
 20
-130.5505153753485
 30
0.0
 10
101.5000922055278
 20
-130.5505153753485
 30
0.0
 10
101.8177300092678
 20
-130.5505153753485
 30
0.0
 10
102.0523410118133
 20
-130.7747910914383
 30
0.0
 10
102.0523410118133
 20
-131.0772704750432
 30
0.0
  0
HATCH
  5
A8
330
98
100
AcDbEntity
  8
_U+30EC_U+30A4_U+30E4_U+30FC 1
 62
     7
420
 16777215
100
AcDbHatch
 10
0.0
 20
0.0
 30
0.0
210
0.0
220
0.0
230
1.0
  2
SOLID
 70
     1
 71
     0
 91
        1
 92
        1
 93
        1
 72
     4
 94
        3
 73
     0
 74
     1
 95
       53
 96
       49
 40
0.0
 40
0.0
 40
0.0
 40
0.0
 40
1.0
 40
1.0
 40
1.0
 40
2.0
 40
2.0
 40
2.0
 40
3.0
 40
3.0
 40
3.0
 40
4.0
 40
4.0
 40
4.0
 40
5.0
 40
5.0
 40
5.0
 40
6.0
 40
6.0
 40
6.0
 40
7.0
 40
7.0
 40
7.0
 40
8.0
 40
8.0
 40
8.0
 40
9.0
 40
9.0
 40
9.0
 40
10.0
 40
10.0
 40
10.0
 40
11.0
 40
11.0
 40
11.0
 40
12.0
 40
12.0
 40
12.0
 40
13.0
 40
13.0
 40
13.0
 40
14.0
 40
14.0
 40
14.0
 40
15.0
 40
15.0
 40
15.0
 40
16.0
 40
16.0
 40
16.0
 40
16.0
 10
102.0523410118133
 20
-131.0772704750432
 10
102.0523410118133
 20
-131.1554741425583
 10
102.0354600439356
 20
-131.2571044593732
 10
101.972070287007
 20
-131.3587347761881
 10
101.861827231479
 20
-131.5320230790962
 10
101.7309136030395
 20
-131.5533826711047
 10
101.6230821143512
 20
-131.5723306962736
 10
101.6230821143512
 20
-131.5723306962736
 10
101.6230821143512
 20
-131.350122037475
 10
101.6230821143512
 20
-131.350122037475
 10
101.8218641238501
 20
-131.2953450192595
 10
101.8514919450232
 20
-131.1682209958538
 10
101.8514919450232
 20
-131.075203417752
 10
101.8514919450232
 20
-130.9356770505994
 10
101.7519286854995
 20
-130.7834038301514
 10
101.5193847402452
 20
-130.7834038301514
 10
101.2634141456911
 20
-130.7834038301514
 10
101.1934787073405
 20
-130.9632378144814
 10
101.1934787073405
 20
-131.0838161564652
 10
101.1934787073405
 20
-131.1155110349295
 10
101.1934787073405
 20
-131.2571044593732
 10
101.3226697880374
 20
-131.3459879228927
 10
101.3226697880374
 20
-131.3459879228927
 10
101.30337725332
 20
-131.5216877926404
 10
101.30337725332
 20
-131.5216877926404
 10
101.30337725332
 20
-131.5216877926404
 10
100.4572618021426
 20
-131.4011094506567
 10
100.4572618021426
 20
-131.4011094506567
 10
100.4572618021426
 20
-131.4011094506567
 10
100.4572618021426
 20
-130.6225178709902
 10
100.4572618021426
 20
-130.6225178709902
 10
100.4572618021426
 20
-130.6225178709902
 10
100.6519096970593
 20
-130.6225178709902
 10
100.6519096970593
 20
-130.6225178709902
 10
100.6519096970593
 20
-130.6225178709902
 10
100.6519096970593
 20
-131.2381564342043
 10
100.6519096970593
 20
-131.2381564342043
 10
100.6519096970593
 20
-131.2381564342043
 10
101.0749674226479
 20
-131.3036132484241
 10
101.0749674226479
 20
-131.3036132484241
 10
101.0412054868925
 20
-131.2422905487867
 10
101.0008978697151
 20
-131.1599527666892
 10
101.0008978697151
 20
-131.0414414819966
 10
101.0008978697151
 20
-130.7875379447337
 10
101.1872775354671
 20
-130.5505153753485
 10
101.5000922055278
 20
-130.5505153753485
 10
101.8177300092678
 20
-130.5505153753485
 10
102.0523410118133
 20
-130.7747910914383
 10
102.0523410118133
 20
-131.0772704750432
 97
        0
 97
        0
 75
     2
 76
     1
 98
        0
  0
ENDBLK
  5
9B
330
98
100
AcDbEntity
  8
0
100
AcDbBlockEnd
  0
BLOCK
  5
AB
330
A9
100
AcDbEntity
  8
0
100
AcDbBlockBegin
  2
block 6
 70
     0
 10
0.0
 20
0.0
 30
0.0
  3
block 6
  1

  0
SPLINE
  5
AD
330
A9
100
AcDbEntity
  8
_U+30EC_U+30A4_U+30E4_U+30FC 1
370
     0
100
AcDbSpline
210
0.0
220
0.0
230
1.0
 70
    11
 71
     3
 72
    26
 73
    22
 74
     0
 42
0.0000000001
 43
0.0000000001
 12
1.0
 22
0.0
 32
0.0
 13
1.0
 23
0.0
 33
0.0
 40
0.0
 40
0.0
 40
0.0
 40
0.0
 40
1.0
 40
1.0
 40
1.0
 40
2.0
 40
2.0
 40
2.0
 40
3.0
 40
3.0
 40
3.0
 40
4.0
 40
4.0
 40
4.0
 40
5.0
 40
5.0
 40
5.0
 40
6.0
 40
6.0
 40
6.0
 40
7.0
 40
7.0
 40
7.0
 40
7.0
 10
102.0213351524461
 20
-124.5091959324144
 30
0.0
 10
102.0213351524461
 20
-124.5091959324144
 30
0.0
 10
100.9171820494235
 20
-124.5091959324144
 30
0.0
 10
100.9171820494235
 20
-124.5091959324144
 30
0.0
 10
100.9171820494235
 20
-124.5091959324144
 30
0.0
 10
100.9171820494235
 20
-124.8392360799013
 30
0.0
 10
100.9171820494235
 20
-124.8392360799013
 30
0.0
 10
100.9171820494235
 20
-124.8392360799013
 30
0.0
 10
100.7690429435577
 20
-124.8392360799013
 30
0.0
 10
100.7690429435577
 20
-124.8392360799013
 30
0.0
 10
100.7542290329712
 20
-124.5071288751232
 30
0.0
 10
100.5912760165188
 20
-124.4606200860724
 30
0.0
 10
100.4772433559571
 20
-124.4309922648992
 30
0.0
 10
100.4772433559571
 20
-124.4309922648992
 30
0.0
 10
100.4772433559571
 20
-124.2849202163246
 30
0.0
 10
100.4772433559571
 20
-124.2849202163246
 30
0.0
 10
100.4772433559571
 20
-124.2849202163246
 30
0.0
 10
102.0213351524461
 20
-124.2849202163246
 30
0.0
 10
102.0213351524461
 20
-124.2849202163246
 30
0.0
 10
102.0213351524461
 20
-124.2849202163246
 30
0.0
 10
102.0213351524461
 20
-124.5091959324144
 30
0.0
 10
102.0213351524461
 20
-124.5091959324144
 30
0.0
  0
HATCH
  5
AE
330
A9
100
AcDbEntity
  8
_U+30EC_U+30A4_U+30E4_U+30FC 1
 62
     7
420
 16777215
100
AcDbHatch
 10
0.0
 20
0.0
 30
0.0
210
0.0
220
0.0
230
1.0
  2
SOLID
 70
     1
 71
     0
 91
        1
 92
        1
 93
        1
 72
     4
 94
        3
 73
     0
 74
     1
 95
       26
 96
       22
 40
0.0
 40
0.0
 40
0.0
 40
0.0
 40
1.0
 40
1.0
 40
1.0
 40
2.0
 40
2.0
 40
2.0
 40
3.0
 40
3.0
 40
3.0
 40
4.0
 40
4.0
 40
4.0
 40
5.0
 40
5.0
 40
5.0
 40
6.0
 40
6.0
 40
6.0
 40
7.0
 40
7.0
 40
7.0
 40
7.0
 10
102.0213351524461
 20
-124.5091959324144
 10
102.0213351524461
 20
-124.5091959324144
 10
100.9171820494235
 20
-124.5091959324144
 10
100.9171820494235
 20
-124.5091959324144
 10
100.9171820494235
 20
-124.5091959324144
 10
100.9171820494235
 20
-124.8392360799013
 10
100.9171820494235
 20
-124.8392360799013
 10
100.9171820494235
 20
-124.8392360799013
 10
100.7690429435577
 20
-124.8392360799013
 10
100.7690429435577
 20
-124.8392360799013
 10
100.7542290329712
 20
-124.5071288751232
 10
100.5912760165188
 20
-124.4606200860724
 10
100.4772433559571
 20
-124.4309922648992
 10
100.4772433559571
 20
-124.4309922648992
 10
100.4772433559571
 20
-124.2849202163246
 10
100.4772433559571
 20
-124.2849202163246
 10
100.4772433559571
 20
-124.2849202163246
 10
102.0213351524461
 20
-124.2849202163246
 10
102.0213351524461
 20
-124.2849202163246
 10
102.0213351524461
 20
-124.2849202163246
 10
102.0213351524461
 20
-124.5091959324144
 10
102.0213351524461
 20
-124.5091959324144
 97
        0
 97
        0
 75
     2
 76
     1
 98
        0
  0
POLYLINE
  5
AF
330
A9
100
AcDbEntity
  8
_U+30EC_U+30A4_U+30E4_U+30FC 1
370
     0
100
AcDb2dPolyline
 66
     1
 10
0.0
 20
0.0
 30
0.0
  0
VERTEX
  5
B0
330
AF
100
AcDbEntity
  8
_U+30EC_U+30A4_U+30E4_U+30FC 1
370
     0
100
AcDbVertex
100
AcDb2dVertex
 10
102.0213351524461
 20
-123.7237141617774
 30
0.0
  0
VERTEX
  5
B1
330
AF
100
AcDbEntity
  8
_U+30EC_U+30A4_U+30E4_U+30FC 1
370
     0
100
AcDbVertex
100
AcDb2dVertex
 10
101.7698431820228
 20
-123.7237141617774
 30
0.0
  0
VERTEX
  5
B2
330
AF
100
AcDbEntity
  8
_U+30EC_U+30A4_U+30E4_U+30FC 1
370
     0
100
AcDbVertex
100
AcDb2dVertex
 10
101.7698431820228
 20
-123.4718776818057
 30
0.0
  0
VERTEX
  5
B3
330
AF
100
AcDbEntity
  8
_U+30EC_U+30A4_U+30E4_U+30FC 1
370
     0
100
AcDbVertex
100
AcDb2dVertex
 10
102.0213351524461
 20
-123.4718776818057
 30
0.0
  0
VERTEX
  5
B4
330
AF
100
AcDbEntity
  8
_U+30EC_U+30A4_U+30E4_U+30FC 1
370
     0
100
AcDbVertex
100
AcDb2dVertex
 10
102.0213351524461
 20
-123.7237141617774
 30
0.0
  0
SEQEND
  5
B5
330
AF
100
AcDbEntity
  8
_U+30EC_U+30A4_U+30E4_U+30FC 1
370
     0
  0
HATCH
  5
B6
330
A9
100
AcDbEntity
  8
_U+30EC_U+30A4_U+30E4_U+30FC 1
 62
     7
420
 16777215
100
AcDbHatch
 10
0.0
 20
0.0
 30
0.0
210
0.0
220
0.0
230
1.0
  2
SOLID
 70
     1
 71
     0
 91
        1
 92
        1
 93
        4
 72
     1
 10
102.0213351524461
 20
-123.7237141617774
 11
101.7698431820228
 21
-123.7237141617774
 72
     1
 10
101.7698431820228
 20
-123.7237141617774
 11
101.7698431820228
 21
-123.4718776818057
 72
     1
 10
101.7698431820228
 20
-123.4718776818057
 11
102.0213351524461
 21
-123.4718776818057
 72
     1
 10
102.0213351524461
 20
-123.4718776818057
 11
102.0213351524461
 21
-123.7237141617774
 97
        0
 75
     2
 76
     1
 98
        0
  0
SPLINE
  5
B7
330
A9
100
AcDbEntity
  8
_U+30EC_U+30A4_U+30E4_U+30FC 1
370
     0
100
AcDbSpline
210
0.0
220
0.0
230
1.0
 70
    11
 71
     3
 72
    53
 73
    49
 74
     0
 42
0.0000000001
 43
0.0000000001
 12
1.0
 22
0.0
 32
0.0
 13
1.0
 23
0.0
 33
0.0
 40
0.0
 40
0.0
 40
0.0
 40
0.0
 40
1.0
 40
1.0
 40
1.0
 40
2.0
 40
2.0
 40
2.0
 40
3.0
 40
3.0
 40
3.0
 40
4.0
 40
4.0
 40
4.0
 40
5.0
 40
5.0
 40
5.0
 40
6.0
 40
6.0
 40
6.0
 40
7.0
 40
7.0
 40
7.0
 40
8.0
 40
8.0
 40
8.0
 40
9.0
 40
9.0
 40
9.0
 40
10.0
 40
10.0
 40
10.0
 40
11.0
 40
11.0
 40
11.0
 40
12.0
 40
12.0
 40
12.0
 40
13.0
 40
13.0
 40
13.0
 40
14.0
 40
14.0
 40
14.0
 40
15.0
 40
15.0
 40
15.0
 40
16.0
 40
16.0
 40
16.0
 40
16.0
 10
102.0723225656278
 20
-122.7546088017766
 30
0.0
 10
102.0723225656278
 20
-122.8328124692918
 30
0.0
 10
102.0550970882015
 20
-122.9344427861067
 30
0.0
 10
101.9917073312729
 20
-123.0360731029215
 30
0.0
 10
101.8818087852934
 20
-123.2093614058296
 30
0.0
 10
101.7505506473054
 20
-123.2307209978382
 30
0.0
 10
101.6427191586171
 20
-123.249669023007
 30
0.0
 10
101.6427191586171
 20
-123.249669023007
 30
0.0
 10
101.6427191586171
 20
-123.0274603642084
 30
0.0
 10
101.6427191586171
 20
-123.0274603642084
 30
0.0
 10
101.841501168116
 20
-122.9726833459929
 30
0.0
 10
101.8711289892892
 20
-122.8455593225872
 30
0.0
 10
101.8711289892892
 20
-122.7525417444855
 30
0.0
 10
101.8711289892892
 20
-122.6130153773329
 30
0.0
 10
101.771910239314
 20
-122.4607421568848
 30
0.0
 10
101.5390217845111
 20
-122.4607421568848
 30
0.0
 10
101.283051189957
 20
-122.4607421568848
 30
0.0
 10
101.213460261155
 20
-122.6405761412149
 30
0.0
 10
101.213460261155
 20
-122.7611544831986
 30
0.0
 10
101.213460261155
 20
-122.7928493616629
 30
0.0
 10
101.213460261155
 20
-122.9344427861067
 30
0.0
 10
101.3423068323033
 20
-123.0233262496261
 30
0.0
 10
101.3423068323033
 20
-123.0233262496261
 30
0.0
 10
101.3233588071344
 20
-123.1990261193739
 30
0.0
 10
101.3233588071344
 20
-123.1990261193739
 30
0.0
 10
101.3233588071344
 20
-123.1990261193739
 30
0.0
 10
100.4772433559571
 20
-123.0784477773901
 30
0.0
 10
100.4772433559571
 20
-123.0784477773901
 30
0.0
 10
100.4772433559571
 20
-123.0784477773901
 30
0.0
 10
100.4772433559571
 20
-122.2998561977237
 30
0.0
 10
100.4772433559571
 20
-122.2998561977237
 30
0.0
 10
100.4772433559571
 20
-122.2998561977237
 30
0.0
 10
100.6718912508737
 20
-122.2998561977237
 30
0.0
 10
100.6718912508737
 20
-122.2998561977237
 30
0.0
 10
100.6718912508737
 20
-122.2998561977237
 30
0.0
 10
100.6718912508737
 20
-122.9154947609378
 30
0.0
 10
100.6718912508737
 20
-122.9154947609378
 30
0.0
 10
100.6718912508737
 20
-122.9154947609378
 30
0.0
 10
101.0949489764624
 20
-122.9809515751575
 30
0.0
 10
101.0949489764624
 20
-122.9809515751575
 30
0.0
 10
101.0608425311584
 20
-122.9196288755201
 30
0.0
 10
101.0208794235295
 20
-122.8372910934226
 30
0.0
 10
101.0208794235295
 20
-122.71877980873
 30
0.0
 10
101.0208794235295
 20
-122.4648762714671
 30
0.0
 10
101.206914579733
 20
-122.2278537020819
 30
0.0
 10
101.5200737593422
 20
-122.2278537020819
 30
0.0
 10
101.8373670535337
 20
-122.2278537020819
 30
0.0
 10
102.0723225656278
 20
-122.4521294181717
 30
0.0
 10
102.0723225656278
 20
-122.7546088017766
 30
0.0
  0
HATCH
  5
B8
330
A9
100
AcDbEntity
  8
_U+30EC_U+30A4_U+30E4_U+30FC 1
 62
     7
420
 16777215
100
AcDbHatch
 10
0.0
 20
0.0
 30
0.0
210
0.0
220
0.0
230
1.0
  2
SOLID
 70
     1
 71
     0
 91
        1
 92
        1
 93
        1
 72
     4
 94
        3
 73
     0
 74
     1
 95
       53
 96
       49
 40
0.0
 40
0.0
 40
0.0
 40
0.0
 40
1.0
 40
1.0
 40
1.0
 40
2.0
 40
2.0
 40
2.0
 40
3.0
 40
3.0
 40
3.0
 40
4.0
 40
4.0
 40
4.0
 40
5.0
 40
5.0
 40
5.0
 40
6.0
 40
6.0
 40
6.0
 40
7.0
 40
7.0
 40
7.0
 40
8.0
 40
8.0
 40
8.0
 40
9.0
 40
9.0
 40
9.0
 40
10.0
 40
10.0
 40
10.0
 40
11.0
 40
11.0
 40
11.0
 40
12.0
 40
12.0
 40
12.0
 40
13.0
 40
13.0
 40
13.0
 40
14.0
 40
14.0
 40
14.0
 40
15.0
 40
15.0
 40
15.0
 40
16.0
 40
16.0
 40
16.0
 40
16.0
 10
102.0723225656278
 20
-122.7546088017766
 10
102.0723225656278
 20
-122.8328124692918
 10
102.0550970882015
 20
-122.9344427861067
 10
101.9917073312729
 20
-123.0360731029215
 10
101.8818087852934
 20
-123.2093614058296
 10
101.7505506473054
 20
-123.2307209978382
 10
101.6427191586171
 20
-123.249669023007
 10
101.6427191586171
 20
-123.249669023007
 10
101.6427191586171
 20
-123.0274603642084
 10
101.6427191586171
 20
-123.0274603642084
 10
101.841501168116
 20
-122.9726833459929
 10
101.8711289892892
 20
-122.8455593225872
 10
101.8711289892892
 20
-122.7525417444855
 10
101.8711289892892
 20
-122.6130153773329
 10
101.771910239314
 20
-122.4607421568848
 10
101.5390217845111
 20
-122.4607421568848
 10
101.283051189957
 20
-122.4607421568848
 10
101.213460261155
 20
-122.6405761412149
 10
101.213460261155
 20
-122.7611544831986
 10
101.213460261155
 20
-122.7928493616629
 10
101.213460261155
 20
-122.9344427861067
 10
101.3423068323033
 20
-123.0233262496261
 10
101.3423068323033
 20
-123.0233262496261
 10
101.3233588071344
 20
-123.1990261193739
 10
101.3233588071344
 20
-123.1990261193739
 10
101.3233588071344
 20
-123.1990261193739
 10
100.4772433559571
 20
-123.0784477773901
 10
100.4772433559571
 20
-123.0784477773901
 10
100.4772433559571
 20
-123.0784477773901
 10
100.4772433559571
 20
-122.2998561977237
 10
100.4772433559571
 20
-122.2998561977237
 10
100.4772433559571
 20
-122.2998561977237
 10
100.6718912508737
 20
-122.2998561977237
 10
100.6718912508737
 20
-122.2998561977237
 10
100.6718912508737
 20
-122.2998561977237
 10
100.6718912508737
 20
-122.9154947609378
 10
100.6718912508737
 20
-122.9154947609378
 10
100.6718912508737
 20
-122.9154947609378
 10
101.0949489764624
 20
-122.9809515751575
 10
101.0949489764624
 20
-122.9809515751575
 10
101.0608425311584
 20
-122.9196288755201
 10
101.0208794235295
 20
-122.8372910934226
 10
101.0208794235295
 20
-122.71877980873
 10
101.0208794235295
 20
-122.4648762714671
 10
101.206914579733
 20
-122.2278537020819
 10
101.5200737593422
 20
-122.2278537020819
 10
101.8373670535337
 20
-122.2278537020819
 10
102.0723225656278
 20
-122.4521294181717
 10
102.0723225656278
 20
-122.7546088017766
 97
        0
 97
        0
 75
     2
 76
     1
 98
        0
  0
ENDBLK
  5
AC
330
A9
100
AcDbEntity
  8
0
100
AcDbBlockEnd
  0
BLOCK
  5
D9
330
D7
100
AcDbEntity
  8
0
100
AcDbBlockBegin
  2
block 7
 70
     0
 10
0.0
 20
0.0
 30
0.0
  3
block 7
  1

  0
SPLINE
  5
DB
330
D7
100
AcDbEntity
  8
_U+30EC_U+30A4_U+30E4_U+30FC 1
370
     0
100
AcDbSpline
210
0.0
220
0.0
230
1.0
 70
    11
 71
     3
 72
    26
 73
    22
 74
     0
 42
0.0000000001
 43
0.0000000001
 12
1.0
 22
0.0
 32
0.0
 13
1.0
 23
0.0
 33
0.0
 40
0.0
 40
0.0
 40
0.0
 40
0.0
 40
1.0
 40
1.0
 40
1.0
 40
2.0
 40
2.0
 40
2.0
 40
3.0
 40
3.0
 40
3.0
 40
4.0
 40
4.0
 40
4.0
 40
5.0
 40
5.0
 40
5.0
 40
6.0
 40
6.0
 40
6.0
 40
7.0
 40
7.0
 40
7.0
 40
7.0
 10
86.43503415807875
 20
-127.4537190436574
 30
0.0
 10
86.43503415807875
 20
-127.4537190436574
 30
0.0
 10
86.43503415807875
 20
-126.3495659406348
 30
0.0
 10
86.43503415807875
 20
-126.3495659406348
 30
0.0
 10
86.43503415807875
 20
-126.3495659406348
 30
0.0
 10
86.10499401059181
 20
-126.3495659406348
 30
0.0
 10
86.10499401059181
 20
-126.3495659406348
 30
0.0
 10
86.10499401059181
 20
-126.3495659406348
 30
0.0
 10
86.10499401059181
 20
-126.2014268347691
 30
0.0
 10
86.10499401059181
 20
-126.2014268347691
 30
0.0
 10
86.43710121536989
 20
-126.1866129241825
 30
0.0
 10
86.48361000442077
 20
-126.0236599077302
 30
0.0
 10
86.51323782559392
 20
-125.9092827376199
 30
0.0
 10
86.51323782559392
 20
-125.9092827376199
 30
0.0
 10
86.65930987416851
 20
-125.9092827376199
 30
0.0
 10
86.65930987416851
 20
-125.9092827376199
 30
0.0
 10
86.65930987416851
 20
-125.9092827376199
 30
0.0
 10
86.65930987416851
 20
-127.4537190436574
 30
0.0
 10
86.65930987416851
 20
-127.4537190436574
 30
0.0
 10
86.65930987416851
 20
-127.4537190436574
 30
0.0
 10
86.43503415807875
 20
-127.4537190436574
 30
0.0
 10
86.43503415807875
 20
-127.4537190436574
 30
0.0
  0
HATCH
  5
DC
330
D7
100
AcDbEntity
  8
_U+30EC_U+30A4_U+30E4_U+30FC 1
 62
     7
420
 16777215
100
AcDbHatch
 10
0.0
 20
0.0
 30
0.0
210
0.0
220
0.0
230
1.0
  2
SOLID
 70
     1
 71
     0
 91
        1
 92
        1
 93
        1
 72
     4
 94
        3
 73
     0
 74
     1
 95
       26
 96
       22
 40
0.0
 40
0.0
 40
0.0
 40
0.0
 40
1.0
 40
1.0
 40
1.0
 40
2.0
 40
2.0
 40
2.0
 40
3.0
 40
3.0
 40
3.0
 40
4.0
 40
4.0
 40
4.0
 40
5.0
 40
5.0
 40
5.0
 40
6.0
 40
6.0
 40
6.0
 40
7.0
 40
7.0
 40
7.0
 40
7.0
 10
86.43503415807875
 20
-127.4537190436574
 10
86.43503415807875
 20
-127.4537190436574
 10
86.43503415807875
 20
-126.3495659406348
 10
86.43503415807875
 20
-126.3495659406348
 10
86.43503415807875
 20
-126.3495659406348
 10
86.10499401059181
 20
-126.3495659406348
 10
86.10499401059181
 20
-126.3495659406348
 10
86.10499401059181
 20
-126.3495659406348
 10
86.10499401059181
 20
-126.2014268347691
 10
86.10499401059181
 20
-126.2014268347691
 10
86.43710121536989
 20
-126.1866129241825
 10
86.48361000442077
 20
-126.0236599077302
 10
86.51323782559392
 20
-125.9092827376199
 10
86.51323782559392
 20
-125.9092827376199
 10
86.65930987416851
 20
-125.9092827376199
 10
86.65930987416851
 20
-125.9092827376199
 10
86.65930987416851
 20
-125.9092827376199
 10
86.65930987416851
 20
-127.4537190436574
 10
86.65930987416851
 20
-127.4537190436574
 10
86.65930987416851
 20
-127.4537190436574
 10
86.43503415807875
 20
-127.4537190436574
 10
86.43503415807875
 20
-127.4537190436574
 97
        0
 97
        0
 75
     2
 76
     1
 98
        0
  0
ENDBLK
  5
DA
330
D7
100
AcDbEntity
  8
0
100
AcDbBlockEnd
  0
ENDSEC
  0
SECTION
  2
ENTITIES
  0
POLYLINE
  5
41
330
1F
100
AcDbEntity
  8
_U+30EC_U+30A4_U+30E4_U+30FC 1
370
     0
100
AcDb2dPolyline
 66
     1
 10
0.0
 20
0.0
 30
0.0
  0
VERTEX
  5
42
330
41
100
AcDbEntity
  8
_U+30EC_U+30A4_U+30E4_U+30FC 1
370
     0
100
AcDbVertex
100
AcDb2dVertex
 10
78.30287105788288
 20
-126.6017491350163
 30
0.0
  0
VERTEX
  5
43
330
41
100
AcDbEntity
  8
_U+30EC_U+30A4_U+30E4_U+30FC 1
370
     0
100
AcDbVertex
100
AcDb2dVertex
 10
79.30299603236757
 20
-125.6018005241552
 30
0.0
  0
VERTEX
  5
44
330
41
100
AcDbEntity
  8
_U+30EC_U+30A4_U+30E4_U+30FC 1
370
     0
100
AcDbVertex
100
AcDb2dVertex
 10
85.30296976818438
 20
-125.6018005241552
 30
0.0
  0
VERTEX
  5
45
330
41
100
AcDbEntity
  8
_U+30EC_U+30A4_U+30E4_U+30FC 1
370
     0
100
AcDbVertex
100
AcDb2dVertex
 10
85.30296976818438
 20
-135.6017099660994
 30
0.0
  0
VERTEX
  5
46
330
41
100
AcDbEntity
  8
_U+30EC_U+30A4_U+30E4_U+30FC 1
370
     0
100
AcDbVertex
100
AcDb2dVertex
 10
88.00323886688795
 20
-135.6017099660994
 30
0.0
  0
VERTEX
  5
47
330
41
100
AcDbEntity
  8
_U+30EC_U+30A4_U+30E4_U+30FC 1
370
     0
100
AcDbVertex
100
AcDb2dVertex
 10
88.30295663609279
 20
-135.9021355215798
 30
0.0
  0
VERTEX
  5
48
330
41
100
AcDbEntity
  8
_U+30EC_U+30A4_U+30E4_U+30FC 1
370
     0
100
AcDbVertex
100
AcDb2dVertex
 10
88.60302940621507
 20
-135.6017099660994
 30
0.0
  0
VERTEX
  5
49
330
41
100
AcDbEntity
  8
_U+30EC_U+30A4_U+30E4_U+30FC 1
370
     0
100
AcDbVertex
100
AcDb2dVertex
 10
91.30294350400119
 20
-135.6017099660994
 30
0.0
  0
VERTEX
  5
4A
330
41
100
AcDbEntity
  8
_U+30EC_U+30A4_U+30E4_U+30FC 1
370
     0
100
AcDbVertex
100
AcDb2dVertex
 10
91.30294350400119
 20
-125.6018005241552
 30
0.0
  0
VERTEX
  5
4B
330
41
100
AcDbEntity
  8
_U+30EC_U+30A4_U+30E4_U+30FC 1
370
     0
100
AcDbVertex
100
AcDb2dVertex
 10
97.30291723981799
 20
-125.6018005241552
 30
0.0
  0
VERTEX
  5
4C
330
41
100
AcDbEntity
  8
_U+30EC_U+30A4_U+30E4_U+30FC 1
370
     0
100
AcDbVertex
100
AcDb2dVertex
 10
98.30304221430268
 20
-126.6017491350163
 30
0.0
  0
VERTEX
  5
4D
330
41
100
AcDbEntity
  8
_U+30EC_U+30A4_U+30E4_U+30FC 1
370
     0
100
AcDbVertex
100
AcDb2dVertex
 10
98.30304221430268
 20
-127.1018116348912
 30
0.0
  0
VERTEX
  5
4E
330
41
100
AcDbEntity
  8
_U+30EC_U+30A4_U+30E4_U+30FC 1
370
     0
100
AcDbVertex
100
AcDb2dVertex
 10
97.30291723981799
 20
-127.1018116348912
 30
0.0
  0
VERTEX
  5
4F
330
41
100
AcDbEntity
  8
_U+30EC_U+30A4_U+30E4_U+30FC 1
370
     0
100
AcDbVertex
100
AcDb2dVertex
 10
96.80271364146815
 20
-126.6017491350163
 30
0.0
  0
VERTEX
  5
50
330
41
100
AcDbEntity
  8
_U+30EC_U+30A4_U+30E4_U+30FC 1
370
     0
100
AcDbVertex
100
AcDb2dVertex
 10
92.30306847848587
 20
-126.6017491350163
 30
0.0
  0
VERTEX
  5
51
330
41
100
AcDbEntity
  8
_U+30EC_U+30A4_U+30E4_U+30FC 1
370
     0
100
AcDbVertex
100
AcDb2dVertex
 10
92.30306847848587
 20
-136.6018349658497
 30
0.0
  0
VERTEX
  5
52
330
41
100
AcDbEntity
  8
_U+30EC_U+30A4_U+30E4_U+30FC 1
370
     0
100
AcDbVertex
100
AcDb2dVertex
 10
84.30302118258409
 20
-136.6018349658497
 30
0.0
  0
VERTEX
  5
53
330
41
100
AcDbEntity
  8
_U+30EC_U+30A4_U+30E4_U+30FC 1
370
     0
100
AcDbVertex
100
AcDb2dVertex
 10
84.30288007147657
 20
-126.6017491350163
 30
0.0
  0
VERTEX
  5
54
330
41
100
AcDbEntity
  8
_U+30EC_U+30A4_U+30E4_U+30FC 1
370
     0
100
AcDbVertex
100
AcDb2dVertex
 10
79.8032349084943
 20
-126.6017491350163
 30
0.0
  0
VERTEX
  5
55
330
41
100
AcDbEntity
  8
_U+30EC_U+30A4_U+30E4_U+30FC 1
370
     0
100
AcDbVertex
100
AcDb2dVertex
 10
79.30299603236757
 20
-127.1018116348912
 30
0.0
  0
VERTEX
  5
56
330
41
100
AcDbEntity
  8
_U+30EC_U+30A4_U+30E4_U+30FC 1
370
     0
100
AcDbVertex
100
AcDb2dVertex
 10
78.30287105788288
 20
-127.1018116348912
 30
0.0
  0
VERTEX
  5
57
330
41
100
AcDbEntity
  8
_U+30EC_U+30A4_U+30E4_U+30FC 1
370
     0
100
AcDbVertex
100
AcDb2dVertex
 10
78.30287105788288
 20
-126.6017491350163
 30
0.0
  0
SEQEND
  5
59
330
41
100
AcDbEntity
  8
_U+30EC_U+30A4_U+30E4_U+30FC 1
370
     0
  0
HATCH
  5
58
330
1F
100
AcDbEntity
  8
_U+30EC_U+30A4_U+30E4_U+30FC 1
 62
   253
420
 11711154
100
AcDbHatch
 10
0.0
 20
0.0
 30
0.0
210
0.0
220
0.0
230
1.0
  2
SOLID
 70
     1
 71
     0
 91
        1
 92
        1
 93
       21
 72
     1
 10
78.30287105788288
 20
-126.6017491350163
 11
79.30299603236757
 21
-125.6018005241552
 72
     1
 10
79.30299603236757
 20
-125.6018005241552
 11
85.30296976818438
 21
-125.6018005241552
 72
     1
 10
85.30296976818438
 20
-125.6018005241552
 11
85.30296976818438
 21
-135.6017099660994
 72
     1
 10
85.30296976818438
 20
-135.6017099660994
 11
88.00323886688795
 21
-135.6017099660994
 72
     1
 10
88.00323886688795
 20
-135.6017099660994
 11
88.30295663609279
 21
-135.9021355215798
 72
     1
 10
88.30295663609279
 20
-135.9021355215798
 11
88.60302940621507
 21
-135.6017099660994
 72
     1
 10
88.60302940621507
 20
-135.6017099660994
 11
91.30294350400119
 21
-135.6017099660994
 72
     1
 10
91.30294350400119
 20
-135.6017099660994
 11
91.30294350400119
 21
-125.6018005241552
 72
     1
 10
91.30294350400119
 20
-125.6018005241552
 11
97.30291723981799
 21
-125.6018005241552
 72
     1
 10
97.30291723981799
 20
-125.6018005241552
 11
98.30304221430268
 21
-126.6017491350163
 72
     1
 10
98.30304221430268
 20
-126.6017491350163
 11
98.30304221430268
 21
-127.1018116348912
 72
     1
 10
98.30304221430268
 20
-127.1018116348912
 11
97.30291723981799
 21
-127.1018116348912
 72
     1
 10
97.30291723981799
 20
-127.1018116348912
 11
96.80271364146815
 21
-126.6017491350163
 72
     1
 10
96.80271364146815
 20
-126.6017491350163
 11
92.30306847848587
 21
-126.6017491350163
 72
     1
 10
92.30306847848587
 20
-126.6017491350163
 11
92.30306847848587
 21
-136.6018349658497
 72
     1
 10
92.30306847848587
 20
-136.6018349658497
 11
84.30302118258409
 21
-136.6018349658497
 72
     1
 10
84.30302118258409
 20
-136.6018349658497
 11
84.30288007147657
 21
-126.6017491350163
 72
     1
 10
84.30288007147657
 20
-126.6017491350163
 11
79.8032349084943
 21
-126.6017491350163
 72
     1
 10
79.8032349084943
 20
-126.6017491350163
 11
79.30299603236757
 21
-127.1018116348912
 72
     1
 10
79.30299603236757
 20
-127.1018116348912
 11
78.30287105788288
 21
-127.1018116348912
 72
     1
 10
78.30287105788288
 20
-127.1018116348912
 11
78.30287105788288
 21
-126.6017491350163
 97
        0
 75
     2
 76
     1
 98
        0
  0
SPLINE
  5
5A
330
1F
100
AcDbEntity
  8
_U+30EC_U+30A4_U+30E4_U+30FC 1
 62
     7
420
 16777215
370
     9
100
AcDbSpline
210
0.0
220
0.0
230
1.0
 70
    11
 71
     3
 72
    17
 73
    13
 74
     0
 42
0.0000000001
 43
0.0000000001
 12
1.0
 22
0.0
 32
0.0
 13
1.0
 23
0.0
 33
0.0
 40
0.0
 40
0.0
 40
0.0
 40
0.0
 40
1.0
 40
1.0
 40
1.0
 40
2.0
 40
2.0
 40
2.0
 40
3.0
 40
3.0
 40
3.0
 40
4.0
 40
4.0
 40
4.0
 40
4.0
 10
98.40294887842052
 20
-122.7568594137553
 30
0.0
 10
98.40294887842052
 20
-122.7017202471022
 30
0.0
 10
98.35814610178575
 20
-122.6569527471136
 30
0.0
 10
98.30304221430268
 20
-122.6569527471136
 30
0.0
 10
98.24790553099344
 20
-122.6569527471136
 30
0.0
 10
98.20313555018484
 20
-122.7017202471022
 30
0.0
 10
98.20313555018484
 20
-122.7568594137553
 30
0.0
 10
98.20313555018484
 20
-122.8119633026302
 30
0.0
 10
98.24790553099344
 20
-122.8567660803969
 30
0.0
 10
98.30304221430268
 20
-122.8567660803969
 30
0.0
 10
98.35814610178575
 20
-122.8567660803969
 30
0.0
 10
98.40294887842052
 20
-122.8119633026302
 30
0.0
 10
98.40294887842052
 20
-122.7568594137553
 30
0.0
  0
SPLINE
  5
5B
330
1F
100
AcDbEntity
  8
_U+30EC_U+30A4_U+30E4_U+30FC 1
 62
     7
420
 16777215
370
     9
100
AcDbSpline
210
0.0
220
0.0
230
1.0
 70
    11
 71
     3
 72
    17
 73
    13
 74
     0
 42
0.0000000001
 43
0.0000000001
 12
1.0
 22
0.0
 32
0.0
 13
1.0
 23
0.0
 33
0.0
 40
0.0
 40
0.0
 40
0.0
 40
0.0
 40
1.0
 40
1.0
 40
1.0
 40
2.0
 40
2.0
 40
2.0
 40
3.0
 40
3.0
 40
3.0
 40
4.0
 40
4.0
 40
4.0
 40
4.0
 10
102.5742637720014
 20
-136.6703796880545
 30
0.0
 10
102.5742637720014
 20
-136.614570243624
 30
0.0
 10
102.5294962731435
 20
-136.5704730214129
 30
0.0
 10
102.4743571078836
 20
-136.5704730214129
 30
0.0
 10
102.4192532204005
 20
-136.5704730214129
 30
0.0
 10
102.3744504437657
 20
-136.614570243624
 30
0.0
 10
102.3744504437657
 20
-136.6703796880545
 30
0.0
 10
102.3744504437657
 20
-136.7255188547076
 30
0.0
 10
102.4192532204005
 20
-136.7702863546961
 30
0.0
 10
102.4743571078836
 20
-136.7702863546961
 30
0.0
 10
102.5294962731435
 20
-136.7702863546961
 30
0.0
 10
102.5742637720014
 20
-136.7255188547076
 30
0.0
 10
102.5742637720014
 20
-136.6703796880545
 30
0.0
  0
SPLINE
  5
5C
330
1F
100
AcDbEntity
  8
_U+30EC_U+30A4_U+30E4_U+30FC 1
 62
     7
420
 16777215
370
     9
100
AcDbSpline
210
0.0
220
0.0
230
1.0
 70
    11
 71
     3
 72
    17
 73
    13
 74
     0
 42
0.0000000001
 43
0.0000000001
 12
1.0
 22
0.0
 32
0.0
 13
1.0
 23
0.0
 33
0.0
 40
0.0
 40
0.0
 40
0.0
 40
0.0
 40
1.0
 40
1.0
 40
1.0
 40
2.0
 40
2.0
 40
2.0
 40
3.0
 40
3.0
 40
3.0
 40
4.0
 40
4.0
 40
4.0
 40
4.0
 10
102.5742637720014
 20
-127.1703563570963
 30
0.0
 10
102.5742637720014
 20
-127.1145469126659
 30
0.0
 10
102.5294962731435
 20
-127.0704496904547
 30
0.0
 10
102.4743571078836
 20
-127.0704496904547
 30
0.0
 10
102.4192532204005
 20
-127.0704496904547
 30
0.0
 10
102.3744504437657
 20
-127.1145469126659
 30
0.0
 10
102.3744504437657
 20
-127.1703563570963
 30
0.0
 10
102.3744504437657
 20
-127.225495523749
 30
0.0
 10
102.4192532204005
 20
-127.2702630237379
 30
0.0
 10
102.4743571078836
 20
-127.2702630237379
 30
0.0
 10
102.5294962731435
 20
-127.2702630237379
 30
0.0
 10
102.5742637720014
 20
-127.225495523749
 30
0.0
 10
102.5742637720014
 20
-127.1703563570963
 30
0.0
  0
SPLINE
  5
5D
330
1F
100
AcDbEntity
  8
_U+30EC_U+30A4_U+30E4_U+30FC 1
 62
     7
420
 16777215
370
     9
100
AcDbSpline
210
0.0
220
0.0
230
1.0
 70
    11
 71
     3
 72
    17
 73
    13
 74
     0
 42
0.0000000001
 43
0.0000000001
 12
1.0
 22
0.0
 32
0.0
 13
1.0
 23
0.0
 33
0.0
 40
0.0
 40
0.0
 40
0.0
 40
0.0
 40
1.0
 40
1.0
 40
1.0
 40
2.0
 40
2.0
 40
2.0
 40
3.0
 40
3.0
 40
3.0
 40
4.0
 40
4.0
 40
4.0
 40
4.0
 10
78.40277772200072
 20
-122.7568594137553
 30
0.0
 10
78.40277772200072
 20
-122.7017202471022
 30
0.0
 10
78.35801022314284
 20
-122.6569527471136
 30
0.0
 10
78.30287105788288
 20
-122.6569527471136
 30
0.0
 10
78.24776717039981
 20
-122.6569527471136
 30
0.0
 10
78.20296439376506
 20
-122.7017202471022
 30
0.0
 10
78.20296439376506
 20
-122.7568594137553
 30
0.0
 10
78.20296439376506
 20
-122.8119633026302
 30
0.0
 10
78.24776717039981
 20
-122.8567660803969
 30
0.0
 10
78.30287105788288
 20
-122.8567660803969
 30
0.0
 10
78.35801022314284
 20
-122.8567660803969
 30
0.0
 10
78.40277772200072
 20
-122.8119633026302
 30
0.0
 10
78.40277772200072
 20
-122.7568594137553
 30
0.0
  0
SPLINE
  5
5E
330
1F
100
AcDbEntity
  8
_U+30EC_U+30A4_U+30E4_U+30FC 1
 62
     7
420
 16777215
370
     9
100
AcDbSpline
210
0.0
220
0.0
230
1.0
 70
    11
 71
     3
 72
    17
 73
    13
 74
     0
 42
0.0000000001
 43
0.0000000001
 12
1.0
 22
0.0
 32
0.0
 13
1.0
 23
0.0
 33
0.0
 40
0.0
 40
0.0
 40
0.0
 40
0.0
 40
1.0
 40
1.0
 40
1.0
 40
2.0
 40
2.0
 40
2.0
 40
3.0
 40
3.0
 40
3.0
 40
4.0
 40
4.0
 40
4.0
 40
4.0
 10
102.5742637720014
 20
-125.7020599685746
 30
0.0
 10
102.5742637720014
 20
-125.6466033019216
 30
0.0
 10
102.5294962731435
 20
-125.6018005241552
 30
0.0
 10
102.4743571078836
 20
-125.6018005241552
 30
0.0
 10
102.4192532204005
 20
-125.6018005241552
 30
0.0
 10
102.3744504437657
 20
-125.6466033019216
 30
0.0
 10
102.3744504437657
 20
-125.7020599685746
 30
0.0
 10
102.3744504437657
 20
-125.7571991352274
 30
0.0
 10
102.4192532204005
 20
-125.8019666352163
 30
0.0
 10
102.4743571078836
 20
-125.8019666352163
 30
0.0
 10
102.5294962731435
 20
-125.8019666352163
 30
0.0
 10
102.5742637720014
 20
-125.7571991352274
 30
0.0
 10
102.5742637720014
 20
-125.7020599685746
 30
0.0
  0
POLYLINE
  5
5F
330
1F
100
AcDbEntity
  8
_U+30EC_U+30A4_U+30E4_U+30FC 1
 62
     7
420
 16777215
370
     9
100
AcDb2dPolyline
 66
     1
 10
0.0
 20
0.0
 30
0.0
  0
VERTEX
  5
60
330
5F
100
AcDbEntity
  8
_U+30EC_U+30A4_U+30E4_U+30FC 1
 62
     7
420
 16777215
370
     9
100
AcDbVertex
100
AcDb2dVertex
 10
78.30287105788288
 20
-122.7568594137553
 30
0.0
  0
VERTEX
  5
61
330
5F
100
AcDbEntity
  8
_U+30EC_U+30A4_U+30E4_U+30FC 1
 62
     7
420
 16777215
370
     9
100
AcDbVertex
100
AcDb2dVertex
 10
98.30304221430268
 20
-122.7568594137553
 30
0.0
  0
SEQEND
  5
62
330
5F
100
AcDbEntity
  8
_U+30EC_U+30A4_U+30E4_U+30FC 1
 62
     7
420
 16777215
370
     9
  0
POLYLINE
  5
63
330
1F
100
AcDbEntity
  8
_U+30EC_U+30A4_U+30E4_U+30FC 1
 62
     7
420
 16777215
370
     9
100
AcDb2dPolyline
 66
     1
 10
0.0
 20
0.0
 30
0.0
  0
VERTEX
  5
64
330
63
100
AcDbEntity
  8
_U+30EC_U+30A4_U+30E4_U+30FC 1
 62
     7
420
 16777215
370
     9
100
AcDbVertex
100
AcDb2dVertex
 10
78.30287105788288
 20
-120.4968591365423
 30
0.0
  0
VERTEX
  5
65
330
63
100
AcDbEntity
  8
_U+30EC_U+30A4_U+30E4_U+30FC 1
 62
     7
420
 16777215
370
     9
100
AcDbVertex
100
AcDb2dVertex
 10
78.30287105788288
 20
-123.7566316357275
 30
0.0
  0
SEQEND
  5
66
330
63
100
AcDbEntity
  8
_U+30EC_U+30A4_U+30E4_U+30FC 1
 62
     7
420
 16777215
370
     9
  0
SPLINE
  5
67
330
1F
100
AcDbEntity
  8
_U+30EC_U+30A4_U+30E4_U+30FC 1
 62
     7
420
 16777215
370
     9
100
AcDbSpline
210
0.0
220
0.0
230
1.0
 70
    11
 71
     3
 72
    17
 73
    13
 74
     0
 42
0.0000000001
 43
0.0000000001
 12
1.0
 22
0.0
 32
0.0
 13
1.0
 23
0.0
 33
0.0
 40
0.0
 40
0.0
 40
0.0
 40
0.0
 40
1.0
 40
1.0
 40
1.0
 40
2.0
 40
2.0
 40
2.0
 40
3.0
 40
3.0
 40
3.0
 40
4.0
 40
4.0
 40
4.0
 40
4.0
 10
85.40270004341782
 20
-122.7568594137553
 30
0.0
 10
85.40270004341782
 20
-122.7017202471022
 30
0.0
 10
85.35793254455994
 20
-122.6569527471136
 30
0.0
 10
85.30279337929998
 20
-122.6569527471136
 30
0.0
 10
85.24769164535472
 20
-122.6569527471136
 30
0.0
 10
85.20288886758833
 20
-122.7017202471022
 30
0.0
 10
85.20288886758833
 20
-122.7568594137553
 30
0.0
 10
85.20288886758833
 20
-122.8119633026302
 30
0.0
 10
85.24769164535472
 20
-122.8567660803969
 30
0.0
 10
85.30279337929998
 20
-122.8567660803969
 30
0.0
 10
85.35793254455994
 20
-122.8567660803969
 30
0.0
 10
85.40270004341782
 20
-122.8119633026302
 30
0.0
 10
85.40270004341782
 20
-122.7568594137553
 30
0.0
  0
POLYLINE
  5
68
330
1F
100
AcDbEntity
  8
_U+30EC_U+30A4_U+30E4_U+30FC 1
 62
     7
420
 16777215
370
     9
100
AcDb2dPolyline
 66
     1
 10
0.0
 20
0.0
 30
0.0
  0
VERTEX
  5
69
330
68
100
AcDbEntity
  8
_U+30EC_U+30A4_U+30E4_U+30FC 1
 62
     7
420
 16777215
370
     9
100
AcDbVertex
100
AcDb2dVertex
 10
85.30279337929998
 20
-120.4968591365423
 30
0.0
  0
VERTEX
  5
6A
330
68
100
AcDbEntity
  8
_U+30EC_U+30A4_U+30E4_U+30FC 1
 62
     7
420
 16777215
370
     9
100
AcDbVertex
100
AcDb2dVertex
 10
85.30279337929998
 20
-123.7566316357275
 30
0.0
  0
SEQEND
  5
6B
330
68
100
AcDbEntity
  8
_U+30EC_U+30A4_U+30E4_U+30FC 1
 62
     7
420
 16777215
370
     9
  0
SPLINE
  5
6C
330
1F
100
AcDbEntity
  8
_U+30EC_U+30A4_U+30E4_U+30FC 1
 62
     7
420
 16777215
370
     9
100
AcDbSpline
210
0.0
220
0.0
230
1.0
 70
    11
 71
     3
 72
    17
 73
    13
 74
     0
 42
0.0000000001
 43
0.0000000001
 12
1.0
 22
0.0
 32
0.0
 13
1.0
 23
0.0
 33
0.0
 40
0.0
 40
0.0
 40
0.0
 40
0.0
 40
1.0
 40
1.0
 40
1.0
 40
2.0
 40
2.0
 40
2.0
 40
3.0
 40
3.0
 40
3.0
 40
4.0
 40
4.0
 40
4.0
 40
4.0
 10
91.40285016811902
 20
-122.7568594137553
 30
0.0
 10
91.40285016811902
 20
-122.7017202471022
 30
0.0
 10
91.35808266926114
 20
-122.6569527471136
 30
0.0
 10
91.30294350400119
 20
-122.6569527471136
 30
0.0
 10
91.24783961651812
 20
-122.6569527471136
 30
0.0
 10
91.20303683988335
 20
-122.7017202471022
 30
0.0
 10
91.20303683988335
 20
-122.7568594137553
 30
0.0
 10
91.20303683988335
 20
-122.8119633026302
 30
0.0
 10
91.24783961651812
 20
-122.8567660803969
 30
0.0
 10
91.30294350400119
 20
-122.8567660803969
 30
0.0
 10
91.35808266926114
 20
-122.8567660803969
 30
0.0
 10
91.40285016811902
 20
-122.8119633026302
 30
0.0
 10
91.40285016811902
 20
-122.7568594137553
 30
0.0
  0
POLYLINE
  5
6D
330
1F
100
AcDbEntity
  8
_U+30EC_U+30A4_U+30E4_U+30FC 1
 62
     7
420
 16777215
370
     9
100
AcDb2dPolyline
 66
     1
 10
0.0
 20
0.0
 30
0.0
  0
VERTEX
  5
6E
330
6D
100
AcDbEntity
  8
_U+30EC_U+30A4_U+30E4_U+30FC 1
 62
     7
420
 16777215
370
     9
100
AcDbVertex
100
AcDb2dVertex
 10
91.30294350400119
 20
-120.4968591365423
 30
0.0
  0
VERTEX
  5
6F
330
6D
100
AcDbEntity
  8
_U+30EC_U+30A4_U+30E4_U+30FC 1
 62
     7
420
 16777215
370
     9
100
AcDbVertex
100
AcDb2dVertex
 10
91.30294350400119
 20
-123.7566316357275
 30
0.0
  0
SEQEND
  5
70
330
6D
100
AcDbEntity
  8
_U+30EC_U+30A4_U+30E4_U+30FC 1
 62
     7
420
 16777215
370
     9
  0
POLYLINE
  5
71
330
1F
100
AcDbEntity
  8
_U+30EC_U+30A4_U+30E4_U+30FC 1
 62
     7
420
 16777215
370
     9
100
AcDb2dPolyline
 66
     1
 10
0.0
 20
0.0
 30
0.0
  0
VERTEX
  5
72
330
71
100
AcDbEntity
  8
_U+30EC_U+30A4_U+30E4_U+30FC 1
 62
     7
420
 16777215
370
     9
100
AcDbVertex
100
AcDb2dVertex
 10
98.30304221430268
 20
-120.7965791364676
 30
0.0
  0
VERTEX
  5
73
330
71
100
AcDbEntity
  8
_U+30EC_U+30A4_U+30E4_U+30FC 1
 62
     7
420
 16777215
370
     9
100
AcDbVertex
100
AcDb2dVertex
 10
98.30304221430268
 20
-123.7566316357275
 30
0.0
  0
SEQEND
  5
74
330
71
100
AcDbEntity
  8
_U+30EC_U+30A4_U+30E4_U+30FC 1
 62
     7
420
 16777215
370
     9
  0
INSERT
  5
76
330
1F
100
AcDbEntity
  8
_U+30EC_U+30A4_U+30E4_U+30FC 1
100
AcDbBlockReference
  2
block 2
 10
0.0
 20
0.0
 30
0.0
  0
INSERT
  5
7D
330
1F
100
AcDbEntity
  8
_U+30EC_U+30A4_U+30E4_U+30FC 1
100
AcDbBlockReference
  2
block 3
 10
0.0
 20
0.0
 30
0.0
  0
INSERT
  5
83
330
1F
100
AcDbEntity
  8
_U+30EC_U+30A4_U+30E4_U+30FC 1
100
AcDbBlockReference
  2
block 4
 10
0.0
 20
0.0
 30
0.0
  0
POLYLINE
  5
88
330
1F
100
AcDbEntity
  8
_U+30EC_U+30A4_U+30E4_U+30FC 1
 62
     7
420
 16777215
370
     9
100
AcDb2dPolyline
 66
     1
 10
0.0
 20
0.0
 30
0.0
  0
VERTEX
  5
89
330
88
100
AcDbEntity
  8
_U+30EC_U+30A4_U+30E4_U+30FC 1
 62
     7
420
 16777215
370
     9
100
AcDbVertex
100
AcDb2dVertex
 10
102.4743571078836
 20
-122.1269041361349
 30
0.0
  0
VERTEX
  5
8A
330
88
100
AcDbEntity
  8
_U+30EC_U+30A4_U+30E4_U+30FC 1
 62
     7
420
 16777215
370
     9
100
AcDbVertex
100
AcDb2dVertex
 10
102.4743571078836
 20
-136.6703796880545
 30
0.0
  0
SEQEND
  5
8B
330
88
100
AcDbEntity
  8
_U+30EC_U+30A4_U+30E4_U+30FC 1
 62
     7
420
 16777215
370
     9
  0
POLYLINE
  5
8C
330
1F
100
AcDbEntity
  8
_U+30EC_U+30A4_U+30E4_U+30FC 1
 62
     7
420
 16777215
370
     9
100
AcDb2dPolyline
 66
     1
 10
0.0
 20
0.0
 30
0.0
  0
VERTEX
  5
8D
330
8C
100
AcDbEntity
  8
_U+30EC_U+30A4_U+30E4_U+30FC 1
 62
     7
420
 16777215
370
     9
100
AcDbVertex
100
AcDb2dVertex
 10
103.4417443054257
 20
-125.6703805241379
 30
0.0
  0
VERTEX
  5
8E
330
8C
100
AcDbEntity
  8
_U+30EC_U+30A4_U+30E4_U+30FC 1
 62
     7
420
 16777215
370
     9
100
AcDbVertex
100
AcDb2dVertex
 10
100.4820799364886
 20
-125.6703805241379
 30
0.0
  0
SEQEND
  5
8F
330
8C
100
AcDbEntity
  8
_U+30EC_U+30A4_U+30E4_U+30FC 1
 62
     7
420
 16777215
370
     9
  0
POLYLINE
  5
90
330
1F
100
AcDbEntity
  8
_U+30EC_U+30A4_U+30E4_U+30FC 1
 62
     7
420
 16777215
370
     9
100
AcDb2dPolyline
 66
     1
 10
0.0
 20
0.0
 30
0.0
  0
VERTEX
  5
91
330
90
100
AcDbEntity
  8
_U+30EC_U+30A4_U+30E4_U+30FC 1
 62
     7
420
 16777215
370
     9
100
AcDbVertex
100
AcDb2dVertex
 10
103.4417443054257
 20
-136.6703796880545
 30
0.0
  0
VERTEX
  5
92
330
90
100
AcDbEntity
  8
_U+30EC_U+30A4_U+30E4_U+30FC 1
 62
     7
420
 16777215
370
     9
100
AcDbVertex
100
AcDb2dVertex
 10
97.30259973982609
 20
-136.6703796880545
 30
0.0
  0
SEQEND
  5
93
330
90
100
AcDbEntity
  8
_U+30EC_U+30A4_U+30E4_U+30FC 1
 62
     7
420
 16777215
370
     9
  0
POLYLINE
  5
94
330
1F
100
AcDbEntity
  8
_U+30EC_U+30A4_U+30E4_U+30FC 1
 62
     7
420
 16777215
370
     9
100
AcDb2dPolyline
 66
     1
 10
0.0
 20
0.0
 30
0.0
  0
VERTEX
  5
95
330
94
100
AcDbEntity
  8
_U+30EC_U+30A4_U+30E4_U+30FC 1
 62
     7
420
 16777215
370
     9
100
AcDbVertex
100
AcDb2dVertex
 10
103.4417443054257
 20
-127.1703563570963
 30
0.0
  0
VERTEX
  5
96
330
94
100
AcDbEntity
  8
_U+30EC_U+30A4_U+30E4_U+30FC 1
 62
     7
420
 16777215
370
     9
100
AcDbVertex
100
AcDb2dVertex
 10
100.4820799364886
 20
-127.1703563570963
 30
0.0
  0
SEQEND
  5
97
330
94
100
AcDbEntity
  8
_U+30EC_U+30A4_U+30E4_U+30FC 1
 62
     7
420
 16777215
370
     9
  0
INSERT
  5
99
330
1F
100
AcDbEntity
  8
_U+30EC_U+30A4_U+30E4_U+30FC 1
100
AcDbBlockReference
  2
block 5
 10
0.0
 20
0.0
 30
0.0
  0
INSERT
  5
AA
330
1F
100
AcDbEntity
  8
_U+30EC_U+30A4_U+30E4_U+30FC 1
100
AcDbBlockReference
  2
block 6
 10
0.0
 20
0.0
 30
0.0
  0
POLYLINE
  5
B9
330
1F
100
AcDbEntity
  8
_U+30EC_U+30A4_U+30E4_U+30FC 1
 62
     7
420
 16777215
370
    25
100
AcDb2dPolyline
 66
     1
 10
0.0
 20
0.0
 30
0.0
  0
VERTEX
  5
BA
330
B9
100
AcDbEntity
  8
_U+30EC_U+30A4_U+30E4_U+30FC 1
 62
     7
420
 16777215
370
    25
100
AcDbVertex
100
AcDb2dVertex
 10
78.30287105788288
 20
-126.6017491350163
 30
0.0
  0
VERTEX
  5
BB
330
B9
100
AcDbEntity
  8
_U+30EC_U+30A4_U+30E4_U+30FC 1
 62
     7
420
 16777215
370
    25
100
AcDbVertex
100
AcDb2dVertex
 10
79.30299603236757
 20
-125.6018005241552
 30
0.0
  0
VERTEX
  5
BC
330
B9
100
AcDbEntity
  8
_U+30EC_U+30A4_U+30E4_U+30FC 1
 62
     7
420
 16777215
370
    25
100
AcDbVertex
100
AcDb2dVertex
 10
85.30296976818438
 20
-125.6018005241552
 30
0.0
  0
VERTEX
  5
BD
330
B9
100
AcDbEntity
  8
_U+30EC_U+30A4_U+30E4_U+30FC 1
 62
     7
420
 16777215
370
    25
100
AcDbVertex
100
AcDb2dVertex
 10
85.30296976818438
 20
-135.6017099660994
 30
0.0
  0
VERTEX
  5
BE
330
B9
100
AcDbEntity
  8
_U+30EC_U+30A4_U+30E4_U+30FC 1
 62
     7
420
 16777215
370
    25
100
AcDbVertex
100
AcDb2dVertex
 10
88.00323886688795
 20
-135.6017099660994
 30
0.0
  0
VERTEX
  5
BF
330
B9
100
AcDbEntity
  8
_U+30EC_U+30A4_U+30E4_U+30FC 1
 62
     7
420
 16777215
370
    25
100
AcDbVertex
100
AcDb2dVertex
 10
88.30295663609279
 20
-135.9021355215798
 30
0.0
  0
VERTEX
  5
C0
330
B9
100
AcDbEntity
  8
_U+30EC_U+30A4_U+30E4_U+30FC 1
 62
     7
420
 16777215
370
    25
100
AcDbVertex
100
AcDb2dVertex
 10
88.60302940621507
 20
-135.6017099660994
 30
0.0
  0
VERTEX
  5
C1
330
B9
100
AcDbEntity
  8
_U+30EC_U+30A4_U+30E4_U+30FC 1
 62
     7
420
 16777215
370
    25
100
AcDbVertex
100
AcDb2dVertex
 10
91.30294350400119
 20
-135.6017099660994
 30
0.0
  0
VERTEX
  5
C2
330
B9
100
AcDbEntity
  8
_U+30EC_U+30A4_U+30E4_U+30FC 1
 62
     7
420
 16777215
370
    25
100
AcDbVertex
100
AcDb2dVertex
 10
91.30294350400119
 20
-125.6018005241552
 30
0.0
  0
VERTEX
  5
C3
330
B9
100
AcDbEntity
  8
_U+30EC_U+30A4_U+30E4_U+30FC 1
 62
     7
420
 16777215
370
    25
100
AcDbVertex
100
AcDb2dVertex
 10
97.30291723981799
 20
-125.6018005241552
 30
0.0
  0
VERTEX
  5
C4
330
B9
100
AcDbEntity
  8
_U+30EC_U+30A4_U+30E4_U+30FC 1
 62
     7
420
 16777215
370
    25
100
AcDbVertex
100
AcDb2dVertex
 10
98.30304221430268
 20
-126.6017491350163
 30
0.0
  0
VERTEX
  5
C5
330
B9
100
AcDbEntity
  8
_U+30EC_U+30A4_U+30E4_U+30FC 1
 62
     7
420
 16777215
370
    25
100
AcDbVertex
100
AcDb2dVertex
 10
98.30304221430268
 20
-127.1018116348912
 30
0.0
  0
VERTEX
  5
C6
330
B9
100
AcDbEntity
  8
_U+30EC_U+30A4_U+30E4_U+30FC 1
 62
     7
420
 16777215
370
    25
100
AcDbVertex
100
AcDb2dVertex
 10
97.30291723981799
 20
-127.1018116348912
 30
0.0
  0
VERTEX
  5
C7
330
B9
100
AcDbEntity
  8
_U+30EC_U+30A4_U+30E4_U+30FC 1
 62
     7
420
 16777215
370
    25
100
AcDbVertex
100
AcDb2dVertex
 10
96.80271364146815
 20
-126.6017491350163
 30
0.0
  0
VERTEX
  5
C8
330
B9
100
AcDbEntity
  8
_U+30EC_U+30A4_U+30E4_U+30FC 1
 62
     7
420
 16777215
370
    25
100
AcDbVertex
100
AcDb2dVertex
 10
92.30306847848587
 20
-126.6017491350163
 30
0.0
  0
VERTEX
  5
C9
330
B9
100
AcDbEntity
  8
_U+30EC_U+30A4_U+30E4_U+30FC 1
 62
     7
420
 16777215
370
    25
100
AcDbVertex
100
AcDb2dVertex
 10
92.30306847848587
 20
-136.6018349658497
 30
0.0
  0
VERTEX
  5
CA
330
B9
100
AcDbEntity
  8
_U+30EC_U+30A4_U+30E4_U+30FC 1
 62
     7
420
 16777215
370
    25
100
AcDbVertex
100
AcDb2dVertex
 10
84.30302118258409
 20
-136.6018349658497
 30
0.0
  0
VERTEX
  5
CB
330
B9
100
AcDbEntity
  8
_U+30EC_U+30A4_U+30E4_U+30FC 1
 62
     7
420
 16777215
370
    25
100
AcDbVertex
100
AcDb2dVertex
 10
84.30288007147657
 20
-126.6017491350163
 30
0.0
  0
VERTEX
  5
CC
330
B9
100
AcDbEntity
  8
_U+30EC_U+30A4_U+30E4_U+30FC 1
 62
     7
420
 16777215
370
    25
100
AcDbVertex
100
AcDb2dVertex
 10
79.8032349084943
 20
-126.6017491350163
 30
0.0
  0
VERTEX
  5
CD
330
B9
100
AcDbEntity
  8
_U+30EC_U+30A4_U+30E4_U+30FC 1
 62
     7
420
 16777215
370
    25
100
AcDbVertex
100
AcDb2dVertex
 10
79.30299603236757
 20
-127.1018116348912
 30
0.0
  0
VERTEX
  5
CE
330
B9
100
AcDbEntity
  8
_U+30EC_U+30A4_U+30E4_U+30FC 1
 62
     7
420
 16777215
370
    25
100
AcDbVertex
100
AcDb2dVertex
 10
78.30287105788288
 20
-127.1018116348912
 30
0.0
  0
VERTEX
  5
CF
330
B9
100
AcDbEntity
  8
_U+30EC_U+30A4_U+30E4_U+30FC 1
 62
     7
420
 16777215
370
    25
100
AcDbVertex
100
AcDb2dVertex
 10
78.30287105788288
 20
-126.6017491350163
 30
0.0
  0
SEQEND
  5
D0
330
B9
100
AcDbEntity
  8
_U+30EC_U+30A4_U+30E4_U+30FC 1
 62
     7
420
 16777215
370
    25
  0
POLYLINE
  5
D1
330
1F
100
AcDbEntity
  8
_U+30EC_U+30A4_U+30E4_U+30FC 1
 62
     7
420
 16777215
370
     9
100
AcDb2dPolyline
 66
     1
 10
0.0
 20
0.0
 30
0.0
  0
VERTEX
  5
D2
330
D1
100
AcDbEntity
  8
_U+30EC_U+30A4_U+30E4_U+30FC 1
 62
     7
420
 16777215
370
     9
100
AcDbVertex
100
AcDb2dVertex
 10
86.89322139428035
 20
-127.8066616347151
 30
0.0
  0
VERTEX
  5
D3
330
D1
100
AcDbEntity
  8
_U+30EC_U+30A4_U+30E4_U+30FC 1
 62
     7
420
 16777215
370
     9
100
AcDbVertex
100
AcDb2dVertex
 10
83.49258481437114
 20
-127.8066616347151
 30
0.0
  0
SEQEND
  5
D4
330
D1
100
AcDbEntity
  8
_U+30EC_U+30A4_U+30E4_U+30FC 1
 62
     7
420
 16777215
370
     9
  0
SPLINE
  5
D5
330
1F
100
AcDbEntity
  8
_U+30EC_U+30A4_U+30E4_U+30FC 1
 62
     7
420
 16777215
370
     9
100
AcDbSpline
210
0.0
220
0.0
230
1.0
 70
    11
 71
     3
 72
    17
 73
    13
 74
     0
 42
0.0000000001
 43
0.0000000001
 12
1.0
 22
0.0
 32
0.0
 13
1.0
 23
0.0
 33
0.0
 40
0.0
 40
0.0
 40
0.0
 40
0.0
 40
1.0
 40
1.0
 40
1.0
 40
2.0
 40
2.0
 40
2.0
 40
3.0
 40
3.0
 40
3.0
 40
4.0
 40
4.0
 40
4.0
 40
4.0
 10
84.40292784670191
 20
-127.8066616347151
 30
0.0
 10
84.40292784670191
 20
-127.7508521902844
 30
0.0
 10
84.35816034784403
 20
-127.7067549680732
 30
0.0
 10
84.30302118258409
 20
-127.7067549680732
 30
0.0
 10
84.24756664560475
 20
-127.7067549680732
 30
0.0
 10
84.20279701847434
 20
-127.7508521902844
 30
0.0
 10
84.20279701847434
 20
-127.8066616347151
 30
0.0
 10
84.20279701847434
 20
-127.8618008013679
 30
0.0
 10
84.24756664560475
 20
-127.9065683013568
 30
0.0
 10
84.30302118258409
 20
-127.9065683013568
 30
0.0
 10
84.35816034784403
 20
-127.9065683013568
 30
0.0
 10
84.40292784670191
 20
-127.8618008013679
 30
0.0
 10
84.40292784670191
 20
-127.8066616347151
 30
0.0
  0
SPLINE
  5
D6
330
1F
100
AcDbEntity
  8
_U+30EC_U+30A4_U+30E4_U+30FC 1
 62
     7
420
 16777215
370
     9
100
AcDbSpline
210
0.0
220
0.0
230
1.0
 70
    11
 71
     3
 72
    17
 73
    13
 74
     0
 42
0.0000000001
 43
0.0000000001
 12
1.0
 22
0.0
 32
0.0
 13
1.0
 23
0.0
 33
0.0
 40
0.0
 40
0.0
 40
0.0
 40
0.0
 40
1.0
 40
1.0
 40
1.0
 40
2.0
 40
2.0
 40
2.0
 40
3.0
 40
3.0
 40
3.0
 40
4.0
 40
4.0
 40
4.0
 40
4.0
 10
85.4030528211866
 20
-127.8066616347151
 30
0.0
 10
85.4030528211866
 20
-127.7508521902844
 30
0.0
 10
85.35825004455184
 20
-127.7067549680732
 30
0.0
 10
85.30314615706877
 20
-127.7067549680732
 30
0.0
 10
85.24769164535472
 20
-127.7067549680732
 30
0.0
 10
85.20288886758833
 20
-127.7508521902844
 30
0.0
 10
85.20288886758833
 20
-127.8066616347151
 30
0.0
 10
85.20288886758833
 20
-127.8618008013679
 30
0.0
 10
85.24769164535472
 20
-127.9065683013568
 30
0.0
 10
85.30314615706877
 20
-127.9065683013568
 30
0.0
 10
85.35825004455184
 20
-127.9065683013568
 30
0.0
 10
85.4030528211866
 20
-127.8618008013679
 30
0.0
 10
85.4030528211866
 20
-127.8066616347151
 30
0.0
  0
INSERT
  5
D8
330
1F
100
AcDbEntity
  8
_U+30EC_U+30A4_U+30E4_U+30FC 1
100
AcDbBlockReference
  2
block 7
 10
0.0
 20
0.0
 30
0.0
  0
ENDSEC
  0
SECTION
  2
OBJECTS
  0
DICTIONARY
  5
C
330
0
100
AcDbDictionary
281
     1
  3
ACAD_GROUP
350
D
  3
ACAD_LAYOUT
350
1A
  3
ACAD_MATERIAL
350
3B
  3
ACAD_MLEADERSTYLE
350
DE
  3
ACAD_MLINESTYLE
350
17
  3
ACAD_PLOTSETTINGS
350
19
  3
ACAD_PLOTSTYLENAME
350
E
  3
ACAD_TABLESTYLE
350
DD
  3
ACAD_VISUALSTYLE
350
2A
  0
SUN
  5
3F
330
29
100
AcDbSun
 90
        1
290
     0
 63
     7
421
 16777215
 40
1.0
291
     1
 91
  2455826
 92
 54000000
292
     0
 70
     2
 71
   256
280
     1
  0
DICTIONARY
  5
D
102
{ACAD_REACTORS
330
C
102
}
330
C
100
AcDbDictionary
281
     1
  0
DICTIONARY
  5
1A
102
{ACAD_REACTORS
330
C
102
}
330
C
100
AcDbDictionary
281
     1
  3
Layout1
350
1E
  3
Layout2
350
26
  3
Model
350
22
  0
DICTIONARY
  5
3B
102
{ACAD_REACTORS
330
C
102
}
330
C
100
AcDbDictionary
281
     1
  3
ByBlock
350
3D
  3
ByLayer
350
3C
  3
Global
350
3E
  0
DICTIONARY
  5
DE
102
{ACAD_REACTORS
330
C
102
}
330
C
100
AcDbDictionary
281
     1
  0
DICTIONARY
  5
17
102
{ACAD_REACTORS
330
C
102
}
330
C
100
AcDbDictionary
281
     1
  3
Standard
350
18
  0
DICTIONARY
  5
19
102
{ACAD_REACTORS
330
C
102
}
330
C
100
AcDbDictionary
281
     1
  0
ACDBDICTIONARYWDFLT
  5
E
102
{ACAD_REACTORS
330
C
102
}
330
C
100
AcDbDictionary
281
     1
  3
Normal
350
F
100
AcDbDictionaryWithDefault
340
F
  0
DICTIONARY
  5
DD
102
{ACAD_REACTORS
330
C
102
}
330
C
100
AcDbDictionary
281
     1
  0
DICTIONARY
  5
2A
102
{ACAD_REACTORS
330
C
102
}
330
C
100
AcDbDictionary
281
     1
  3
2dWireframe
350
2F
  3
3D Hidden
350
31
  3
3dWireframe
350
30
  3
Basic
350
32
  3
Brighten
350
36
  3
ColorChange
350
3A
  3
Conceptual
350
34
  3
Dim
350
35
  3
Facepattern
350
39
  3
Flat
350
2B
  3
FlatWithEdges
350
2C
  3
Gouraud
350
2D
  3
GouraudWithEdges
350
2E
  3
Linepattern
350
38
  3
Realistic
350
33
  3
Thicken
350
37
  0
LAYOUT
  5
1E
102
{ACAD_REACTORS
330
1A
102
}
330
1A
100
AcDbPlotSettings
  1

  2
none_device
  4

  6

 40
0.0
 41
0.0
 42
0.0
 43
0.0
 44
0.0
 45
0.0
 46
0.0
 47
0.0
 48
0.0
 49
0.0
140
0.0
141
0.0
142
1.0
143
1.0
 70
   688
 72
     0
 73
     0
 74
     5
  7

 75
    16
 76
     0
 77
     2
 78
   300
147
1.0
148
0.0
149
0.0
100
AcDbLayout
  1
Layout1
 70
     1
 71
     1
 10
0.0
 20
0.0
 11
12.0
 21
9.0
 12
0.0
 22
0.0
 32
0.0
 14
1.000000000000000E+20
 24
1.000000000000000E+20
 34
1.000000000000000E+20
 15
-1.000000000000000E+20
 25
-1.000000000000000E+20
 35
-1.000000000000000E+20
146
0.0
 13
0.0
 23
0.0
 33
0.0
 16
1.0
 26
0.0
 36
0.0
 17
0.0
 27
1.0
 37
0.0
 76
     0
330
1B
  0
LAYOUT
  5
26
102
{ACAD_REACTORS
330
1A
102
}
330
1A
100
AcDbPlotSettings
  1

  2
none_device
  4

  6

 40
0.0
 41
0.0
 42
0.0
 43
0.0
 44
0.0
 45
0.0
 46
0.0
 47
0.0
 48
0.0
 49
0.0
140
0.0
141
0.0
142
1.0
143
1.0
 70
   688
 72
     0
 73
     0
 74
     5
  7

 75
    16
 76
     0
 77
     2
 78
   300
147
1.0
148
0.0
149
0.0
100
AcDbLayout
  1
Layout2
 70
     1
 71
     2
 10
0.0
 20
0.0
 11
0.0
 21
0.0
 12
0.0
 22
0.0
 32
0.0
 14
0.0
 24
0.0
 34
0.0
 15
0.0
 25
0.0
 35
0.0
146
0.0
 13
0.0
 23
0.0
 33
0.0
 16
1.0
 26
0.0
 36
0.0
 17
0.0
 27
1.0
 37
0.0
 76
     0
330
23
  0
LAYOUT
  5
22
102
{ACAD_REACTORS
330
1A
102
}
330
1A
100
AcDbPlotSettings
  1

  2
none_device
  4

  6

 40
0.0
 41
0.0
 42
0.0
 43
0.0
 44
0.0
 45
0.0
 46
0.0
 47
0.0
 48
0.0
 49
0.0
140
0.0
141
0.0
142
1.0
143
1.0
 70
  1712
 72
     0
 73
     0
 74
     0
  7

 75
     0
 76
     0
 77
     2
 78
   300
147
1.0
148
0.0
149
0.0
100
AcDbLayout
  1
Model
 70
     1
 71
     0
 10
0.0
 20
0.0
 11
12.0
 21
9.0
 12
0.0
 22
0.0
 32
0.0
 14
1.000000000000000E+20
 24
1.000000000000000E+20
 34
1.000000000000000E+20
 15
-1.000000000000000E+20
 25
-1.000000000000000E+20
 35
-1.000000000000000E+20
146
0.0
 13
0.0
 23
0.0
 33
0.0
 16
1.0
 26
0.0
 36
0.0
 17
0.0
 27
1.0
 37
0.0
 76
     0
330
1F
331
29
  0
MATERIAL
  5
3D
102
{ACAD_REACTORS
330
3B
102
}
330
3B
100
AcDbMaterial
  1
ByBlock
 72
     1
 94
      127
  0
MATERIAL
  5
3C
102
{ACAD_REACTORS
330
3B
102
}
330
3B
100
AcDbMaterial
  1
ByLayer
 72
     1
 94
      127
  0
MATERIAL
  5
3E
102
{ACAD_REACTORS
330
3B
102
}
330
3B
100
AcDbMaterial
  1
Global
 72
     1
 94
      127
  0
MLINESTYLE
  5
18
102
{ACAD_REACTORS
330
17
102
}
330
17
100
AcDbMlineStyle
  2
Standard
 70
     0
  3

 62
   256
 51
90.0
 52
90.0
 71
     2
 49
0.5
 62
   256
  6
BYLAYER
 49
-0.5
 62
   256
  6
BYLAYER
  0
ACDBPLACEHOLDER
  5
F
102
{ACAD_REACTORS
330
E
102
}
330
E
  0
VISUALSTYLE
  5
2F
102
{ACAD_REACTORS
330
2A
102
}
330
2A
100
AcDbVisualStyle
  2
2dWireframe
 70
     4
177
     2
291
     0
 71
     0
176
     1
 72
     2
176
     1
 73
     0
176
     1
 90
        0
176
     1
 40
-0.6
176
     1
 41
-30.0
176
     1
 62
     5
 63
     7
421
 16777215
176
     1
 74
     1
176
     1
 91
        4
176
     1
 64
     7
176
     1
 65
   257
176
     1
 75
     1
176
     1
175
     1
176
     1
 42
1.0
176
     1
 92
        0
176
     1
 66
   257
176
     1
 43
1.0
176
     1
 76
     1
176
     1
 77
     6
176
     1
 78
     2
176
     1
 67
     7
176
     1
 79
     5
176
     1
170
     0
176
     1
171
     0
176
     1
290
     0
176
     1
 93
        1
176
     1
 44
0.0
176
     1
173
     0
176
     1
  0
VISUALSTYLE
  5
31
102
{ACAD_REACTORS
330
2A
102
}
330
2A
100
AcDbVisualStyle
  2
3D Hidden
 70
     6
177
     2
291
     0
 71
     1
176
     1
 72
     2
176
     1
 73
     2
176
     1
 90
        0
176
     1
 40
-0.6
176
     1
 41
-30.0
176
     1
 62
     5
 63
     7
421
 16777215
176
     1
 74
     2
176
     1
 91
        2
176
     1
 64
     7
176
     1
 65
   257
176
     1
 75
     2
176
     1
175
     1
176
     1
 42
40.0
176
     1
 92
        0
176
     1
 66
   257
176
     1
 43
1.0
176
     1
 76
     1
176
     1
 77
     6
176
     1
 78
     2
176
     1
 67
     7
176
     1
 79
     3
176
     1
170
     0
176
     1
171
     0
176
     1
290
     0
176
     1
 93
        1
176
     1
 44
0.0
176
     1
173
     0
176
     1
  0
VISUALSTYLE
  5
30
102
{ACAD_REACTORS
330
2A
102
}
330
2A
100
AcDbVisualStyle
  2
3dWireframe
 70
     5
177
     2
291
     0
 71
     0
176
     1
 72
     2
176
     1
 73
     0
176
     1
 90
        0
176
     1
 40
-0.6
176
     1
 41
-30.0
176
     1
 62
     5
 63
     7
421
 16777215
176
     1
 74
     1
176
     1
 91
        4
176
     1
 64
     7
176
     1
 65
   257
176
     1
 75
     1
176
     1
175
     1
176
     1
 42
1.0
176
     1
 92
        0
176
     1
 66
   257
176
     1
 43
1.0
176
     1
 76
     1
176
     1
 77
     6
176
     1
 78
     2
176
     1
 67
     7
176
     1
 79
     5
176
     1
170
     0
176
     1
171
     0
176
     1
290
     0
176
     1
 93
        1
176
     1
 44
0.0
176
     1
173
     0
176
     1
  0
VISUALSTYLE
  5
32
102
{ACAD_REACTORS
330
2A
102
}
330
2A
100
AcDbVisualStyle
  2
Basic
 70
     7
177
     2
291
     1
 71
     1
176
     1
 72
     0
176
     1
 73
     1
176
     1
 90
        0
176
     1
 40
-0.6
176
     1
 41
-30.0
176
     1
 62
     5
 63
     7
421
 16777215
176
     1
 74
     0
176
     1
 91
        4
176
     1
 64
     7
176
     1
 65
   257
176
     1
 75
     1
176
     1
175
     1
176
     1
 42
1.0
176
     1
 92
        8
176
     1
 66
     7
176
     1
 43
1.0
176
     1
 76
     1
176
     1
 77
     6
176
     1
 78
     2
176
     1
 67
     7
176
     1
 79
     5
176
     1
170
     0
176
     1
171
     0
176
     1
290
     0
176
     1
 93
        1
176
     1
 44
0.0
176
     1
173
     0
176
     1
  0
VISUALSTYLE
  5
36
102
{ACAD_REACTORS
330
2A
102
}
330
2A
100
AcDbVisualStyle
  2
Brighten
 70
    12
177
     2
291
     1
 71
     2
176
     1
 72
     2
176
     1
 73
     0
176
     1
 90
        0
176
     1
 40
-0.6
176
     1
 41
-30.0
176
     1
 62
     5
 63
     7
421
 16777215
176
     1
 74
     1
176
     1
 91
        4
176
     1
 64
     7
176
     1
 65
   257
176
     1
 75
     1
176
     1
175
     1
176
     1
 42
1.0
176
     1
 92
        8
176
     1
 66
     7
176
     1
 43
1.0
176
     1
 76
     1
176
     1
 77
     6
176
     1
 78
     2
176
     1
 67
     7
176
     1
 79
     5
176
     1
170
     0
176
     1
171
     0
176
     1
290
     0
176
     1
 93
        1
176
     1
 44
50.0
176
     1
173
     0
176
     1
  0
VISUALSTYLE
  5
3A
102
{ACAD_REACTORS
330
2A
102
}
330
2A
100
AcDbVisualStyle
  2
ColorChange
 70
    16
177
     2
291
     1
 71
     2
176
     1
 72
     2
176
     1
 73
     3
176
     1
 90
        0
176
     1
 40
-0.6
176
     1
 41
-30.0
176
     1
 62
     5
 63
     8
421
  8421504
176
     1
 74
     1
176
     1
 91
        4
176
     1
 64
     7
176
     1
 65
   257
176
     1
 75
     1
176
     1
175
     1
176
     1
 42
1.0
176
     1
 92
        8
176
     1
 66
     8
424
  8421504
176
     1
 43
1.0
176
     1
 76
     1
176
     1
 77
     6
176
     1
 78
     2
176
     1
 67
     7
176
     1
 79
     5
176
     1
170
     0
176
     1
171
     0
176
     1
290
     0
176
     1
 93
        1
176
     1
 44
0.0
176
     1
173
     0
176
     1
  0
VISUALSTYLE
  5
34
102
{ACAD_REACTORS
330
2A
102
}
330
2A
100
AcDbVisualStyle
  2
Conceptual
 70
     9
177
     2
291
     0
 71
     3
176
     1
 72
     2
176
     1
 73
     0
176
     1
 90
        0
176
     1
 40
-0.6
176
     1
 41
-30.0
176
     1
 62
     5
 63
     7
421
 16777215
176
     1
 74
     2
176
     1
 91
        2
176
     1
 64
     7
176
     1
 65
   257
176
     1
 75
     1
176
     1
175
     1
176
     1
 42
40.0
176
     1
 92
        8
176
     1
 66
     7
176
     1
 43
1.0
176
     1
 76
     1
176
     1
 77
     6
176
     1
 78
     2
176
     1
 67
     7
176
     1
 79
     3
176
     1
170
     0
176
     1
171
     0
176
     1
290
     0
176
     1
 93
        1
176
     1
 44
0.0
176
     1
173
     0
176
     1
  0
VISUALSTYLE
  5
35
102
{ACAD_REACTORS
330
2A
102
}
330
2A
100
AcDbVisualStyle
  2
Dim
 70
    11
177
     2
291
     1
 71
     2
176
     1
 72
     2
176
     1
 73
     0
176
     1
 90
        0
176
     1
 40
-0.6
176
     1
 41
-30.0
176
     1
 62
     5
 63
     7
421
 16777215
176
     1
 74
     1
176
     1
 91
        4
176
     1
 64
     7
176
     1
 65
   257
176
     1
 75
     1
176
     1
175
     1
176
     1
 42
1.0
176
     1
 92
        8
176
     1
 66
     7
176
     1
 43
1.0
176
     1
 76
     1
176
     1
 77
     6
176
     1
 78
     2
176
     1
 67
     7
176
     1
 79
     5
176
     1
170
     0
176
     1
171
     0
176
     1
290
     0
176
     1
 93
        1
176
     1
 44
-50.0
176
     1
173
     0
176
     1
  0
VISUALSTYLE
  5
39
102
{ACAD_REACTORS
330
2A
102
}
330
2A
100
AcDbVisualStyle
  2
Facepattern
 70
    15
177
     2
291
     1
 71
     2
176
     1
 72
     2
176
     1
 73
     0
176
     1
 90
        0
176
     1
 40
-0.6
176
     1
 41
-30.0
176
     1
 62
     5
 63
     7
421
 16777215
176
     1
 74
     1
176
     1
 91
        4
176
     1
 64
     7
176
     1
 65
   257
176
     1
 75
     1
176
     1
175
     1
176
     1
 42
1.0
176
     1
 92
        8
176
     1
 66
     7
176
     1
 43
1.0
176
     1
 76
     1
176
     1
 77
     6
176
     1
 78
     2
176
     1
 67
     7
176
     1
 79
     5
176
     1
170
     0
176
     1
171
     0
176
     1
290
     0
176
     1
 93
        1
176
     1
 44
0.0
176
     1
173
     0
176
     1
  0
VISUALSTYLE
  5
2B
102
{ACAD_REACTORS
330
2A
102
}
330
2A
100
AcDbVisualStyle
  2
Flat
 70
     0
177
     2
291
     1
 71
     2
176
     1
 72
     1
176
     1
 73
     1
176
     1
 90
        2
176
     1
 40
-0.6
176
     1
 41
30.0
176
     1
 62
     5
 63
     7
421
 16777215
176
     1
 74
     0
176
     1
 91
        4
176
     1
 64
     7
176
     1
 65
   257
176
     1
 75
     1
176
     1
175
     1
176
     1
 42
1.0
176
     1
 92
        8
176
     1
 66
     7
176
     1
 43
1.0
176
     1
 76
     1
176
     1
 77
     6
176
     1
 78
     2
176
     1
 67
     7
176
     1
 79
     5
176
     1
170
     0
176
     1
171
     0
176
     1
290
     0
176
     1
 93
       13
176
     1
 44
0.0
176
     1
173
     0
176
     1
  0
VISUALSTYLE
  5
2C
102
{ACAD_REACTORS
330
2A
102
}
330
2A
100
AcDbVisualStyle
  2
FlatWithEdges
 70
     1
177
     2
291
     1
 71
     2
176
     1
 72
     1
176
     1
 73
     1
176
     1
 90
        2
176
     1
 40
-0.6
176
     1
 41
30.0
176
     1
 62
     5
 63
     7
421
 16777215
176
     1
 74
     1
176
     1
 91
        4
176
     1
 64
     7
176
     1
 65
   257
176
     1
 75
     1
176
     1
175
     1
176
     1
 42
1.0
176
     1
 92
        0
176
     1
 66
   257
176
     1
 43
1.0
176
     1
 76
     1
176
     1
 77
     6
176
     1
 78
     2
176
     1
 67
     7
176
     1
 79
     5
176
     1
170
     0
176
     1
171
     0
176
     1
290
     0
176
     1
 93
       13
176
     1
 44
0.0
176
     1
173
     0
176
     1
  0
VISUALSTYLE
  5
2D
102
{ACAD_REACTORS
330
2A
102
}
330
2A
100
AcDbVisualStyle
  2
Gouraud
 70
     2
177
     2
291
     1
 71
     2
176
     1
 72
     2
176
     1
 73
     1
176
     1
 90
        2
176
     1
 40
-0.6
176
     1
 41
30.0
176
     1
 62
     5
 63
     7
421
 16777215
176
     1
 74
     0
176
     1
 91
        4
176
     1
 64
     7
176
     1
 65
   257
176
     1
 75
     1
176
     1
175
     1
176
     1
 42
1.0
176
     1
 92
        0
176
     1
 66
     7
176
     1
 43
1.0
176
     1
 76
     1
176
     1
 77
     6
176
     1
 78
     2
176
     1
 67
     7
176
     1
 79
     5
176
     1
170
     0
176
     1
171
     0
176
     1
290
     0
176
     1
 93
       13
176
     1
 44
0.0
176
     1
173
     0
176
     1
  0
VISUALSTYLE
  5
2E
102
{ACAD_REACTORS
330
2A
102
}
330
2A
100
AcDbVisualStyle
  2
GouraudWithEdges
 70
     3
177
     2
291
     1
 71
     2
176
     1
 72
     2
176
     1
 73
     1
176
     1
 90
        2
176
     1
 40
-0.6
176
     1
 41
30.0
176
     1
 62
     5
 63
     7
421
 16777215
176
     1
 74
     1
176
     1
 91
        4
176
     1
 64
     7
176
     1
 65
   257
176
     1
 75
     1
176
     1
175
     1
176
     1
 42
1.0
176
     1
 92
        0
176
     1
 66
   257
176
     1
 43
1.0
176
     1
 76
     1
176
     1
 77
     6
176
     1
 78
     2
176
     1
 67
     7
176
     1
 79
     5
176
     1
170
     0
176
     1
171
     0
176
     1
290
     0
176
     1
 93
       13
176
     1
 44
0.0
176
     1
173
     0
176
     1
  0
VISUALSTYLE
  5
38
102
{ACAD_REACTORS
330
2A
102
}
330
2A
100
AcDbVisualStyle
  2
Linepattern
 70
    14
177
     2
291
     1
 71
     2
176
     1
 72
     2
176
     1
 73
     0
176
     1
 90
        0
176
     1
 40
-0.6
176
     1
 41
-30.0
176
     1
 62
     5
 63
     7
421
 16777215
176
     1
 74
     1
176
     1
 91
        4
176
     1
 64
     7
176
     1
 65
   257
176
     1
 75
     7
176
     1
175
     7
176
     1
 42
1.0
176
     1
 92
        8
176
     1
 66
     7
176
     1
 43
1.0
176
     1
 76
     1
176
     1
 77
     6
176
     1
 78
     2
176
     1
 67
     7
176
     1
 79
     5
176
     1
170
     0
176
     1
171
     0
176
     1
290
     0
176
     1
 93
        1
176
     1
 44
0.0
176
     1
173
     0
176
     1
  0
VISUALSTYLE
  5
33
102
{ACAD_REACTORS
330
2A
102
}
330
2A
100
AcDbVisualStyle
  2
Realistic
 70
     8
177
     2
291
     0
 71
     2
176
     1
 72
     2
176
     1
 73
     0
176
     1
 90
        0
176
     1
 40
-0.6
176
     1
 41
-30.0
176
     1
 62
     5
 63
     7
421
 16777215
176
     1
 74
     1
176
     1
 91
        0
176
     1
 64
     7
176
     1
 65
   257
176
     1
 75
     1
176
     1
175
     1
176
     1
 42
1.0
176
     1
 92
        8
176
     1
 66
     8
424
  7895160
176
     1
 43
1.0
176
     1
 76
     1
176
     1
 77
     6
176
     1
 78
     2
176
     1
 67
     7
176
     1
 79
     5
176
     1
170
     0
176
     1
171
     0
176
     1
290
     0
176
     1
 93
       13
176
     1
 44
0.0
176
     1
173
     0
176
     1
  0
VISUALSTYLE
  5
37
102
{ACAD_REACTORS
330
2A
102
}
330
2A
100
AcDbVisualStyle
  2
Thicken
 70
    13
177
     2
291
     1
 71
     2
176
     1
 72
     2
176
     1
 73
     0
176
     1
 90
        0
176
     1
 40
-0.6
176
     1
 41
-30.0
176
     1
 62
     5
 63
     7
421
 16777215
176
     1
 74
     1
176
     1
 91
        4
176
     1
 64
     7
176
     1
 65
   257
176
     1
 75
     1
176
     1
175
     1
176
     1
 42
1.0
176
     1
 92
       12
176
     1
 66
     7
176
     1
 43
1.0
176
     1
 76
     1
176
     1
 77
     6
176
     1
 78
     2
176
     1
 67
     7
176
     1
 79
     5
176
     1
170
     0
176
     1
171
     0
176
     1
290
     0
176
     1
 93
        1
176
     1
 44
0.0
176
     1
173
     0
176
     1
  0
ENDSEC
  0
EOF
