  0
SECTION
  2
HEADER
  9
$ACADVER
  1
AC1024
  9
$ACADMAINTVER
 70
     6
  9
$DWGCODEPAGE
  3
UNDEFINED
  9
$INSBASE
 10
0.0
 20
0.0
 30
0.0
  9
$EXTMIN
 10
1.000000000000000E+20
 20
1.000000000000000E+20
 30
1.000000000000000E+20
  9
$EXTMAX
 10
-1.000000000000000E+20
 20
-1.000000000000000E+20
 30
-1.000000000000000E+20
  9
$LIMMIN
 10
0.0
 20
0.0
  9
$LIMMAX
 10
12.0
 20
9.0
  9
$ORTHOMODE
 70
     0
  9
$REGENMODE
 70
     1
  9
$FILLMODE
 70
     1
  9
$QTEXTMODE
 70
     0
  9
$MIRRTEXT
 70
     1
  9
$LTSCALE
 40
1.0
  9
$ATTMODE
 70
     1
  9
$TEXTSIZE
 40
0.2
  9
$TRACEWID
 40
0.05
  9
$TEXTSTYLE
  7
Standard
  9
$CLAYER
  8
0
  9
$CELTYPE
  6
ByLayer
  9
$CECOLOR
 62
   256
  9
$CELTSCALE
 40
1.0
  9
$DISPSILH
 70
     0
  9
$DIMSCALE
 40
1.0
  9
$DIMASZ
 40
0.18
  9
$DIMEXO
 40
0.0625
  9
$DIMDLI
 40
0.38
  9
$DIMRND
 40
0.0
  9
$DIMDLE
 40
0.0
  9
$DIMEXE
 40
0.18
  9
$DIMTP
 40
0.0
  9
$DIMTM
 40
0.0
  9
$DIMTXT
 40
0.18
  9
$DIMCEN
 40
0.09
  9
$DIMTSZ
 40
0.0
  9
$DIMTOL
 70
     0
  9
$DIMLIM
 70
     0
  9
$DIMTIH
 70
     1
  9
$DIMTOH
 70
     1
  9
$DIMSE1
 70
     0
  9
$DIMSE2
 70
     0
  9
$DIMTAD
 70
     0
  9
$DIMZIN
 70
     0
  9
$DIMBLK
  1

  9
$DIMASO
 70
     1
  9
$DIMSHO
 70
     1
  9
$DIMPOST
  1

  9
$DIMAPOST
  1

  9
$DIMALT
 70
     0
  9
$DIMALTD
 70
     2
  9
$DIMALTF
 40
25.4
  9
$DIMLFAC
 40
1.0
  9
$DIMTOFL
 70
     0
  9
$DIMTVP
 40
0.0
  9
$DIMTIX
 70
     0
  9
$DIMSOXD
 70
     0
  9
$DIMSAH
 70
     0
  9
$DIMBLK1
  1

  9
$DIMBLK2
  1

  9
$DIMSTYLE
  2
Standard
  9
$DIMCLRD
 70
     0
  9
$DIMCLRE
 70
     0
  9
$DIMCLRT
 70
     0
  9
$DIMTFAC
 40
1.0
  9
$DIMGAP
 40
0.09
  9
$DIMJUST
 70
     0
  9
$DIMSD1
 70
     0
  9
$DIMSD2
 70
     0
  9
$DIMTOLJ
 70
     1
  9
$DIMTZIN
 70
     0
  9
$DIMALTZ
 70
     0
  9
$DIMALTTZ
 70
     0
  9
$DIMUPT
 70
     0
  9
$DIMDEC
 70
     4
  9
$DIMTDEC
 70
     4
  9
$DIMALTU
 70
     2
  9
$DIMALTTD
 70
     2
  9
$DIMTXSTY
  7
Standard
  9
$DIMAUNIT
 70
     0
  9
$DIMADEC
 70
     0
  9
$DIMALTRND
 40
0.0
  9
$DIMAZIN
 70
     0
  9
$DIMDSEP
 70
    46
  9
$DIMATFIT
 70
     3
  9
$DIMFRAC
 70
     0
  9
$DIMLDRBLK
  1

  9
$DIMLUNIT
 70
     2
  9
$DIMLWD
 70
    -2
  9
$DIMLWE
 70
    -2
  9
$DIMTMOVE
 70
     0
  9
$DIMFXL
 40
1.0
  9
$DIMFXLON
 70
     0
  9
$DIMJOGANG
 40
0.7853981633974483
  9
$DIMTFILL
 70
     0
  9
$DIMTFILLCLR
 70
     0
  9
$DIMARCSYM
 70
     0
  9
$DIMLTYPE
  6

  9
$DIMLTEX1
  6

  9
$DIMLTEX2
  6

  9
$DIMTXTDIRECTION
 70
     0
  9
$LUNITS
 70
     2
  9
$LUPREC
 70
     4
  9
$SKETCHINC
 40
0.1
  9
$FILLETRAD
 40
0.5
  9
$AUNITS
 70
     0
  9
$AUPREC
 70
     0
  9
$MENU
  1
.
  9
$ELEVATION
 40
0.0
  9
$PELEVATION
 40
0.0
  9
$THICKNESS
 40
0.0
  9
$LIMCHECK
 70
     0
  9
$CHAMFERA
 40
0.5
  9
$CHAMFERB
 40
0.5
  9
$CHAMFERC
 40
1.0
  9
$CHAMFERD
 40
0.0
  9
$SKPOLY
 70
     0
  9
$TDCREATE
 40
2457917.637025451
  9
$TDUCREATE
 40
2457917.262025463
  9
$TDUPDATE
 40
2457917.637025451
  9
$TDUUPDATE
 40
2457917.262025463
  9
$TDINDWG
 40
0.0000000116
  9
$TDUSRTIMER
 40
0.0000000116
  9
$USRTIMER
 70
     1
  9
$ANGBASE
 50
0.0
  9
$ANGDIR
 70
     0
  9
$PDMODE
 70
     0
  9
$PDSIZE
 40
0.0
  9
$PLINEWID
 40
0.0
  9
$SPLFRAME
 70
     0
  9
$SPLINETYPE
 70
     6
  9
$SPLINESEGS
 70
     8
  9
$HANDSEED
  5
99
  9
$SURFTAB1
 70
     6
  9
$SURFTAB2
 70
     6
  9
$SURFTYPE
 70
     6
  9
$SURFU
 70
     6
  9
$SURFV
 70
     6
  9
$UCSBASE
  2

  9
$UCSNAME
  2

  9
$UCSORG
 10
0.0
 20
0.0
 30
0.0
  9
$UCSXDIR
 10
1.0
 20
0.0
 30
0.0
  9
$UCSYDIR
 10
0.0
 20
1.0
 30
0.0
  9
$UCSORTHOREF
  2

  9
$UCSORTHOVIEW
 70
     0
  9
$UCSORGTOP
 10
0.0
 20
0.0
 30
0.0
  9
$UCSORGBOTTOM
 10
0.0
 20
0.0
 30
0.0
  9
$UCSORGLEFT
 10
0.0
 20
0.0
 30
0.0
  9
$UCSORGRIGHT
 10
0.0
 20
0.0
 30
0.0
  9
$UCSORGFRONT
 10
0.0
 20
0.0
 30
0.0
  9
$UCSORGBACK
 10
0.0
 20
0.0
 30
0.0
  9
$PUCSBASE
  2

  9
$PUCSNAME
  2

  9
$PUCSORG
 10
0.0
 20
0.0
 30
0.0
  9
$PUCSXDIR
 10
1.0
 20
0.0
 30
0.0
  9
$PUCSYDIR
 10
0.0
 20
1.0
 30
0.0
  9
$PUCSORTHOREF
  2

  9
$PUCSORTHOVIEW
 70
     0
  9
$PUCSORGTOP
 10
0.0
 20
0.0
 30
0.0
  9
$PUCSORGBOTTOM
 10
0.0
 20
0.0
 30
0.0
  9
$PUCSORGLEFT
 10
0.0
 20
0.0
 30
0.0
  9
$PUCSORGRIGHT
 10
0.0
 20
0.0
 30
0.0
  9
$PUCSORGFRONT
 10
0.0
 20
0.0
 30
0.0
  9
$PUCSORGBACK
 10
0.0
 20
0.0
 30
0.0
  9
$USERI1
 70
     0
  9
$USERI2
 70
     0
  9
$USERI3
 70
     0
  9
$USERI4
 70
     0
  9
$USERI5
 70
     0
  9
$USERR1
 40
0.0
  9
$USERR2
 40
0.0
  9
$USERR3
 40
0.0
  9
$USERR4
 40
0.0
  9
$USERR5
 40
0.0
  9
$WORLDVIEW
 70
     1
  9
$SHADEDGE
 70
     3
  9
$SHADEDIF
 70
    70
  9
$TILEMODE
 70
     1
  9
$MAXACTVP
 70
    64
  9
$PINSBASE
 10
0.0
 20
0.0
 30
0.0
  9
$PLIMCHECK
 70
     0
  9
$PEXTMIN
 10
1.000000000000000E+20
 20
1.000000000000000E+20
 30
1.000000000000000E+20
  9
$PEXTMAX
 10
-1.000000000000000E+20
 20
-1.000000000000000E+20
 30
-1.000000000000000E+20
  9
$PLIMMIN
 10
0.0
 20
0.0
  9
$PLIMMAX
 10
12.0
 20
9.0
  9
$UNITMODE
 70
     0
  9
$VISRETAIN
 70
     1
  9
$PLINEGEN
 70
     0
  9
$PSLTSCALE
 70
     1
  9
$TREEDEPTH
 70
  3020
  9
$CMLSTYLE
  2
Standard
  9
$CMLJUST
 70
     0
  9
$CMLSCALE
 40
1.0
  9
$PROXYGRAPHICS
 70
     1
  9
$MEASUREMENT
 70
     0
  9
$CELWEIGHT
370
    -1
  9
$ENDCAPS
280
     0
  9
$JOINSTYLE
280
     0
  9
$LWDISPLAY
290
     1
  9
$INSUNITS
 70
     1
  9
$HYPERLINKBASE
  1

  9
$STYLESHEET
  1

  9
$XEDIT
290
     1
  9
$CEPSNTYPE
380
     0
  9
$PSTYLEMODE
290
     1
  9
$FINGERPRINTGUID
  2
{E89A4C37-1060-CCA6-C3B4-09165E589EBF}
  9
$VERSIONGUID
  2
{FAEB1C32-E019-11D5-929B-00C0DF256EC4}
  9
$EXTNAMES
290
     1
  9
$PSVPSCALE
 40
0.0
  9
$OLESTARTUP
290
     0
  9
$SORTENTS
280
   127
  9
$INDEXCTL
280
     0
  9
$HIDETEXT
280
     1
  9
$XCLIPFRAME
280
     2
  9
$HALOGAP
280
     0
  9
$OBSCOLOR
 70
   257
  9
$OBSLTYPE
280
     0
  9
$INTERSECTIONDISPLAY
280
     0
  9
$INTERSECTIONCOLOR
 70
   257
  9
$DIMASSOC
280
     2
  9
$PROJECTNAME
  1

  9
$CAMERADISPLAY
290
     0
  9
$LENSLENGTH
 40
50.0
  9
$CAMERAHEIGHT
 40
0.0
  9
$STEPSPERSEC
 40
2.0
  9
$STEPSIZE
 40
6.0
  9
$3DDWFPREC
 40
2.0
  9
$PSOLWIDTH
 40
0.25
  9
$PSOLHEIGHT
 40
4.0
  9
$LOFTANG1
 40
1.570796326794897
  9
$LOFTANG2
 40
1.570796326794897
  9
$LOFTMAG1
 40
0.0
  9
$LOFTMAG2
 40
0.0
  9
$LOFTPARAM
 70
     7
  9
$LOFTNORMALS
280
     1
  9
$LATITUDE
 40
37.795
  9
$LONGITUDE
 40
-122.394
  9
$NORTHDIRECTION
 40
0.0
  9
$TIMEZONE
 70
 -8000
  9
$LIGHTGLYPHDISPLAY
280
     1
  9
$TILEMODELIGHTSYNCH
280
     1
  9
$CMATERIAL
347
3C
  9
$SOLIDHIST
280
     1
  9
$SHOWHIST
280
     1
  9
$DWFFRAME
280
     2
  9
$DGNFRAME
280
     2
  9
$REALWORLDSCALE
290
     1
  9
$INTERFERECOLOR
 62
   256
  9
$CSHADOW
280
     0
  9
$SHADOWPLANELOCATION
 40
0.0
  0
ENDSEC
  0
SECTION
  2
CLASSES
  0
CLASS
  1
ACDBDICTIONARYWDFLT
  2
AcDbDictionaryWithDefault
  3
ObjectDBX Classes
 90
        0
 91
        4
280
     0
281
     0
  0
CLASS
  1
VISUALSTYLE
  2
AcDbVisualStyle
  3
ObjectDBX Classes
 90
     4095
 91
        4
280
     0
281
     0
  0
CLASS
  1
MATERIAL
  2
AcDbMaterial
  3
ObjectDBX Classes
 90
     1153
 91
        4
280
     0
281
     0
  0
CLASS
  1
SUN
  2
AcDbSun
  3
SCENEOE
 90
     1024
 91
        4
280
     0
281
     0
  0
ENDSEC
  0
SECTION
  2
TABLES
  0
TABLE
  2
VPORT
  5
8
330
0
100
AcDbSymbolTable
 70
     1
  0
VPORT
  5
29
330
8
100
AcDbSymbolTableRecord
100
AcDbViewportTableRecord
  2
*Active
 70
     0
 10
0.0
 20
0.0
 11
1.0
 21
1.0
 12
0.0
 22
0.0
 13
0.0
 23
0.0
 14
0.5
 24
0.5
 15
0.5
 25
0.5
 16
0.0
 26
0.0
 36
1.0
 17
91.00082462281999
 27
-128.4993055234307
 37
0.0
 40
256.9986110468615
 41
0.7081814508812795
 42
50.0
 43
0.0
 44
0.0
 50
0.0
 51
0.0
 71
     0
 72
   100
 73
     1
 74
     3
 75
     0
 76
     0
 77
     0
 78
     0
281
     0
 65
     1
110
0.0
120
0.0
130
0.0
111
1.0
121
0.0
131
0.0
112
0.0
122
1.0
132
0.0
 79
     0
146
0.0
 60
     3
 61
     5
292
     1
282
     1
141
0.0
142
0.0
 63
   250
361
3F
  0
ENDTAB
  0
TABLE
  2
LTYPE
  5
5
330
0
100
AcDbSymbolTable
 70
     1
  0
LTYPE
  5
14
330
5
100
AcDbSymbolTableRecord
100
AcDbLinetypeTableRecord
  2
ByBlock
 70
     0
  3

 72
    65
 73
     0
 40
0.0
  0
LTYPE
  5
15
330
5
100
AcDbSymbolTableRecord
100
AcDbLinetypeTableRecord
  2
ByLayer
 70
     0
  3

 72
    65
 73
     0
 40
0.0
  0
LTYPE
  5
16
330
5
100
AcDbSymbolTableRecord
100
AcDbLinetypeTableRecord
  2
Continuous
 70
     0
  3
Solid line
 72
    65
 73
     0
 40
0.0
  0
ENDTAB
  0
TABLE
  2
LAYER
  5
2
330
0
100
AcDbSymbolTable
 70
     2
  0
LAYER
  5
10
330
2
100
AcDbSymbolTableRecord
100
AcDbLayerTableRecord
  2
0
 70
     0
 62
     7
  6
Continuous
370
    -3
390
F
347
3E
  0
LAYER
  5
40
330
2
100
AcDbSymbolTableRecord
100
AcDbLayerTableRecord
  2
_U+30EC_U+30A4_U+30E4_U+30FC 1
 70
     0
 62
     7
  6
Continuous
370
    -3
390
F
347
3E
  0
ENDTAB
  0
TABLE
  2
STYLE
  5
3
330
0
100
AcDbSymbolTable
 70
     1
  0
STYLE
  5
11
330
3
100
AcDbSymbolTableRecord
100
AcDbTextStyleTableRecord
  2
Standard
 70
     0
 40
0.0
 41
1.0
 50
0.0
 71
     0
 42
0.2
  3
txt
  4

  0
ENDTAB
  0
TABLE
  2
VIEW
  5
6
330
0
100
AcDbSymbolTable
 70
     0
  0
ENDTAB
  0
TABLE
  2
UCS
  5
7
330
0
100
AcDbSymbolTable
 70
     0
  0
ENDTAB
  0
TABLE
  2
APPID
  5
9
330
0
100
AcDbSymbolTable
 70
     1
  0
APPID
  5
12
330
9
100
AcDbSymbolTableRecord
100
AcDbRegAppTableRecord
  2
ACAD
 70
     0
  0
ENDTAB
  0
TABLE
  2
DIMSTYLE
  5
A
330
0
100
AcDbSymbolTable
 70
     1
100
AcDbDimStyleTable
  0
DIMSTYLE
105
27
330
A
100
AcDbSymbolTableRecord
100
AcDbDimStyleTableRecord
  2
Standard
 70
     0
178
     0
340
11
  0
ENDTAB
  0
TABLE
  2
BLOCK_RECORD
  5
1
330
0
100
AcDbSymbolTable
 70
     4
  0
BLOCK_RECORD
  5
1F
330
1
100
AcDbSymbolTableRecord
100
AcDbBlockTableRecord
  2
*Model_Space
340
22
 70
     0
280
     1
281
     0
  0
BLOCK_RECORD
  5
1B
330
1
100
AcDbSymbolTableRecord
100
AcDbBlockTableRecord
  2
*Paper_Space
340
1E
 70
     0
280
     1
281
     0
  0
BLOCK_RECORD
  5
23
330
1
100
AcDbSymbolTableRecord
100
AcDbBlockTableRecord
  2
*Paper_Space0
340
26
 70
     0
280
     1
281
     0
  0
BLOCK_RECORD
  5
63
330
1
100
AcDbSymbolTableRecord
100
AcDbBlockTableRecord
  2
block 2
340
0
102
{BLKREFS
331
64
102
}
 70
     0
280
     1
281
     0
  0
BLOCK_RECORD
  5
78
330
1
100
AcDbSymbolTableRecord
100
AcDbBlockTableRecord
  2
block 3
340
0
102
{BLKREFS
331
79
102
}
 70
     0
280
     1
281
     0
  0
BLOCK_RECORD
  5
8D
330
1
100
AcDbSymbolTableRecord
100
AcDbBlockTableRecord
  2
block 4
340
0
102
{BLKREFS
331
8E
102
}
 70
     0
280
     1
281
     0
  0
ENDTAB
  0
ENDSEC
  0
SECTION
  2
BLOCKS
  0
BLOCK
  5
20
330
1F
100
AcDbEntity
  8
0
100
AcDbBlockBegin
  2
*Model_Space
 70
     0
 10
0.0
 20
0.0
 30
0.0
  3
*Model_Space
  1

  0
ENDBLK
  5
21
330
1F
100
AcDbEntity
  8
0
100
AcDbBlockEnd
  0
BLOCK
  5
1C
330
1B
100
AcDbEntity
 67
     1
  8
0
100
AcDbBlockBegin
  2
*Paper_Space
 70
     0
 10
0.0
 20
0.0
 30
0.0
  3
*Paper_Space
  1

  0
ENDBLK
  5
1D
330
1B
100
AcDbEntity
 67
     1
  8
0
100
AcDbBlockEnd
  0
BLOCK
  5
24
330
23
100
AcDbEntity
  8
0
100
AcDbBlockBegin
  2
*Paper_Space0
 70
     0
 10
0.0
 20
0.0
 30
0.0
  3
*Paper_Space0
  1

  0
ENDBLK
  5
25
330
23
100
AcDbEntity
  8
0
100
AcDbBlockEnd
  0
BLOCK
  5
65
330
63
100
AcDbEntity
  8
0
100
AcDbBlockBegin
  2
block 2
 70
     0
 10
0.0
 20
0.0
 30
0.0
  3
block 2
  1

  0
SPLINE
  5
67
330
63
100
AcDbEntity
  8
_U+30EC_U+30A4_U+30E4_U+30FC 1
370
     0
100
AcDbSpline
210
0.0
220
0.0
230
1.0
 70
    11
 71
     3
 72
    44
 73
    40
 74
     0
 42
0.0000000001
 43
0.0000000001
 12
1.0
 22
0.0
 32
0.0
 13
1.0
 23
0.0
 33
0.0
 40
0.0
 40
0.0
 40
0.0
 40
0.0
 40
1.0
 40
1.0
 40
1.0
 40
2.0
 40
2.0
 40
2.0
 40
3.0
 40
3.0
 40
3.0
 40
4.0
 40
4.0
 40
4.0
 40
5.0
 40
5.0
 40
5.0
 40
6.0
 40
6.0
 40
6.0
 40
7.0
 40
7.0
 40
7.0
 40
8.0
 40
8.0
 40
8.0
 40
9.0
 40
9.0
 40
9.0
 40
10.0
 40
10.0
 40
10.0
 40
11.0
 40
11.0
 40
11.0
 40
12.0
 40
12.0
 40
12.0
 40
13.0
 40
13.0
 40
13.0
 40
13.0
 10
103.3821478691197
 20
-130.1329698025362
 30
0.0
 10
103.5409667709898
 20
-130.350699837204
 30
0.0
 10
103.6150363239226
 20
-130.4437174153057
 30
0.0
 10
103.7586968056576
 20
-130.4926377711963
 30
0.0
 10
103.7586968056576
 20
-130.4926377711963
 30
0.0
 10
103.7586968056576
 20
-129.7140461915298
 30
0.0
 10
103.7586968056576
 20
-129.7140461915298
 30
0.0
 10
103.7586968056576
 20
-129.7140461915298
 30
0.0
 10
103.9640244965784
 20
-129.7140461915298
 30
0.0
 10
103.9640244965784
 20
-129.7140461915298
 30
0.0
 10
103.9640244965784
 20
-129.7140461915298
 30
0.0
 10
103.9640244965784
 20
-130.7420626843284
 30
0.0
 10
103.9640244965784
 20
-130.7420626843284
 30
0.0
 10
103.6064235852095
 20
-130.7103678058641
 30
0.0
 10
103.5282199176943
 20
-130.6449109916443
 30
0.0
 10
103.2298746486717
 20
-130.2597493163934
 30
0.0
 10
103.0310926391728
 20
-130.0037787218394
 30
0.0
 10
102.9632242581134
 20
-129.9383219076196
 30
0.0
 10
102.8257649482519
 20
-129.9383219076196
 30
0.0
 10
102.7072536635593
 20
-129.9383219076196
 30
0.0
 10
102.5763400351198
 20
-130.0103244032613
 30
0.0
 10
102.5763400351198
 20
-130.2070393554691
 30
0.0
 10
102.5763400351198
 20
-130.4671440646054
 30
0.0
 10
102.806816923083
 20
-130.47541229377
 30
0.0
 10
102.9232611504845
 20
-130.4798909179009
 30
0.0
 10
102.9232611504845
 20
-130.4798909179009
 30
0.0
 10
102.9232611504845
 20
-130.7041666339906
 30
0.0
 10
102.9232611504845
 20
-130.7041666339906
 30
0.0
 10
102.7961371270788
 20
-130.6955538952775
 30
0.0
 10
102.6841715238081
 20
-130.6848740992732
 30
0.0
 10
102.5656602391155
 20
-130.6046033744669
 30
0.0
 10
102.4047742799544
 20
-130.4947048284874
 30
0.0
 10
102.3710123441989
 20
-130.3083251627354
 30
0.0
 10
102.3710123441989
 20
-130.1922254448825
 30
0.0
 10
102.3710123441989
 20
-129.9148952583199
 30
0.0
 10
102.5549804431113
 20
-129.7075005101078
 30
0.0
 10
102.827832005543
 20
-129.7075005101078
 30
0.0
 10
103.0565863457636
 20
-129.7075005101078
 30
0.0
 10
103.1558050957388
 20
-129.8239447375093
 30
0.0
 10
103.3821478691197
 20
-130.1329698025362
 30
0.0
  0
HATCH
  5
68
330
63
100
AcDbEntity
  8
_U+30EC_U+30A4_U+30E4_U+30FC 1
 62
   179
420
  2234388
100
AcDbHatch
 10
0.0
 20
0.0
 30
0.0
210
0.0
220
0.0
230
1.0
  2
SOLID
 70
     1
 71
     0
 91
        1
 92
        1
 93
        1
 72
     4
 94
        3
 73
     0
 74
     1
 95
       44
 96
       40
 40
0.0
 40
0.0
 40
0.0
 40
0.0
 40
1.0
 40
1.0
 40
1.0
 40
2.0
 40
2.0
 40
2.0
 40
3.0
 40
3.0
 40
3.0
 40
4.0
 40
4.0
 40
4.0
 40
5.0
 40
5.0
 40
5.0
 40
6.0
 40
6.0
 40
6.0
 40
7.0
 40
7.0
 40
7.0
 40
8.0
 40
8.0
 40
8.0
 40
9.0
 40
9.0
 40
9.0
 40
10.0
 40
10.0
 40
10.0
 40
11.0
 40
11.0
 40
11.0
 40
12.0
 40
12.0
 40
12.0
 40
13.0
 40
13.0
 40
13.0
 40
13.0
 10
103.3821478691197
 20
-130.1329698025362
 10
103.5409667709898
 20
-130.350699837204
 10
103.6150363239226
 20
-130.4437174153057
 10
103.7586968056576
 20
-130.4926377711963
 10
103.7586968056576
 20
-130.4926377711963
 10
103.7586968056576
 20
-129.7140461915298
 10
103.7586968056576
 20
-129.7140461915298
 10
103.7586968056576
 20
-129.7140461915298
 10
103.9640244965784
 20
-129.7140461915298
 10
103.9640244965784
 20
-129.7140461915298
 10
103.9640244965784
 20
-129.7140461915298
 10
103.9640244965784
 20
-130.7420626843284
 10
103.9640244965784
 20
-130.7420626843284
 10
103.6064235852095
 20
-130.7103678058641
 10
103.5282199176943
 20
-130.6449109916443
 10
103.2298746486717
 20
-130.2597493163934
 10
103.0310926391728
 20
-130.0037787218394
 10
102.9632242581134
 20
-129.9383219076196
 10
102.8257649482519
 20
-129.9383219076196
 10
102.7072536635593
 20
-129.9383219076196
 10
102.5763400351198
 20
-130.0103244032613
 10
102.5763400351198
 20
-130.2070393554691
 10
102.5763400351198
 20
-130.4671440646054
 10
102.806816923083
 20
-130.47541229377
 10
102.9232611504845
 20
-130.4798909179009
 10
102.9232611504845
 20
-130.4798909179009
 10
102.9232611504845
 20
-130.7041666339906
 10
102.9232611504845
 20
-130.7041666339906
 10
102.7961371270788
 20
-130.6955538952775
 10
102.6841715238081
 20
-130.6848740992732
 10
102.5656602391155
 20
-130.6046033744669
 10
102.4047742799544
 20
-130.4947048284874
 10
102.3710123441989
 20
-130.3083251627354
 10
102.3710123441989
 20
-130.1922254448825
 10
102.3710123441989
 20
-129.9148952583199
 10
102.5549804431113
 20
-129.7075005101078
 10
102.827832005543
 20
-129.7075005101078
 10
103.0565863457636
 20
-129.7075005101078
 10
103.1558050957388
 20
-129.8239447375093
 10
103.3821478691197
 20
-130.1329698025362
 97
        0
 97
        0
 75
     2
 76
     1
 98
        0
  0
SPLINE
  5
69
330
63
100
AcDbEntity
  8
_U+30EC_U+30A4_U+30E4_U+30FC 1
370
     0
100
AcDbSpline
210
0.0
220
0.0
230
1.0
 70
    11
 71
     3
 72
    29
 73
    25
 74
     0
 42
0.0000000001
 43
0.0000000001
 12
1.0
 22
0.0
 32
0.0
 13
1.0
 23
0.0
 33
0.0
 40
0.0
 40
0.0
 40
0.0
 40
0.0
 40
1.0
 40
1.0
 40
1.0
 40
2.0
 40
2.0
 40
2.0
 40
3.0
 40
3.0
 40
3.0
 40
4.0
 40
4.0
 40
4.0
 40
5.0
 40
5.0
 40
5.0
 40
6.0
 40
6.0
 40
6.0
 40
7.0
 40
7.0
 40
7.0
 40
8.0
 40
8.0
 40
8.0
 40
8.0
 10
103.7862575695396
 20
-128.6512342343302
 30
0.0
 10
103.9957193750427
 20
-128.7594102325671
 30
0.0
 10
104.0146674002116
 20
-128.9326985354752
 30
0.0
 10
104.0146674002116
 20
-129.0491427628766
 30
0.0
 10
104.0146674002116
 20
-129.2100287220378
 30
0.0
 10
103.9681586111607
 20
-129.3516221464815
 30
0.0
 10
103.7862575695396
 20
-129.4467067818744
 30
0.0
 10
103.5916096746229
 20
-129.5504041559805
 30
0.0
 10
103.3549316147863
 20
-129.5693521811493
 30
0.0
 10
103.191978598334
 20
-129.5693521811493
 30
0.0
 10
103.0479736070505
 20
-129.5693521811493
 30
0.0
 10
102.7961371270788
 20
-129.5524712132716
 30
0.0
 10
102.5973551175798
 20
-129.4467067818744
 30
0.0
 10
102.3944389934986
 20
-129.3388752931861
 30
0.0
 10
102.3710123441989
 20
-129.1779893340249
 30
0.0
 10
102.3710123441989
 20
-129.0491427628766
 30
0.0
 10
102.3710123441989
 20
-128.8903238610066
 30
0.0
 10
102.4154540759586
 20
-128.7466633792717
 30
0.0
 10
102.5973551175798
 20
-128.6512342343302
 30
0.0
 10
102.7899359552053
 20
-128.5520154843551
 30
0.0
 10
103.0183457858774
 20
-128.5285888350554
 30
0.0
 10
103.191978598334
 20
-128.5285888350554
 30
0.0
 10
103.3631998439509
 20
-128.5285888350554
 30
0.0
 10
103.5936767319141
 20
-128.5499484270639
 30
0.0
 10
103.7862575695396
 20
-128.6512342343302
 30
0.0
  0
SPLINE
  5
6A
330
63
100
AcDbEntity
  8
_U+30EC_U+30A4_U+30E4_U+30FC 1
370
     0
100
AcDbSpline
210
0.0
220
0.0
230
1.0
 70
    11
 71
     3
 72
    17
 73
    13
 74
     0
 42
0.0000000001
 43
0.0000000001
 12
1.0
 22
0.0
 32
0.0
 13
1.0
 23
0.0
 33
0.0
 40
0.0
 40
0.0
 40
0.0
 40
0.0
 40
1.0
 40
1.0
 40
1.0
 40
2.0
 40
2.0
 40
2.0
 40
3.0
 40
3.0
 40
3.0
 40
4.0
 40
4.0
 40
4.0
 40
4.0
 10
102.5635931818244
 20
-129.0491427628766
 30
0.0
 10
102.5635931818244
 20
-129.2985676760087
 30
0.0
 10
102.8471245402605
 20
-129.3454209746081
 30
0.0
 10
103.191978598334
 20
-129.3454209746081
 30
0.0
 10
103.5113389498166
 20
-129.3454209746081
 30
0.0
 10
103.820019505295
 20
-129.309247472013
 30
0.0
 10
103.820019505295
 20
-129.0491427628766
 30
0.0
 10
103.820019505295
 20
-128.8014403974871
 30
0.0
 10
103.5388997136986
 20
-128.7528645511451
 30
0.0
 10
103.191978598334
 20
-128.7528645511451
 30
0.0
 10
102.8722737373028
 20
-128.7528645511451
 30
0.0
 10
102.5635931818244
 20
-128.7911051110314
 30
0.0
 10
102.5635931818244
 20
-129.0491427628766
 30
0.0
  0
HATCH
  5
6B
330
63
100
AcDbEntity
  8
_U+30EC_U+30A4_U+30E4_U+30FC 1
 62
   179
420
  2234388
100
AcDbHatch
 10
0.0
 20
0.0
 30
0.0
210
0.0
220
0.0
230
1.0
  2
SOLID
 70
     1
 71
     0
 91
        2
 92
        1
 93
        1
 72
     4
 94
        3
 73
     0
 74
     1
 95
       29
 96
       25
 40
0.0
 40
0.0
 40
0.0
 40
0.0
 40
1.0
 40
1.0
 40
1.0
 40
2.0
 40
2.0
 40
2.0
 40
3.0
 40
3.0
 40
3.0
 40
4.0
 40
4.0
 40
4.0
 40
5.0
 40
5.0
 40
5.0
 40
6.0
 40
6.0
 40
6.0
 40
7.0
 40
7.0
 40
7.0
 40
8.0
 40
8.0
 40
8.0
 40
8.0
 10
103.7862575695396
 20
-128.6512342343302
 10
103.9957193750427
 20
-128.7594102325671
 10
104.0146674002116
 20
-128.9326985354752
 10
104.0146674002116
 20
-129.0491427628766
 10
104.0146674002116
 20
-129.2100287220378
 10
103.9681586111607
 20
-129.3516221464815
 10
103.7862575695396
 20
-129.4467067818744
 10
103.5916096746229
 20
-129.5504041559805
 10
103.3549316147863
 20
-129.5693521811493
 10
103.191978598334
 20
-129.5693521811493
 10
103.0479736070505
 20
-129.5693521811493
 10
102.7961371270788
 20
-129.5524712132716
 10
102.5973551175798
 20
-129.4467067818744
 10
102.3944389934986
 20
-129.3388752931861
 10
102.3710123441989
 20
-129.1779893340249
 10
102.3710123441989
 20
-129.0491427628766
 10
102.3710123441989
 20
-128.8903238610066
 10
102.4154540759586
 20
-128.7466633792717
 10
102.5973551175798
 20
-128.6512342343302
 10
102.7899359552053
 20
-128.5520154843551
 10
103.0183457858774
 20
-128.5285888350554
 10
103.191978598334
 20
-128.5285888350554
 10
103.3631998439509
 20
-128.5285888350554
 10
103.5936767319141
 20
-128.5499484270639
 10
103.7862575695396
 20
-128.6512342343302
 97
        0
 97
        0
 92
        1
 93
        1
 72
     4
 94
        3
 73
     0
 74
     1
 95
       17
 96
       13
 40
0.0
 40
0.0
 40
0.0
 40
0.0
 40
1.0
 40
1.0
 40
1.0
 40
2.0
 40
2.0
 40
2.0
 40
3.0
 40
3.0
 40
3.0
 40
4.0
 40
4.0
 40
4.0
 40
4.0
 10
102.5635931818244
 20
-129.0491427628766
 10
102.5635931818244
 20
-129.2985676760087
 10
102.8471245402605
 20
-129.3454209746081
 10
103.191978598334
 20
-129.3454209746081
 10
103.5113389498166
 20
-129.3454209746081
 10
103.820019505295
 20
-129.309247472013
 10
103.820019505295
 20
-129.0491427628766
 10
103.820019505295
 20
-128.8014403974871
 10
103.5388997136986
 20
-128.7528645511451
 10
103.191978598334
 20
-128.7528645511451
 10
102.8722737373028
 20
-128.7528645511451
 10
102.5635931818244
 20
-128.7911051110314
 10
102.5635931818244
 20
-129.0491427628766
 97
        0
 97
        0
 75
     2
 76
     1
 98
        0
  0
ENDBLK
  5
66
330
63
100
AcDbEntity
  8
0
100
AcDbBlockEnd
  0
BLOCK
  5
7A
330
78
100
AcDbEntity
  8
0
100
AcDbBlockBegin
  2
block 3
 70
     0
 10
0.0
 20
0.0
 30
0.0
  3
block 3
  1

  0
SPLINE
  5
7C
330
78
100
AcDbEntity
  8
_U+30EC_U+30A4_U+30E4_U+30FC 1
370
     0
100
AcDbSpline
210
0.0
220
0.0
230
1.0
 70
    11
 71
     3
 72
    44
 73
    40
 74
     0
 42
0.0000000001
 43
0.0000000001
 12
1.0
 22
0.0
 32
0.0
 13
1.0
 23
0.0
 33
0.0
 40
0.0
 40
0.0
 40
0.0
 40
0.0
 40
1.0
 40
1.0
 40
1.0
 40
2.0
 40
2.0
 40
2.0
 40
3.0
 40
3.0
 40
3.0
 40
4.0
 40
4.0
 40
4.0
 40
5.0
 40
5.0
 40
5.0
 40
6.0
 40
6.0
 40
6.0
 40
7.0
 40
7.0
 40
7.0
 40
8.0
 40
8.0
 40
8.0
 40
9.0
 40
9.0
 40
9.0
 40
10.0
 40
10.0
 40
10.0
 40
11.0
 40
11.0
 40
11.0
 40
12.0
 40
12.0
 40
12.0
 40
13.0
 40
13.0
 40
13.0
 40
13.0
 10
89.76179061341026
 20
-114.7621595307713
 30
0.0
 10
89.5438883239682
 20
-114.920806177867
 30
0.0
 10
89.4506984910922
 20
-114.9948757307999
 30
0.0
 10
89.40212264475016
 20
-115.1387084673091
 30
0.0
 10
89.40212264475016
 20
-115.1387084673091
 30
0.0
 10
90.18054196964236
 20
-115.1387084673091
 30
0.0
 10
90.18054196964236
 20
-115.1387084673091
 30
0.0
 10
90.18054196964236
 20
-115.1387084673091
 30
0.0
 10
90.18054196964236
 20
-115.3438639034557
 30
0.0
 10
90.18054196964236
 20
-115.3438639034557
 30
0.0
 10
90.18054196964236
 20
-115.3438639034557
 30
0.0
 10
89.15252547684382
 20
-115.3438639034557
 30
0.0
 10
89.15252547684382
 20
-115.3438639034557
 30
0.0
 10
89.18422035530811
 20
-114.9862629920868
 30
0.0
 10
89.24967716952786
 20
-114.9080593245716
 30
0.0
 10
89.6348388447788
 20
-114.609714055549
 30
0.0
 10
89.89080943933286
 20
-114.41093204605
 30
0.0
 10
89.9562662535526
 20
-114.3432359197649
 30
0.0
 10
89.9562662535526
 20
-114.2057766099034
 30
0.0
 10
89.9562662535526
 20
-114.0872653252108
 30
0.0
 10
89.88443601268514
 20
-113.9561794419971
 30
0.0
 10
89.68772106047739
 20
-113.9561794419971
 30
0.0
 10
89.42744409656676
 20
-113.9561794419971
 30
0.0
 10
89.41900361262789
 20
-114.1866563299603
 30
0.0
 10
89.41469724327133
 20
-114.3031005573617
 30
0.0
 10
89.41469724327133
 20
-114.3031005573617
 30
0.0
 10
89.19059378195583
 20
-114.3031005573617
 30
0.0
 10
89.19059378195583
 20
-114.3031005573617
 30
0.0
 10
89.1990342658947
 20
-114.1761487887303
 30
0.0
 10
89.20954180712471
 20
-114.0640109306854
 30
0.0
 10
89.28998478670529
 20
-113.9454996459928
 30
0.0
 10
89.39988333268475
 20
-113.7847859416059
 30
0.0
 10
89.58609074366251
 20
-113.7508517510762
 30
0.0
 10
89.70253497106395
 20
-113.7508517510762
 30
0.0
 10
89.9796929028523
 20
-113.7508517510762
 30
0.0
 10
90.18691539629008
 20
-113.9349921047628
 30
0.0
 10
90.18691539629008
 20
-114.2078436671946
 30
0.0
 10
90.18691539629008
 20
-114.4362534978666
 30
0.0
 10
90.0706434236629
 20
-114.5358167573904
 30
0.0
 10
89.76179061341026
 20
-114.7621595307713
 30
0.0
  0
HATCH
  5
7D
330
78
100
AcDbEntity
  8
_U+30EC_U+30A4_U+30E4_U+30FC 1
 62
   179
420
  2234388
100
AcDbHatch
 10
0.0
 20
0.0
 30
0.0
210
0.0
220
0.0
230
1.0
  2
SOLID
 70
     1
 71
     0
 91
        1
 92
        1
 93
        1
 72
     4
 94
        3
 73
     0
 74
     1
 95
       44
 96
       40
 40
0.0
 40
0.0
 40
0.0
 40
0.0
 40
1.0
 40
1.0
 40
1.0
 40
2.0
 40
2.0
 40
2.0
 40
3.0
 40
3.0
 40
3.0
 40
4.0
 40
4.0
 40
4.0
 40
5.0
 40
5.0
 40
5.0
 40
6.0
 40
6.0
 40
6.0
 40
7.0
 40
7.0
 40
7.0
 40
8.0
 40
8.0
 40
8.0
 40
9.0
 40
9.0
 40
9.0
 40
10.0
 40
10.0
 40
10.0
 40
11.0
 40
11.0
 40
11.0
 40
12.0
 40
12.0
 40
12.0
 40
13.0
 40
13.0
 40
13.0
 40
13.0
 10
89.76179061341026
 20
-114.7621595307713
 10
89.5438883239682
 20
-114.920806177867
 10
89.4506984910922
 20
-114.9948757307999
 10
89.40212264475016
 20
-115.1387084673091
 10
89.40212264475016
 20
-115.1387084673091
 10
90.18054196964236
 20
-115.1387084673091
 10
90.18054196964236
 20
-115.1387084673091
 10
90.18054196964236
 20
-115.1387084673091
 10
90.18054196964236
 20
-115.3438639034557
 10
90.18054196964236
 20
-115.3438639034557
 10
90.18054196964236
 20
-115.3438639034557
 10
89.15252547684382
 20
-115.3438639034557
 10
89.15252547684382
 20
-115.3438639034557
 10
89.18422035530811
 20
-114.9862629920868
 10
89.24967716952786
 20
-114.9080593245716
 10
89.6348388447788
 20
-114.609714055549
 10
89.89080943933286
 20
-114.41093204605
 10
89.9562662535526
 20
-114.3432359197649
 10
89.9562662535526
 20
-114.2057766099034
 10
89.9562662535526
 20
-114.0872653252108
 10
89.88443601268514
 20
-113.9561794419971
 10
89.68772106047739
 20
-113.9561794419971
 10
89.42744409656676
 20
-113.9561794419971
 10
89.41900361262789
 20
-114.1866563299603
 10
89.41469724327133
 20
-114.3031005573617
 10
89.41469724327133
 20
-114.3031005573617
 10
89.19059378195583
 20
-114.3031005573617
 10
89.19059378195583
 20
-114.3031005573617
 10
89.1990342658947
 20
-114.1761487887303
 10
89.20954180712471
 20
-114.0640109306854
 10
89.28998478670529
 20
-113.9454996459928
 10
89.39988333268475
 20
-113.7847859416059
 10
89.58609074366251
 20
-113.7508517510762
 10
89.70253497106395
 20
-113.7508517510762
 10
89.9796929028523
 20
-113.7508517510762
 10
90.18691539629008
 20
-113.9349921047628
 10
90.18691539629008
 20
-114.2078436671946
 10
90.18691539629008
 20
-114.4362534978666
 10
90.0706434236629
 20
-114.5358167573904
 10
89.76179061341026
 20
-114.7621595307713
 97
        0
 97
        0
 75
     2
 76
     1
 98
        0
  0
SPLINE
  5
7E
330
78
100
AcDbEntity
  8
_U+30EC_U+30A4_U+30E4_U+30FC 1
370
     0
100
AcDbSpline
210
0.0
220
0.0
230
1.0
 70
    11
 71
     3
 72
    29
 73
    25
 74
     0
 42
0.0000000001
 43
0.0000000001
 12
1.0
 22
0.0
 32
0.0
 13
1.0
 23
0.0
 33
0.0
 40
0.0
 40
0.0
 40
0.0
 40
0.0
 40
1.0
 40
1.0
 40
1.0
 40
2.0
 40
2.0
 40
2.0
 40
3.0
 40
3.0
 40
3.0
 40
4.0
 40
4.0
 40
4.0
 40
5.0
 40
5.0
 40
5.0
 40
6.0
 40
6.0
 40
6.0
 40
7.0
 40
7.0
 40
7.0
 40
8.0
 40
8.0
 40
8.0
 40
8.0
 10
91.24318167206768
 20
-115.1660969764168
 30
0.0
 10
91.13535018337936
 20
-115.37555878192
 30
0.0
 10
90.96188962569703
 20
-115.3946790618631
 30
0.0
 10
90.84544539829558
 20
-115.3946790618631
 30
0.0
 10
90.68473169390869
 20
-115.3946790618631
 30
0.0
 10
90.54296601469065
 20
-115.3481702728123
 30
0.0
 10
90.4477091245235
 20
-115.1660969764168
 30
0.0
 10
90.34418400519174
 20
-114.9714490815002
 30
0.0
 10
90.3250637252486
 20
-114.7345987668893
 30
0.0
 10
90.3250637252486
 20
-114.571645750437
 30
0.0
 10
90.3250637252486
 20
-114.4278130139278
 30
0.0
 10
90.34194469312632
 20
-114.1761487887303
 30
0.0
 10
90.4477091245235
 20
-113.9771945244571
 30
0.0
 10
90.55571286798607
 20
-113.7741061456016
 30
0.0
 10
90.71642657237298
 20
-113.7508517510762
 30
0.0
 10
90.84544539829558
 20
-113.7508517510762
 30
0.0
 10
91.00409204539135
 20
-113.7508517510762
 30
0.0
 10
91.14792478190053
 20
-113.7952934828359
 30
0.0
 10
91.24318167206768
 20
-113.9771945244571
 30
0.0
 10
91.34257267681714
 20
-114.1697753620826
 30
0.0
 10
91.36582707134258
 20
-114.3981851927546
 30
0.0
 10
91.36582707134258
 20
-114.571645750437
 30
0.0
 10
91.36582707134258
 20
-114.7430392508281
 30
0.0
 10
91.34481198888255
 20
-114.9736883935656
 30
0.0
 10
91.24318167206768
 20
-115.1660969764168
 30
0.0
  0
SPLINE
  5
7F
330
78
100
AcDbEntity
  8
_U+30EC_U+30A4_U+30E4_U+30FC 1
370
     0
100
AcDbSpline
210
0.0
220
0.0
230
1.0
 70
    11
 71
     3
 72
    17
 73
    13
 74
     0
 42
0.0000000001
 43
0.0000000001
 12
1.0
 22
0.0
 32
0.0
 13
1.0
 23
0.0
 33
0.0
 40
0.0
 40
0.0
 40
0.0
 40
0.0
 40
1.0
 40
1.0
 40
1.0
 40
2.0
 40
2.0
 40
2.0
 40
3.0
 40
3.0
 40
3.0
 40
4.0
 40
4.0
 40
4.0
 40
4.0
 10
90.84544539829558
 20
-113.9434325887017
 30
0.0
 10
90.59584823038924
 20
-113.9434325887017
 30
0.0
 10
90.54933944133836
 20
-114.2269639471377
 30
0.0
 10
90.54933944133836
 20
-114.571645750437
 30
0.0
 10
90.54933944133836
 20
-114.8911783566939
 30
0.0
 10
90.58534068915922
 20
-115.2000311669465
 30
0.0
 10
90.84544539829558
 20
-115.2000311669465
 30
0.0
 10
91.09297550891078
 20
-115.2000311669465
 30
0.0
 10
91.14172361002707
 20
-114.9185668658016
 30
0.0
 10
91.14172361002707
 20
-114.571645750437
 30
0.0
 10
91.14172361002707
 20
-114.2522853989543
 30
0.0
 10
91.1034830501408
 20
-113.9434325887017
 30
0.0
 10
90.84544539829558
 20
-113.9434325887017
 30
0.0
  0
HATCH
  5
80
330
78
100
AcDbEntity
  8
_U+30EC_U+30A4_U+30E4_U+30FC 1
 62
   179
420
  2234388
100
AcDbHatch
 10
0.0
 20
0.0
 30
0.0
210
0.0
220
0.0
230
1.0
  2
SOLID
 70
     1
 71
     0
 91
        2
 92
        1
 93
        1
 72
     4
 94
        3
 73
     0
 74
     1
 95
       29
 96
       25
 40
0.0
 40
0.0
 40
0.0
 40
0.0
 40
1.0
 40
1.0
 40
1.0
 40
2.0
 40
2.0
 40
2.0
 40
3.0
 40
3.0
 40
3.0
 40
4.0
 40
4.0
 40
4.0
 40
5.0
 40
5.0
 40
5.0
 40
6.0
 40
6.0
 40
6.0
 40
7.0
 40
7.0
 40
7.0
 40
8.0
 40
8.0
 40
8.0
 40
8.0
 10
91.24318167206768
 20
-115.1660969764168
 10
91.13535018337936
 20
-115.37555878192
 10
90.96188962569703
 20
-115.3946790618631
 10
90.84544539829558
 20
-115.3946790618631
 10
90.68473169390869
 20
-115.3946790618631
 10
90.54296601469065
 20
-115.3481702728123
 10
90.4477091245235
 20
-115.1660969764168
 10
90.34418400519174
 20
-114.9714490815002
 10
90.3250637252486
 20
-114.7345987668893
 10
90.3250637252486
 20
-114.571645750437
 10
90.3250637252486
 20
-114.4278130139278
 10
90.34194469312632
 20
-114.1761487887303
 10
90.4477091245235
 20
-113.9771945244571
 10
90.55571286798607
 20
-113.7741061456016
 10
90.71642657237298
 20
-113.7508517510762
 10
90.84544539829558
 20
-113.7508517510762
 10
91.00409204539135
 20
-113.7508517510762
 10
91.14792478190053
 20
-113.7952934828359
 10
91.24318167206768
 20
-113.9771945244571
 10
91.34257267681714
 20
-114.1697753620826
 10
91.36582707134258
 20
-114.3981851927546
 10
91.36582707134258
 20
-114.571645750437
 10
91.36582707134258
 20
-114.7430392508281
 10
91.34481198888255
 20
-114.9736883935656
 10
91.24318167206768
 20
-115.1660969764168
 97
        0
 97
        0
 92
        1
 93
        1
 72
     4
 94
        3
 73
     0
 74
     1
 95
       17
 96
       13
 40
0.0
 40
0.0
 40
0.0
 40
0.0
 40
1.0
 40
1.0
 40
1.0
 40
2.0
 40
2.0
 40
2.0
 40
3.0
 40
3.0
 40
3.0
 40
4.0
 40
4.0
 40
4.0
 40
4.0
 10
90.84544539829558
 20
-113.9434325887017
 10
90.59584823038924
 20
-113.9434325887017
 10
90.54933944133836
 20
-114.2269639471377
 10
90.54933944133836
 20
-114.571645750437
 10
90.54933944133836
 20
-114.8911783566939
 10
90.58534068915922
 20
-115.2000311669465
 10
90.84544539829558
 20
-115.2000311669465
 10
91.09297550891078
 20
-115.2000311669465
 10
91.14172361002707
 20
-114.9185668658016
 10
91.14172361002707
 20
-114.571645750437
 10
91.14172361002707
 20
-114.2522853989543
 10
91.1034830501408
 20
-113.9434325887017
 10
90.84544539829558
 20
-113.9434325887017
 97
        0
 97
        0
 75
     2
 76
     1
 98
        0
  0
ENDBLK
  5
7B
330
78
100
AcDbEntity
  8
0
100
AcDbBlockEnd
  0
BLOCK
  5
8F
330
8D
100
AcDbEntity
  8
0
100
AcDbBlockBegin
  2
block 4
 70
     0
 10
0.0
 20
0.0
 30
0.0
  3
block 4
  1

  0
SPLINE
  5
91
330
8D
100
AcDbEntity
  8
_U+30EC_U+30A4_U+30E4_U+30FC 1
370
     0
100
AcDbSpline
210
0.0
220
0.0
230
1.0
 70
    11
 71
     3
 72
    44
 73
    40
 74
     0
 42
0.0000000001
 43
0.0000000001
 12
1.0
 22
0.0
 32
0.0
 13
1.0
 23
0.0
 33
0.0
 40
0.0
 40
0.0
 40
0.0
 40
0.0
 40
1.0
 40
1.0
 40
1.0
 40
2.0
 40
2.0
 40
2.0
 40
3.0
 40
3.0
 40
3.0
 40
4.0
 40
4.0
 40
4.0
 40
5.0
 40
5.0
 40
5.0
 40
6.0
 40
6.0
 40
6.0
 40
7.0
 40
7.0
 40
7.0
 40
8.0
 40
8.0
 40
8.0
 40
9.0
 40
9.0
 40
9.0
 40
10.0
 40
10.0
 40
10.0
 40
11.0
 40
11.0
 40
11.0
 40
12.0
 40
12.0
 40
12.0
 40
13.0
 40
13.0
 40
13.0
 40
13.0
 10
87.26185707453871
 20
-142.7616563228165
 30
0.0
 10
87.04395478509666
 20
-142.9204752246866
 30
0.0
 10
86.95076495222065
 20
-142.9945447776194
 30
0.0
 10
86.90218910587862
 20
-143.1382052593544
 30
0.0
 10
86.90218910587862
 20
-143.1382052593544
 30
0.0
 10
87.68060843077082
 20
-143.1382052593544
 30
0.0
 10
87.68060843077082
 20
-143.1382052593544
 30
0.0
 10
87.68060843077082
 20
-143.1382052593544
 30
0.0
 10
87.68060843077082
 20
-143.3435329502752
 30
0.0
 10
87.68060843077082
 20
-143.3435329502752
 30
0.0
 10
87.68060843077082
 20
-143.3435329502752
 30
0.0
 10
86.65259193797228
 20
-143.3435329502752
 30
0.0
 10
86.65259193797228
 20
-143.3435329502752
 30
0.0
 10
86.68428681643657
 20
-142.9859320389063
 30
0.0
 10
86.74991588543058
 20
-142.9077283713911
 30
0.0
 10
87.13490530590725
 20
-142.6093831023685
 30
0.0
 10
87.39087590046131
 20
-142.4106010928696
 30
0.0
 10
87.45633271468105
 20
-142.3427327118102
 30
0.0
 10
87.45633271468105
 20
-142.2052734019487
 30
0.0
 10
87.45633271468105
 20
-142.0867621172561
 30
0.0
 10
87.3845024738136
 20
-141.9558484888166
 30
0.0
 10
87.18778752160584
 20
-141.9558484888166
 30
0.0
 10
86.92751055769521
 20
-141.9558484888166
 30
0.0
 10
86.91907007375634
 20
-142.1863253767798
 30
0.0
 10
86.91476370439979
 20
-142.3027696041813
 30
0.0
 10
86.91476370439979
 20
-142.3027696041813
 30
0.0
 10
86.69066024308428
 20
-142.3027696041813
 30
0.0
 10
86.69066024308428
 20
-142.3027696041813
 30
0.0
 10
86.69910072702315
 20
-142.1756455807756
 30
0.0
 10
86.70960826825316
 20
-142.0636799775049
 30
0.0
 10
86.79005124783374
 20
-141.9451686928123
 30
0.0
 10
86.8999497938132
 20
-141.7842827336512
 30
0.0
 10
87.08615720479096
 20
-141.7505207978957
 30
0.0
 10
87.20260143219241
 20
-141.7505207978957
 30
0.0
 10
87.47975936398076
 20
-141.7505207978957
 30
0.0
 10
87.68698185741853
 20
-141.9344888968081
 30
0.0
 10
87.68698185741853
 20
-142.2073404592398
 30
0.0
 10
87.68698185741853
 20
-142.4360947994604
 30
0.0
 10
87.57070988479136
 20
-142.5353135494356
 30
0.0
 10
87.26185707453871
 20
-142.7616563228165
 30
0.0
  0
HATCH
  5
92
330
8D
100
AcDbEntity
  8
_U+30EC_U+30A4_U+30E4_U+30FC 1
 62
   179
420
  2234388
100
AcDbHatch
 10
0.0
 20
0.0
 30
0.0
210
0.0
220
0.0
230
1.0
  2
SOLID
 70
     1
 71
     0
 91
        1
 92
        1
 93
        1
 72
     4
 94
        3
 73
     0
 74
     1
 95
       44
 96
       40
 40
0.0
 40
0.0
 40
0.0
 40
0.0
 40
1.0
 40
1.0
 40
1.0
 40
2.0
 40
2.0
 40
2.0
 40
3.0
 40
3.0
 40
3.0
 40
4.0
 40
4.0
 40
4.0
 40
5.0
 40
5.0
 40
5.0
 40
6.0
 40
6.0
 40
6.0
 40
7.0
 40
7.0
 40
7.0
 40
8.0
 40
8.0
 40
8.0
 40
9.0
 40
9.0
 40
9.0
 40
10.0
 40
10.0
 40
10.0
 40
11.0
 40
11.0
 40
11.0
 40
12.0
 40
12.0
 40
12.0
 40
13.0
 40
13.0
 40
13.0
 40
13.0
 10
87.26185707453871
 20
-142.7616563228165
 10
87.04395478509666
 20
-142.9204752246866
 10
86.95076495222065
 20
-142.9945447776194
 10
86.90218910587862
 20
-143.1382052593544
 10
86.90218910587862
 20
-143.1382052593544
 10
87.68060843077082
 20
-143.1382052593544
 10
87.68060843077082
 20
-143.1382052593544
 10
87.68060843077082
 20
-143.1382052593544
 10
87.68060843077082
 20
-143.3435329502752
 10
87.68060843077082
 20
-143.3435329502752
 10
87.68060843077082
 20
-143.3435329502752
 10
86.65259193797228
 20
-143.3435329502752
 10
86.65259193797228
 20
-143.3435329502752
 10
86.68428681643657
 20
-142.9859320389063
 10
86.74991588543058
 20
-142.9077283713911
 10
87.13490530590725
 20
-142.6093831023685
 10
87.39087590046131
 20
-142.4106010928696
 10
87.45633271468105
 20
-142.3427327118102
 10
87.45633271468105
 20
-142.2052734019487
 10
87.45633271468105
 20
-142.0867621172561
 10
87.3845024738136
 20
-141.9558484888166
 10
87.18778752160584
 20
-141.9558484888166
 10
86.92751055769521
 20
-141.9558484888166
 10
86.91907007375634
 20
-142.1863253767798
 10
86.91476370439979
 20
-142.3027696041813
 10
86.91476370439979
 20
-142.3027696041813
 10
86.69066024308428
 20
-142.3027696041813
 10
86.69066024308428
 20
-142.3027696041813
 10
86.69910072702315
 20
-142.1756455807756
 10
86.70960826825316
 20
-142.0636799775049
 10
86.79005124783374
 20
-141.9451686928123
 10
86.8999497938132
 20
-141.7842827336512
 10
87.08615720479096
 20
-141.7505207978957
 10
87.20260143219241
 20
-141.7505207978957
 10
87.47975936398076
 20
-141.7505207978957
 10
87.68698185741853
 20
-141.9344888968081
 10
87.68698185741853
 20
-142.2073404592398
 10
87.68698185741853
 20
-142.4360947994604
 10
87.57070988479136
 20
-142.5353135494356
 10
87.26185707453871
 20
-142.7616563228165
 97
        0
 97
        0
 75
     2
 76
     1
 98
        0
  0
SPLINE
  5
93
330
8D
100
AcDbEntity
  8
_U+30EC_U+30A4_U+30E4_U+30FC 1
370
     0
100
AcDbSpline
210
0.0
220
0.0
230
1.0
 70
    11
 71
     3
 72
    53
 73
    49
 74
     0
 42
0.0000000001
 43
0.0000000001
 12
1.0
 22
0.0
 32
0.0
 13
1.0
 23
0.0
 33
0.0
 40
0.0
 40
0.0
 40
0.0
 40
0.0
 40
1.0
 40
1.0
 40
1.0
 40
2.0
 40
2.0
 40
2.0
 40
3.0
 40
3.0
 40
3.0
 40
4.0
 40
4.0
 40
4.0
 40
5.0
 40
5.0
 40
5.0
 40
6.0
 40
6.0
 40
6.0
 40
7.0
 40
7.0
 40
7.0
 40
8.0
 40
8.0
 40
8.0
 40
9.0
 40
9.0
 40
9.0
 40
10.0
 40
10.0
 40
10.0
 40
11.0
 40
11.0
 40
11.0
 40
12.0
 40
12.0
 40
12.0
 40
13.0
 40
13.0
 40
13.0
 40
14.0
 40
14.0
 40
14.0
 40
15.0
 40
15.0
 40
15.0
 40
16.0
 40
16.0
 40
16.0
 40
16.0
 10
88.32656383425517
 20
-143.3941758539084
 30
0.0
 10
88.24818791196573
 20
-143.3941758539084
 30
0.0
 10
88.14672984992512
 20
-143.3772948860307
 30
0.0
 10
88.04509953311026
 20
-143.3139051291021
 30
0.0
 10
87.87163897542793
 20
-143.2040065831226
 30
0.0
 10
87.85045163819365
 20
-143.0727484451346
 30
0.0
 10
87.83150361302476
 20
-142.9649169564463
 30
0.0
 10
87.83150361302476
 20
-142.9649169564463
 30
0.0
 10
88.05354001704912
 20
-142.9649169564463
 30
0.0
 10
88.05354001704912
 20
-142.9649169564463
 30
0.0
 10
88.10866154481312
 20
-143.1636989659452
 30
0.0
 10
88.23561331344457
 20
-143.1933267871183
 30
0.0
 10
88.32863089154633
 20
-143.1933267871183
 30
0.0
 10
88.4683295134732
 20
-143.1933267871183
 30
0.0
 10
88.62060273392125
 20
-143.0937635275946
 30
0.0
 10
88.62060273392125
 20
-142.8612195823403
 30
0.0
 10
88.62060273392125
 20
-142.6052489877862
 30
0.0
 10
88.4407687495912
 20
-142.5353135494356
 30
0.0
 10
88.32019040760746
 20
-142.5353135494356
 30
0.0
 10
88.28849552914316
 20
-142.5353135494356
 30
0.0
 10
88.14672984992512
 20
-142.5353135494356
 30
0.0
 10
88.05784638640569
 20
-142.6645046301325
 30
0.0
 10
88.05784638640569
 20
-142.6645046301325
 30
0.0
 10
87.8823187714322
 20
-142.6455566049636
 30
0.0
 10
87.8823187714322
 20
-142.6455566049636
 30
0.0
 10
87.8823187714322
 20
-142.6455566049636
 30
0.0
 10
88.00289711341594
 20
-141.7990966442377
 30
0.0
 10
88.00289711341594
 20
-141.7990966442377
 30
0.0
 10
88.00289711341594
 20
-141.7990966442377
 30
0.0
 10
88.78131643830815
 20
-141.7990966442377
 30
0.0
 10
88.78131643830815
 20
-141.7990966442377
 30
0.0
 10
88.78131643830815
 20
-141.7990966442377
 30
0.0
 10
88.78131643830815
 20
-141.9937445391543
 30
0.0
 10
88.78131643830815
 20
-141.9937445391543
 30
0.0
 10
88.78131643830815
 20
-141.9937445391543
 30
0.0
 10
88.165677875094
 20
-141.9937445391543
 30
0.0
 10
88.165677875094
 20
-141.9937445391543
 30
0.0
 10
88.165677875094
 20
-141.9937445391543
 30
0.0
 10
88.10022106087425
 20
-142.416802264743
 30
0.0
 10
88.10022106087425
 20
-142.416802264743
 30
0.0
 10
88.1615437605117
 20
-142.3830403289876
 30
0.0
 10
88.24405379738343
 20
-142.3427327118102
 30
0.0
 10
88.36239282730176
 20
-142.3427327118102
 30
0.0
 10
88.61629636456468
 20
-142.3427327118102
 30
0.0
 10
88.85331893394986
 20
-142.5291123775622
 30
0.0
 10
88.85331893394986
 20
-142.8422715571714
 30
0.0
 10
88.85331893394986
 20
-143.1595648513629
 30
0.0
 10
88.6290432178601
 20
-143.3941758539084
 30
0.0
 10
88.32656383425517
 20
-143.3941758539084
 30
0.0
  0
HATCH
  5
94
330
8D
100
AcDbEntity
  8
_U+30EC_U+30A4_U+30E4_U+30FC 1
 62
   179
420
  2234388
100
AcDbHatch
 10
0.0
 20
0.0
 30
0.0
210
0.0
220
0.0
230
1.0
  2
SOLID
 70
     1
 71
     0
 91
        1
 92
        1
 93
        1
 72
     4
 94
        3
 73
     0
 74
     1
 95
       53
 96
       49
 40
0.0
 40
0.0
 40
0.0
 40
0.0
 40
1.0
 40
1.0
 40
1.0
 40
2.0
 40
2.0
 40
2.0
 40
3.0
 40
3.0
 40
3.0
 40
4.0
 40
4.0
 40
4.0
 40
5.0
 40
5.0
 40
5.0
 40
6.0
 40
6.0
 40
6.0
 40
7.0
 40
7.0
 40
7.0
 40
8.0
 40
8.0
 40
8.0
 40
9.0
 40
9.0
 40
9.0
 40
10.0
 40
10.0
 40
10.0
 40
11.0
 40
11.0
 40
11.0
 40
12.0
 40
12.0
 40
12.0
 40
13.0
 40
13.0
 40
13.0
 40
14.0
 40
14.0
 40
14.0
 40
15.0
 40
15.0
 40
15.0
 40
16.0
 40
16.0
 40
16.0
 40
16.0
 10
88.32656383425517
 20
-143.3941758539084
 10
88.24818791196573
 20
-143.3941758539084
 10
88.14672984992512
 20
-143.3772948860307
 10
88.04509953311026
 20
-143.3139051291021
 10
87.87163897542793
 20
-143.2040065831226
 10
87.85045163819365
 20
-143.0727484451346
 10
87.83150361302476
 20
-142.9649169564463
 10
87.83150361302476
 20
-142.9649169564463
 10
88.05354001704912
 20
-142.9649169564463
 10
88.05354001704912
 20
-142.9649169564463
 10
88.10866154481312
 20
-143.1636989659452
 10
88.23561331344457
 20
-143.1933267871183
 10
88.32863089154633
 20
-143.1933267871183
 10
88.4683295134732
 20
-143.1933267871183
 10
88.62060273392125
 20
-143.0937635275946
 10
88.62060273392125
 20
-142.8612195823403
 10
88.62060273392125
 20
-142.6052489877862
 10
88.4407687495912
 20
-142.5353135494356
 10
88.32019040760746
 20
-142.5353135494356
 10
88.28849552914316
 20
-142.5353135494356
 10
88.14672984992512
 20
-142.5353135494356
 10
88.05784638640569
 20
-142.6645046301325
 10
88.05784638640569
 20
-142.6645046301325
 10
87.8823187714322
 20
-142.6455566049636
 10
87.8823187714322
 20
-142.6455566049636
 10
87.8823187714322
 20
-142.6455566049636
 10
88.00289711341594
 20
-141.7990966442377
 10
88.00289711341594
 20
-141.7990966442377
 10
88.00289711341594
 20
-141.7990966442377
 10
88.78131643830815
 20
-141.7990966442377
 10
88.78131643830815
 20
-141.7990966442377
 10
88.78131643830815
 20
-141.7990966442377
 10
88.78131643830815
 20
-141.9937445391543
 10
88.78131643830815
 20
-141.9937445391543
 10
88.78131643830815
 20
-141.9937445391543
 10
88.165677875094
 20
-141.9937445391543
 10
88.165677875094
 20
-141.9937445391543
 10
88.165677875094
 20
-141.9937445391543
 10
88.10022106087425
 20
-142.416802264743
 10
88.10022106087425
 20
-142.416802264743
 10
88.1615437605117
 20
-142.3830403289876
 10
88.24405379738343
 20
-142.3427327118102
 10
88.36239282730176
 20
-142.3427327118102
 10
88.61629636456468
 20
-142.3427327118102
 10
88.85331893394986
 20
-142.5291123775622
 10
88.85331893394986
 20
-142.8422715571714
 10
88.85331893394986
 20
-143.1595648513629
 10
88.6290432178601
 20
-143.3941758539084
 10
88.32656383425517
 20
-143.3941758539084
 97
        0
 97
        0
 75
     2
 76
     1
 98
        0
  0
ENDBLK
  5
90
330
8D
100
AcDbEntity
  8
0
100
AcDbBlockEnd
  0
ENDSEC
  0
SECTION
  2
ENTITIES
  0
POLYLINE
  5
41
330
1F
100
AcDbEntity
  8
_U+30EC_U+30A4_U+30E4_U+30FC 1
 62
   179
420
  2234388
370
    25
100
AcDb2dPolyline
 66
     1
 10
0.0
 20
0.0
 30
0.0
  0
VERTEX
  5
42
330
41
100
AcDbEntity
  8
_U+30EC_U+30A4_U+30E4_U+30FC 1
 62
   179
420
  2234388
370
    25
100
AcDbVertex
100
AcDb2dVertex
 10
100.2574310533309
 20
-119.6371396923128
 30
0.0
  0
VERTEX
  5
43
330
41
100
AcDbEntity
  8
_U+30EC_U+30A4_U+30E4_U+30FC 1
 62
   179
420
  2234388
370
    25
100
AcDbVertex
100
AcDb2dVertex
 10
100.2574310533309
 20
-139.6373113539795
 30
0.0
  0
SEQEND
  5
44
330
41
100
AcDbEntity
  8
_U+30EC_U+30A4_U+30E4_U+30FC 1
 62
   179
420
  2234388
370
    25
  0
POLYLINE
  5
45
330
1F
100
AcDbEntity
  8
_U+30EC_U+30A4_U+30E4_U+30FC 1
 62
   179
420
  2234388
370
    25
100
AcDb2dPolyline
 66
     1
 10
0.0
 20
0.0
 30
0.0
  0
VERTEX
  5
46
330
45
100
AcDbEntity
  8
_U+30EC_U+30A4_U+30E4_U+30FC 1
 62
   179
420
  2234388
370
    25
100
AcDbVertex
100
AcDb2dVertex
 10
75.25741113557905
 20
-139.6373113539795
 30
0.0
  0
VERTEX
  5
47
330
45
100
AcDbEntity
  8
_U+30EC_U+30A4_U+30E4_U+30FC 1
 62
   179
420
  2234388
370
    25
100
AcDbVertex
100
AcDb2dVertex
 10
100.2574310533309
 20
-139.6373113539795
 30
0.0
  0
SEQEND
  5
48
330
45
100
AcDbEntity
  8
_U+30EC_U+30A4_U+30E4_U+30FC 1
 62
   179
420
  2234388
370
    25
  0
POLYLINE
  5
49
330
1F
100
AcDbEntity
  8
_U+30EC_U+30A4_U+30E4_U+30FC 1
 62
   179
420
  2234388
370
    25
100
AcDb2dPolyline
 66
     1
 10
0.0
 20
0.0
 30
0.0
  0
VERTEX
  5
4A
330
49
100
AcDbEntity
  8
_U+30EC_U+30A4_U+30E4_U+30FC 1
 62
   179
420
  2234388
370
    25
100
AcDbVertex
100
AcDb2dVertex
 10
80.25747156357242
 20
-119.6371396923128
 30
0.0
  0
VERTEX
  5
4B
330
49
100
AcDbEntity
  8
_U+30EC_U+30A4_U+30E4_U+30FC 1
 62
   179
420
  2234388
370
    25
100
AcDbVertex
100
AcDb2dVertex
 10
100.2574310533309
 20
-119.6371396923128
 30
0.0
  0
SEQEND
  5
4C
330
49
100
AcDbEntity
  8
_U+30EC_U+30A4_U+30E4_U+30FC 1
 62
   179
420
  2234388
370
    25
  0
POLYLINE
  5
4D
330
1F
100
AcDbEntity
  8
_U+30EC_U+30A4_U+30E4_U+30FC 1
 62
   179
420
  2234388
370
    25
100
AcDb2dPolyline
 66
     1
 10
0.0
 20
0.0
 30
0.0
  0
VERTEX
  5
4E
330
4D
100
AcDbEntity
  8
_U+30EC_U+30A4_U+30E4_U+30FC 1
 62
   179
420
  2234388
370
    25
100
AcDbVertex
100
AcDb2dVertex
 10
80.25747156357242
 20
-119.6371396923128
 30
0.0
  0
VERTEX
  5
4F
330
4D
100
AcDbEntity
  8
_U+30EC_U+30A4_U+30E4_U+30FC 1
 62
   179
420
  2234388
370
    25
100
AcDbVertex
100
AcDb2dVertex
 10
75.25741113557905
 20
-139.6373113539795
 30
0.0
  0
SEQEND
  5
50
330
4D
100
AcDbEntity
  8
_U+30EC_U+30A4_U+30E4_U+30FC 1
 62
   179
420
  2234388
370
    25
  0
SPLINE
  5
51
330
1F
100
AcDbEntity
  8
_U+30EC_U+30A4_U+30E4_U+30FC 1
 62
   179
420
  2234388
370
     9
100
AcDbSpline
210
0.0
220
0.0
230
1.0
 70
    11
 71
     3
 72
    17
 73
    13
 74
     0
 42
0.0000000001
 43
0.0000000001
 12
1.0
 22
0.0
 32
0.0
 13
1.0
 23
0.0
 33
0.0
 40
0.0
 40
0.0
 40
0.0
 40
0.0
 40
1.0
 40
1.0
 40
1.0
 40
2.0
 40
2.0
 40
2.0
 40
3.0
 40
3.0
 40
3.0
 40
4.0
 40
4.0
 40
4.0
 40
4.0
 10
100.3576904952176
 20
-115.6373805266463
 30
0.0
 10
100.3576904952176
 20
-115.582276637771
 30
0.0
 10
100.3129229963597
 20
-115.5374738600046
 30
0.0
 10
100.2574310533309
 20
-115.5374738600046
 30
0.0
 10
100.2023271658479
 20
-115.5374738600046
 30
0.0
 10
100.1575243892131
 20
-115.582276637771
 30
0.0
 10
100.1575243892131
 20
-115.6373805266463
 30
0.0
 10
100.1575243892131
 20
-115.692519693299
 30
0.0
 10
100.2023271658479
 20
-115.7372871932879
 30
0.0
 10
100.2574310533309
 20
-115.7372871932879
 30
0.0
 10
100.3129229963597
 20
-115.7372871932879
 30
0.0
 10
100.3576904952176
 20
-115.692519693299
 30
0.0
 10
100.3576904952176
 20
-115.6373805266463
 30
0.0
  0
SPLINE
  5
52
330
1F
100
AcDbEntity
  8
_U+30EC_U+30A4_U+30E4_U+30FC 1
 62
   179
420
  2234388
370
     9
100
AcDbSpline
210
0.0
220
0.0
230
1.0
 70
    11
 71
     3
 72
    17
 73
    13
 74
     0
 42
0.0000000001
 43
0.0000000001
 12
1.0
 22
0.0
 32
0.0
 13
1.0
 23
0.0
 33
0.0
 40
0.0
 40
0.0
 40
0.0
 40
0.0
 40
1.0
 40
1.0
 40
1.0
 40
2.0
 40
2.0
 40
2.0
 40
3.0
 40
3.0
 40
3.0
 40
4.0
 40
4.0
 40
4.0
 40
4.0
 10
104.3574495598419
 20
-119.6371396923128
 30
0.0
 10
104.3574495598419
 20
-119.5820358034379
 30
0.0
 10
104.312682060984
 20
-119.5372330256712
 30
0.0
 10
104.257542895724
 20
-119.5372330256712
 30
0.0
 10
104.2024416406162
 20
-119.5372330256712
 30
0.0
 10
104.1576388628495
 20
-119.5820358034379
 30
0.0
 10
104.1576388628495
 20
-119.6371396923128
 30
0.0
 10
104.1576388628495
 20
-119.6922788589659
 30
0.0
 10
104.2024416406162
 20
-119.7370463589545
 30
0.0
 10
104.257542895724
 20
-119.7370463589545
 30
0.0
 10
104.312682060984
 20
-119.7370463589545
 30
0.0
 10
104.3574495598419
 20
-119.6922788589659
 30
0.0
 10
104.3574495598419
 20
-119.6371396923128
 30
0.0
  0
SPLINE
  5
53
330
1F
100
AcDbEntity
  8
_U+30EC_U+30A4_U+30E4_U+30FC 1
 62
   179
420
  2234388
370
     9
100
AcDbSpline
210
0.0
220
0.0
230
1.0
 70
    11
 71
     3
 72
    17
 73
    13
 74
     0
 42
0.0000000001
 43
0.0000000001
 12
1.0
 22
0.0
 32
0.0
 13
1.0
 23
0.0
 33
0.0
 40
0.0
 40
0.0
 40
0.0
 40
0.0
 40
1.0
 40
1.0
 40
1.0
 40
2.0
 40
2.0
 40
2.0
 40
3.0
 40
3.0
 40
3.0
 40
4.0
 40
4.0
 40
4.0
 40
4.0
 10
104.3574495598419
 20
-139.6373113539795
 30
0.0
 10
104.3574495598419
 20
-139.5821721873264
 30
0.0
 10
104.312682060984
 20
-139.5374046873379
 30
0.0
 10
104.257542895724
 20
-139.5374046873379
 30
0.0
 10
104.2024416406162
 20
-139.5374046873379
 30
0.0
 10
104.1576388628495
 20
-139.5821721873264
 30
0.0
 10
104.1576388628495
 20
-139.6373113539795
 30
0.0
 10
104.1576388628495
 20
-139.6924152428544
 30
0.0
 10
104.2024416406162
 20
-139.7372180206211
 30
0.0
 10
104.257542895724
 20
-139.7372180206211
 30
0.0
 10
104.312682060984
 20
-139.7372180206211
 30
0.0
 10
104.3574495598419
 20
-139.6924152428544
 30
0.0
 10
104.3574495598419
 20
-139.6373113539795
 30
0.0
  0
SPLINE
  5
54
330
1F
100
AcDbEntity
  8
_U+30EC_U+30A4_U+30E4_U+30FC 1
 62
   179
420
  2234388
370
     9
100
AcDbSpline
210
0.0
220
0.0
230
1.0
 70
    11
 71
     3
 72
    17
 73
    13
 74
     0
 42
0.0000000001
 43
0.0000000001
 12
1.0
 22
0.0
 32
0.0
 13
1.0
 23
0.0
 33
0.0
 40
0.0
 40
0.0
 40
0.0
 40
0.0
 40
1.0
 40
1.0
 40
1.0
 40
2.0
 40
2.0
 40
2.0
 40
3.0
 40
3.0
 40
3.0
 40
4.0
 40
4.0
 40
4.0
 40
4.0
 10
100.3576904952176
 20
-143.6370705196464
 30
0.0
 10
100.3576904952176
 20
-143.5819313529933
 30
0.0
 10
100.3129229963597
 20
-143.5371638530048
 30
0.0
 10
100.2574310533309
 20
-143.5371638530048
 30
0.0
 10
100.2023271658479
 20
-143.5371638530048
 30
0.0
 10
100.1575243892131
 20
-143.5819313529933
 30
0.0
 10
100.1575243892131
 20
-143.6370705196464
 30
0.0
 10
100.1575243892131
 20
-143.6921744085213
 30
0.0
 10
100.2023271658479
 20
-143.736977186288
 30
0.0
 10
100.2574310533309
 20
-143.736977186288
 30
0.0
 10
100.3129229963597
 20
-143.736977186288
 30
0.0
 10
100.3576904952176
 20
-143.6921744085213
 30
0.0
 10
100.3576904952176
 20
-143.6370705196464
 30
0.0
  0
SPLINE
  5
55
330
1F
100
AcDbEntity
  8
_U+30EC_U+30A4_U+30E4_U+30FC 1
 62
   179
420
  2234388
370
     9
100
AcDbSpline
210
0.0
220
0.0
230
1.0
 70
    11
 71
     3
 72
    17
 73
    13
 74
     0
 42
0.0000000001
 43
0.0000000001
 12
1.0
 22
0.0
 32
0.0
 13
1.0
 23
0.0
 33
0.0
 40
0.0
 40
0.0
 40
0.0
 40
0.0
 40
1.0
 40
1.0
 40
1.0
 40
2.0
 40
2.0
 40
2.0
 40
3.0
 40
3.0
 40
3.0
 40
4.0
 40
4.0
 40
4.0
 40
4.0
 10
80.35755461657466
 20
-115.6373805266463
 30
0.0
 10
80.35755461657466
 20
-115.582276637771
 30
0.0
 10
80.31275183993989
 20
-115.5374738600046
 30
0.0
 10
80.25747156357242
 20
-115.5374738600046
 30
0.0
 10
80.2021560094281
 20
-115.5374738600046
 30
0.0
 10
80.1575648994546
 20
-115.582276637771
 30
0.0
 10
80.1575648994546
 20
-115.6373805266463
 30
0.0
 10
80.1575648994546
 20
-115.692519693299
 30
0.0
 10
80.2021560094281
 20
-115.7372871932879
 30
0.0
 10
80.25747156357242
 20
-115.7372871932879
 30
0.0
 10
80.31275183993989
 20
-115.7372871932879
 30
0.0
 10
80.35755461657466
 20
-115.692519693299
 30
0.0
 10
80.35755461657466
 20
-115.6373805266463
 30
0.0
  0
SPLINE
  5
56
330
1F
100
AcDbEntity
  8
_U+30EC_U+30A4_U+30E4_U+30FC 1
 62
   179
420
  2234388
370
     9
100
AcDbSpline
210
0.0
220
0.0
230
1.0
 70
    11
 71
     3
 72
    17
 73
    13
 74
     0
 42
0.0000000001
 43
0.0000000001
 12
1.0
 22
0.0
 32
0.0
 13
1.0
 23
0.0
 33
0.0
 40
0.0
 40
0.0
 40
0.0
 40
0.0
 40
1.0
 40
1.0
 40
1.0
 40
2.0
 40
2.0
 40
2.0
 40
3.0
 40
3.0
 40
3.0
 40
4.0
 40
4.0
 40
4.0
 40
4.0
 10
75.35749418858127
 20
-143.6370705196464
 30
0.0
 10
75.35749418858127
 20
-143.5819313529933
 30
0.0
 10
75.31272668972338
 20
-143.5371638530048
 30
0.0
 10
75.25741113557905
 20
-143.5371638530048
 30
0.0
 10
75.20230724809598
 20
-143.5371638530048
 30
0.0
 10
75.15750447146121
 20
-143.5819313529933
 30
0.0
 10
75.15750447146121
 20
-143.6370705196464
 30
0.0
 10
75.15750447146121
 20
-143.6921744085213
 30
0.0
 10
75.20230724809598
 20
-143.736977186288
 30
0.0
 10
75.25741113557905
 20
-143.736977186288
 30
0.0
 10
75.31272668972338
 20
-143.736977186288
 30
0.0
 10
75.35749418858127
 20
-143.6921744085213
 30
0.0
 10
75.35749418858127
 20
-143.6370705196464
 30
0.0
  0
POLYLINE
  5
57
330
1F
100
AcDbEntity
  8
_U+30EC_U+30A4_U+30E4_U+30FC 1
 62
   179
420
  2234388
370
     9
100
AcDb2dPolyline
 66
     1
 10
0.0
 20
0.0
 30
0.0
  0
VERTEX
  5
58
330
57
100
AcDbEntity
  8
_U+30EC_U+30A4_U+30E4_U+30FC 1
 62
   179
420
  2234388
370
     9
100
AcDbVertex
100
AcDb2dVertex
 10
104.257542895724
 20
-119.6371396923128
 30
0.0
  0
VERTEX
  5
59
330
57
100
AcDbEntity
  8
_U+30EC_U+30A4_U+30E4_U+30FC 1
 62
   179
420
  2234388
370
     9
100
AcDbVertex
100
AcDb2dVertex
 10
104.257542895724
 20
-139.6373113539795
 30
0.0
  0
SEQEND
  5
5A
330
57
100
AcDbEntity
  8
_U+30EC_U+30A4_U+30E4_U+30FC 1
 62
   179
420
  2234388
370
     9
  0
POLYLINE
  5
5B
330
1F
100
AcDbEntity
  8
_U+30EC_U+30A4_U+30E4_U+30FC 1
 62
   179
420
  2234388
370
     9
100
AcDb2dPolyline
 66
     1
 10
0.0
 20
0.0
 30
0.0
  0
VERTEX
  5
5C
330
5B
100
AcDbEntity
  8
_U+30EC_U+30A4_U+30E4_U+30FC 1
 62
   179
420
  2234388
370
     9
100
AcDbVertex
100
AcDb2dVertex
 10
102.7975015440839
 20
-119.6371396923128
 30
0.0
  0
VERTEX
  5
5D
330
5B
100
AcDbEntity
  8
_U+30EC_U+30A4_U+30E4_U+30FC 1
 62
   179
420
  2234388
370
     9
100
AcDbVertex
100
AcDb2dVertex
 10
105.25731509244
 20
-119.6371396923128
 30
0.0
  0
SEQEND
  5
5E
330
5B
100
AcDbEntity
  8
_U+30EC_U+30A4_U+30E4_U+30FC 1
 62
   179
420
  2234388
370
     9
  0
POLYLINE
  5
5F
330
1F
100
AcDbEntity
  8
_U+30EC_U+30A4_U+30E4_U+30FC 1
 62
   179
420
  2234388
370
     9
100
AcDb2dPolyline
 66
     1
 10
0.0
 20
0.0
 30
0.0
  0
VERTEX
  5
60
330
5F
100
AcDbEntity
  8
_U+30EC_U+30A4_U+30E4_U+30FC 1
 62
   179
420
  2234388
370
     9
100
AcDbVertex
100
AcDb2dVertex
 10
102.7975015440839
 20
-139.6373113539795
 30
0.0
  0
VERTEX
  5
61
330
5F
100
AcDbEntity
  8
_U+30EC_U+30A4_U+30E4_U+30FC 1
 62
   179
420
  2234388
370
     9
100
AcDbVertex
100
AcDb2dVertex
 10
105.25731509244
 20
-139.6373113539795
 30
0.0
  0
SEQEND
  5
62
330
5F
100
AcDbEntity
  8
_U+30EC_U+30A4_U+30E4_U+30FC 1
 62
   179
420
  2234388
370
     9
  0
INSERT
  5
64
330
1F
100
AcDbEntity
  8
_U+30EC_U+30A4_U+30E4_U+30FC 1
100
AcDbBlockReference
  2
block 2
 10
0.0
 20
0.0
 30
0.0
  0
POLYLINE
  5
6C
330
1F
100
AcDbEntity
  8
_U+30EC_U+30A4_U+30E4_U+30FC 1
 62
   179
420
  2234388
370
     9
100
AcDb2dPolyline
 66
     1
 10
0.0
 20
0.0
 30
0.0
  0
VERTEX
  5
6D
330
6C
100
AcDbEntity
  8
_U+30EC_U+30A4_U+30E4_U+30FC 1
 62
   179
420
  2234388
370
     9
100
AcDbVertex
100
AcDb2dVertex
 10
80.25747156357242
 20
-115.6373805266463
 30
0.0
  0
VERTEX
  5
6E
330
6C
100
AcDbEntity
  8
_U+30EC_U+30A4_U+30E4_U+30FC 1
 62
   179
420
  2234388
370
     9
100
AcDbVertex
100
AcDb2dVertex
 10
100.2574310533309
 20
-115.6373805266463
 30
0.0
  0
SEQEND
  5
6F
330
6C
100
AcDbEntity
  8
_U+30EC_U+30A4_U+30E4_U+30FC 1
 62
   179
420
  2234388
370
     9
  0
POLYLINE
  5
70
330
1F
100
AcDbEntity
  8
_U+30EC_U+30A4_U+30E4_U+30FC 1
 62
   179
420
  2234388
370
     9
100
AcDb2dPolyline
 66
     1
 10
0.0
 20
0.0
 30
0.0
  0
VERTEX
  5
71
330
70
100
AcDbEntity
  8
_U+30EC_U+30A4_U+30E4_U+30FC 1
 62
   179
420
  2234388
370
     9
100
AcDbVertex
100
AcDb2dVertex
 10
80.25747156357242
 20
-117.09742191517
 30
0.0
  0
VERTEX
  5
72
330
70
100
AcDbEntity
  8
_U+30EC_U+30A4_U+30E4_U+30FC 1
 62
   179
420
  2234388
370
     9
100
AcDbVertex
100
AcDb2dVertex
 10
80.25747156357242
 20
-114.6376083046741
 30
0.0
  0
SEQEND
  5
73
330
70
100
AcDbEntity
  8
_U+30EC_U+30A4_U+30E4_U+30FC 1
 62
   179
420
  2234388
370
     9
  0
POLYLINE
  5
74
330
1F
100
AcDbEntity
  8
_U+30EC_U+30A4_U+30E4_U+30FC 1
 62
   179
420
  2234388
370
     9
100
AcDb2dPolyline
 66
     1
 10
0.0
 20
0.0
 30
0.0
  0
VERTEX
  5
75
330
74
100
AcDbEntity
  8
_U+30EC_U+30A4_U+30E4_U+30FC 1
 62
   179
420
  2234388
370
     9
100
AcDbVertex
100
AcDb2dVertex
 10
100.2574310533309
 20
-117.09742191517
 30
0.0
  0
VERTEX
  5
76
330
74
100
AcDbEntity
  8
_U+30EC_U+30A4_U+30E4_U+30FC 1
 62
   179
420
  2234388
370
     9
100
AcDbVertex
100
AcDb2dVertex
 10
100.2574310533309
 20
-114.6376083046741
 30
0.0
  0
SEQEND
  5
77
330
74
100
AcDbEntity
  8
_U+30EC_U+30A4_U+30E4_U+30FC 1
 62
   179
420
  2234388
370
     9
  0
INSERT
  5
79
330
1F
100
AcDbEntity
  8
_U+30EC_U+30A4_U+30E4_U+30FC 1
100
AcDbBlockReference
  2
block 3
 10
0.0
 20
0.0
 30
0.0
  0
POLYLINE
  5
81
330
1F
100
AcDbEntity
  8
_U+30EC_U+30A4_U+30E4_U+30FC 1
 62
   179
420
  2234388
370
     9
100
AcDb2dPolyline
 66
     1
 10
0.0
 20
0.0
 30
0.0
  0
VERTEX
  5
82
330
81
100
AcDbEntity
  8
_U+30EC_U+30A4_U+30E4_U+30FC 1
 62
   179
420
  2234388
370
     9
100
AcDbVertex
100
AcDb2dVertex
 10
75.25741113557905
 20
-143.6370705196464
 30
0.0
  0
VERTEX
  5
83
330
81
100
AcDbEntity
  8
_U+30EC_U+30A4_U+30E4_U+30FC 1
 62
   179
420
  2234388
370
     9
100
AcDbVertex
100
AcDb2dVertex
 10
100.2574310533309
 20
-143.6370705196464
 30
0.0
  0
SEQEND
  5
84
330
81
100
AcDbEntity
  8
_U+30EC_U+30A4_U+30E4_U+30FC 1
 62
   179
420
  2234388
370
     9
  0
POLYLINE
  5
85
330
1F
100
AcDbEntity
  8
_U+30EC_U+30A4_U+30E4_U+30FC 1
 62
   179
420
  2234388
370
     9
100
AcDb2dPolyline
 66
     1
 10
0.0
 20
0.0
 30
0.0
  0
VERTEX
  5
86
330
85
100
AcDbEntity
  8
_U+30EC_U+30A4_U+30E4_U+30FC 1
 62
   179
420
  2234388
370
     9
100
AcDbVertex
100
AcDb2dVertex
 10
75.25741113557905
 20
-142.1770291311227
 30
0.0
  0
VERTEX
  5
87
330
85
100
AcDbEntity
  8
_U+30EC_U+30A4_U+30E4_U+30FC 1
 62
   179
420
  2234388
370
     9
100
AcDbVertex
100
AcDb2dVertex
 10
75.25741113557905
 20
-144.6375130193963
 30
0.0
  0
SEQEND
  5
88
330
85
100
AcDbEntity
  8
_U+30EC_U+30A4_U+30E4_U+30FC 1
 62
   179
420
  2234388
370
     9
  0
POLYLINE
  5
89
330
1F
100
AcDbEntity
  8
_U+30EC_U+30A4_U+30E4_U+30FC 1
 62
   179
420
  2234388
370
     9
100
AcDb2dPolyline
 66
     1
 10
0.0
 20
0.0
 30
0.0
  0
VERTEX
  5
8A
330
89
100
AcDbEntity
  8
_U+30EC_U+30A4_U+30E4_U+30FC 1
 62
   179
420
  2234388
370
     9
100
AcDbVertex
100
AcDb2dVertex
 10
100.2574310533309
 20
-142.1770291311227
 30
0.0
  0
VERTEX
  5
8B
330
89
100
AcDbEntity
  8
_U+30EC_U+30A4_U+30E4_U+30FC 1
 62
   179
420
  2234388
370
     9
100
AcDbVertex
100
AcDb2dVertex
 10
100.2574310533309
 20
-144.6375130193963
 30
0.0
  0
SEQEND
  5
8C
330
89
100
AcDbEntity
  8
_U+30EC_U+30A4_U+30E4_U+30FC 1
 62
   179
420
  2234388
370
     9
  0
INSERT
  5
8E
330
1F
100
AcDbEntity
  8
_U+30EC_U+30A4_U+30E4_U+30FC 1
100
AcDbBlockReference
  2
block 4
 10
0.0
 20
0.0
 30
0.0
  0
SPLINE
  5
95
330
1F
100
AcDbEntity
  8
_U+30EC_U+30A4_U+30E4_U+30FC 1
370
     0
100
AcDbSpline
210
0.0
220
0.0
230
1.0
 70
    11
 71
     3
 72
    17
 73
    13
 74
     0
 42
0.0000000001
 43
0.0000000001
 12
1.0
 22
0.0
 32
0.0
 13
1.0
 23
0.0
 33
0.0
 40
0.0
 40
0.0
 40
0.0
 40
0.0
 40
1.0
 40
1.0
 40
1.0
 40
2.0
 40
2.0
 40
2.0
 40
3.0
 40
3.0
 40
3.0
 40
4.0
 40
4.0
 40
4.0
 40
4.0
 10
75.25931613553044
 20
-139.4733049651319
 30
0.0
 10
75.61209390430811
 20
-139.4733049651319
 30
0.0
 10
100.3067166415903
 20
-139.5911327428799
 30
0.0
 10
100.3067166415903
 20
-139.5911327428799
 30
0.0
 10
100.3067166415903
 20
-139.5911327428799
 30
0.0
 10
100.3067166415903
 20
-119.6006271923222
 30
0.0
 10
100.3067166415903
 20
-119.6006271923222
 30
0.0
 10
100.3067166415903
 20
-119.6006271923222
 30
0.0
 10
80.31585831325451
 20
-119.717749414515
 30
0.0
 10
80.31585831325451
 20
-119.717749414515
 30
0.0
 10
80.31585831325451
 20
-119.717749414515
 30
0.0
 10
75.25931613553044
 20
-139.4733049651319
 30
0.0
 10
75.25931613553044
 20
-139.4733049651319
 30
0.0
  0
HATCH
  5
96
330
1F
100
AcDbEntity
  8
_U+30EC_U+30A4_U+30E4_U+30FC 1
 62
   178
420
        0
100
AcDbHatch
 10
0.0
 20
0.0
 30
0.0
210
0.0
220
0.0
230
1.0
  2
AI_USER_DEFINED_HATCH
 70
     0
 71
     0
 91
        1
 92
        1
 93
        1
 72
     4
 94
        3
 73
     0
 74
     1
 95
       17
 96
       13
 40
0.0
 40
0.0
 40
0.0
 40
0.0
 40
1.0
 40
1.0
 40
1.0
 40
2.0
 40
2.0
 40
2.0
 40
3.0
 40
3.0
 40
3.0
 40
4.0
 40
4.0
 40
4.0
 40
4.0
 10
75.25931613553044
 20
-139.4733049651319
 10
75.61209390430811
 20
-139.4733049651319
 10
100.3067166415903
 20
-139.5911327428799
 10
100.3067166415903
 20
-139.5911327428799
 10
100.3067166415903
 20
-139.5911327428799
 10
100.3067166415903
 20
-119.6006271923222
 10
100.3067166415903
 20
-119.6006271923222
 10
100.3067166415903
 20
-119.6006271923222
 10
80.31585831325451
 20
-119.717749414515
 10
80.31585831325451
 20
-119.717749414515
 10
80.31585831325451
 20
-119.717749414515
 10
75.25931613553044
 20
-139.4733049651319
 10
75.25931613553044
 20
-139.4733049651319
 97
        0
 97
        0
 75
     2
 76
     0
 52
45.0
 41
10.0
 77
     0
 78
     1
 53
45.0
 43
0.0
 44
0.0
 45
-7.071067811865475
 46
7.071067811865476
 79
     0
 98
        0
  0
ENDSEC
  0
SECTION
  2
OBJECTS
  0
DICTIONARY
  5
C
330
0
100
AcDbDictionary
281
     1
  3
ACAD_GROUP
350
D
  3
ACAD_LAYOUT
350
1A
  3
ACAD_MATERIAL
350
3B
  3
ACAD_MLEADERSTYLE
350
98
  3
ACAD_MLINESTYLE
350
17
  3
ACAD_PLOTSETTINGS
350
19
  3
ACAD_PLOTSTYLENAME
350
E
  3
ACAD_TABLESTYLE
350
97
  3
ACAD_VISUALSTYLE
350
2A
  0
SUN
  5
3F
330
29
100
AcDbSun
 90
        1
290
     0
 63
     7
421
 16777215
 40
1.0
291
     1
 91
  2455826
 92
 54000000
292
     0
 70
     2
 71
   256
280
     1
  0
DICTIONARY
  5
D
102
{ACAD_REACTORS
330
C
102
}
330
C
100
AcDbDictionary
281
     1
  0
DICTIONARY
  5
1A
102
{ACAD_REACTORS
330
C
102
}
330
C
100
AcDbDictionary
281
     1
  3
Layout1
350
1E
  3
Layout2
350
26
  3
Model
350
22
  0
DICTIONARY
  5
3B
102
{ACAD_REACTORS
330
C
102
}
330
C
100
AcDbDictionary
281
     1
  3
ByBlock
350
3D
  3
ByLayer
350
3C
  3
Global
350
3E
  0
DICTIONARY
  5
98
102
{ACAD_REACTORS
330
C
102
}
330
C
100
AcDbDictionary
281
     1
  0
DICTIONARY
  5
17
102
{ACAD_REACTORS
330
C
102
}
330
C
100
AcDbDictionary
281
     1
  3
Standard
350
18
  0
DICTIONARY
  5
19
102
{ACAD_REACTORS
330
C
102
}
330
C
100
AcDbDictionary
281
     1
  0
ACDBDICTIONARYWDFLT
  5
E
102
{ACAD_REACTORS
330
C
102
}
330
C
100
AcDbDictionary
281
     1
  3
Normal
350
F
100
AcDbDictionaryWithDefault
340
F
  0
DICTIONARY
  5
97
102
{ACAD_REACTORS
330
C
102
}
330
C
100
AcDbDictionary
281
     1
  0
DICTIONARY
  5
2A
102
{ACAD_REACTORS
330
C
102
}
330
C
100
AcDbDictionary
281
     1
  3
2dWireframe
350
2F
  3
3D Hidden
350
31
  3
3dWireframe
350
30
  3
Basic
350
32
  3
Brighten
350
36
  3
ColorChange
350
3A
  3
Conceptual
350
34
  3
Dim
350
35
  3
Facepattern
350
39
  3
Flat
350
2B
  3
FlatWithEdges
350
2C
  3
Gouraud
350
2D
  3
GouraudWithEdges
350
2E
  3
Linepattern
350
38
  3
Realistic
350
33
  3
Thicken
350
37
  0
LAYOUT
  5
1E
102
{ACAD_REACTORS
330
1A
102
}
330
1A
100
AcDbPlotSettings
  1

  2
none_device
  4

  6

 40
0.0
 41
0.0
 42
0.0
 43
0.0
 44
0.0
 45
0.0
 46
0.0
 47
0.0
 48
0.0
 49
0.0
140
0.0
141
0.0
142
1.0
143
1.0
 70
   688
 72
     0
 73
     0
 74
     5
  7

 75
    16
 76
     0
 77
     2
 78
   300
147
1.0
148
0.0
149
0.0
100
AcDbLayout
  1
Layout1
 70
     1
 71
     1
 10
0.0
 20
0.0
 11
12.0
 21
9.0
 12
0.0
 22
0.0
 32
0.0
 14
1.000000000000000E+20
 24
1.000000000000000E+20
 34
1.000000000000000E+20
 15
-1.000000000000000E+20
 25
-1.000000000000000E+20
 35
-1.000000000000000E+20
146
0.0
 13
0.0
 23
0.0
 33
0.0
 16
1.0
 26
0.0
 36
0.0
 17
0.0
 27
1.0
 37
0.0
 76
     0
330
1B
  0
LAYOUT
  5
26
102
{ACAD_REACTORS
330
1A
102
}
330
1A
100
AcDbPlotSettings
  1

  2
none_device
  4

  6

 40
0.0
 41
0.0
 42
0.0
 43
0.0
 44
0.0
 45
0.0
 46
0.0
 47
0.0
 48
0.0
 49
0.0
140
0.0
141
0.0
142
1.0
143
1.0
 70
   688
 72
     0
 73
     0
 74
     5
  7

 75
    16
 76
     0
 77
     2
 78
   300
147
1.0
148
0.0
149
0.0
100
AcDbLayout
  1
Layout2
 70
     1
 71
     2
 10
0.0
 20
0.0
 11
0.0
 21
0.0
 12
0.0
 22
0.0
 32
0.0
 14
0.0
 24
0.0
 34
0.0
 15
0.0
 25
0.0
 35
0.0
146
0.0
 13
0.0
 23
0.0
 33
0.0
 16
1.0
 26
0.0
 36
0.0
 17
0.0
 27
1.0
 37
0.0
 76
     0
330
23
  0
LAYOUT
  5
22
102
{ACAD_REACTORS
330
1A
102
}
330
1A
100
AcDbPlotSettings
  1

  2
none_device
  4

  6

 40
0.0
 41
0.0
 42
0.0
 43
0.0
 44
0.0
 45
0.0
 46
0.0
 47
0.0
 48
0.0
 49
0.0
140
0.0
141
0.0
142
1.0
143
1.0
 70
  1712
 72
     0
 73
     0
 74
     0
  7

 75
     0
 76
     0
 77
     2
 78
   300
147
1.0
148
0.0
149
0.0
100
AcDbLayout
  1
Model
 70
     1
 71
     0
 10
0.0
 20
0.0
 11
12.0
 21
9.0
 12
0.0
 22
0.0
 32
0.0
 14
1.000000000000000E+20
 24
1.000000000000000E+20
 34
1.000000000000000E+20
 15
-1.000000000000000E+20
 25
-1.000000000000000E+20
 35
-1.000000000000000E+20
146
0.0
 13
0.0
 23
0.0
 33
0.0
 16
1.0
 26
0.0
 36
0.0
 17
0.0
 27
1.0
 37
0.0
 76
     0
330
1F
331
29
  0
MATERIAL
  5
3D
102
{ACAD_REACTORS
330
3B
102
}
330
3B
100
AcDbMaterial
  1
ByBlock
 72
     1
 94
      127
  0
MATERIAL
  5
3C
102
{ACAD_REACTORS
330
3B
102
}
330
3B
100
AcDbMaterial
  1
ByLayer
 72
     1
 94
      127
  0
MATERIAL
  5
3E
102
{ACAD_REACTORS
330
3B
102
}
330
3B
100
AcDbMaterial
  1
Global
 72
     1
 94
      127
  0
MLINESTYLE
  5
18
102
{ACAD_REACTORS
330
17
102
}
330
17
100
AcDbMlineStyle
  2
Standard
 70
     0
  3

 62
   256
 51
90.0
 52
90.0
 71
     2
 49
0.5
 62
   256
  6
BYLAYER
 49
-0.5
 62
   256
  6
BYLAYER
  0
ACDBPLACEHOLDER
  5
F
102
{ACAD_REACTORS
330
E
102
}
330
E
  0
VISUALSTYLE
  5
2F
102
{ACAD_REACTORS
330
2A
102
}
330
2A
100
AcDbVisualStyle
  2
2dWireframe
 70
     4
177
     2
291
     0
 71
     0
176
     1
 72
     2
176
     1
 73
     0
176
     1
 90
        0
176
     1
 40
-0.6
176
     1
 41
-30.0
176
     1
 62
     5
 63
     7
421
 16777215
176
     1
 74
     1
176
     1
 91
        4
176
     1
 64
     7
176
     1
 65
   257
176
     1
 75
     1
176
     1
175
     1
176
     1
 42
1.0
176
     1
 92
        0
176
     1
 66
   257
176
     1
 43
1.0
176
     1
 76
     1
176
     1
 77
     6
176
     1
 78
     2
176
     1
 67
     7
176
     1
 79
     5
176
     1
170
     0
176
     1
171
     0
176
     1
290
     0
176
     1
 93
        1
176
     1
 44
0.0
176
     1
173
     0
176
     1
  0
VISUALSTYLE
  5
31
102
{ACAD_REACTORS
330
2A
102
}
330
2A
100
AcDbVisualStyle
  2
3D Hidden
 70
     6
177
     2
291
     0
 71
     1
176
     1
 72
     2
176
     1
 73
     2
176
     1
 90
        0
176
     1
 40
-0.6
176
     1
 41
-30.0
176
     1
 62
     5
 63
     7
421
 16777215
176
     1
 74
     2
176
     1
 91
        2
176
     1
 64
     7
176
     1
 65
   257
176
     1
 75
     2
176
     1
175
     1
176
     1
 42
40.0
176
     1
 92
        0
176
     1
 66
   257
176
     1
 43
1.0
176
     1
 76
     1
176
     1
 77
     6
176
     1
 78
     2
176
     1
 67
     7
176
     1
 79
     3
176
     1
170
     0
176
     1
171
     0
176
     1
290
     0
176
     1
 93
        1
176
     1
 44
0.0
176
     1
173
     0
176
     1
  0
VISUALSTYLE
  5
30
102
{ACAD_REACTORS
330
2A
102
}
330
2A
100
AcDbVisualStyle
  2
3dWireframe
 70
     5
177
     2
291
     0
 71
     0
176
     1
 72
     2
176
     1
 73
     0
176
     1
 90
        0
176
     1
 40
-0.6
176
     1
 41
-30.0
176
     1
 62
     5
 63
     7
421
 16777215
176
     1
 74
     1
176
     1
 91
        4
176
     1
 64
     7
176
     1
 65
   257
176
     1
 75
     1
176
     1
175
     1
176
     1
 42
1.0
176
     1
 92
        0
176
     1
 66
   257
176
     1
 43
1.0
176
     1
 76
     1
176
     1
 77
     6
176
     1
 78
     2
176
     1
 67
     7
176
     1
 79
     5
176
     1
170
     0
176
     1
171
     0
176
     1
290
     0
176
     1
 93
        1
176
     1
 44
0.0
176
     1
173
     0
176
     1
  0
VISUALSTYLE
  5
32
102
{ACAD_REACTORS
330
2A
102
}
330
2A
100
AcDbVisualStyle
  2
Basic
 70
     7
177
     2
291
     1
 71
     1
176
     1
 72
     0
176
     1
 73
     1
176
     1
 90
        0
176
     1
 40
-0.6
176
     1
 41
-30.0
176
     1
 62
     5
 63
     7
421
 16777215
176
     1
 74
     0
176
     1
 91
        4
176
     1
 64
     7
176
     1
 65
   257
176
     1
 75
     1
176
     1
175
     1
176
     1
 42
1.0
176
     1
 92
        8
176
     1
 66
     7
176
     1
 43
1.0
176
     1
 76
     1
176
     1
 77
     6
176
     1
 78
     2
176
     1
 67
     7
176
     1
 79
     5
176
     1
170
     0
176
     1
171
     0
176
     1
290
     0
176
     1
 93
        1
176
     1
 44
0.0
176
     1
173
     0
176
     1
  0
VISUALSTYLE
  5
36
102
{ACAD_REACTORS
330
2A
102
}
330
2A
100
AcDbVisualStyle
  2
Brighten
 70
    12
177
     2
291
     1
 71
     2
176
     1
 72
     2
176
     1
 73
     0
176
     1
 90
        0
176
     1
 40
-0.6
176
     1
 41
-30.0
176
     1
 62
     5
 63
     7
421
 16777215
176
     1
 74
     1
176
     1
 91
        4
176
     1
 64
     7
176
     1
 65
   257
176
     1
 75
     1
176
     1
175
     1
176
     1
 42
1.0
176
     1
 92
        8
176
     1
 66
     7
176
     1
 43
1.0
176
     1
 76
     1
176
     1
 77
     6
176
     1
 78
     2
176
     1
 67
     7
176
     1
 79
     5
176
     1
170
     0
176
     1
171
     0
176
     1
290
     0
176
     1
 93
        1
176
     1
 44
50.0
176
     1
173
     0
176
     1
  0
VISUALSTYLE
  5
3A
102
{ACAD_REACTORS
330
2A
102
}
330
2A
100
AcDbVisualStyle
  2
ColorChange
 70
    16
177
     2
291
     1
 71
     2
176
     1
 72
     2
176
     1
 73
     3
176
     1
 90
        0
176
     1
 40
-0.6
176
     1
 41
-30.0
176
     1
 62
     5
 63
     8
421
  8421504
176
     1
 74
     1
176
     1
 91
        4
176
     1
 64
     7
176
     1
 65
   257
176
     1
 75
     1
176
     1
175
     1
176
     1
 42
1.0
176
     1
 92
        8
176
     1
 66
     8
424
  8421504
176
     1
 43
1.0
176
     1
 76
     1
176
     1
 77
     6
176
     1
 78
     2
176
     1
 67
     7
176
     1
 79
     5
176
     1
170
     0
176
     1
171
     0
176
     1
290
     0
176
     1
 93
        1
176
     1
 44
0.0
176
     1
173
     0
176
     1
  0
VISUALSTYLE
  5
34
102
{ACAD_REACTORS
330
2A
102
}
330
2A
100
AcDbVisualStyle
  2
Conceptual
 70
     9
177
     2
291
     0
 71
     3
176
     1
 72
     2
176
     1
 73
     0
176
     1
 90
        0
176
     1
 40
-0.6
176
     1
 41
-30.0
176
     1
 62
     5
 63
     7
421
 16777215
176
     1
 74
     2
176
     1
 91
        2
176
     1
 64
     7
176
     1
 65
   257
176
     1
 75
     1
176
     1
175
     1
176
     1
 42
40.0
176
     1
 92
        8
176
     1
 66
     7
176
     1
 43
1.0
176
     1
 76
     1
176
     1
 77
     6
176
     1
 78
     2
176
     1
 67
     7
176
     1
 79
     3
176
     1
170
     0
176
     1
171
     0
176
     1
290
     0
176
     1
 93
        1
176
     1
 44
0.0
176
     1
173
     0
176
     1
  0
VISUALSTYLE
  5
35
102
{ACAD_REACTORS
330
2A
102
}
330
2A
100
AcDbVisualStyle
  2
Dim
 70
    11
177
     2
291
     1
 71
     2
176
     1
 72
     2
176
     1
 73
     0
176
     1
 90
        0
176
     1
 40
-0.6
176
     1
 41
-30.0
176
     1
 62
     5
 63
     7
421
 16777215
176
     1
 74
     1
176
     1
 91
        4
176
     1
 64
     7
176
     1
 65
   257
176
     1
 75
     1
176
     1
175
     1
176
     1
 42
1.0
176
     1
 92
        8
176
     1
 66
     7
176
     1
 43
1.0
176
     1
 76
     1
176
     1
 77
     6
176
     1
 78
     2
176
     1
 67
     7
176
     1
 79
     5
176
     1
170
     0
176
     1
171
     0
176
     1
290
     0
176
     1
 93
        1
176
     1
 44
-50.0
176
     1
173
     0
176
     1
  0
VISUALSTYLE
  5
39
102
{ACAD_REACTORS
330
2A
102
}
330
2A
100
AcDbVisualStyle
  2
Facepattern
 70
    15
177
     2
291
     1
 71
     2
176
     1
 72
     2
176
     1
 73
     0
176
     1
 90
        0
176
     1
 40
-0.6
176
     1
 41
-30.0
176
     1
 62
     5
 63
     7
421
 16777215
176
     1
 74
     1
176
     1
 91
        4
176
     1
 64
     7
176
     1
 65
   257
176
     1
 75
     1
176
     1
175
     1
176
     1
 42
1.0
176
     1
 92
        8
176
     1
 66
     7
176
     1
 43
1.0
176
     1
 76
     1
176
     1
 77
     6
176
     1
 78
     2
176
     1
 67
     7
176
     1
 79
     5
176
     1
170
     0
176
     1
171
     0
176
     1
290
     0
176
     1
 93
        1
176
     1
 44
0.0
176
     1
173
     0
176
     1
  0
VISUALSTYLE
  5
2B
102
{ACAD_REACTORS
330
2A
102
}
330
2A
100
AcDbVisualStyle
  2
Flat
 70
     0
177
     2
291
     1
 71
     2
176
     1
 72
     1
176
     1
 73
     1
176
     1
 90
        2
176
     1
 40
-0.6
176
     1
 41
30.0
176
     1
 62
     5
 63
     7
421
 16777215
176
     1
 74
     0
176
     1
 91
        4
176
     1
 64
     7
176
     1
 65
   257
176
     1
 75
     1
176
     1
175
     1
176
     1
 42
1.0
176
     1
 92
        8
176
     1
 66
     7
176
     1
 43
1.0
176
     1
 76
     1
176
     1
 77
     6
176
     1
 78
     2
176
     1
 67
     7
176
     1
 79
     5
176
     1
170
     0
176
     1
171
     0
176
     1
290
     0
176
     1
 93
       13
176
     1
 44
0.0
176
     1
173
     0
176
     1
  0
VISUALSTYLE
  5
2C
102
{ACAD_REACTORS
330
2A
102
}
330
2A
100
AcDbVisualStyle
  2
FlatWithEdges
 70
     1
177
     2
291
     1
 71
     2
176
     1
 72
     1
176
     1
 73
     1
176
     1
 90
        2
176
     1
 40
-0.6
176
     1
 41
30.0
176
     1
 62
     5
 63
     7
421
 16777215
176
     1
 74
     1
176
     1
 91
        4
176
     1
 64
     7
176
     1
 65
   257
176
     1
 75
     1
176
     1
175
     1
176
     1
 42
1.0
176
     1
 92
        0
176
     1
 66
   257
176
     1
 43
1.0
176
     1
 76
     1
176
     1
 77
     6
176
     1
 78
     2
176
     1
 67
     7
176
     1
 79
     5
176
     1
170
     0
176
     1
171
     0
176
     1
290
     0
176
     1
 93
       13
176
     1
 44
0.0
176
     1
173
     0
176
     1
  0
VISUALSTYLE
  5
2D
102
{ACAD_REACTORS
330
2A
102
}
330
2A
100
AcDbVisualStyle
  2
Gouraud
 70
     2
177
     2
291
     1
 71
     2
176
     1
 72
     2
176
     1
 73
     1
176
     1
 90
        2
176
     1
 40
-0.6
176
     1
 41
30.0
176
     1
 62
     5
 63
     7
421
 16777215
176
     1
 74
     0
176
     1
 91
        4
176
     1
 64
     7
176
     1
 65
   257
176
     1
 75
     1
176
     1
175
     1
176
     1
 42
1.0
176
     1
 92
        0
176
     1
 66
     7
176
     1
 43
1.0
176
     1
 76
     1
176
     1
 77
     6
176
     1
 78
     2
176
     1
 67
     7
176
     1
 79
     5
176
     1
170
     0
176
     1
171
     0
176
     1
290
     0
176
     1
 93
       13
176
     1
 44
0.0
176
     1
173
     0
176
     1
  0
VISUALSTYLE
  5
2E
102
{ACAD_REACTORS
330
2A
102
}
330
2A
100
AcDbVisualStyle
  2
GouraudWithEdges
 70
     3
177
     2
291
     1
 71
     2
176
     1
 72
     2
176
     1
 73
     1
176
     1
 90
        2
176
     1
 40
-0.6
176
     1
 41
30.0
176
     1
 62
     5
 63
     7
421
 16777215
176
     1
 74
     1
176
     1
 91
        4
176
     1
 64
     7
176
     1
 65
   257
176
     1
 75
     1
176
     1
175
     1
176
     1
 42
1.0
176
     1
 92
        0
176
     1
 66
   257
176
     1
 43
1.0
176
     1
 76
     1
176
     1
 77
     6
176
     1
 78
     2
176
     1
 67
     7
176
     1
 79
     5
176
     1
170
     0
176
     1
171
     0
176
     1
290
     0
176
     1
 93
       13
176
     1
 44
0.0
176
     1
173
     0
176
     1
  0
VISUALSTYLE
  5
38
102
{ACAD_REACTORS
330
2A
102
}
330
2A
100
AcDbVisualStyle
  2
Linepattern
 70
    14
177
     2
291
     1
 71
     2
176
     1
 72
     2
176
     1
 73
     0
176
     1
 90
        0
176
     1
 40
-0.6
176
     1
 41
-30.0
176
     1
 62
     5
 63
     7
421
 16777215
176
     1
 74
     1
176
     1
 91
        4
176
     1
 64
     7
176
     1
 65
   257
176
     1
 75
     7
176
     1
175
     7
176
     1
 42
1.0
176
     1
 92
        8
176
     1
 66
     7
176
     1
 43
1.0
176
     1
 76
     1
176
     1
 77
     6
176
     1
 78
     2
176
     1
 67
     7
176
     1
 79
     5
176
     1
170
     0
176
     1
171
     0
176
     1
290
     0
176
     1
 93
        1
176
     1
 44
0.0
176
     1
173
     0
176
     1
  0
VISUALSTYLE
  5
33
102
{ACAD_REACTORS
330
2A
102
}
330
2A
100
AcDbVisualStyle
  2
Realistic
 70
     8
177
     2
291
     0
 71
     2
176
     1
 72
     2
176
     1
 73
     0
176
     1
 90
        0
176
     1
 40
-0.6
176
     1
 41
-30.0
176
     1
 62
     5
 63
     7
421
 16777215
176
     1
 74
     1
176
     1
 91
        0
176
     1
 64
     7
176
     1
 65
   257
176
     1
 75
     1
176
     1
175
     1
176
     1
 42
1.0
176
     1
 92
        8
176
     1
 66
     8
424
  7895160
176
     1
 43
1.0
176
     1
 76
     1
176
     1
 77
     6
176
     1
 78
     2
176
     1
 67
     7
176
     1
 79
     5
176
     1
170
     0
176
     1
171
     0
176
     1
290
     0
176
     1
 93
       13
176
     1
 44
0.0
176
     1
173
     0
176
     1
  0
VISUALSTYLE
  5
37
102
{ACAD_REACTORS
330
2A
102
}
330
2A
100
AcDbVisualStyle
  2
Thicken
 70
    13
177
     2
291
     1
 71
     2
176
     1
 72
     2
176
     1
 73
     0
176
     1
 90
        0
176
     1
 40
-0.6
176
     1
 41
-30.0
176
     1
 62
     5
 63
     7
421
 16777215
176
     1
 74
     1
176
     1
 91
        4
176
     1
 64
     7
176
     1
 65
   257
176
     1
 75
     1
176
     1
175
     1
176
     1
 42
1.0
176
     1
 92
       12
176
     1
 66
     7
176
     1
 43
1.0
176
     1
 76
     1
176
     1
 77
     6
176
     1
 78
     2
176
     1
 67
     7
176
     1
 79
     5
176
     1
170
     0
176
     1
171
     0
176
     1
290
     0
176
     1
 93
        1
176
     1
 44
0.0
176
     1
173
     0
176
     1
  0
ENDSEC
  0
EOF
