  0
SECTION
  2
HEADER
  9
$ACADVER
  1
AC1024
  9
$ACADMAINTVER
 70
     6
  9
$DWGCODEPAGE
  3
UNDEFINED
  9
$INSBASE
 10
0.0
 20
0.0
 30
0.0
  9
$EXTMIN
 10
1.000000000000000E+20
 20
1.000000000000000E+20
 30
1.000000000000000E+20
  9
$EXTMAX
 10
-1.000000000000000E+20
 20
-1.000000000000000E+20
 30
-1.000000000000000E+20
  9
$LIMMIN
 10
0.0
 20
0.0
  9
$LIMMAX
 10
12.0
 20
9.0
  9
$ORTHOMODE
 70
     0
  9
$REGENMODE
 70
     1
  9
$FILLMODE
 70
     1
  9
$QTEXTMODE
 70
     0
  9
$MIRRTEXT
 70
     1
  9
$LTSCALE
 40
1.0
  9
$ATTMODE
 70
     1
  9
$TEXTSIZE
 40
0.2
  9
$TRACEWID
 40
0.05
  9
$TEXTSTYLE
  7
Standard
  9
$CLAYER
  8
0
  9
$CELTYPE
  6
ByLayer
  9
$CECOLOR
 62
   256
  9
$CELTSCALE
 40
1.0
  9
$DISPSILH
 70
     0
  9
$DIMSCALE
 40
1.0
  9
$DIMASZ
 40
0.18
  9
$DIMEXO
 40
0.0625
  9
$DIMDLI
 40
0.38
  9
$DIMRND
 40
0.0
  9
$DIMDLE
 40
0.0
  9
$DIMEXE
 40
0.18
  9
$DIMTP
 40
0.0
  9
$DIMTM
 40
0.0
  9
$DIMTXT
 40
0.18
  9
$DIMCEN
 40
0.09
  9
$DIMTSZ
 40
0.0
  9
$DIMTOL
 70
     0
  9
$DIMLIM
 70
     0
  9
$DIMTIH
 70
     1
  9
$DIMTOH
 70
     1
  9
$DIMSE1
 70
     0
  9
$DIMSE2
 70
     0
  9
$DIMTAD
 70
     0
  9
$DIMZIN
 70
     0
  9
$DIMBLK
  1

  9
$DIMASO
 70
     1
  9
$DIMSHO
 70
     1
  9
$DIMPOST
  1

  9
$DIMAPOST
  1

  9
$DIMALT
 70
     0
  9
$DIMALTD
 70
     2
  9
$DIMALTF
 40
25.4
  9
$DIMLFAC
 40
1.0
  9
$DIMTOFL
 70
     0
  9
$DIMTVP
 40
0.0
  9
$DIMTIX
 70
     0
  9
$DIMSOXD
 70
     0
  9
$DIMSAH
 70
     0
  9
$DIMBLK1
  1

  9
$DIMBLK2
  1

  9
$DIMSTYLE
  2
Standard
  9
$DIMCLRD
 70
     0
  9
$DIMCLRE
 70
     0
  9
$DIMCLRT
 70
     0
  9
$DIMTFAC
 40
1.0
  9
$DIMGAP
 40
0.09
  9
$DIMJUST
 70
     0
  9
$DIMSD1
 70
     0
  9
$DIMSD2
 70
     0
  9
$DIMTOLJ
 70
     1
  9
$DIMTZIN
 70
     0
  9
$DIMALTZ
 70
     0
  9
$DIMALTTZ
 70
     0
  9
$DIMUPT
 70
     0
  9
$DIMDEC
 70
     4
  9
$DIMTDEC
 70
     4
  9
$DIMALTU
 70
     2
  9
$DIMALTTD
 70
     2
  9
$DIMTXSTY
  7
Standard
  9
$DIMAUNIT
 70
     0
  9
$DIMADEC
 70
     0
  9
$DIMALTRND
 40
0.0
  9
$DIMAZIN
 70
     0
  9
$DIMDSEP
 70
    46
  9
$DIMATFIT
 70
     3
  9
$DIMFRAC
 70
     0
  9
$DIMLDRBLK
  1

  9
$DIMLUNIT
 70
     2
  9
$DIMLWD
 70
    -2
  9
$DIMLWE
 70
    -2
  9
$DIMTMOVE
 70
     0
  9
$DIMFXL
 40
1.0
  9
$DIMFXLON
 70
     0
  9
$DIMJOGANG
 40
0.7853981633974483
  9
$DIMTFILL
 70
     0
  9
$DIMTFILLCLR
 70
     0
  9
$DIMARCSYM
 70
     0
  9
$DIMLTYPE
  6

  9
$DIMLTEX1
  6

  9
$DIMLTEX2
  6

  9
$DIMTXTDIRECTION
 70
     0
  9
$LUNITS
 70
     2
  9
$LUPREC
 70
     4
  9
$SKETCHINC
 40
0.1
  9
$FILLETRAD
 40
0.5
  9
$AUNITS
 70
     0
  9
$AUPREC
 70
     0
  9
$MENU
  1
.
  9
$ELEVATION
 40
0.0
  9
$PELEVATION
 40
0.0
  9
$THICKNESS
 40
0.0
  9
$LIMCHECK
 70
     0
  9
$CHAMFERA
 40
0.5
  9
$CHAMFERB
 40
0.5
  9
$CHAMFERC
 40
1.0
  9
$CHAMFERD
 40
0.0
  9
$SKPOLY
 70
     0
  9
$TDCREATE
 40
2457917.637002315
  9
$TDUCREATE
 40
2457917.262002315
  9
$TDUPDATE
 40
2457917.637002315
  9
$TDUUPDATE
 40
2457917.262002315
  9
$TDINDWG
 40
0.0000000116
  9
$TDUSRTIMER
 40
0.0000000116
  9
$USRTIMER
 70
     1
  9
$ANGBASE
 50
0.0
  9
$ANGDIR
 70
     0
  9
$PDMODE
 70
     0
  9
$PDSIZE
 40
0.0
  9
$PLINEWID
 40
0.0
  9
$SPLFRAME
 70
     0
  9
$SPLINETYPE
 70
     6
  9
$SPLINESEGS
 70
     8
  9
$HANDSEED
  5
9E
  9
$SURFTAB1
 70
     6
  9
$SURFTAB2
 70
     6
  9
$SURFTYPE
 70
     6
  9
$SURFU
 70
     6
  9
$SURFV
 70
     6
  9
$UCSBASE
  2

  9
$UCSNAME
  2

  9
$UCSORG
 10
0.0
 20
0.0
 30
0.0
  9
$UCSXDIR
 10
1.0
 20
0.0
 30
0.0
  9
$UCSYDIR
 10
0.0
 20
1.0
 30
0.0
  9
$UCSORTHOREF
  2

  9
$UCSORTHOVIEW
 70
     0
  9
$UCSORGTOP
 10
0.0
 20
0.0
 30
0.0
  9
$UCSORGBOTTOM
 10
0.0
 20
0.0
 30
0.0
  9
$UCSORGLEFT
 10
0.0
 20
0.0
 30
0.0
  9
$UCSORGRIGHT
 10
0.0
 20
0.0
 30
0.0
  9
$UCSORGFRONT
 10
0.0
 20
0.0
 30
0.0
  9
$UCSORGBACK
 10
0.0
 20
0.0
 30
0.0
  9
$PUCSBASE
  2

  9
$PUCSNAME
  2

  9
$PUCSORG
 10
0.0
 20
0.0
 30
0.0
  9
$PUCSXDIR
 10
1.0
 20
0.0
 30
0.0
  9
$PUCSYDIR
 10
0.0
 20
1.0
 30
0.0
  9
$PUCSORTHOREF
  2

  9
$PUCSORTHOVIEW
 70
     0
  9
$PUCSORGTOP
 10
0.0
 20
0.0
 30
0.0
  9
$PUCSORGBOTTOM
 10
0.0
 20
0.0
 30
0.0
  9
$PUCSORGLEFT
 10
0.0
 20
0.0
 30
0.0
  9
$PUCSORGRIGHT
 10
0.0
 20
0.0
 30
0.0
  9
$PUCSORGFRONT
 10
0.0
 20
0.0
 30
0.0
  9
$PUCSORGBACK
 10
0.0
 20
0.0
 30
0.0
  9
$USERI1
 70
     0
  9
$USERI2
 70
     0
  9
$USERI3
 70
     0
  9
$USERI4
 70
     0
  9
$USERI5
 70
     0
  9
$USERR1
 40
0.0
  9
$USERR2
 40
0.0
  9
$USERR3
 40
0.0
  9
$USERR4
 40
0.0
  9
$USERR5
 40
0.0
  9
$WORLDVIEW
 70
     1
  9
$SHADEDGE
 70
     3
  9
$SHADEDIF
 70
    70
  9
$TILEMODE
 70
     1
  9
$MAXACTVP
 70
    64
  9
$PINSBASE
 10
0.0
 20
0.0
 30
0.0
  9
$PLIMCHECK
 70
     0
  9
$PEXTMIN
 10
1.000000000000000E+20
 20
1.000000000000000E+20
 30
1.000000000000000E+20
  9
$PEXTMAX
 10
-1.000000000000000E+20
 20
-1.000000000000000E+20
 30
-1.000000000000000E+20
  9
$PLIMMIN
 10
0.0
 20
0.0
  9
$PLIMMAX
 10
12.0
 20
9.0
  9
$UNITMODE
 70
     0
  9
$VISRETAIN
 70
     1
  9
$PLINEGEN
 70
     0
  9
$PSLTSCALE
 70
     1
  9
$TREEDEPTH
 70
  3020
  9
$CMLSTYLE
  2
Standard
  9
$CMLJUST
 70
     0
  9
$CMLSCALE
 40
1.0
  9
$PROXYGRAPHICS
 70
     1
  9
$MEASUREMENT
 70
     0
  9
$CELWEIGHT
370
    -1
  9
$ENDCAPS
280
     0
  9
$JOINSTYLE
280
     0
  9
$LWDISPLAY
290
     1
  9
$INSUNITS
 70
     1
  9
$HYPERLINKBASE
  1

  9
$STYLESHEET
  1

  9
$XEDIT
290
     1
  9
$CEPSNTYPE
380
     0
  9
$PSTYLEMODE
290
     1
  9
$FINGERPRINTGUID
  2
{0237980A-92F6-B49B-C0D7-BBA26352CE70}
  9
$VERSIONGUID
  2
{FAEB1C32-E019-11D5-929B-00C0DF256EC4}
  9
$EXTNAMES
290
     1
  9
$PSVPSCALE
 40
0.0
  9
$OLESTARTUP
290
     0
  9
$SORTENTS
280
   127
  9
$INDEXCTL
280
     0
  9
$HIDETEXT
280
     1
  9
$XCLIPFRAME
280
     2
  9
$HALOGAP
280
     0
  9
$OBSCOLOR
 70
   257
  9
$OBSLTYPE
280
     0
  9
$INTERSECTIONDISPLAY
280
     0
  9
$INTERSECTIONCOLOR
 70
   257
  9
$DIMASSOC
280
     2
  9
$PROJECTNAME
  1

  9
$CAMERADISPLAY
290
     0
  9
$LENSLENGTH
 40
50.0
  9
$CAMERAHEIGHT
 40
0.0
  9
$STEPSPERSEC
 40
2.0
  9
$STEPSIZE
 40
6.0
  9
$3DDWFPREC
 40
2.0
  9
$PSOLWIDTH
 40
0.25
  9
$PSOLHEIGHT
 40
4.0
  9
$LOFTANG1
 40
1.570796326794897
  9
$LOFTANG2
 40
1.570796326794897
  9
$LOFTMAG1
 40
0.0
  9
$LOFTMAG2
 40
0.0
  9
$LOFTPARAM
 70
     7
  9
$LOFTNORMALS
280
     1
  9
$LATITUDE
 40
37.795
  9
$LONGITUDE
 40
-122.394
  9
$NORTHDIRECTION
 40
0.0
  9
$TIMEZONE
 70
 -8000
  9
$LIGHTGLYPHDISPLAY
280
     1
  9
$TILEMODELIGHTSYNCH
280
     1
  9
$CMATERIAL
347
3C
  9
$SOLIDHIST
280
     1
  9
$SHOWHIST
280
     1
  9
$DWFFRAME
280
     2
  9
$DGNFRAME
280
     2
  9
$REALWORLDSCALE
290
     1
  9
$INTERFERECOLOR
 62
   256
  9
$CSHADOW
280
     0
  9
$SHADOWPLANELOCATION
 40
0.0
  0
ENDSEC
  0
SECTION
  2
CLASSES
  0
CLASS
  1
ACDBDICTIONARYWDFLT
  2
AcDbDictionaryWithDefault
  3
ObjectDBX Classes
 90
        0
 91
        4
280
     0
281
     0
  0
CLASS
  1
VISUALSTYLE
  2
AcDbVisualStyle
  3
ObjectDBX Classes
 90
     4095
 91
        4
280
     0
281
     0
  0
CLASS
  1
MATERIAL
  2
AcDbMaterial
  3
ObjectDBX Classes
 90
     1153
 91
        4
280
     0
281
     0
  0
CLASS
  1
SUN
  2
AcDbSun
  3
SCENEOE
 90
     1024
 91
        4
280
     0
281
     0
  0
ENDSEC
  0
SECTION
  2
TABLES
  0
TABLE
  2
VPORT
  5
8
330
0
100
AcDbSymbolTable
 70
     1
  0
VPORT
  5
29
330
8
100
AcDbSymbolTableRecord
100
AcDbViewportTableRecord
  2
*Active
 70
     0
 10
0.0
 20
0.0
 11
1.0
 21
1.0
 12
0.0
 22
0.0
 13
0.0
 23
0.0
 14
0.5
 24
0.5
 15
0.5
 25
0.5
 16
0.0
 26
0.0
 36
1.0
 17
91.00082462281999
 27
-128.4993055234307
 37
0.0
 40
256.9986110468615
 41
0.7081814508812795
 42
50.0
 43
0.0
 44
0.0
 50
0.0
 51
0.0
 71
     0
 72
   100
 73
     1
 74
     3
 75
     0
 76
     0
 77
     0
 78
     0
281
     0
 65
     1
110
0.0
120
0.0
130
0.0
111
1.0
121
0.0
131
0.0
112
0.0
122
1.0
132
0.0
 79
     0
146
0.0
 60
     3
 61
     5
292
     1
282
     1
141
0.0
142
0.0
 63
   250
361
3F
  0
ENDTAB
  0
TABLE
  2
LTYPE
  5
5
330
0
100
AcDbSymbolTable
 70
     1
  0
LTYPE
  5
14
330
5
100
AcDbSymbolTableRecord
100
AcDbLinetypeTableRecord
  2
ByBlock
 70
     0
  3

 72
    65
 73
     0
 40
0.0
  0
LTYPE
  5
15
330
5
100
AcDbSymbolTableRecord
100
AcDbLinetypeTableRecord
  2
ByLayer
 70
     0
  3

 72
    65
 73
     0
 40
0.0
  0
LTYPE
  5
16
330
5
100
AcDbSymbolTableRecord
100
AcDbLinetypeTableRecord
  2
Continuous
 70
     0
  3
Solid line
 72
    65
 73
     0
 40
0.0
  0
ENDTAB
  0
TABLE
  2
LAYER
  5
2
330
0
100
AcDbSymbolTable
 70
     2
  0
LAYER
  5
10
330
2
100
AcDbSymbolTableRecord
100
AcDbLayerTableRecord
  2
0
 70
     0
 62
     7
  6
Continuous
370
    -3
390
F
347
3E
  0
LAYER
  5
40
330
2
100
AcDbSymbolTableRecord
100
AcDbLayerTableRecord
  2
_U+30EC_U+30A4_U+30E4_U+30FC 1
 70
     0
 62
     7
  6
Continuous
370
    -3
390
F
347
3E
  0
ENDTAB
  0
TABLE
  2
STYLE
  5
3
330
0
100
AcDbSymbolTable
 70
     1
  0
STYLE
  5
11
330
3
100
AcDbSymbolTableRecord
100
AcDbTextStyleTableRecord
  2
Standard
 70
     0
 40
0.0
 41
1.0
 50
0.0
 71
     0
 42
0.2
  3
txt
  4

  0
ENDTAB
  0
TABLE
  2
VIEW
  5
6
330
0
100
AcDbSymbolTable
 70
     0
  0
ENDTAB
  0
TABLE
  2
UCS
  5
7
330
0
100
AcDbSymbolTable
 70
     0
  0
ENDTAB
  0
TABLE
  2
APPID
  5
9
330
0
100
AcDbSymbolTable
 70
     1
  0
APPID
  5
12
330
9
100
AcDbSymbolTableRecord
100
AcDbRegAppTableRecord
  2
ACAD
 70
     0
  0
ENDTAB
  0
TABLE
  2
DIMSTYLE
  5
A
330
0
100
AcDbSymbolTable
 70
     1
100
AcDbDimStyleTable
  0
DIMSTYLE
105
27
330
A
100
AcDbSymbolTableRecord
100
AcDbDimStyleTableRecord
  2
Standard
 70
     0
178
     0
340
11
  0
ENDTAB
  0
TABLE
  2
BLOCK_RECORD
  5
1
330
0
100
AcDbSymbolTable
 70
     4
  0
BLOCK_RECORD
  5
1F
330
1
100
AcDbSymbolTableRecord
100
AcDbBlockTableRecord
  2
*Model_Space
340
22
 70
     0
280
     1
281
     0
  0
BLOCK_RECORD
  5
1B
330
1
100
AcDbSymbolTableRecord
100
AcDbBlockTableRecord
  2
*Paper_Space
340
1E
 70
     0
280
     1
281
     0
  0
BLOCK_RECORD
  5
23
330
1
100
AcDbSymbolTableRecord
100
AcDbBlockTableRecord
  2
*Paper_Space0
340
26
 70
     0
280
     1
281
     0
  0
BLOCK_RECORD
  5
62
330
1
100
AcDbSymbolTableRecord
100
AcDbBlockTableRecord
  2
block 2
340
0
102
{BLKREFS
331
63
102
}
 70
     0
280
     1
281
     0
  0
BLOCK_RECORD
  5
76
330
1
100
AcDbSymbolTableRecord
100
AcDbBlockTableRecord
  2
block 3
340
0
102
{BLKREFS
331
77
102
}
 70
     0
280
     1
281
     0
  0
BLOCK_RECORD
  5
8B
330
1
100
AcDbSymbolTableRecord
100
AcDbBlockTableRecord
  2
block 4
340
0
102
{BLKREFS
331
8C
102
}
 70
     0
280
     1
281
     0
  0
ENDTAB
  0
ENDSEC
  0
SECTION
  2
BLOCKS
  0
BLOCK
  5
20
330
1F
100
AcDbEntity
  8
0
100
AcDbBlockBegin
  2
*Model_Space
 70
     0
 10
0.0
 20
0.0
 30
0.0
  3
*Model_Space
  1

  0
ENDBLK
  5
21
330
1F
100
AcDbEntity
  8
0
100
AcDbBlockEnd
  0
BLOCK
  5
1C
330
1B
100
AcDbEntity
 67
     1
  8
0
100
AcDbBlockBegin
  2
*Paper_Space
 70
     0
 10
0.0
 20
0.0
 30
0.0
  3
*Paper_Space
  1

  0
ENDBLK
  5
1D
330
1B
100
AcDbEntity
 67
     1
  8
0
100
AcDbBlockEnd
  0
BLOCK
  5
24
330
23
100
AcDbEntity
  8
0
100
AcDbBlockBegin
  2
*Paper_Space0
 70
     0
 10
0.0
 20
0.0
 30
0.0
  3
*Paper_Space0
  1

  0
ENDBLK
  5
25
330
23
100
AcDbEntity
  8
0
100
AcDbBlockEnd
  0
BLOCK
  5
64
330
62
100
AcDbEntity
  8
0
100
AcDbBlockBegin
  2
block 2
 70
     0
 10
0.0
 20
0.0
 30
0.0
  3
block 2
  1

  0
SPLINE
  5
66
330
62
100
AcDbEntity
  8
_U+30EC_U+30A4_U+30E4_U+30FC 1
370
     0
100
AcDbSpline
210
0.0
220
0.0
230
1.0
 70
    11
 71
     3
 72
    26
 73
    22
 74
     0
 42
0.0000000001
 43
0.0000000001
 12
1.0
 22
0.0
 32
0.0
 13
1.0
 23
0.0
 33
0.0
 40
0.0
 40
0.0
 40
0.0
 40
0.0
 40
1.0
 40
1.0
 40
1.0
 40
2.0
 40
2.0
 40
2.0
 40
3.0
 40
3.0
 40
3.0
 40
4.0
 40
4.0
 40
4.0
 40
5.0
 40
5.0
 40
5.0
 40
6.0
 40
6.0
 40
6.0
 40
7.0
 40
7.0
 40
7.0
 40
7.0
 10
90.0237901250635
 20
-115.2026149885605
 30
0.0
 10
90.0237901250635
 20
-115.2026149885605
 30
0.0
 10
90.0237901250635
 20
-114.0982896307636
 30
0.0
 10
90.0237901250635
 20
-114.0982896307636
 30
0.0
 10
90.0237901250635
 20
-114.0982896307636
 30
0.0
 10
89.69374997757657
 20
-114.0982896307636
 30
0.0
 10
89.69374997757657
 20
-114.0982896307636
 30
0.0
 10
89.69374997757657
 20
-114.0982896307636
 30
0.0
 10
89.69374997757657
 20
-113.9503227796721
 30
0.0
 10
89.69374997757657
 20
-113.9503227796721
 30
0.0
 10
90.02585718235466
 20
-113.9355088690856
 30
0.0
 10
90.07236597140552
 20
-113.7725558526333
 30
0.0
 10
90.10199379257867
 20
-113.6583509372972
 30
0.0
 10
90.10199379257867
 20
-113.6583509372972
 30
0.0
 10
90.24806584115326
 20
-113.6583509372972
 30
0.0
 10
90.24806584115326
 20
-113.6583509372972
 30
0.0
 10
90.24806584115326
 20
-113.6583509372972
 30
0.0
 10
90.24806584115326
 20
-115.2026149885605
 30
0.0
 10
90.24806584115326
 20
-115.2026149885605
 30
0.0
 10
90.24806584115326
 20
-115.2026149885605
 30
0.0
 10
90.0237901250635
 20
-115.2026149885605
 30
0.0
 10
90.0237901250635
 20
-115.2026149885605
 30
0.0
  0
HATCH
  5
67
330
62
100
AcDbEntity
  8
_U+30EC_U+30A4_U+30E4_U+30FC 1
 62
   179
420
  2234388
100
AcDbHatch
 10
0.0
 20
0.0
 30
0.0
210
0.0
220
0.0
230
1.0
  2
SOLID
 70
     1
 71
     0
 91
        1
 92
        1
 93
        1
 72
     4
 94
        3
 73
     0
 74
     1
 95
       26
 96
       22
 40
0.0
 40
0.0
 40
0.0
 40
0.0
 40
1.0
 40
1.0
 40
1.0
 40
2.0
 40
2.0
 40
2.0
 40
3.0
 40
3.0
 40
3.0
 40
4.0
 40
4.0
 40
4.0
 40
5.0
 40
5.0
 40
5.0
 40
6.0
 40
6.0
 40
6.0
 40
7.0
 40
7.0
 40
7.0
 40
7.0
 10
90.0237901250635
 20
-115.2026149885605
 10
90.0237901250635
 20
-115.2026149885605
 10
90.0237901250635
 20
-114.0982896307636
 10
90.0237901250635
 20
-114.0982896307636
 10
90.0237901250635
 20
-114.0982896307636
 10
89.69374997757657
 20
-114.0982896307636
 10
89.69374997757657
 20
-114.0982896307636
 10
89.69374997757657
 20
-114.0982896307636
 10
89.69374997757657
 20
-113.9503227796721
 10
89.69374997757657
 20
-113.9503227796721
 10
90.02585718235466
 20
-113.9355088690856
 10
90.07236597140552
 20
-113.7725558526333
 10
90.10199379257867
 20
-113.6583509372972
 10
90.10199379257867
 20
-113.6583509372972
 10
90.24806584115326
 20
-113.6583509372972
 10
90.24806584115326
 20
-113.6583509372972
 10
90.24806584115326
 20
-113.6583509372972
 10
90.24806584115326
 20
-115.2026149885605
 10
90.24806584115326
 20
-115.2026149885605
 10
90.24806584115326
 20
-115.2026149885605
 10
90.0237901250635
 20
-115.2026149885605
 10
90.0237901250635
 20
-115.2026149885605
 97
        0
 97
        0
 75
     2
 76
     1
 98
        0
  0
SPLINE
  5
68
330
62
100
AcDbEntity
  8
_U+30EC_U+30A4_U+30E4_U+30FC 1
370
     0
100
AcDbSpline
210
0.0
220
0.0
230
1.0
 70
    11
 71
     3
 72
    53
 73
    49
 74
     0
 42
0.0000000001
 43
0.0000000001
 12
1.0
 22
0.0
 32
0.0
 13
1.0
 23
0.0
 33
0.0
 40
0.0
 40
0.0
 40
0.0
 40
0.0
 40
1.0
 40
1.0
 40
1.0
 40
2.0
 40
2.0
 40
2.0
 40
3.0
 40
3.0
 40
3.0
 40
4.0
 40
4.0
 40
4.0
 40
5.0
 40
5.0
 40
5.0
 40
6.0
 40
6.0
 40
6.0
 40
7.0
 40
7.0
 40
7.0
 40
8.0
 40
8.0
 40
8.0
 40
9.0
 40
9.0
 40
9.0
 40
10.0
 40
10.0
 40
10.0
 40
11.0
 40
11.0
 40
11.0
 40
12.0
 40
12.0
 40
12.0
 40
13.0
 40
13.0
 40
13.0
 40
14.0
 40
14.0
 40
14.0
 40
15.0
 40
15.0
 40
15.0
 40
16.0
 40
16.0
 40
16.0
 40
16.0
 10
91.230262563998
 20
-115.2534301469679
 30
0.0
 10
91.15188664170856
 20
-115.2534301469679
 30
0.0
 10
91.05042857966795
 20
-115.2363769243159
 30
0.0
 10
90.94879826285309
 20
-115.1729871673873
 30
0.0
 10
90.77533770517076
 20
-115.0629163666336
 30
0.0
 10
90.75415036793646
 20
-114.9318304834198
 30
0.0
 10
90.7352023427676
 20
-114.8239989947315
 30
0.0
 10
90.7352023427676
 20
-114.8239989947315
 30
0.0
 10
90.95723874679194
 20
-114.8239989947315
 30
0.0
 10
90.95723874679194
 20
-114.8239989947315
 30
0.0
 10
91.01236027455595
 20
-115.0227810042304
 30
0.0
 10
91.1393120431874
 20
-115.0524088254036
 30
0.0
 10
91.23232962128914
 20
-115.0524088254036
 30
0.0
 10
91.37185598844177
 20
-115.0524088254036
 30
0.0
 10
91.52447371843833
 20
-114.9530178206541
 30
0.0
 10
91.52447371843833
 20
-114.7203016206255
 30
0.0
 10
91.52447371843833
 20
-114.4643310260714
 30
0.0
 10
91.34446747933403
 20
-114.3945678424951
 30
0.0
 10
91.22388913735028
 20
-114.3945678424951
 30
0.0
 10
91.19219425888598
 20
-114.3945678424951
 30
0.0
 10
91.05042857966795
 20
-114.3945678424951
 30
0.0
 10
90.9615451161485
 20
-114.5235866684177
 30
0.0
 10
90.9615451161485
 20
-114.5235866684177
 30
0.0
 10
90.78601750117502
 20
-114.5044663884746
 30
0.0
 10
90.78601750117502
 20
-114.5044663884746
 30
0.0
 10
90.78601750117502
 20
-114.5044663884746
 30
0.0
 10
90.90659584315877
 20
-113.6583509372972
 30
0.0
 10
90.90659584315877
 20
-113.6583509372972
 30
0.0
 10
90.90659584315877
 20
-113.6583509372972
 30
0.0
 10
91.68501516805097
 20
-113.6583509372972
 30
0.0
 10
91.68501516805097
 20
-113.6583509372972
 30
0.0
 10
91.68501516805097
 20
-113.6583509372972
 30
0.0
 10
91.68501516805097
 20
-113.8529988322138
 30
0.0
 10
91.68501516805097
 20
-113.8529988322138
 30
0.0
 10
91.68501516805097
 20
-113.8529988322138
 30
0.0
 10
91.06937660483683
 20
-113.8529988322138
 30
0.0
 10
91.06937660483683
 20
-113.8529988322138
 30
0.0
 10
91.06937660483683
 20
-113.8529988322138
 30
0.0
 10
91.00391979061708
 20
-114.2760565578025
 30
0.0
 10
91.00391979061708
 20
-114.2760565578025
 30
0.0
 10
91.06524249025453
 20
-114.2421223672728
 30
0.0
 10
91.14775252712626
 20
-114.2019870048697
 30
0.0
 10
91.26609155704459
 20
-114.2019870048697
 30
0.0
 10
91.5199950943075
 20
-114.2019870048697
 30
0.0
 10
91.7570176636927
 20
-114.3881944158474
 30
0.0
 10
91.7570176636927
 20
-114.7011813406824
 30
0.0
 10
91.7570176636927
 20
-115.0186468896481
 30
0.0
 10
91.53274194760293
 20
-115.2534301469679
 30
0.0
 10
91.230262563998
 20
-115.2534301469679
 30
0.0
  0
HATCH
  5
69
330
62
100
AcDbEntity
  8
_U+30EC_U+30A4_U+30E4_U+30FC 1
 62
   179
420
  2234388
100
AcDbHatch
 10
0.0
 20
0.0
 30
0.0
210
0.0
220
0.0
230
1.0
  2
SOLID
 70
     1
 71
     0
 91
        1
 92
        1
 93
        1
 72
     4
 94
        3
 73
     0
 74
     1
 95
       53
 96
       49
 40
0.0
 40
0.0
 40
0.0
 40
0.0
 40
1.0
 40
1.0
 40
1.0
 40
2.0
 40
2.0
 40
2.0
 40
3.0
 40
3.0
 40
3.0
 40
4.0
 40
4.0
 40
4.0
 40
5.0
 40
5.0
 40
5.0
 40
6.0
 40
6.0
 40
6.0
 40
7.0
 40
7.0
 40
7.0
 40
8.0
 40
8.0
 40
8.0
 40
9.0
 40
9.0
 40
9.0
 40
10.0
 40
10.0
 40
10.0
 40
11.0
 40
11.0
 40
11.0
 40
12.0
 40
12.0
 40
12.0
 40
13.0
 40
13.0
 40
13.0
 40
14.0
 40
14.0
 40
14.0
 40
15.0
 40
15.0
 40
15.0
 40
16.0
 40
16.0
 40
16.0
 40
16.0
 10
91.230262563998
 20
-115.2534301469679
 10
91.15188664170856
 20
-115.2534301469679
 10
91.05042857966795
 20
-115.2363769243159
 10
90.94879826285309
 20
-115.1729871673873
 10
90.77533770517076
 20
-115.0629163666336
 10
90.75415036793646
 20
-114.9318304834198
 10
90.7352023427676
 20
-114.8239989947315
 10
90.7352023427676
 20
-114.8239989947315
 10
90.95723874679194
 20
-114.8239989947315
 10
90.95723874679194
 20
-114.8239989947315
 10
91.01236027455595
 20
-115.0227810042304
 10
91.1393120431874
 20
-115.0524088254036
 10
91.23232962128914
 20
-115.0524088254036
 10
91.37185598844177
 20
-115.0524088254036
 10
91.52447371843833
 20
-114.9530178206541
 10
91.52447371843833
 20
-114.7203016206255
 10
91.52447371843833
 20
-114.4643310260714
 10
91.34446747933403
 20
-114.3945678424951
 10
91.22388913735028
 20
-114.3945678424951
 10
91.19219425888598
 20
-114.3945678424951
 10
91.05042857966795
 20
-114.3945678424951
 10
90.9615451161485
 20
-114.5235866684177
 10
90.9615451161485
 20
-114.5235866684177
 10
90.78601750117502
 20
-114.5044663884746
 10
90.78601750117502
 20
-114.5044663884746
 10
90.78601750117502
 20
-114.5044663884746
 10
90.90659584315877
 20
-113.6583509372972
 10
90.90659584315877
 20
-113.6583509372972
 10
90.90659584315877
 20
-113.6583509372972
 10
91.68501516805097
 20
-113.6583509372972
 10
91.68501516805097
 20
-113.6583509372972
 10
91.68501516805097
 20
-113.6583509372972
 10
91.68501516805097
 20
-113.8529988322138
 10
91.68501516805097
 20
-113.8529988322138
 10
91.68501516805097
 20
-113.8529988322138
 10
91.06937660483683
 20
-113.8529988322138
 10
91.06937660483683
 20
-113.8529988322138
 10
91.06937660483683
 20
-113.8529988322138
 10
91.00391979061708
 20
-114.2760565578025
 10
91.00391979061708
 20
-114.2760565578025
 10
91.06524249025453
 20
-114.2421223672728
 10
91.14775252712626
 20
-114.2019870048697
 10
91.26609155704459
 20
-114.2019870048697
 10
91.5199950943075
 20
-114.2019870048697
 10
91.7570176636927
 20
-114.3881944158474
 10
91.7570176636927
 20
-114.7011813406824
 10
91.7570176636927
 20
-115.0186468896481
 10
91.53274194760293
 20
-115.2534301469679
 10
91.230262563998
 20
-115.2534301469679
 97
        0
 97
        0
 75
     2
 76
     1
 98
        0
  0
ENDBLK
  5
65
330
62
100
AcDbEntity
  8
0
100
AcDbBlockEnd
  0
BLOCK
  5
78
330
76
100
AcDbEntity
  8
0
100
AcDbBlockBegin
  2
block 3
 70
     0
 10
0.0
 20
0.0
 30
0.0
  3
block 3
  1

  0
SPLINE
  5
7A
330
76
100
AcDbEntity
  8
_U+30EC_U+30A4_U+30E4_U+30FC 1
370
     0
100
AcDbSpline
210
0.0
220
0.0
230
1.0
 70
    11
 71
     3
 72
    44
 73
    40
 74
     0
 42
0.0000000001
 43
0.0000000001
 12
1.0
 22
0.0
 32
0.0
 13
1.0
 23
0.0
 33
0.0
 40
0.0
 40
0.0
 40
0.0
 40
0.0
 40
1.0
 40
1.0
 40
1.0
 40
2.0
 40
2.0
 40
2.0
 40
3.0
 40
3.0
 40
3.0
 40
4.0
 40
4.0
 40
4.0
 40
5.0
 40
5.0
 40
5.0
 40
6.0
 40
6.0
 40
6.0
 40
7.0
 40
7.0
 40
7.0
 40
8.0
 40
8.0
 40
8.0
 40
9.0
 40
9.0
 40
9.0
 40
10.0
 40
10.0
 40
10.0
 40
11.0
 40
11.0
 40
11.0
 40
12.0
 40
12.0
 40
12.0
 40
13.0
 40
13.0
 40
13.0
 40
13.0
 10
87.66579452018425
 20
-142.6204074079213
 30
0.0
 10
87.4478922307422
 20
-142.7792263097913
 30
0.0
 10
87.35470239786619
 20
-142.8532958627242
 30
0.0
 10
87.30612655152417
 20
-142.9969563444591
 30
0.0
 10
87.30612655152417
 20
-142.9969563444591
 30
0.0
 10
88.08454587641637
 20
-142.9969563444591
 30
0.0
 10
88.08454587641637
 20
-142.9969563444591
 30
0.0
 10
88.08454587641637
 20
-142.9969563444591
 30
0.0
 10
88.08454587641637
 20
-143.20228403538
 30
0.0
 10
88.08454587641637
 20
-143.20228403538
 30
0.0
 10
88.08454587641637
 20
-143.20228403538
 30
0.0
 10
87.05652938361781
 20
-143.20228403538
 30
0.0
 10
87.05652938361781
 20
-143.20228403538
 30
0.0
 10
87.08822426208212
 20
-142.8446831240111
 30
0.0
 10
87.15368107630187
 20
-142.7664794564959
 30
0.0
 10
87.53884275155279
 20
-142.4681341874733
 30
0.0
 10
87.79481334610685
 20
-142.2693521779743
 30
0.0
 10
87.8602701603266
 20
-142.2014837969149
 30
0.0
 10
87.8602701603266
 20
-142.0640244870534
 30
0.0
 10
87.8602701603266
 20
-141.9455132023608
 30
0.0
 10
87.78843991945915
 20
-141.8145995739214
 30
0.0
 10
87.59172496725138
 20
-141.8145995739214
 30
0.0
 10
87.33144800334075
 20
-141.8145995739214
 30
0.0
 10
87.3230075194019
 20
-142.0450764618846
 30
0.0
 10
87.31870115004533
 20
-142.161520689286
 30
0.0
 10
87.31870115004533
 20
-142.161520689286
 30
0.0
 10
87.09459768872982
 20
-142.161520689286
 30
0.0
 10
87.09459768872982
 20
-142.161520689286
 30
0.0
 10
87.10303817266869
 20
-142.0343966658803
 30
0.0
 10
87.1135457138987
 20
-141.9224310626097
 30
0.0
 10
87.19398869347928
 20
-141.8039197779171
 30
0.0
 10
87.30388723945876
 20
-141.6430338187559
 30
0.0
 10
87.4900946504365
 20
-141.6092718830005
 30
0.0
 10
87.60653887783795
 20
-141.6092718830005
 30
0.0
 10
87.8836968096263
 20
-141.6092718830005
 30
0.0
 10
88.09091930306408
 20
-141.7932399819128
 30
0.0
 10
88.09091930306408
 20
-142.0660915443446
 30
0.0
 10
88.09091930306408
 20
-142.2948458845652
 30
0.0
 10
87.9746473304369
 20
-142.3940646345404
 30
0.0
 10
87.66579452018425
 20
-142.6204074079213
 30
0.0
  0
HATCH
  5
7B
330
76
100
AcDbEntity
  8
_U+30EC_U+30A4_U+30E4_U+30FC 1
 62
   179
420
  2234388
100
AcDbHatch
 10
0.0
 20
0.0
 30
0.0
210
0.0
220
0.0
230
1.0
  2
SOLID
 70
     1
 71
     0
 91
        1
 92
        1
 93
        1
 72
     4
 94
        3
 73
     0
 74
     1
 95
       44
 96
       40
 40
0.0
 40
0.0
 40
0.0
 40
0.0
 40
1.0
 40
1.0
 40
1.0
 40
2.0
 40
2.0
 40
2.0
 40
3.0
 40
3.0
 40
3.0
 40
4.0
 40
4.0
 40
4.0
 40
5.0
 40
5.0
 40
5.0
 40
6.0
 40
6.0
 40
6.0
 40
7.0
 40
7.0
 40
7.0
 40
8.0
 40
8.0
 40
8.0
 40
9.0
 40
9.0
 40
9.0
 40
10.0
 40
10.0
 40
10.0
 40
11.0
 40
11.0
 40
11.0
 40
12.0
 40
12.0
 40
12.0
 40
13.0
 40
13.0
 40
13.0
 40
13.0
 10
87.66579452018425
 20
-142.6204074079213
 10
87.4478922307422
 20
-142.7792263097913
 10
87.35470239786619
 20
-142.8532958627242
 10
87.30612655152417
 20
-142.9969563444591
 10
87.30612655152417
 20
-142.9969563444591
 10
88.08454587641637
 20
-142.9969563444591
 10
88.08454587641637
 20
-142.9969563444591
 10
88.08454587641637
 20
-142.9969563444591
 10
88.08454587641637
 20
-143.20228403538
 10
88.08454587641637
 20
-143.20228403538
 10
88.08454587641637
 20
-143.20228403538
 10
87.05652938361781
 20
-143.20228403538
 10
87.05652938361781
 20
-143.20228403538
 10
87.08822426208212
 20
-142.8446831240111
 10
87.15368107630187
 20
-142.7664794564959
 10
87.53884275155279
 20
-142.4681341874733
 10
87.79481334610685
 20
-142.2693521779743
 10
87.8602701603266
 20
-142.2014837969149
 10
87.8602701603266
 20
-142.0640244870534
 10
87.8602701603266
 20
-141.9455132023608
 10
87.78843991945915
 20
-141.8145995739214
 10
87.59172496725138
 20
-141.8145995739214
 10
87.33144800334075
 20
-141.8145995739214
 10
87.3230075194019
 20
-142.0450764618846
 10
87.31870115004533
 20
-142.161520689286
 10
87.31870115004533
 20
-142.161520689286
 10
87.09459768872982
 20
-142.161520689286
 10
87.09459768872982
 20
-142.161520689286
 10
87.10303817266869
 20
-142.0343966658803
 10
87.1135457138987
 20
-141.9224310626097
 10
87.19398869347928
 20
-141.8039197779171
 10
87.30388723945876
 20
-141.6430338187559
 10
87.4900946504365
 20
-141.6092718830005
 10
87.60653887783795
 20
-141.6092718830005
 10
87.8836968096263
 20
-141.6092718830005
 10
88.09091930306408
 20
-141.7932399819128
 10
88.09091930306408
 20
-142.0660915443446
 10
88.09091930306408
 20
-142.2948458845652
 10
87.9746473304369
 20
-142.3940646345404
 10
87.66579452018425
 20
-142.6204074079213
 97
        0
 97
        0
 75
     2
 76
     1
 98
        0
  0
SPLINE
  5
7C
330
76
100
AcDbEntity
  8
_U+30EC_U+30A4_U+30E4_U+30FC 1
370
     0
100
AcDbSpline
210
0.0
220
0.0
230
1.0
 70
    11
 71
     3
 72
    29
 73
    25
 74
     0
 42
0.0000000001
 43
0.0000000001
 12
1.0
 22
0.0
 32
0.0
 13
1.0
 23
0.0
 33
0.0
 40
0.0
 40
0.0
 40
0.0
 40
0.0
 40
1.0
 40
1.0
 40
1.0
 40
2.0
 40
2.0
 40
2.0
 40
3.0
 40
3.0
 40
3.0
 40
4.0
 40
4.0
 40
4.0
 40
5.0
 40
5.0
 40
5.0
 40
6.0
 40
6.0
 40
6.0
 40
7.0
 40
7.0
 40
7.0
 40
8.0
 40
8.0
 40
8.0
 40
8.0
 10
89.14718557884169
 20
-143.0245171083411
 30
0.0
 10
89.03935409015337
 20
-143.2339789138443
 30
0.0
 10
88.86589353247103
 20
-143.2529269390132
 30
0.0
 10
88.74944930506959
 20
-143.2529269390132
 30
0.0
 10
88.58873560068268
 20
-143.2529269390132
 30
0.0
 10
88.44696992146466
 20
-143.2064181499623
 30
0.0
 10
88.35171303129749
 20
-143.0245171083411
 30
0.0
 10
88.24818791196573
 20
-142.8298692134245
 30
0.0
 10
88.22906763202259
 20
-142.5928466440393
 30
0.0
 10
88.22906763202259
 20
-142.4302381371355
 30
0.0
 10
88.22906763202259
 20
-142.2862331458521
 30
0.0
 10
88.24594859990032
 20
-142.0343966658803
 30
0.0
 10
88.35171303129749
 20
-141.8356146563814
 30
0.0
 10
88.45971677476007
 20
-141.6326985323002
 30
0.0
 10
88.62043047914698
 20
-141.6092718830005
 30
0.0
 10
88.74944930506959
 20
-141.6092718830005
 30
0.0
 10
88.90809595216534
 20
-141.6092718830005
 30
0.0
 10
89.05192868867452
 20
-141.6537136147602
 30
0.0
 10
89.14718557884169
 20
-141.8356146563814
 30
0.0
 10
89.24657658359114
 20
-142.0281954940068
 30
0.0
 10
89.26983097811657
 20
-142.2566053246789
 30
0.0
 10
89.26983097811657
 20
-142.4302381371355
 30
0.0
 10
89.26983097811657
 20
-142.6014593827524
 30
0.0
 10
89.24881589565655
 20
-142.8319362707156
 30
0.0
 10
89.14718557884169
 20
-143.0245171083411
 30
0.0
  0
SPLINE
  5
7D
330
76
100
AcDbEntity
  8
_U+30EC_U+30A4_U+30E4_U+30FC 1
370
     0
100
AcDbSpline
210
0.0
220
0.0
230
1.0
 70
    11
 71
     3
 72
    17
 73
    13
 74
     0
 42
0.0000000001
 43
0.0000000001
 12
1.0
 22
0.0
 32
0.0
 13
1.0
 23
0.0
 33
0.0
 40
0.0
 40
0.0
 40
0.0
 40
0.0
 40
1.0
 40
1.0
 40
1.0
 40
2.0
 40
2.0
 40
2.0
 40
3.0
 40
3.0
 40
3.0
 40
4.0
 40
4.0
 40
4.0
 40
4.0
 10
88.74944930506959
 20
-141.8018527206259
 30
0.0
 10
88.49985213716323
 20
-141.8018527206259
 30
0.0
 10
88.45334334811237
 20
-142.085384079062
 30
0.0
 10
88.45334334811237
 20
-142.4302381371355
 30
0.0
 10
88.45334334811237
 20
-142.7495984886182
 30
0.0
 10
88.48934459593322
 20
-143.0582790440965
 30
0.0
 10
88.74944930506959
 20
-143.0582790440965
 30
0.0
 10
88.99697941568479
 20
-143.0582790440965
 30
0.0
 10
89.04572751680107
 20
-142.7771592525002
 30
0.0
 10
89.04572751680107
 20
-142.4302381371355
 30
0.0
 10
89.04572751680107
 20
-142.1105332761043
 30
0.0
 10
89.0074869569148
 20
-141.8018527206259
 30
0.0
 10
88.74944930506959
 20
-141.8018527206259
 30
0.0
  0
HATCH
  5
7E
330
76
100
AcDbEntity
  8
_U+30EC_U+30A4_U+30E4_U+30FC 1
 62
   179
420
  2234388
100
AcDbHatch
 10
0.0
 20
0.0
 30
0.0
210
0.0
220
0.0
230
1.0
  2
SOLID
 70
     1
 71
     0
 91
        2
 92
        1
 93
        1
 72
     4
 94
        3
 73
     0
 74
     1
 95
       29
 96
       25
 40
0.0
 40
0.0
 40
0.0
 40
0.0
 40
1.0
 40
1.0
 40
1.0
 40
2.0
 40
2.0
 40
2.0
 40
3.0
 40
3.0
 40
3.0
 40
4.0
 40
4.0
 40
4.0
 40
5.0
 40
5.0
 40
5.0
 40
6.0
 40
6.0
 40
6.0
 40
7.0
 40
7.0
 40
7.0
 40
8.0
 40
8.0
 40
8.0
 40
8.0
 10
89.14718557884169
 20
-143.0245171083411
 10
89.03935409015337
 20
-143.2339789138443
 10
88.86589353247103
 20
-143.2529269390132
 10
88.74944930506959
 20
-143.2529269390132
 10
88.58873560068268
 20
-143.2529269390132
 10
88.44696992146466
 20
-143.2064181499623
 10
88.35171303129749
 20
-143.0245171083411
 10
88.24818791196573
 20
-142.8298692134245
 10
88.22906763202259
 20
-142.5928466440393
 10
88.22906763202259
 20
-142.4302381371355
 10
88.22906763202259
 20
-142.2862331458521
 10
88.24594859990032
 20
-142.0343966658803
 10
88.35171303129749
 20
-141.8356146563814
 10
88.45971677476007
 20
-141.6326985323002
 10
88.62043047914698
 20
-141.6092718830005
 10
88.74944930506959
 20
-141.6092718830005
 10
88.90809595216534
 20
-141.6092718830005
 10
89.05192868867452
 20
-141.6537136147602
 10
89.14718557884169
 20
-141.8356146563814
 10
89.24657658359114
 20
-142.0281954940068
 10
89.26983097811657
 20
-142.2566053246789
 10
89.26983097811657
 20
-142.4302381371355
 10
89.26983097811657
 20
-142.6014593827524
 10
89.24881589565655
 20
-142.8319362707156
 10
89.14718557884169
 20
-143.0245171083411
 97
        0
 97
        0
 92
        1
 93
        1
 72
     4
 94
        3
 73
     0
 74
     1
 95
       17
 96
       13
 40
0.0
 40
0.0
 40
0.0
 40
0.0
 40
1.0
 40
1.0
 40
1.0
 40
2.0
 40
2.0
 40
2.0
 40
3.0
 40
3.0
 40
3.0
 40
4.0
 40
4.0
 40
4.0
 40
4.0
 10
88.74944930506959
 20
-141.8018527206259
 10
88.49985213716323
 20
-141.8018527206259
 10
88.45334334811237
 20
-142.085384079062
 10
88.45334334811237
 20
-142.4302381371355
 10
88.45334334811237
 20
-142.7495984886182
 10
88.48934459593322
 20
-143.0582790440965
 10
88.74944930506959
 20
-143.0582790440965
 10
88.99697941568479
 20
-143.0582790440965
 10
89.04572751680107
 20
-142.7771592525002
 10
89.04572751680107
 20
-142.4302381371355
 10
89.04572751680107
 20
-142.1105332761043
 10
89.0074869569148
 20
-141.8018527206259
 10
88.74944930506959
 20
-141.8018527206259
 97
        0
 97
        0
 75
     2
 76
     1
 98
        0
  0
ENDBLK
  5
79
330
76
100
AcDbEntity
  8
0
100
AcDbBlockEnd
  0
BLOCK
  5
8D
330
8B
100
AcDbEntity
  8
0
100
AcDbBlockBegin
  2
block 4
 70
     0
 10
0.0
 20
0.0
 30
0.0
  3
block 4
  1

  0
SPLINE
  5
8F
330
8B
100
AcDbEntity
  8
_U+30EC_U+30A4_U+30E4_U+30FC 1
370
     0
100
AcDbSpline
210
0.0
220
0.0
230
1.0
 70
    11
 71
     3
 72
    44
 73
    40
 74
     0
 42
0.0000000001
 43
0.0000000001
 12
1.0
 22
0.0
 32
0.0
 13
1.0
 23
0.0
 33
0.0
 40
0.0
 40
0.0
 40
0.0
 40
0.0
 40
1.0
 40
1.0
 40
1.0
 40
2.0
 40
2.0
 40
2.0
 40
3.0
 40
3.0
 40
3.0
 40
4.0
 40
4.0
 40
4.0
 40
5.0
 40
5.0
 40
5.0
 40
6.0
 40
6.0
 40
6.0
 40
7.0
 40
7.0
 40
7.0
 40
8.0
 40
8.0
 40
8.0
 40
9.0
 40
9.0
 40
9.0
 40
10.0
 40
10.0
 40
10.0
 40
11.0
 40
11.0
 40
11.0
 40
12.0
 40
12.0
 40
12.0
 40
13.0
 40
13.0
 40
13.0
 40
13.0
 10
100.4042073316698
 20
-129.9910318685439
 30
0.0
 10
100.5630262335398
 20
-130.2087619032117
 30
0.0
 10
100.6370957864727
 20
-130.3017794813134
 30
0.0
 10
100.7807562682076
 20
-130.350699837204
 30
0.0
 10
100.7807562682076
 20
-130.350699837204
 30
0.0
 10
100.7807562682076
 20
-129.5721082575375
 30
0.0
 10
100.7807562682076
 20
-129.5721082575375
 30
0.0
 10
100.7807562682076
 20
-129.5721082575375
 30
0.0
 10
100.9860839591285
 20
-129.5721082575375
 30
0.0
 10
100.9860839591285
 20
-129.5721082575375
 30
0.0
 10
100.9860839591285
 20
-129.5721082575375
 30
0.0
 10
100.9860839591285
 20
-130.6001247503361
 30
0.0
 10
100.9860839591285
 20
-130.6001247503361
 30
0.0
 10
100.6284830477595
 20
-130.5684298718718
 30
0.0
 10
100.5502793802444
 20
-130.502973057652
 30
0.0
 10
100.2519341112217
 20
-130.1178113824011
 30
0.0
 10
100.0531521017228
 20
-129.8618407878471
 30
0.0
 10
99.9852837206634
 20
-129.7963839736273
 30
0.0
 10
99.84782441080193
 20
-129.7963839736273
 30
0.0
 10
99.72931312610935
 20
-129.7963839736273
 30
0.0
 10
99.59839949766985
 20
-129.868386469269
 30
0.0
 10
99.59839949766985
 20
-130.0651014214768
 30
0.0
 10
99.59839949766985
 20
-130.3252061306131
 30
0.0
 10
99.82887638563307
 20
-130.3334743597777
 30
0.0
 10
99.94532061303451
 20
-130.3379529839086
 30
0.0
 10
99.94532061303451
 20
-130.3379529839086
 30
0.0
 10
99.94532061303451
 20
-130.5622286999983
 30
0.0
 10
99.94532061303451
 20
-130.5622286999983
 30
0.0
 10
99.81819658962878
 20
-130.5536159612852
 30
0.0
 10
99.70623098635816
 20
-130.5429361652809
 30
0.0
 10
99.58771970166558
 20
-130.4626654404746
 30
0.0
 10
99.42683374250441
 20
-130.3527668944951
 30
0.0
 10
99.39307180674896
 20
-130.1663872287431
 30
0.0
 10
99.39307180674896
 20
-130.0502875108902
 30
0.0
 10
99.39307180674896
 20
-129.7729573243276
 30
0.0
 10
99.5770399056613
 20
-129.5655625761156
 30
0.0
 10
99.84989146809309
 20
-129.5655625761156
 30
0.0
 10
100.0786458083137
 20
-129.5655625761156
 30
0.0
 10
100.1778645582889
 20
-129.682006803517
 30
0.0
 10
100.4042073316698
 20
-129.9910318685439
 30
0.0
  0
HATCH
  5
90
330
8B
100
AcDbEntity
  8
_U+30EC_U+30A4_U+30E4_U+30FC 1
 62
   179
420
  2234388
100
AcDbHatch
 10
0.0
 20
0.0
 30
0.0
210
0.0
220
0.0
230
1.0
  2
SOLID
 70
     1
 71
     0
 91
        1
 92
        1
 93
        1
 72
     4
 94
        3
 73
     0
 74
     1
 95
       44
 96
       40
 40
0.0
 40
0.0
 40
0.0
 40
0.0
 40
1.0
 40
1.0
 40
1.0
 40
2.0
 40
2.0
 40
2.0
 40
3.0
 40
3.0
 40
3.0
 40
4.0
 40
4.0
 40
4.0
 40
5.0
 40
5.0
 40
5.0
 40
6.0
 40
6.0
 40
6.0
 40
7.0
 40
7.0
 40
7.0
 40
8.0
 40
8.0
 40
8.0
 40
9.0
 40
9.0
 40
9.0
 40
10.0
 40
10.0
 40
10.0
 40
11.0
 40
11.0
 40
11.0
 40
12.0
 40
12.0
 40
12.0
 40
13.0
 40
13.0
 40
13.0
 40
13.0
 10
100.4042073316698
 20
-129.9910318685439
 10
100.5630262335398
 20
-130.2087619032117
 10
100.6370957864727
 20
-130.3017794813134
 10
100.7807562682076
 20
-130.350699837204
 10
100.7807562682076
 20
-130.350699837204
 10
100.7807562682076
 20
-129.5721082575375
 10
100.7807562682076
 20
-129.5721082575375
 10
100.7807562682076
 20
-129.5721082575375
 10
100.9860839591285
 20
-129.5721082575375
 10
100.9860839591285
 20
-129.5721082575375
 10
100.9860839591285
 20
-129.5721082575375
 10
100.9860839591285
 20
-130.6001247503361
 10
100.9860839591285
 20
-130.6001247503361
 10
100.6284830477595
 20
-130.5684298718718
 10
100.5502793802444
 20
-130.502973057652
 10
100.2519341112217
 20
-130.1178113824011
 10
100.0531521017228
 20
-129.8618407878471
 10
99.9852837206634
 20
-129.7963839736273
 10
99.84782441080193
 20
-129.7963839736273
 10
99.72931312610935
 20
-129.7963839736273
 10
99.59839949766985
 20
-129.868386469269
 10
99.59839949766985
 20
-130.0651014214768
 10
99.59839949766985
 20
-130.3252061306131
 10
99.82887638563307
 20
-130.3334743597777
 10
99.94532061303451
 20
-130.3379529839086
 10
99.94532061303451
 20
-130.3379529839086
 10
99.94532061303451
 20
-130.5622286999983
 10
99.94532061303451
 20
-130.5622286999983
 10
99.81819658962878
 20
-130.5536159612852
 10
99.70623098635816
 20
-130.5429361652809
 10
99.58771970166558
 20
-130.4626654404746
 10
99.42683374250441
 20
-130.3527668944951
 10
99.39307180674896
 20
-130.1663872287431
 10
99.39307180674896
 20
-130.0502875108902
 10
99.39307180674896
 20
-129.7729573243276
 10
99.5770399056613
 20
-129.5655625761156
 10
99.84989146809309
 20
-129.5655625761156
 10
100.0786458083137
 20
-129.5655625761156
 10
100.1778645582889
 20
-129.682006803517
 10
100.4042073316698
 20
-129.9910318685439
 97
        0
 97
        0
 75
     2
 76
     1
 98
        0
  0
SPLINE
  5
91
330
8B
100
AcDbEntity
  8
_U+30EC_U+30A4_U+30E4_U+30FC 1
370
     0
100
AcDbSpline
210
0.0
220
0.0
230
1.0
 70
    11
 71
     3
 72
    29
 73
    25
 74
     0
 42
0.0000000001
 43
0.0000000001
 12
1.0
 22
0.0
 32
0.0
 13
1.0
 23
0.0
 33
0.0
 40
0.0
 40
0.0
 40
0.0
 40
0.0
 40
1.0
 40
1.0
 40
1.0
 40
2.0
 40
2.0
 40
2.0
 40
3.0
 40
3.0
 40
3.0
 40
4.0
 40
4.0
 40
4.0
 40
5.0
 40
5.0
 40
5.0
 40
6.0
 40
6.0
 40
6.0
 40
7.0
 40
7.0
 40
7.0
 40
8.0
 40
8.0
 40
8.0
 40
8.0
 10
100.8083170320896
 20
-128.509296300338
 30
0.0
 10
101.0177788375928
 20
-128.6174722985748
 30
0.0
 10
101.0367268627617
 20
-128.7907606014829
 30
0.0
 10
101.0367268627617
 20
-128.9072048288843
 30
0.0
 10
101.0367268627617
 20
-129.0680907880455
 30
0.0
 10
100.9902180737108
 20
-129.2096842124893
 30
0.0
 10
100.8083170320896
 20
-129.3047688478821
 30
0.0
 10
100.613669137173
 20
-129.4084662219882
 30
0.0
 10
100.3766465677878
 20
-129.427414247157
 30
0.0
 10
100.214038060884
 20
-129.427414247157
 30
0.0
 10
100.0700330696006
 20
-129.427414247157
 30
0.0
 10
99.81819658962878
 20
-129.4105332792793
 30
0.0
 10
99.61941458012987
 20
-129.3047688478821
 30
0.0
 10
99.41649845604866
 20
-129.1969373591938
 30
0.0
 10
99.39307180674896
 20
-129.0360514000326
 30
0.0
 10
99.39307180674896
 20
-128.9072048288843
 30
0.0
 10
99.39307180674896
 20
-128.7483859270143
 30
0.0
 10
99.43751353850868
 20
-128.6047254452794
 30
0.0
 10
99.61941458012987
 20
-128.509296300338
 30
0.0
 10
99.81199541775534
 20
-128.4100775503628
 30
0.0
 10
100.0404052484274
 20
-128.3866509010631
 30
0.0
 10
100.214038060884
 20
-128.3866509010631
 30
0.0
 10
100.3852593065009
 20
-128.3866509010631
 30
0.0
 10
100.6157361944641
 20
-128.4080104930716
 30
0.0
 10
100.8083170320896
 20
-128.509296300338
 30
0.0
  0
SPLINE
  5
92
330
8B
100
AcDbEntity
  8
_U+30EC_U+30A4_U+30E4_U+30FC 1
370
     0
100
AcDbSpline
210
0.0
220
0.0
230
1.0
 70
    11
 71
     3
 72
    17
 73
    13
 74
     0
 42
0.0000000001
 43
0.0000000001
 12
1.0
 22
0.0
 32
0.0
 13
1.0
 23
0.0
 33
0.0
 40
0.0
 40
0.0
 40
0.0
 40
0.0
 40
1.0
 40
1.0
 40
1.0
 40
2.0
 40
2.0
 40
2.0
 40
3.0
 40
3.0
 40
3.0
 40
4.0
 40
4.0
 40
4.0
 40
4.0
 10
99.58565264437442
 20
-128.9072048288843
 30
0.0
 10
99.58565264437442
 20
-129.1566297420164
 30
0.0
 10
99.86918400281048
 20
-129.2034830406158
 30
0.0
 10
100.214038060884
 20
-129.2034830406158
 30
0.0
 10
100.5333984123667
 20
-129.2034830406158
 30
0.0
 10
100.842078967845
 20
-129.1673095380207
 30
0.0
 10
100.842078967845
 20
-128.9072048288843
 30
0.0
 10
100.842078967845
 20
-128.6595024634948
 30
0.0
 10
100.5609591762487
 20
-128.6109266171528
 30
0.0
 10
100.214038060884
 20
-128.6109266171528
 30
0.0
 10
99.89433319985281
 20
-128.6109266171528
 30
0.0
 10
99.58565264437442
 20
-128.6491671770391
 30
0.0
 10
99.58565264437442
 20
-128.9072048288843
 30
0.0
  0
HATCH
  5
93
330
8B
100
AcDbEntity
  8
_U+30EC_U+30A4_U+30E4_U+30FC 1
 62
   179
420
  2234388
100
AcDbHatch
 10
0.0
 20
0.0
 30
0.0
210
0.0
220
0.0
230
1.0
  2
SOLID
 70
     1
 71
     0
 91
        2
 92
        1
 93
        1
 72
     4
 94
        3
 73
     0
 74
     1
 95
       29
 96
       25
 40
0.0
 40
0.0
 40
0.0
 40
0.0
 40
1.0
 40
1.0
 40
1.0
 40
2.0
 40
2.0
 40
2.0
 40
3.0
 40
3.0
 40
3.0
 40
4.0
 40
4.0
 40
4.0
 40
5.0
 40
5.0
 40
5.0
 40
6.0
 40
6.0
 40
6.0
 40
7.0
 40
7.0
 40
7.0
 40
8.0
 40
8.0
 40
8.0
 40
8.0
 10
100.8083170320896
 20
-128.509296300338
 10
101.0177788375928
 20
-128.6174722985748
 10
101.0367268627617
 20
-128.7907606014829
 10
101.0367268627617
 20
-128.9072048288843
 10
101.0367268627617
 20
-129.0680907880455
 10
100.9902180737108
 20
-129.2096842124893
 10
100.8083170320896
 20
-129.3047688478821
 10
100.613669137173
 20
-129.4084662219882
 10
100.3766465677878
 20
-129.427414247157
 10
100.214038060884
 20
-129.427414247157
 10
100.0700330696006
 20
-129.427414247157
 10
99.81819658962878
 20
-129.4105332792793
 10
99.61941458012987
 20
-129.3047688478821
 10
99.41649845604866
 20
-129.1969373591938
 10
99.39307180674896
 20
-129.0360514000326
 10
99.39307180674896
 20
-128.9072048288843
 10
99.39307180674896
 20
-128.7483859270143
 10
99.43751353850868
 20
-128.6047254452794
 10
99.61941458012987
 20
-128.509296300338
 10
99.81199541775534
 20
-128.4100775503628
 10
100.0404052484274
 20
-128.3866509010631
 10
100.214038060884
 20
-128.3866509010631
 10
100.3852593065009
 20
-128.3866509010631
 10
100.6157361944641
 20
-128.4080104930716
 10
100.8083170320896
 20
-128.509296300338
 97
        0
 97
        0
 92
        1
 93
        1
 72
     4
 94
        3
 73
     0
 74
     1
 95
       17
 96
       13
 40
0.0
 40
0.0
 40
0.0
 40
0.0
 40
1.0
 40
1.0
 40
1.0
 40
2.0
 40
2.0
 40
2.0
 40
3.0
 40
3.0
 40
3.0
 40
4.0
 40
4.0
 40
4.0
 40
4.0
 10
99.58565264437442
 20
-128.9072048288843
 10
99.58565264437442
 20
-129.1566297420164
 10
99.86918400281048
 20
-129.2034830406158
 10
100.214038060884
 20
-129.2034830406158
 10
100.5333984123667
 20
-129.2034830406158
 10
100.842078967845
 20
-129.1673095380207
 10
100.842078967845
 20
-128.9072048288843
 10
100.842078967845
 20
-128.6595024634948
 10
100.5609591762487
 20
-128.6109266171528
 10
100.214038060884
 20
-128.6109266171528
 10
99.89433319985281
 20
-128.6109266171528
 10
99.58565264437442
 20
-128.6491671770391
 10
99.58565264437442
 20
-128.9072048288843
 97
        0
 97
        0
 75
     2
 76
     1
 98
        0
  0
ENDBLK
  5
8E
330
8B
100
AcDbEntity
  8
0
100
AcDbBlockEnd
  0
ENDSEC
  0
SECTION
  2
ENTITIES
  0
POLYLINE
  5
41
330
1F
100
AcDbEntity
  8
_U+30EC_U+30A4_U+30E4_U+30FC 1
 62
   179
420
  2234388
370
    25
100
AcDb2dPolyline
 66
     1
 10
0.0
 20
0.0
 30
0.0
  0
VERTEX
  5
42
330
41
100
AcDbEntity
  8
_U+30EC_U+30A4_U+30E4_U+30FC 1
 62
   179
420
  2234388
370
    25
100
AcDbVertex
100
AcDb2dVertex
 10
98.16143721791532
 20
-119.4953935812373
 30
0.0
  0
VERTEX
  5
43
330
41
100
AcDbEntity
  8
_U+30EC_U+30A4_U+30E4_U+30FC 1
 62
   179
420
  2234388
370
    25
100
AcDbVertex
100
AcDb2dVertex
 10
98.16143721791532
 20
-139.4953535762376
 30
0.0
  0
SEQEND
  5
44
330
41
100
AcDbEntity
  8
_U+30EC_U+30A4_U+30E4_U+30FC 1
 62
   179
420
  2234388
370
    25
  0
POLYLINE
  5
45
330
1F
100
AcDbEntity
  8
_U+30EC_U+30A4_U+30E4_U+30FC 1
 62
   179
420
  2234388
370
    25
100
AcDb2dPolyline
 66
     1
 10
0.0
 20
0.0
 30
0.0
  0
VERTEX
  5
46
330
45
100
AcDbEntity
  8
_U+30EC_U+30A4_U+30E4_U+30FC 1
 62
   179
420
  2234388
370
    25
100
AcDbVertex
100
AcDb2dVertex
 10
78.16130133927241
 20
-139.4953535762376
 30
0.0
  0
VERTEX
  5
47
330
45
100
AcDbEntity
  8
_U+30EC_U+30A4_U+30E4_U+30FC 1
 62
   179
420
  2234388
370
    25
100
AcDbVertex
100
AcDb2dVertex
 10
98.16143721791532
 20
-139.4953535762376
 30
0.0
  0
SEQEND
  5
48
330
45
100
AcDbEntity
  8
_U+30EC_U+30A4_U+30E4_U+30FC 1
 62
   179
420
  2234388
370
    25
  0
POLYLINE
  5
49
330
1F
100
AcDbEntity
  8
_U+30EC_U+30A4_U+30E4_U+30FC 1
 62
   179
420
  2234388
370
    25
100
AcDb2dPolyline
 66
     1
 10
0.0
 20
0.0
 30
0.0
  0
VERTEX
  5
4A
330
49
100
AcDbEntity
  8
_U+30EC_U+30A4_U+30E4_U+30FC 1
 62
   179
420
  2234388
370
    25
100
AcDbVertex
100
AcDb2dVertex
 10
83.16150287837331
 20
-119.4953935812373
 30
0.0
  0
VERTEX
  5
4B
330
49
100
AcDbEntity
  8
_U+30EC_U+30A4_U+30E4_U+30FC 1
 62
   179
420
  2234388
370
    25
100
AcDbVertex
100
AcDb2dVertex
 10
98.16143721791532
 20
-119.4953935812373
 30
0.0
  0
SEQEND
  5
4C
330
49
100
AcDbEntity
  8
_U+30EC_U+30A4_U+30E4_U+30FC 1
 62
   179
420
  2234388
370
    25
  0
POLYLINE
  5
4D
330
1F
100
AcDbEntity
  8
_U+30EC_U+30A4_U+30E4_U+30FC 1
 62
   179
420
  2234388
370
    25
100
AcDb2dPolyline
 66
     1
 10
0.0
 20
0.0
 30
0.0
  0
VERTEX
  5
4E
330
4D
100
AcDbEntity
  8
_U+30EC_U+30A4_U+30E4_U+30FC 1
 62
   179
420
  2234388
370
    25
100
AcDbVertex
100
AcDb2dVertex
 10
83.16150287837331
 20
-119.4953935812373
 30
0.0
  0
VERTEX
  5
4F
330
4D
100
AcDbEntity
  8
_U+30EC_U+30A4_U+30E4_U+30FC 1
 62
   179
420
  2234388
370
    25
100
AcDbVertex
100
AcDb2dVertex
 10
78.16130133927241
 20
-139.4953535762376
 30
0.0
  0
SEQEND
  5
50
330
4D
100
AcDbEntity
  8
_U+30EC_U+30A4_U+30E4_U+30FC 1
 62
   179
420
  2234388
370
    25
  0
SPLINE
  5
51
330
1F
100
AcDbEntity
  8
_U+30EC_U+30A4_U+30E4_U+30FC 1
 62
   179
420
  2234388
370
     9
100
AcDbSpline
210
0.0
220
0.0
230
1.0
 70
    11
 71
     3
 72
    17
 73
    13
 74
     0
 42
0.0000000001
 43
0.0000000001
 12
1.0
 22
0.0
 32
0.0
 13
1.0
 23
0.0
 33
0.0
 40
0.0
 40
0.0
 40
0.0
 40
0.0
 40
1.0
 40
1.0
 40
1.0
 40
2.0
 40
2.0
 40
2.0
 40
3.0
 40
3.0
 40
3.0
 40
4.0
 40
4.0
 40
4.0
 40
4.0
 10
98.26134388203316
 20
-115.495281637793
 30
0.0
 10
98.26134388203316
 20
-115.4401424711399
 30
0.0
 10
98.21657638317527
 20
-115.395374971151
 30
0.0
 10
98.16143721791532
 20
-115.395374971151
 30
0.0
 10
98.10633333043225
 20
-115.395374971151
 30
0.0
 10
98.06153055379748
 20
-115.4401424711399
 30
0.0
 10
98.06153055379748
 20
-115.495281637793
 30
0.0
 10
98.06153055379748
 20
-115.5507383044456
 30
0.0
 10
98.10633333043225
 20
-115.5955410822124
 30
0.0
 10
98.16143721791532
 20
-115.5955410822124
 30
0.0
 10
98.21657638317527
 20
-115.5955410822124
 30
0.0
 10
98.26134388203316
 20
-115.5507383044456
 30
0.0
 10
98.26134388203316
 20
-115.495281637793
 30
0.0
  0
SPLINE
  5
52
330
1F
100
AcDbEntity
  8
_U+30EC_U+30A4_U+30E4_U+30FC 1
 62
   179
420
  2234388
370
     9
100
AcDbSpline
210
0.0
220
0.0
230
1.0
 70
    11
 71
     3
 72
    17
 73
    13
 74
     0
 42
0.0000000001
 43
0.0000000001
 12
1.0
 22
0.0
 32
0.0
 13
1.0
 23
0.0
 33
0.0
 40
0.0
 40
0.0
 40
0.0
 40
0.0
 40
1.0
 40
1.0
 40
1.0
 40
2.0
 40
2.0
 40
2.0
 40
3.0
 40
3.0
 40
3.0
 40
4.0
 40
4.0
 40
4.0
 40
4.0
 10
101.3791610857663
 20
-119.4953935812373
 30
0.0
 10
101.3791610857663
 20
-119.4402544145845
 30
0.0
 10
101.3343910258554
 20
-119.3954516368178
 30
0.0
 10
101.2792518605955
 20
-119.3954516368178
 30
0.0
 10
101.2241479731124
 20
-119.3954516368178
 30
0.0
 10
101.1793451964776
 20
-119.4402544145845
 30
0.0
 10
101.1793451964776
 20
-119.4953935812373
 30
0.0
 10
101.1793451964776
 20
-119.5504974701125
 30
0.0
 10
101.2241479731124
 20
-119.5953002478789
 30
0.0
 10
101.2792518605955
 20
-119.5953002478789
 30
0.0
 10
101.3343910258554
 20
-119.5953002478789
 30
0.0
 10
101.3791610857663
 20
-119.5504974701125
 30
0.0
 10
101.3791610857663
 20
-119.4953935812373
 30
0.0
  0
SPLINE
  5
53
330
1F
100
AcDbEntity
  8
_U+30EC_U+30A4_U+30E4_U+30FC 1
 62
   179
420
  2234388
370
     9
100
AcDbSpline
210
0.0
220
0.0
230
1.0
 70
    11
 71
     3
 72
    17
 73
    13
 74
     0
 42
0.0000000001
 43
0.0000000001
 12
1.0
 22
0.0
 32
0.0
 13
1.0
 23
0.0
 33
0.0
 40
0.0
 40
0.0
 40
0.0
 40
0.0
 40
1.0
 40
1.0
 40
1.0
 40
2.0
 40
2.0
 40
2.0
 40
3.0
 40
3.0
 40
3.0
 40
4.0
 40
4.0
 40
4.0
 40
4.0
 10
101.3791610857663
 20
-139.4953535762376
 30
0.0
 10
101.3791610857663
 20
-139.440249687362
 30
0.0
 10
101.3343910258554
 20
-139.3954469095953
 30
0.0
 10
101.2792518605955
 20
-139.3954469095953
 30
0.0
 10
101.2241479731124
 20
-139.3954469095953
 30
0.0
 10
101.1793451964776
 20
-139.440249687362
 30
0.0
 10
101.1793451964776
 20
-139.4953535762376
 30
0.0
 10
101.1793451964776
 20
-139.55049274289
 30
0.0
 10
101.2241479731124
 20
-139.5952602428792
 30
0.0
 10
101.2792518605955
 20
-139.5952602428792
 30
0.0
 10
101.3343910258554
 20
-139.5952602428792
 30
0.0
 10
101.3791610857663
 20
-139.55049274289
 30
0.0
 10
101.3791610857663
 20
-139.4953535762376
 30
0.0
  0
SPLINE
  5
54
330
1F
100
AcDbEntity
  8
_U+30EC_U+30A4_U+30E4_U+30FC 1
 62
   179
420
  2234388
370
     9
100
AcDbSpline
210
0.0
220
0.0
230
1.0
 70
    11
 71
     3
 72
    17
 73
    13
 74
     0
 42
0.0000000001
 43
0.0000000001
 12
1.0
 22
0.0
 32
0.0
 13
1.0
 23
0.0
 33
0.0
 40
0.0
 40
0.0
 40
0.0
 40
0.0
 40
1.0
 40
1.0
 40
1.0
 40
2.0
 40
2.0
 40
2.0
 40
3.0
 40
3.0
 40
3.0
 40
4.0
 40
4.0
 40
4.0
 40
4.0
 10
98.26134388203316
 20
-143.4951127419038
 30
0.0
 10
98.26134388203316
 20
-143.4400088530289
 30
0.0
 10
98.21657638317527
 20
-143.3952060752622
 30
0.0
 10
98.16143721791532
 20
-143.3952060752622
 30
0.0
 10
98.10633333043225
 20
-143.3952060752622
 30
0.0
 10
98.06153055379748
 20
-143.4400088530289
 30
0.0
 10
98.06153055379748
 20
-143.4951127419038
 30
0.0
 10
98.06153055379748
 20
-143.5502519085569
 30
0.0
 10
98.10633333043225
 20
-143.5950194085454
 30
0.0
 10
98.16143721791532
 20
-143.5950194085454
 30
0.0
 10
98.21657638317527
 20
-143.5950194085454
 30
0.0
 10
98.26134388203316
 20
-143.5502519085569
 30
0.0
 10
98.26134388203316
 20
-143.4951127419038
 30
0.0
  0
SPLINE
  5
55
330
1F
100
AcDbEntity
  8
_U+30EC_U+30A4_U+30E4_U+30FC 1
 62
   179
420
  2234388
370
     9
100
AcDbSpline
210
0.0
220
0.0
230
1.0
 70
    11
 71
     3
 72
    17
 73
    13
 74
     0
 42
0.0000000001
 43
0.0000000001
 12
1.0
 22
0.0
 32
0.0
 13
1.0
 23
0.0
 33
0.0
 40
0.0
 40
0.0
 40
0.0
 40
0.0
 40
1.0
 40
1.0
 40
1.0
 40
2.0
 40
2.0
 40
2.0
 40
3.0
 40
3.0
 40
3.0
 40
4.0
 40
4.0
 40
4.0
 40
4.0
 10
83.26140954249114
 20
-115.495281637793
 30
0.0
 10
83.26140954249114
 20
-115.4401424711399
 30
0.0
 10
83.21660676585638
 20
-115.395374971151
 30
0.0
 10
83.16150287837331
 20
-115.395374971151
 30
0.0
 10
83.10636371311335
 20
-115.395374971151
 30
0.0
 10
83.06159621425547
 20
-115.4401424711399
 30
0.0
 10
83.06159621425547
 20
-115.495281637793
 30
0.0
 10
83.06159621425547
 20
-115.5507383044456
 30
0.0
 10
83.10636371311335
 20
-115.5955410822124
 30
0.0
 10
83.16150287837331
 20
-115.5955410822124
 30
0.0
 10
83.21660676585638
 20
-115.5955410822124
 30
0.0
 10
83.26140954249114
 20
-115.5507383044456
 30
0.0
 10
83.26140954249114
 20
-115.495281637793
 30
0.0
  0
POLYLINE
  5
56
330
1F
100
AcDbEntity
  8
_U+30EC_U+30A4_U+30E4_U+30FC 1
 62
   179
420
  2234388
370
     9
100
AcDb2dPolyline
 66
     1
 10
0.0
 20
0.0
 30
0.0
  0
VERTEX
  5
57
330
56
100
AcDbEntity
  8
_U+30EC_U+30A4_U+30E4_U+30FC 1
 62
   179
420
  2234388
370
     9
100
AcDbVertex
100
AcDb2dVertex
 10
83.16150287837331
 20
-115.495281637793
 30
0.0
  0
VERTEX
  5
58
330
56
100
AcDbEntity
  8
_U+30EC_U+30A4_U+30E4_U+30FC 1
 62
   179
420
  2234388
370
     9
100
AcDbVertex
100
AcDb2dVertex
 10
98.16143721791532
 20
-115.495281637793
 30
0.0
  0
SEQEND
  5
59
330
56
100
AcDbEntity
  8
_U+30EC_U+30A4_U+30E4_U+30FC 1
 62
   179
420
  2234388
370
     9
  0
POLYLINE
  5
5A
330
1F
100
AcDbEntity
  8
_U+30EC_U+30A4_U+30E4_U+30FC 1
 62
   179
420
  2234388
370
     9
100
AcDb2dPolyline
 66
     1
 10
0.0
 20
0.0
 30
0.0
  0
VERTEX
  5
5B
330
5A
100
AcDbEntity
  8
_U+30EC_U+30A4_U+30E4_U+30FC 1
 62
   179
420
  2234388
370
     9
100
AcDbVertex
100
AcDb2dVertex
 10
83.16150287837331
 20
-116.9553230263167
 30
0.0
  0
VERTEX
  5
5C
330
5A
100
AcDbEntity
  8
_U+30EC_U+30A4_U+30E4_U+30FC 1
 62
   179
420
  2234388
370
     9
100
AcDbVertex
100
AcDb2dVertex
 10
83.16150287837331
 20
-114.495156638043
 30
0.0
  0
SEQEND
  5
5D
330
5A
100
AcDbEntity
  8
_U+30EC_U+30A4_U+30E4_U+30FC 1
 62
   179
420
  2234388
370
     9
  0
POLYLINE
  5
5E
330
1F
100
AcDbEntity
  8
_U+30EC_U+30A4_U+30E4_U+30FC 1
 62
   179
420
  2234388
370
     9
100
AcDb2dPolyline
 66
     1
 10
0.0
 20
0.0
 30
0.0
  0
VERTEX
  5
5F
330
5E
100
AcDbEntity
  8
_U+30EC_U+30A4_U+30E4_U+30FC 1
 62
   179
420
  2234388
370
     9
100
AcDbVertex
100
AcDb2dVertex
 10
98.16143721791532
 20
-116.9553230263167
 30
0.0
  0
VERTEX
  5
60
330
5E
100
AcDbEntity
  8
_U+30EC_U+30A4_U+30E4_U+30FC 1
 62
   179
420
  2234388
370
     9
100
AcDbVertex
100
AcDb2dVertex
 10
98.16143721791532
 20
-114.495156638043
 30
0.0
  0
SEQEND
  5
61
330
5E
100
AcDbEntity
  8
_U+30EC_U+30A4_U+30E4_U+30FC 1
 62
   179
420
  2234388
370
     9
  0
INSERT
  5
63
330
1F
100
AcDbEntity
  8
_U+30EC_U+30A4_U+30E4_U+30FC 1
100
AcDbBlockReference
  2
block 2
 10
0.0
 20
0.0
 30
0.0
  0
POLYLINE
  5
6A
330
1F
100
AcDbEntity
  8
_U+30EC_U+30A4_U+30E4_U+30FC 1
 62
   179
420
  2234388
370
     9
100
AcDb2dPolyline
 66
     1
 10
0.0
 20
0.0
 30
0.0
  0
VERTEX
  5
6B
330
6A
100
AcDbEntity
  8
_U+30EC_U+30A4_U+30E4_U+30FC 1
 62
   179
420
  2234388
370
     9
100
AcDbVertex
100
AcDb2dVertex
 10
78.16130133927241
 20
-143.4951127419038
 30
0.0
  0
VERTEX
  5
6C
330
6A
100
AcDbEntity
  8
_U+30EC_U+30A4_U+30E4_U+30FC 1
 62
   179
420
  2234388
370
     9
100
AcDbVertex
100
AcDb2dVertex
 10
98.16143721791532
 20
-143.4951127419038
 30
0.0
  0
SEQEND
  5
6D
330
6A
100
AcDbEntity
  8
_U+30EC_U+30A4_U+30E4_U+30FC 1
 62
   179
420
  2234388
370
     9
  0
POLYLINE
  5
6E
330
1F
100
AcDbEntity
  8
_U+30EC_U+30A4_U+30E4_U+30FC 1
 62
   179
420
  2234388
370
     9
100
AcDb2dPolyline
 66
     1
 10
0.0
 20
0.0
 30
0.0
  0
VERTEX
  5
6F
330
6E
100
AcDbEntity
  8
_U+30EC_U+30A4_U+30E4_U+30FC 1
 62
   179
420
  2234388
370
     9
100
AcDbVertex
100
AcDb2dVertex
 10
78.16130133927241
 20
-142.0350713533801
 30
0.0
  0
VERTEX
  5
70
330
6E
100
AcDbEntity
  8
_U+30EC_U+30A4_U+30E4_U+30FC 1
 62
   179
420
  2234388
370
     9
100
AcDbVertex
100
AcDb2dVertex
 10
78.16130133927241
 20
-144.4955905194319
 30
0.0
  0
SEQEND
  5
71
330
6E
100
AcDbEntity
  8
_U+30EC_U+30A4_U+30E4_U+30FC 1
 62
   179
420
  2234388
370
     9
  0
POLYLINE
  5
72
330
1F
100
AcDbEntity
  8
_U+30EC_U+30A4_U+30E4_U+30FC 1
 62
   179
420
  2234388
370
     9
100
AcDb2dPolyline
 66
     1
 10
0.0
 20
0.0
 30
0.0
  0
VERTEX
  5
73
330
72
100
AcDbEntity
  8
_U+30EC_U+30A4_U+30E4_U+30FC 1
 62
   179
420
  2234388
370
     9
100
AcDbVertex
100
AcDb2dVertex
 10
98.16143721791532
 20
-142.0350713533801
 30
0.0
  0
VERTEX
  5
74
330
72
100
AcDbEntity
  8
_U+30EC_U+30A4_U+30E4_U+30FC 1
 62
   179
420
  2234388
370
     9
100
AcDbVertex
100
AcDb2dVertex
 10
98.16143721791532
 20
-144.4955905194319
 30
0.0
  0
SEQEND
  5
75
330
72
100
AcDbEntity
  8
_U+30EC_U+30A4_U+30E4_U+30FC 1
 62
   179
420
  2234388
370
     9
  0
INSERT
  5
77
330
1F
100
AcDbEntity
  8
_U+30EC_U+30A4_U+30E4_U+30FC 1
100
AcDbBlockReference
  2
block 3
 10
0.0
 20
0.0
 30
0.0
  0
POLYLINE
  5
7F
330
1F
100
AcDbEntity
  8
_U+30EC_U+30A4_U+30E4_U+30FC 1
 62
   179
420
  2234388
370
     9
100
AcDb2dPolyline
 66
     1
 10
0.0
 20
0.0
 30
0.0
  0
VERTEX
  5
80
330
7F
100
AcDbEntity
  8
_U+30EC_U+30A4_U+30E4_U+30FC 1
 62
   179
420
  2234388
370
     9
100
AcDbVertex
100
AcDb2dVertex
 10
101.2792518605955
 20
-119.4953935812373
 30
0.0
  0
VERTEX
  5
81
330
7F
100
AcDbEntity
  8
_U+30EC_U+30A4_U+30E4_U+30FC 1
 62
   179
420
  2234388
370
     9
100
AcDbVertex
100
AcDb2dVertex
 10
101.2792518605955
 20
-139.4953535762376
 30
0.0
  0
SEQEND
  5
82
330
7F
100
AcDbEntity
  8
_U+30EC_U+30A4_U+30E4_U+30FC 1
 62
   179
420
  2234388
370
     9
  0
POLYLINE
  5
83
330
1F
100
AcDbEntity
  8
_U+30EC_U+30A4_U+30E4_U+30FC 1
 62
   179
420
  2234388
370
     9
100
AcDb2dPolyline
 66
     1
 10
0.0
 20
0.0
 30
0.0
  0
VERTEX
  5
84
330
83
100
AcDbEntity
  8
_U+30EC_U+30A4_U+30E4_U+30FC 1
 62
   179
420
  2234388
370
     9
100
AcDbVertex
100
AcDb2dVertex
 10
99.81921050895534
 20
-119.4953935812373
 30
0.0
  0
VERTEX
  5
85
330
83
100
AcDbEntity
  8
_U+30EC_U+30A4_U+30E4_U+30FC 1
 62
   179
420
  2234388
370
     9
100
AcDbVertex
100
AcDb2dVertex
 10
102.2790240573114
 20
-119.4953935812373
 30
0.0
  0
SEQEND
  5
86
330
83
100
AcDbEntity
  8
_U+30EC_U+30A4_U+30E4_U+30FC 1
 62
   179
420
  2234388
370
     9
  0
POLYLINE
  5
87
330
1F
100
AcDbEntity
  8
_U+30EC_U+30A4_U+30E4_U+30FC 1
 62
   179
420
  2234388
370
     9
100
AcDb2dPolyline
 66
     1
 10
0.0
 20
0.0
 30
0.0
  0
VERTEX
  5
88
330
87
100
AcDbEntity
  8
_U+30EC_U+30A4_U+30E4_U+30FC 1
 62
   179
420
  2234388
370
     9
100
AcDbVertex
100
AcDb2dVertex
 10
99.81921050895534
 20
-139.4953535762376
 30
0.0
  0
VERTEX
  5
89
330
87
100
AcDbEntity
  8
_U+30EC_U+30A4_U+30E4_U+30FC 1
 62
   179
420
  2234388
370
     9
100
AcDbVertex
100
AcDb2dVertex
 10
102.2790240573114
 20
-139.4953535762376
 30
0.0
  0
SEQEND
  5
8A
330
87
100
AcDbEntity
  8
_U+30EC_U+30A4_U+30E4_U+30FC 1
 62
   179
420
  2234388
370
     9
  0
INSERT
  5
8C
330
1F
100
AcDbEntity
  8
_U+30EC_U+30A4_U+30E4_U+30FC 1
100
AcDbBlockReference
  2
block 4
 10
0.0
 20
0.0
 30
0.0
  0
POLYLINE
  5
94
330
1F
100
AcDbEntity
  8
_U+30EC_U+30A4_U+30E4_U+30FC 1
370
     0
100
AcDb2dPolyline
 66
     1
 10
0.0
 20
0.0
 30
0.0
  0
VERTEX
  5
95
330
94
100
AcDbEntity
  8
_U+30EC_U+30A4_U+30E4_U+30FC 1
370
     0
100
AcDbVertex
100
AcDb2dVertex
 10
83.10361204651689
 20
-119.5367038590046
 30
0.0
  0
VERTEX
  5
96
330
94
100
AcDbEntity
  8
_U+30EC_U+30A4_U+30E4_U+30FC 1
370
     0
100
AcDbVertex
100
AcDb2dVertex
 10
98.09666721956775
 20
-119.4485094145822
 30
0.0
  0
VERTEX
  5
97
330
94
100
AcDbEntity
  8
_U+30EC_U+30A4_U+30E4_U+30FC 1
370
     0
100
AcDbVertex
100
AcDb2dVertex
 10
98.09666721956775
 20
-139.4685071873553
 30
0.0
  0
VERTEX
  5
98
330
94
100
AcDbEntity
  8
_U+30EC_U+30A4_U+30E4_U+30FC 1
370
     0
100
AcDbVertex
100
AcDb2dVertex
 10
78.16472328362956
 20
-139.4685071873553
 30
0.0
  0
VERTEX
  5
99
330
94
100
AcDbEntity
  8
_U+30EC_U+30A4_U+30E4_U+30FC 1
370
     0
100
AcDbVertex
100
AcDb2dVertex
 10
83.10361204651689
 20
-119.5367038590046
 30
0.0
  0
SEQEND
  5
9B
330
94
100
AcDbEntity
  8
_U+30EC_U+30A4_U+30E4_U+30FC 1
370
     0
  0
HATCH
  5
9A
330
1F
100
AcDbEntity
  8
_U+30EC_U+30A4_U+30E4_U+30FC 1
 62
   178
420
        0
100
AcDbHatch
 10
0.0
 20
0.0
 30
0.0
210
0.0
220
0.0
230
1.0
  2
AI_USER_DEFINED_HATCH
 70
     0
 71
     0
 91
        1
 92
        1
 93
        4
 72
     1
 10
83.10361204651689
 20
-119.5367038590046
 11
98.09666721956775
 21
-119.4485094145822
 72
     1
 10
98.09666721956775
 20
-119.4485094145822
 11
98.09666721956775
 21
-139.4685071873553
 72
     1
 10
98.09666721956775
 20
-139.4685071873553
 11
78.16472328362956
 21
-139.4685071873553
 72
     1
 10
78.16472328362956
 20
-139.4685071873553
 11
83.10361204651689
 21
-119.5367038590046
 97
        0
 75
     2
 76
     0
 52
45.0
 41
10.0
 77
     0
 78
     1
 53
45.0
 43
0.0
 44
0.0
 45
-7.071067811865475
 46
7.071067811865476
 79
     0
 98
        0
  0
ENDSEC
  0
SECTION
  2
OBJECTS
  0
DICTIONARY
  5
C
330
0
100
AcDbDictionary
281
     1
  3
ACAD_GROUP
350
D
  3
ACAD_LAYOUT
350
1A
  3
ACAD_MATERIAL
350
3B
  3
ACAD_MLEADERSTYLE
350
9D
  3
ACAD_MLINESTYLE
350
17
  3
ACAD_PLOTSETTINGS
350
19
  3
ACAD_PLOTSTYLENAME
350
E
  3
ACAD_TABLESTYLE
350
9C
  3
ACAD_VISUALSTYLE
350
2A
  0
SUN
  5
3F
330
29
100
AcDbSun
 90
        1
290
     0
 63
     7
421
 16777215
 40
1.0
291
     1
 91
  2455826
 92
 54000000
292
     0
 70
     2
 71
   256
280
     1
  0
DICTIONARY
  5
D
102
{ACAD_REACTORS
330
C
102
}
330
C
100
AcDbDictionary
281
     1
  0
DICTIONARY
  5
1A
102
{ACAD_REACTORS
330
C
102
}
330
C
100
AcDbDictionary
281
     1
  3
Layout1
350
1E
  3
Layout2
350
26
  3
Model
350
22
  0
DICTIONARY
  5
3B
102
{ACAD_REACTORS
330
C
102
}
330
C
100
AcDbDictionary
281
     1
  3
ByBlock
350
3D
  3
ByLayer
350
3C
  3
Global
350
3E
  0
DICTIONARY
  5
9D
102
{ACAD_REACTORS
330
C
102
}
330
C
100
AcDbDictionary
281
     1
  0
DICTIONARY
  5
17
102
{ACAD_REACTORS
330
C
102
}
330
C
100
AcDbDictionary
281
     1
  3
Standard
350
18
  0
DICTIONARY
  5
19
102
{ACAD_REACTORS
330
C
102
}
330
C
100
AcDbDictionary
281
     1
  0
ACDBDICTIONARYWDFLT
  5
E
102
{ACAD_REACTORS
330
C
102
}
330
C
100
AcDbDictionary
281
     1
  3
Normal
350
F
100
AcDbDictionaryWithDefault
340
F
  0
DICTIONARY
  5
9C
102
{ACAD_REACTORS
330
C
102
}
330
C
100
AcDbDictionary
281
     1
  0
DICTIONARY
  5
2A
102
{ACAD_REACTORS
330
C
102
}
330
C
100
AcDbDictionary
281
     1
  3
2dWireframe
350
2F
  3
3D Hidden
350
31
  3
3dWireframe
350
30
  3
Basic
350
32
  3
Brighten
350
36
  3
ColorChange
350
3A
  3
Conceptual
350
34
  3
Dim
350
35
  3
Facepattern
350
39
  3
Flat
350
2B
  3
FlatWithEdges
350
2C
  3
Gouraud
350
2D
  3
GouraudWithEdges
350
2E
  3
Linepattern
350
38
  3
Realistic
350
33
  3
Thicken
350
37
  0
LAYOUT
  5
1E
102
{ACAD_REACTORS
330
1A
102
}
330
1A
100
AcDbPlotSettings
  1

  2
none_device
  4

  6

 40
0.0
 41
0.0
 42
0.0
 43
0.0
 44
0.0
 45
0.0
 46
0.0
 47
0.0
 48
0.0
 49
0.0
140
0.0
141
0.0
142
1.0
143
1.0
 70
   688
 72
     0
 73
     0
 74
     5
  7

 75
    16
 76
     0
 77
     2
 78
   300
147
1.0
148
0.0
149
0.0
100
AcDbLayout
  1
Layout1
 70
     1
 71
     1
 10
0.0
 20
0.0
 11
12.0
 21
9.0
 12
0.0
 22
0.0
 32
0.0
 14
1.000000000000000E+20
 24
1.000000000000000E+20
 34
1.000000000000000E+20
 15
-1.000000000000000E+20
 25
-1.000000000000000E+20
 35
-1.000000000000000E+20
146
0.0
 13
0.0
 23
0.0
 33
0.0
 16
1.0
 26
0.0
 36
0.0
 17
0.0
 27
1.0
 37
0.0
 76
     0
330
1B
  0
LAYOUT
  5
26
102
{ACAD_REACTORS
330
1A
102
}
330
1A
100
AcDbPlotSettings
  1

  2
none_device
  4

  6

 40
0.0
 41
0.0
 42
0.0
 43
0.0
 44
0.0
 45
0.0
 46
0.0
 47
0.0
 48
0.0
 49
0.0
140
0.0
141
0.0
142
1.0
143
1.0
 70
   688
 72
     0
 73
     0
 74
     5
  7

 75
    16
 76
     0
 77
     2
 78
   300
147
1.0
148
0.0
149
0.0
100
AcDbLayout
  1
Layout2
 70
     1
 71
     2
 10
0.0
 20
0.0
 11
0.0
 21
0.0
 12
0.0
 22
0.0
 32
0.0
 14
0.0
 24
0.0
 34
0.0
 15
0.0
 25
0.0
 35
0.0
146
0.0
 13
0.0
 23
0.0
 33
0.0
 16
1.0
 26
0.0
 36
0.0
 17
0.0
 27
1.0
 37
0.0
 76
     0
330
23
  0
LAYOUT
  5
22
102
{ACAD_REACTORS
330
1A
102
}
330
1A
100
AcDbPlotSettings
  1

  2
none_device
  4

  6

 40
0.0
 41
0.0
 42
0.0
 43
0.0
 44
0.0
 45
0.0
 46
0.0
 47
0.0
 48
0.0
 49
0.0
140
0.0
141
0.0
142
1.0
143
1.0
 70
  1712
 72
     0
 73
     0
 74
     0
  7

 75
     0
 76
     0
 77
     2
 78
   300
147
1.0
148
0.0
149
0.0
100
AcDbLayout
  1
Model
 70
     1
 71
     0
 10
0.0
 20
0.0
 11
12.0
 21
9.0
 12
0.0
 22
0.0
 32
0.0
 14
1.000000000000000E+20
 24
1.000000000000000E+20
 34
1.000000000000000E+20
 15
-1.000000000000000E+20
 25
-1.000000000000000E+20
 35
-1.000000000000000E+20
146
0.0
 13
0.0
 23
0.0
 33
0.0
 16
1.0
 26
0.0
 36
0.0
 17
0.0
 27
1.0
 37
0.0
 76
     0
330
1F
331
29
  0
MATERIAL
  5
3D
102
{ACAD_REACTORS
330
3B
102
}
330
3B
100
AcDbMaterial
  1
ByBlock
 72
     1
 94
      127
  0
MATERIAL
  5
3C
102
{ACAD_REACTORS
330
3B
102
}
330
3B
100
AcDbMaterial
  1
ByLayer
 72
     1
 94
      127
  0
MATERIAL
  5
3E
102
{ACAD_REACTORS
330
3B
102
}
330
3B
100
AcDbMaterial
  1
Global
 72
     1
 94
      127
  0
MLINESTYLE
  5
18
102
{ACAD_REACTORS
330
17
102
}
330
17
100
AcDbMlineStyle
  2
Standard
 70
     0
  3

 62
   256
 51
90.0
 52
90.0
 71
     2
 49
0.5
 62
   256
  6
BYLAYER
 49
-0.5
 62
   256
  6
BYLAYER
  0
ACDBPLACEHOLDER
  5
F
102
{ACAD_REACTORS
330
E
102
}
330
E
  0
VISUALSTYLE
  5
2F
102
{ACAD_REACTORS
330
2A
102
}
330
2A
100
AcDbVisualStyle
  2
2dWireframe
 70
     4
177
     2
291
     0
 71
     0
176
     1
 72
     2
176
     1
 73
     0
176
     1
 90
        0
176
     1
 40
-0.6
176
     1
 41
-30.0
176
     1
 62
     5
 63
     7
421
 16777215
176
     1
 74
     1
176
     1
 91
        4
176
     1
 64
     7
176
     1
 65
   257
176
     1
 75
     1
176
     1
175
     1
176
     1
 42
1.0
176
     1
 92
        0
176
     1
 66
   257
176
     1
 43
1.0
176
     1
 76
     1
176
     1
 77
     6
176
     1
 78
     2
176
     1
 67
     7
176
     1
 79
     5
176
     1
170
     0
176
     1
171
     0
176
     1
290
     0
176
     1
 93
        1
176
     1
 44
0.0
176
     1
173
     0
176
     1
  0
VISUALSTYLE
  5
31
102
{ACAD_REACTORS
330
2A
102
}
330
2A
100
AcDbVisualStyle
  2
3D Hidden
 70
     6
177
     2
291
     0
 71
     1
176
     1
 72
     2
176
     1
 73
     2
176
     1
 90
        0
176
     1
 40
-0.6
176
     1
 41
-30.0
176
     1
 62
     5
 63
     7
421
 16777215
176
     1
 74
     2
176
     1
 91
        2
176
     1
 64
     7
176
     1
 65
   257
176
     1
 75
     2
176
     1
175
     1
176
     1
 42
40.0
176
     1
 92
        0
176
     1
 66
   257
176
     1
 43
1.0
176
     1
 76
     1
176
     1
 77
     6
176
     1
 78
     2
176
     1
 67
     7
176
     1
 79
     3
176
     1
170
     0
176
     1
171
     0
176
     1
290
     0
176
     1
 93
        1
176
     1
 44
0.0
176
     1
173
     0
176
     1
  0
VISUALSTYLE
  5
30
102
{ACAD_REACTORS
330
2A
102
}
330
2A
100
AcDbVisualStyle
  2
3dWireframe
 70
     5
177
     2
291
     0
 71
     0
176
     1
 72
     2
176
     1
 73
     0
176
     1
 90
        0
176
     1
 40
-0.6
176
     1
 41
-30.0
176
     1
 62
     5
 63
     7
421
 16777215
176
     1
 74
     1
176
     1
 91
        4
176
     1
 64
     7
176
     1
 65
   257
176
     1
 75
     1
176
     1
175
     1
176
     1
 42
1.0
176
     1
 92
        0
176
     1
 66
   257
176
     1
 43
1.0
176
     1
 76
     1
176
     1
 77
     6
176
     1
 78
     2
176
     1
 67
     7
176
     1
 79
     5
176
     1
170
     0
176
     1
171
     0
176
     1
290
     0
176
     1
 93
        1
176
     1
 44
0.0
176
     1
173
     0
176
     1
  0
VISUALSTYLE
  5
32
102
{ACAD_REACTORS
330
2A
102
}
330
2A
100
AcDbVisualStyle
  2
Basic
 70
     7
177
     2
291
     1
 71
     1
176
     1
 72
     0
176
     1
 73
     1
176
     1
 90
        0
176
     1
 40
-0.6
176
     1
 41
-30.0
176
     1
 62
     5
 63
     7
421
 16777215
176
     1
 74
     0
176
     1
 91
        4
176
     1
 64
     7
176
     1
 65
   257
176
     1
 75
     1
176
     1
175
     1
176
     1
 42
1.0
176
     1
 92
        8
176
     1
 66
     7
176
     1
 43
1.0
176
     1
 76
     1
176
     1
 77
     6
176
     1
 78
     2
176
     1
 67
     7
176
     1
 79
     5
176
     1
170
     0
176
     1
171
     0
176
     1
290
     0
176
     1
 93
        1
176
     1
 44
0.0
176
     1
173
     0
176
     1
  0
VISUALSTYLE
  5
36
102
{ACAD_REACTORS
330
2A
102
}
330
2A
100
AcDbVisualStyle
  2
Brighten
 70
    12
177
     2
291
     1
 71
     2
176
     1
 72
     2
176
     1
 73
     0
176
     1
 90
        0
176
     1
 40
-0.6
176
     1
 41
-30.0
176
     1
 62
     5
 63
     7
421
 16777215
176
     1
 74
     1
176
     1
 91
        4
176
     1
 64
     7
176
     1
 65
   257
176
     1
 75
     1
176
     1
175
     1
176
     1
 42
1.0
176
     1
 92
        8
176
     1
 66
     7
176
     1
 43
1.0
176
     1
 76
     1
176
     1
 77
     6
176
     1
 78
     2
176
     1
 67
     7
176
     1
 79
     5
176
     1
170
     0
176
     1
171
     0
176
     1
290
     0
176
     1
 93
        1
176
     1
 44
50.0
176
     1
173
     0
176
     1
  0
VISUALSTYLE
  5
3A
102
{ACAD_REACTORS
330
2A
102
}
330
2A
100
AcDbVisualStyle
  2
ColorChange
 70
    16
177
     2
291
     1
 71
     2
176
     1
 72
     2
176
     1
 73
     3
176
     1
 90
        0
176
     1
 40
-0.6
176
     1
 41
-30.0
176
     1
 62
     5
 63
     8
421
  8421504
176
     1
 74
     1
176
     1
 91
        4
176
     1
 64
     7
176
     1
 65
   257
176
     1
 75
     1
176
     1
175
     1
176
     1
 42
1.0
176
     1
 92
        8
176
     1
 66
     8
424
  8421504
176
     1
 43
1.0
176
     1
 76
     1
176
     1
 77
     6
176
     1
 78
     2
176
     1
 67
     7
176
     1
 79
     5
176
     1
170
     0
176
     1
171
     0
176
     1
290
     0
176
     1
 93
        1
176
     1
 44
0.0
176
     1
173
     0
176
     1
  0
VISUALSTYLE
  5
34
102
{ACAD_REACTORS
330
2A
102
}
330
2A
100
AcDbVisualStyle
  2
Conceptual
 70
     9
177
     2
291
     0
 71
     3
176
     1
 72
     2
176
     1
 73
     0
176
     1
 90
        0
176
     1
 40
-0.6
176
     1
 41
-30.0
176
     1
 62
     5
 63
     7
421
 16777215
176
     1
 74
     2
176
     1
 91
        2
176
     1
 64
     7
176
     1
 65
   257
176
     1
 75
     1
176
     1
175
     1
176
     1
 42
40.0
176
     1
 92
        8
176
     1
 66
     7
176
     1
 43
1.0
176
     1
 76
     1
176
     1
 77
     6
176
     1
 78
     2
176
     1
 67
     7
176
     1
 79
     3
176
     1
170
     0
176
     1
171
     0
176
     1
290
     0
176
     1
 93
        1
176
     1
 44
0.0
176
     1
173
     0
176
     1
  0
VISUALSTYLE
  5
35
102
{ACAD_REACTORS
330
2A
102
}
330
2A
100
AcDbVisualStyle
  2
Dim
 70
    11
177
     2
291
     1
 71
     2
176
     1
 72
     2
176
     1
 73
     0
176
     1
 90
        0
176
     1
 40
-0.6
176
     1
 41
-30.0
176
     1
 62
     5
 63
     7
421
 16777215
176
     1
 74
     1
176
     1
 91
        4
176
     1
 64
     7
176
     1
 65
   257
176
     1
 75
     1
176
     1
175
     1
176
     1
 42
1.0
176
     1
 92
        8
176
     1
 66
     7
176
     1
 43
1.0
176
     1
 76
     1
176
     1
 77
     6
176
     1
 78
     2
176
     1
 67
     7
176
     1
 79
     5
176
     1
170
     0
176
     1
171
     0
176
     1
290
     0
176
     1
 93
        1
176
     1
 44
-50.0
176
     1
173
     0
176
     1
  0
VISUALSTYLE
  5
39
102
{ACAD_REACTORS
330
2A
102
}
330
2A
100
AcDbVisualStyle
  2
Facepattern
 70
    15
177
     2
291
     1
 71
     2
176
     1
 72
     2
176
     1
 73
     0
176
     1
 90
        0
176
     1
 40
-0.6
176
     1
 41
-30.0
176
     1
 62
     5
 63
     7
421
 16777215
176
     1
 74
     1
176
     1
 91
        4
176
     1
 64
     7
176
     1
 65
   257
176
     1
 75
     1
176
     1
175
     1
176
     1
 42
1.0
176
     1
 92
        8
176
     1
 66
     7
176
     1
 43
1.0
176
     1
 76
     1
176
     1
 77
     6
176
     1
 78
     2
176
     1
 67
     7
176
     1
 79
     5
176
     1
170
     0
176
     1
171
     0
176
     1
290
     0
176
     1
 93
        1
176
     1
 44
0.0
176
     1
173
     0
176
     1
  0
VISUALSTYLE
  5
2B
102
{ACAD_REACTORS
330
2A
102
}
330
2A
100
AcDbVisualStyle
  2
Flat
 70
     0
177
     2
291
     1
 71
     2
176
     1
 72
     1
176
     1
 73
     1
176
     1
 90
        2
176
     1
 40
-0.6
176
     1
 41
30.0
176
     1
 62
     5
 63
     7
421
 16777215
176
     1
 74
     0
176
     1
 91
        4
176
     1
 64
     7
176
     1
 65
   257
176
     1
 75
     1
176
     1
175
     1
176
     1
 42
1.0
176
     1
 92
        8
176
     1
 66
     7
176
     1
 43
1.0
176
     1
 76
     1
176
     1
 77
     6
176
     1
 78
     2
176
     1
 67
     7
176
     1
 79
     5
176
     1
170
     0
176
     1
171
     0
176
     1
290
     0
176
     1
 93
       13
176
     1
 44
0.0
176
     1
173
     0
176
     1
  0
VISUALSTYLE
  5
2C
102
{ACAD_REACTORS
330
2A
102
}
330
2A
100
AcDbVisualStyle
  2
FlatWithEdges
 70
     1
177
     2
291
     1
 71
     2
176
     1
 72
     1
176
     1
 73
     1
176
     1
 90
        2
176
     1
 40
-0.6
176
     1
 41
30.0
176
     1
 62
     5
 63
     7
421
 16777215
176
     1
 74
     1
176
     1
 91
        4
176
     1
 64
     7
176
     1
 65
   257
176
     1
 75
     1
176
     1
175
     1
176
     1
 42
1.0
176
     1
 92
        0
176
     1
 66
   257
176
     1
 43
1.0
176
     1
 76
     1
176
     1
 77
     6
176
     1
 78
     2
176
     1
 67
     7
176
     1
 79
     5
176
     1
170
     0
176
     1
171
     0
176
     1
290
     0
176
     1
 93
       13
176
     1
 44
0.0
176
     1
173
     0
176
     1
  0
VISUALSTYLE
  5
2D
102
{ACAD_REACTORS
330
2A
102
}
330
2A
100
AcDbVisualStyle
  2
Gouraud
 70
     2
177
     2
291
     1
 71
     2
176
     1
 72
     2
176
     1
 73
     1
176
     1
 90
        2
176
     1
 40
-0.6
176
     1
 41
30.0
176
     1
 62
     5
 63
     7
421
 16777215
176
     1
 74
     0
176
     1
 91
        4
176
     1
 64
     7
176
     1
 65
   257
176
     1
 75
     1
176
     1
175
     1
176
     1
 42
1.0
176
     1
 92
        0
176
     1
 66
     7
176
     1
 43
1.0
176
     1
 76
     1
176
     1
 77
     6
176
     1
 78
     2
176
     1
 67
     7
176
     1
 79
     5
176
     1
170
     0
176
     1
171
     0
176
     1
290
     0
176
     1
 93
       13
176
     1
 44
0.0
176
     1
173
     0
176
     1
  0
VISUALSTYLE
  5
2E
102
{ACAD_REACTORS
330
2A
102
}
330
2A
100
AcDbVisualStyle
  2
GouraudWithEdges
 70
     3
177
     2
291
     1
 71
     2
176
     1
 72
     2
176
     1
 73
     1
176
     1
 90
        2
176
     1
 40
-0.6
176
     1
 41
30.0
176
     1
 62
     5
 63
     7
421
 16777215
176
     1
 74
     1
176
     1
 91
        4
176
     1
 64
     7
176
     1
 65
   257
176
     1
 75
     1
176
     1
175
     1
176
     1
 42
1.0
176
     1
 92
        0
176
     1
 66
   257
176
     1
 43
1.0
176
     1
 76
     1
176
     1
 77
     6
176
     1
 78
     2
176
     1
 67
     7
176
     1
 79
     5
176
     1
170
     0
176
     1
171
     0
176
     1
290
     0
176
     1
 93
       13
176
     1
 44
0.0
176
     1
173
     0
176
     1
  0
VISUALSTYLE
  5
38
102
{ACAD_REACTORS
330
2A
102
}
330
2A
100
AcDbVisualStyle
  2
Linepattern
 70
    14
177
     2
291
     1
 71
     2
176
     1
 72
     2
176
     1
 73
     0
176
     1
 90
        0
176
     1
 40
-0.6
176
     1
 41
-30.0
176
     1
 62
     5
 63
     7
421
 16777215
176
     1
 74
     1
176
     1
 91
        4
176
     1
 64
     7
176
     1
 65
   257
176
     1
 75
     7
176
     1
175
     7
176
     1
 42
1.0
176
     1
 92
        8
176
     1
 66
     7
176
     1
 43
1.0
176
     1
 76
     1
176
     1
 77
     6
176
     1
 78
     2
176
     1
 67
     7
176
     1
 79
     5
176
     1
170
     0
176
     1
171
     0
176
     1
290
     0
176
     1
 93
        1
176
     1
 44
0.0
176
     1
173
     0
176
     1
  0
VISUALSTYLE
  5
33
102
{ACAD_REACTORS
330
2A
102
}
330
2A
100
AcDbVisualStyle
  2
Realistic
 70
     8
177
     2
291
     0
 71
     2
176
     1
 72
     2
176
     1
 73
     0
176
     1
 90
        0
176
     1
 40
-0.6
176
     1
 41
-30.0
176
     1
 62
     5
 63
     7
421
 16777215
176
     1
 74
     1
176
     1
 91
        0
176
     1
 64
     7
176
     1
 65
   257
176
     1
 75
     1
176
     1
175
     1
176
     1
 42
1.0
176
     1
 92
        8
176
     1
 66
     8
424
  7895160
176
     1
 43
1.0
176
     1
 76
     1
176
     1
 77
     6
176
     1
 78
     2
176
     1
 67
     7
176
     1
 79
     5
176
     1
170
     0
176
     1
171
     0
176
     1
290
     0
176
     1
 93
       13
176
     1
 44
0.0
176
     1
173
     0
176
     1
  0
VISUALSTYLE
  5
37
102
{ACAD_REACTORS
330
2A
102
}
330
2A
100
AcDbVisualStyle
  2
Thicken
 70
    13
177
     2
291
     1
 71
     2
176
     1
 72
     2
176
     1
 73
     0
176
     1
 90
        0
176
     1
 40
-0.6
176
     1
 41
-30.0
176
     1
 62
     5
 63
     7
421
 16777215
176
     1
 74
     1
176
     1
 91
        4
176
     1
 64
     7
176
     1
 65
   257
176
     1
 75
     1
176
     1
175
     1
176
     1
 42
1.0
176
     1
 92
       12
176
     1
 66
     7
176
     1
 43
1.0
176
     1
 76
     1
176
     1
 77
     6
176
     1
 78
     2
176
     1
 67
     7
176
     1
 79
     5
176
     1
170
     0
176
     1
171
     0
176
     1
290
     0
176
     1
 93
        1
176
     1
 44
0.0
176
     1
173
     0
176
     1
  0
ENDSEC
  0
EOF
