  0
SECTION
  2
HEADER
  9
$ACADVER
  1
AC1024
  9
$ACADMAINTVER
 70
     6
  9
$DWGCODEPAGE
  3
UNDEFINED
  9
$INSBASE
 10
0.0
 20
0.0
 30
0.0
  9
$EXTMIN
 10
1.000000000000000E+20
 20
1.000000000000000E+20
 30
1.000000000000000E+20
  9
$EXTMAX
 10
-1.000000000000000E+20
 20
-1.000000000000000E+20
 30
-1.000000000000000E+20
  9
$LIMMIN
 10
0.0
 20
0.0
  9
$LIMMAX
 10
12.0
 20
9.0
  9
$ORTHOMODE
 70
     0
  9
$REGENMODE
 70
     1
  9
$FILLMODE
 70
     1
  9
$QTEXTMODE
 70
     0
  9
$MIRRTEXT
 70
     1
  9
$LTSCALE
 40
1.0
  9
$ATTMODE
 70
     1
  9
$TEXTSIZE
 40
0.2
  9
$TRACEWID
 40
0.05
  9
$TEXTSTYLE
  7
Standard
  9
$CLAYER
  8
0
  9
$CELTYPE
  6
ByLayer
  9
$CECOLOR
 62
   256
  9
$CELTSCALE
 40
1.0
  9
$DISPSILH
 70
     0
  9
$DIMSCALE
 40
1.0
  9
$DIMASZ
 40
0.18
  9
$DIMEXO
 40
0.0625
  9
$DIMDLI
 40
0.38
  9
$DIMRND
 40
0.0
  9
$DIMDLE
 40
0.0
  9
$DIMEXE
 40
0.18
  9
$DIMTP
 40
0.0
  9
$DIMTM
 40
0.0
  9
$DIMTXT
 40
0.18
  9
$DIMCEN
 40
0.09
  9
$DIMTSZ
 40
0.0
  9
$DIMTOL
 70
     0
  9
$DIMLIM
 70
     0
  9
$DIMTIH
 70
     1
  9
$DIMTOH
 70
     1
  9
$DIMSE1
 70
     0
  9
$DIMSE2
 70
     0
  9
$DIMTAD
 70
     0
  9
$DIMZIN
 70
     0
  9
$DIMBLK
  1

  9
$DIMASO
 70
     1
  9
$DIMSHO
 70
     1
  9
$DIMPOST
  1

  9
$DIMAPOST
  1

  9
$DIMALT
 70
     0
  9
$DIMALTD
 70
     2
  9
$DIMALTF
 40
25.4
  9
$DIMLFAC
 40
1.0
  9
$DIMTOFL
 70
     0
  9
$DIMTVP
 40
0.0
  9
$DIMTIX
 70
     0
  9
$DIMSOXD
 70
     0
  9
$DIMSAH
 70
     0
  9
$DIMBLK1
  1

  9
$DIMBLK2
  1

  9
$DIMSTYLE
  2
Standard
  9
$DIMCLRD
 70
     0
  9
$DIMCLRE
 70
     0
  9
$DIMCLRT
 70
     0
  9
$DIMTFAC
 40
1.0
  9
$DIMGAP
 40
0.09
  9
$DIMJUST
 70
     0
  9
$DIMSD1
 70
     0
  9
$DIMSD2
 70
     0
  9
$DIMTOLJ
 70
     1
  9
$DIMTZIN
 70
     0
  9
$DIMALTZ
 70
     0
  9
$DIMALTTZ
 70
     0
  9
$DIMUPT
 70
     0
  9
$DIMDEC
 70
     4
  9
$DIMTDEC
 70
     4
  9
$DIMALTU
 70
     2
  9
$DIMALTTD
 70
     2
  9
$DIMTXSTY
  7
Standard
  9
$DIMAUNIT
 70
     0
  9
$DIMADEC
 70
     0
  9
$DIMALTRND
 40
0.0
  9
$DIMAZIN
 70
     0
  9
$DIMDSEP
 70
    46
  9
$DIMATFIT
 70
     3
  9
$DIMFRAC
 70
     0
  9
$DIMLDRBLK
  1

  9
$DIMLUNIT
 70
     2
  9
$DIMLWD
 70
    -2
  9
$DIMLWE
 70
    -2
  9
$DIMTMOVE
 70
     0
  9
$DIMFXL
 40
1.0
  9
$DIMFXLON
 70
     0
  9
$DIMJOGANG
 40
0.7853981633974483
  9
$DIMTFILL
 70
     0
  9
$DIMTFILLCLR
 70
     0
  9
$DIMARCSYM
 70
     0
  9
$DIMLTYPE
  6

  9
$DIMLTEX1
  6

  9
$DIMLTEX2
  6

  9
$DIMTXTDIRECTION
 70
     0
  9
$LUNITS
 70
     2
  9
$LUPREC
 70
     4
  9
$SKETCHINC
 40
0.1
  9
$FILLETRAD
 40
0.5
  9
$AUNITS
 70
     0
  9
$AUPREC
 70
     0
  9
$MENU
  1
.
  9
$ELEVATION
 40
0.0
  9
$PELEVATION
 40
0.0
  9
$THICKNESS
 40
0.0
  9
$LIMCHECK
 70
     0
  9
$CHAMFERA
 40
0.5
  9
$CHAMFERB
 40
0.5
  9
$CHAMFERC
 40
1.0
  9
$CHAMFERD
 40
0.0
  9
$SKPOLY
 70
     0
  9
$TDCREATE
 40
2457917.636886563
  9
$TDUCREATE
 40
2457917.261886574
  9
$TDUPDATE
 40
2457917.636886563
  9
$TDUUPDATE
 40
2457917.261886574
  9
$TDINDWG
 40
0.0000000116
  9
$TDUSRTIMER
 40
0.0000000116
  9
$USRTIMER
 70
     1
  9
$ANGBASE
 50
0.0
  9
$ANGDIR
 70
     0
  9
$PDMODE
 70
     0
  9
$PDSIZE
 40
0.0
  9
$PLINEWID
 40
0.0
  9
$SPLFRAME
 70
     0
  9
$SPLINETYPE
 70
     6
  9
$SPLINESEGS
 70
     8
  9
$HANDSEED
  5
99
  9
$SURFTAB1
 70
     6
  9
$SURFTAB2
 70
     6
  9
$SURFTYPE
 70
     6
  9
$SURFU
 70
     6
  9
$SURFV
 70
     6
  9
$UCSBASE
  2

  9
$UCSNAME
  2

  9
$UCSORG
 10
0.0
 20
0.0
 30
0.0
  9
$UCSXDIR
 10
1.0
 20
0.0
 30
0.0
  9
$UCSYDIR
 10
0.0
 20
1.0
 30
0.0
  9
$UCSORTHOREF
  2

  9
$UCSORTHOVIEW
 70
     0
  9
$UCSORGTOP
 10
0.0
 20
0.0
 30
0.0
  9
$UCSORGBOTTOM
 10
0.0
 20
0.0
 30
0.0
  9
$UCSORGLEFT
 10
0.0
 20
0.0
 30
0.0
  9
$UCSORGRIGHT
 10
0.0
 20
0.0
 30
0.0
  9
$UCSORGFRONT
 10
0.0
 20
0.0
 30
0.0
  9
$UCSORGBACK
 10
0.0
 20
0.0
 30
0.0
  9
$PUCSBASE
  2

  9
$PUCSNAME
  2

  9
$PUCSORG
 10
0.0
 20
0.0
 30
0.0
  9
$PUCSXDIR
 10
1.0
 20
0.0
 30
0.0
  9
$PUCSYDIR
 10
0.0
 20
1.0
 30
0.0
  9
$PUCSORTHOREF
  2

  9
$PUCSORTHOVIEW
 70
     0
  9
$PUCSORGTOP
 10
0.0
 20
0.0
 30
0.0
  9
$PUCSORGBOTTOM
 10
0.0
 20
0.0
 30
0.0
  9
$PUCSORGLEFT
 10
0.0
 20
0.0
 30
0.0
  9
$PUCSORGRIGHT
 10
0.0
 20
0.0
 30
0.0
  9
$PUCSORGFRONT
 10
0.0
 20
0.0
 30
0.0
  9
$PUCSORGBACK
 10
0.0
 20
0.0
 30
0.0
  9
$USERI1
 70
     0
  9
$USERI2
 70
     0
  9
$USERI3
 70
     0
  9
$USERI4
 70
     0
  9
$USERI5
 70
     0
  9
$USERR1
 40
0.0
  9
$USERR2
 40
0.0
  9
$USERR3
 40
0.0
  9
$USERR4
 40
0.0
  9
$USERR5
 40
0.0
  9
$WORLDVIEW
 70
     1
  9
$SHADEDGE
 70
     3
  9
$SHADEDIF
 70
    70
  9
$TILEMODE
 70
     1
  9
$MAXACTVP
 70
    64
  9
$PINSBASE
 10
0.0
 20
0.0
 30
0.0
  9
$PLIMCHECK
 70
     0
  9
$PEXTMIN
 10
1.000000000000000E+20
 20
1.000000000000000E+20
 30
1.000000000000000E+20
  9
$PEXTMAX
 10
-1.000000000000000E+20
 20
-1.000000000000000E+20
 30
-1.000000000000000E+20
  9
$PLIMMIN
 10
0.0
 20
0.0
  9
$PLIMMAX
 10
12.0
 20
9.0
  9
$UNITMODE
 70
     0
  9
$VISRETAIN
 70
     1
  9
$PLINEGEN
 70
     0
  9
$PSLTSCALE
 70
     1
  9
$TREEDEPTH
 70
  3020
  9
$CMLSTYLE
  2
Standard
  9
$CMLJUST
 70
     0
  9
$CMLSCALE
 40
1.0
  9
$PROXYGRAPHICS
 70
     1
  9
$MEASUREMENT
 70
     0
  9
$CELWEIGHT
370
    -1
  9
$ENDCAPS
280
     0
  9
$JOINSTYLE
280
     0
  9
$LWDISPLAY
290
     1
  9
$INSUNITS
 70
     1
  9
$HYPERLINKBASE
  1

  9
$STYLESHEET
  1

  9
$XEDIT
290
     1
  9
$CEPSNTYPE
380
     0
  9
$PSTYLEMODE
290
     1
  9
$FINGERPRINTGUID
  2
{8EA16AE3-9BE2-E47B-DDF3-220A9BC635AB}
  9
$VERSIONGUID
  2
{FAEB1C32-E019-11D5-929B-00C0DF256EC4}
  9
$EXTNAMES
290
     1
  9
$PSVPSCALE
 40
0.0
  9
$OLESTARTUP
290
     0
  9
$SORTENTS
280
   127
  9
$INDEXCTL
280
     0
  9
$HIDETEXT
280
     1
  9
$XCLIPFRAME
280
     2
  9
$HALOGAP
280
     0
  9
$OBSCOLOR
 70
   257
  9
$OBSLTYPE
280
     0
  9
$INTERSECTIONDISPLAY
280
     0
  9
$INTERSECTIONCOLOR
 70
   257
  9
$DIMASSOC
280
     2
  9
$PROJECTNAME
  1

  9
$CAMERADISPLAY
290
     0
  9
$LENSLENGTH
 40
50.0
  9
$CAMERAHEIGHT
 40
0.0
  9
$STEPSPERSEC
 40
2.0
  9
$STEPSIZE
 40
6.0
  9
$3DDWFPREC
 40
2.0
  9
$PSOLWIDTH
 40
0.25
  9
$PSOLHEIGHT
 40
4.0
  9
$LOFTANG1
 40
1.570796326794897
  9
$LOFTANG2
 40
1.570796326794897
  9
$LOFTMAG1
 40
0.0
  9
$LOFTMAG2
 40
0.0
  9
$LOFTPARAM
 70
     7
  9
$LOFTNORMALS
280
     1
  9
$LATITUDE
 40
37.795
  9
$LONGITUDE
 40
-122.394
  9
$NORTHDIRECTION
 40
0.0
  9
$TIMEZONE
 70
 -8000
  9
$LIGHTGLYPHDISPLAY
280
     1
  9
$TILEMODELIGHTSYNCH
280
     1
  9
$CMATERIAL
347
3C
  9
$SOLIDHIST
280
     1
  9
$SHOWHIST
280
     1
  9
$DWFFRAME
280
     2
  9
$DGNFRAME
280
     2
  9
$REALWORLDSCALE
290
     1
  9
$INTERFERECOLOR
 62
   256
  9
$CSHADOW
280
     0
  9
$SHADOWPLANELOCATION
 40
0.0
  0
ENDSEC
  0
SECTION
  2
CLASSES
  0
CLASS
  1
ACDBDICTIONARYWDFLT
  2
AcDbDictionaryWithDefault
  3
ObjectDBX Classes
 90
        0
 91
        4
280
     0
281
     0
  0
CLASS
  1
VISUALSTYLE
  2
AcDbVisualStyle
  3
ObjectDBX Classes
 90
     4095
 91
        4
280
     0
281
     0
  0
CLASS
  1
MATERIAL
  2
AcDbMaterial
  3
ObjectDBX Classes
 90
     1153
 91
        4
280
     0
281
     0
  0
CLASS
  1
SUN
  2
AcDbSun
  3
SCENEOE
 90
     1024
 91
        4
280
     0
281
     0
  0
ENDSEC
  0
SECTION
  2
TABLES
  0
TABLE
  2
VPORT
  5
8
330
0
100
AcDbSymbolTable
 70
     1
  0
VPORT
  5
29
330
8
100
AcDbSymbolTableRecord
100
AcDbViewportTableRecord
  2
*Active
 70
     0
 10
0.0
 20
0.0
 11
1.0
 21
1.0
 12
0.0
 22
0.0
 13
0.0
 23
0.0
 14
0.5
 24
0.5
 15
0.5
 25
0.5
 16
0.0
 26
0.0
 36
1.0
 17
91.00082462281999
 27
-128.4993055234307
 37
0.0
 40
256.9986110468615
 41
0.7081814508812795
 42
50.0
 43
0.0
 44
0.0
 50
0.0
 51
0.0
 71
     0
 72
   100
 73
     1
 74
     3
 75
     0
 76
     0
 77
     0
 78
     0
281
     0
 65
     1
110
0.0
120
0.0
130
0.0
111
1.0
121
0.0
131
0.0
112
0.0
122
1.0
132
0.0
 79
     0
146
0.0
 60
     3
 61
     5
292
     1
282
     1
141
0.0
142
0.0
 63
   250
361
3F
  0
ENDTAB
  0
TABLE
  2
LTYPE
  5
5
330
0
100
AcDbSymbolTable
 70
     1
  0
LTYPE
  5
14
330
5
100
AcDbSymbolTableRecord
100
AcDbLinetypeTableRecord
  2
ByBlock
 70
     0
  3

 72
    65
 73
     0
 40
0.0
  0
LTYPE
  5
15
330
5
100
AcDbSymbolTableRecord
100
AcDbLinetypeTableRecord
  2
ByLayer
 70
     0
  3

 72
    65
 73
     0
 40
0.0
  0
LTYPE
  5
16
330
5
100
AcDbSymbolTableRecord
100
AcDbLinetypeTableRecord
  2
Continuous
 70
     0
  3
Solid line
 72
    65
 73
     0
 40
0.0
  0
ENDTAB
  0
TABLE
  2
LAYER
  5
2
330
0
100
AcDbSymbolTable
 70
     2
  0
LAYER
  5
10
330
2
100
AcDbSymbolTableRecord
100
AcDbLayerTableRecord
  2
0
 70
     0
 62
     7
  6
Continuous
370
    -3
390
F
347
3E
  0
LAYER
  5
40
330
2
100
AcDbSymbolTableRecord
100
AcDbLayerTableRecord
  2
_U+30EC_U+30A4_U+30E4_U+30FC 1
 70
     0
 62
     7
  6
Continuous
370
    -3
390
F
347
3E
  0
ENDTAB
  0
TABLE
  2
STYLE
  5
3
330
0
100
AcDbSymbolTable
 70
     1
  0
STYLE
  5
11
330
3
100
AcDbSymbolTableRecord
100
AcDbTextStyleTableRecord
  2
Standard
 70
     0
 40
0.0
 41
1.0
 50
0.0
 71
     0
 42
0.2
  3
txt
  4

  0
ENDTAB
  0
TABLE
  2
VIEW
  5
6
330
0
100
AcDbSymbolTable
 70
     0
  0
ENDTAB
  0
TABLE
  2
UCS
  5
7
330
0
100
AcDbSymbolTable
 70
     0
  0
ENDTAB
  0
TABLE
  2
APPID
  5
9
330
0
100
AcDbSymbolTable
 70
     1
  0
APPID
  5
12
330
9
100
AcDbSymbolTableRecord
100
AcDbRegAppTableRecord
  2
ACAD
 70
     0
  0
ENDTAB
  0
TABLE
  2
DIMSTYLE
  5
A
330
0
100
AcDbSymbolTable
 70
     1
100
AcDbDimStyleTable
  0
DIMSTYLE
105
27
330
A
100
AcDbSymbolTableRecord
100
AcDbDimStyleTableRecord
  2
Standard
 70
     0
178
     0
340
11
  0
ENDTAB
  0
TABLE
  2
BLOCK_RECORD
  5
1
330
0
100
AcDbSymbolTable
 70
     4
  0
BLOCK_RECORD
  5
1F
330
1
100
AcDbSymbolTableRecord
100
AcDbBlockTableRecord
  2
*Model_Space
340
22
 70
     0
280
     1
281
     0
  0
BLOCK_RECORD
  5
1B
330
1
100
AcDbSymbolTableRecord
100
AcDbBlockTableRecord
  2
*Paper_Space
340
1E
 70
     0
280
     1
281
     0
  0
BLOCK_RECORD
  5
23
330
1
100
AcDbSymbolTableRecord
100
AcDbBlockTableRecord
  2
*Paper_Space0
340
26
 70
     0
280
     1
281
     0
  0
BLOCK_RECORD
  5
63
330
1
100
AcDbSymbolTableRecord
100
AcDbBlockTableRecord
  2
block 2
340
0
102
{BLKREFS
331
64
102
}
 70
     0
280
     1
281
     0
  0
BLOCK_RECORD
  5
78
330
1
100
AcDbSymbolTableRecord
100
AcDbBlockTableRecord
  2
block 3
340
0
102
{BLKREFS
331
79
102
}
 70
     0
280
     1
281
     0
  0
BLOCK_RECORD
  5
8C
330
1
100
AcDbSymbolTableRecord
100
AcDbBlockTableRecord
  2
block 4
340
0
102
{BLKREFS
331
8D
102
}
 70
     0
280
     1
281
     0
  0
ENDTAB
  0
ENDSEC
  0
SECTION
  2
BLOCKS
  0
BLOCK
  5
20
330
1F
100
AcDbEntity
  8
0
100
AcDbBlockBegin
  2
*Model_Space
 70
     0
 10
0.0
 20
0.0
 30
0.0
  3
*Model_Space
  1

  0
ENDBLK
  5
21
330
1F
100
AcDbEntity
  8
0
100
AcDbBlockEnd
  0
BLOCK
  5
1C
330
1B
100
AcDbEntity
 67
     1
  8
0
100
AcDbBlockBegin
  2
*Paper_Space
 70
     0
 10
0.0
 20
0.0
 30
0.0
  3
*Paper_Space
  1

  0
ENDBLK
  5
1D
330
1B
100
AcDbEntity
 67
     1
  8
0
100
AcDbBlockEnd
  0
BLOCK
  5
24
330
23
100
AcDbEntity
  8
0
100
AcDbBlockBegin
  2
*Paper_Space0
 70
     0
 10
0.0
 20
0.0
 30
0.0
  3
*Paper_Space0
  1

  0
ENDBLK
  5
25
330
23
100
AcDbEntity
  8
0
100
AcDbBlockEnd
  0
BLOCK
  5
65
330
63
100
AcDbEntity
  8
0
100
AcDbBlockBegin
  2
block 2
 70
     0
 10
0.0
 20
0.0
 30
0.0
  3
block 2
  1

  0
SPLINE
  5
67
330
63
100
AcDbEntity
  8
_U+30EC_U+30A4_U+30E4_U+30FC 1
370
     0
100
AcDbSpline
210
0.0
220
0.0
230
1.0
 70
    11
 71
     3
 72
    44
 73
    40
 74
     0
 42
0.0000000001
 43
0.0000000001
 12
1.0
 22
0.0
 32
0.0
 13
1.0
 23
0.0
 33
0.0
 40
0.0
 40
0.0
 40
0.0
 40
0.0
 40
1.0
 40
1.0
 40
1.0
 40
2.0
 40
2.0
 40
2.0
 40
3.0
 40
3.0
 40
3.0
 40
4.0
 40
4.0
 40
4.0
 40
5.0
 40
5.0
 40
5.0
 40
6.0
 40
6.0
 40
6.0
 40
7.0
 40
7.0
 40
7.0
 40
8.0
 40
8.0
 40
8.0
 40
9.0
 40
9.0
 40
9.0
 40
10.0
 40
10.0
 40
10.0
 40
11.0
 40
11.0
 40
11.0
 40
12.0
 40
12.0
 40
12.0
 40
13.0
 40
13.0
 40
13.0
 40
13.0
 10
88.2685139753287
 20
-117.3432250683205
 30
0.0
 10
88.05061168588665
 20
-117.5018717154162
 30
0.0
 10
87.95742185301064
 20
-117.5759412683491
 30
0.0
 10
87.90884600666863
 20
-117.7197740048583
 30
0.0
 10
87.90884600666863
 20
-117.7197740048583
 30
0.0
 10
88.68726533156082
 20
-117.7197740048583
 30
0.0
 10
88.68726533156082
 20
-117.7197740048583
 30
0.0
 10
88.68726533156082
 20
-117.7197740048583
 30
0.0
 10
88.68726533156082
 20
-117.9249294410049
 30
0.0
 10
88.68726533156082
 20
-117.9249294410049
 30
0.0
 10
88.68726533156082
 20
-117.9249294410049
 30
0.0
 10
87.65924883876228
 20
-117.9249294410049
 30
0.0
 10
87.65924883876228
 20
-117.9249294410049
 30
0.0
 10
87.69094371722657
 20
-117.567328529636
 30
0.0
 10
87.75657278622059
 20
-117.4891248621208
 30
0.0
 10
88.14156220669726
 20
-117.1907795930981
 30
0.0
 10
88.39753280125132
 20
-116.9919975835992
 30
0.0
 10
88.46298961547106
 20
-116.9243014573141
 30
0.0
 10
88.46298961547106
 20
-116.7868421474526
 30
0.0
 10
88.46298961547106
 20
-116.66833086276
 30
0.0
 10
88.3911593746036
 20
-116.5372449795462
 30
0.0
 10
88.19444442239583
 20
-116.5372449795462
 30
0.0
 10
87.9341674584852
 20
-116.5372449795462
 30
0.0
 10
87.92572697454635
 20
-116.7677218675095
 30
0.0
 10
87.9214206051898
 20
-116.8841660949109
 30
0.0
 10
87.9214206051898
 20
-116.8841660949109
 30
0.0
 10
87.69731714387429
 20
-116.8841660949109
 30
0.0
 10
87.69731714387429
 20
-116.8841660949109
 30
0.0
 10
87.70575762781314
 20
-116.7572143262795
 30
0.0
 10
87.71626516904315
 20
-116.6450764682346
 30
0.0
 10
87.79670814862375
 20
-116.526565183542
 30
0.0
 10
87.90660669460321
 20
-116.3658514791551
 30
0.0
 10
88.09281410558097
 20
-116.3319172886254
 30
0.0
 10
88.20925833298242
 20
-116.3319172886254
 30
0.0
 10
88.48641626477077
 20
-116.3319172886254
 30
0.0
 10
88.69363875820854
 20
-116.516057642312
 30
0.0
 10
88.69363875820854
 20
-116.7889092047437
 30
0.0
 10
88.69363875820854
 20
-117.0173190354158
 30
0.0
 10
88.57736678558136
 20
-117.1168822949395
 30
0.0
 10
88.2685139753287
 20
-117.3432250683205
 30
0.0
  0
HATCH
  5
68
330
63
100
AcDbEntity
  8
_U+30EC_U+30A4_U+30E4_U+30FC 1
 62
   179
420
  2234388
100
AcDbHatch
 10
0.0
 20
0.0
 30
0.0
210
0.0
220
0.0
230
1.0
  2
SOLID
 70
     1
 71
     0
 91
        1
 92
        1
 93
        1
 72
     4
 94
        3
 73
     0
 74
     1
 95
       44
 96
       40
 40
0.0
 40
0.0
 40
0.0
 40
0.0
 40
1.0
 40
1.0
 40
1.0
 40
2.0
 40
2.0
 40
2.0
 40
3.0
 40
3.0
 40
3.0
 40
4.0
 40
4.0
 40
4.0
 40
5.0
 40
5.0
 40
5.0
 40
6.0
 40
6.0
 40
6.0
 40
7.0
 40
7.0
 40
7.0
 40
8.0
 40
8.0
 40
8.0
 40
9.0
 40
9.0
 40
9.0
 40
10.0
 40
10.0
 40
10.0
 40
11.0
 40
11.0
 40
11.0
 40
12.0
 40
12.0
 40
12.0
 40
13.0
 40
13.0
 40
13.0
 40
13.0
 10
88.2685139753287
 20
-117.3432250683205
 10
88.05061168588665
 20
-117.5018717154162
 10
87.95742185301064
 20
-117.5759412683491
 10
87.90884600666863
 20
-117.7197740048583
 10
87.90884600666863
 20
-117.7197740048583
 10
88.68726533156082
 20
-117.7197740048583
 10
88.68726533156082
 20
-117.7197740048583
 10
88.68726533156082
 20
-117.7197740048583
 10
88.68726533156082
 20
-117.9249294410049
 10
88.68726533156082
 20
-117.9249294410049
 10
88.68726533156082
 20
-117.9249294410049
 10
87.65924883876228
 20
-117.9249294410049
 10
87.65924883876228
 20
-117.9249294410049
 10
87.69094371722657
 20
-117.567328529636
 10
87.75657278622059
 20
-117.4891248621208
 10
88.14156220669726
 20
-117.1907795930981
 10
88.39753280125132
 20
-116.9919975835992
 10
88.46298961547106
 20
-116.9243014573141
 10
88.46298961547106
 20
-116.7868421474526
 10
88.46298961547106
 20
-116.66833086276
 10
88.3911593746036
 20
-116.5372449795462
 10
88.19444442239583
 20
-116.5372449795462
 10
87.9341674584852
 20
-116.5372449795462
 10
87.92572697454635
 20
-116.7677218675095
 10
87.9214206051898
 20
-116.8841660949109
 10
87.9214206051898
 20
-116.8841660949109
 10
87.69731714387429
 20
-116.8841660949109
 10
87.69731714387429
 20
-116.8841660949109
 10
87.70575762781314
 20
-116.7572143262795
 10
87.71626516904315
 20
-116.6450764682346
 10
87.79670814862375
 20
-116.526565183542
 10
87.90660669460321
 20
-116.3658514791551
 10
88.09281410558097
 20
-116.3319172886254
 10
88.20925833298242
 20
-116.3319172886254
 10
88.48641626477077
 20
-116.3319172886254
 10
88.69363875820854
 20
-116.516057642312
 10
88.69363875820854
 20
-116.7889092047437
 10
88.69363875820854
 20
-117.0173190354158
 10
88.57736678558136
 20
-117.1168822949395
 10
88.2685139753287
 20
-117.3432250683205
 97
        0
 97
        0
 75
     2
 76
     1
 98
        0
  0
SPLINE
  5
69
330
63
100
AcDbEntity
  8
_U+30EC_U+30A4_U+30E4_U+30FC 1
370
     0
100
AcDbSpline
210
0.0
220
0.0
230
1.0
 70
    11
 71
     3
 72
    29
 73
    25
 74
     0
 42
0.0000000001
 43
0.0000000001
 12
1.0
 22
0.0
 32
0.0
 13
1.0
 23
0.0
 33
0.0
 40
0.0
 40
0.0
 40
0.0
 40
0.0
 40
1.0
 40
1.0
 40
1.0
 40
2.0
 40
2.0
 40
2.0
 40
3.0
 40
3.0
 40
3.0
 40
4.0
 40
4.0
 40
4.0
 40
5.0
 40
5.0
 40
5.0
 40
6.0
 40
6.0
 40
6.0
 40
7.0
 40
7.0
 40
7.0
 40
8.0
 40
8.0
 40
8.0
 40
8.0
 10
89.74990503398614
 20
-117.747162513966
 30
0.0
 10
89.64207354529782
 20
-117.9566243194692
 30
0.0
 10
89.46844073284123
 20
-117.9757445994123
 30
0.0
 10
89.35234101498831
 20
-117.9757445994123
 30
0.0
 10
89.19145505582713
 20
-117.9757445994123
 30
0.0
 10
89.04968937660911
 20
-117.9292358103614
 30
0.0
 10
88.95443248644195
 20
-117.747162513966
 30
0.0
 10
88.8509073671102
 20
-117.5525146190494
 30
0.0
 10
88.83178708716706
 20
-117.3156643044385
 30
0.0
 10
88.83178708716706
 20
-117.1527112879861
 30
0.0
 10
88.83178708716706
 20
-117.008878551477
 30
0.0
 10
88.84866805504478
 20
-116.7572143262795
 30
0.0
 10
88.95443248644195
 20
-116.5582600620063
 30
0.0
 10
89.06243622990453
 20
-116.3551716831508
 30
0.0
 10
89.22314993429144
 20
-116.3319172886254
 30
0.0
 10
89.35234101498831
 20
-116.3319172886254
 30
0.0
 10
89.5108154073098
 20
-116.3319172886254
 30
0.0
 10
89.65482039859324
 20
-116.3763590203851
 30
0.0
 10
89.74990503398614
 20
-116.5582600620063
 30
0.0
 10
89.84946829350986
 20
-116.7508408996317
 30
0.0
 10
89.87255043326104
 20
-116.9792507303038
 30
0.0
 10
89.87255043326104
 20
-117.1527112879861
 30
0.0
 10
89.87255043326104
 20
-117.3241047883773
 30
0.0
 10
89.85153535080102
 20
-117.5547539311148
 30
0.0
 10
89.74990503398614
 20
-117.747162513966
 30
0.0
  0
SPLINE
  5
6A
330
63
100
AcDbEntity
  8
_U+30EC_U+30A4_U+30E4_U+30FC 1
370
     0
100
AcDbSpline
210
0.0
220
0.0
230
1.0
 70
    11
 71
     3
 72
    17
 73
    13
 74
     0
 42
0.0000000001
 43
0.0000000001
 12
1.0
 22
0.0
 32
0.0
 13
1.0
 23
0.0
 33
0.0
 40
0.0
 40
0.0
 40
0.0
 40
0.0
 40
1.0
 40
1.0
 40
1.0
 40
2.0
 40
2.0
 40
2.0
 40
3.0
 40
3.0
 40
3.0
 40
4.0
 40
4.0
 40
4.0
 40
4.0
 10
89.35234101498831
 20
-116.5244981262508
 30
0.0
 10
89.1025715923077
 20
-116.5244981262508
 30
0.0
 10
89.05606280325682
 20
-116.8080294846869
 30
0.0
 10
89.05606280325682
 20
-117.1527112879861
 30
0.0
 10
89.05606280325682
 20
-117.4722438942431
 30
0.0
 10
89.09206405107768
 20
-117.7810967044957
 30
0.0
 10
89.35234101498831
 20
-117.7810967044957
 30
0.0
 10
89.59969887082924
 20
-117.7810967044957
 30
0.0
 10
89.64827471717126
 20
-117.4996324033508
 30
0.0
 10
89.64827471717126
 20
-117.1527112879861
 30
0.0
 10
89.64827471717126
 20
-116.8333509365035
 30
0.0
 10
89.61037866683353
 20
-116.5244981262508
 30
0.0
 10
89.35234101498831
 20
-116.5244981262508
 30
0.0
  0
HATCH
  5
6B
330
63
100
AcDbEntity
  8
_U+30EC_U+30A4_U+30E4_U+30FC 1
 62
   179
420
  2234388
100
AcDbHatch
 10
0.0
 20
0.0
 30
0.0
210
0.0
220
0.0
230
1.0
  2
SOLID
 70
     1
 71
     0
 91
        2
 92
        1
 93
        1
 72
     4
 94
        3
 73
     0
 74
     1
 95
       29
 96
       25
 40
0.0
 40
0.0
 40
0.0
 40
0.0
 40
1.0
 40
1.0
 40
1.0
 40
2.0
 40
2.0
 40
2.0
 40
3.0
 40
3.0
 40
3.0
 40
4.0
 40
4.0
 40
4.0
 40
5.0
 40
5.0
 40
5.0
 40
6.0
 40
6.0
 40
6.0
 40
7.0
 40
7.0
 40
7.0
 40
8.0
 40
8.0
 40
8.0
 40
8.0
 10
89.74990503398614
 20
-117.747162513966
 10
89.64207354529782
 20
-117.9566243194692
 10
89.46844073284123
 20
-117.9757445994123
 10
89.35234101498831
 20
-117.9757445994123
 10
89.19145505582713
 20
-117.9757445994123
 10
89.04968937660911
 20
-117.9292358103614
 10
88.95443248644195
 20
-117.747162513966
 10
88.8509073671102
 20
-117.5525146190494
 10
88.83178708716706
 20
-117.3156643044385
 10
88.83178708716706
 20
-117.1527112879861
 10
88.83178708716706
 20
-117.008878551477
 10
88.84866805504478
 20
-116.7572143262795
 10
88.95443248644195
 20
-116.5582600620063
 10
89.06243622990453
 20
-116.3551716831508
 10
89.22314993429144
 20
-116.3319172886254
 10
89.35234101498831
 20
-116.3319172886254
 10
89.5108154073098
 20
-116.3319172886254
 10
89.65482039859324
 20
-116.3763590203851
 10
89.74990503398614
 20
-116.5582600620063
 10
89.84946829350986
 20
-116.7508408996317
 10
89.87255043326104
 20
-116.9792507303038
 10
89.87255043326104
 20
-117.1527112879861
 10
89.87255043326104
 20
-117.3241047883773
 10
89.85153535080102
 20
-117.5547539311148
 10
89.74990503398614
 20
-117.747162513966
 97
        0
 97
        0
 92
        1
 93
        1
 72
     4
 94
        3
 73
     0
 74
     1
 95
       17
 96
       13
 40
0.0
 40
0.0
 40
0.0
 40
0.0
 40
1.0
 40
1.0
 40
1.0
 40
2.0
 40
2.0
 40
2.0
 40
3.0
 40
3.0
 40
3.0
 40
4.0
 40
4.0
 40
4.0
 40
4.0
 10
89.35234101498831
 20
-116.5244981262508
 10
89.1025715923077
 20
-116.5244981262508
 10
89.05606280325682
 20
-116.8080294846869
 10
89.05606280325682
 20
-117.1527112879861
 10
89.05606280325682
 20
-117.4722438942431
 10
89.09206405107768
 20
-117.7810967044957
 10
89.35234101498831
 20
-117.7810967044957
 10
89.59969887082924
 20
-117.7810967044957
 10
89.64827471717126
 20
-117.4996324033508
 10
89.64827471717126
 20
-117.1527112879861
 10
89.64827471717126
 20
-116.8333509365035
 10
89.61037866683353
 20
-116.5244981262508
 10
89.35234101498831
 20
-116.5244981262508
 97
        0
 97
        0
 75
     2
 76
     1
 98
        0
  0
ENDBLK
  5
66
330
63
100
AcDbEntity
  8
0
100
AcDbBlockEnd
  0
BLOCK
  5
7A
330
78
100
AcDbEntity
  8
0
100
AcDbBlockBegin
  2
block 3
 70
     0
 10
0.0
 20
0.0
 30
0.0
  3
block 3
  1

  0
SPLINE
  5
7C
330
78
100
AcDbEntity
  8
_U+30EC_U+30A4_U+30E4_U+30FC 1
370
     0
100
AcDbSpline
210
0.0
220
0.0
230
1.0
 70
    11
 71
     3
 72
    26
 73
    22
 74
     0
 42
0.0000000001
 43
0.0000000001
 12
1.0
 22
0.0
 32
0.0
 13
1.0
 23
0.0
 33
0.0
 40
0.0
 40
0.0
 40
0.0
 40
0.0
 40
1.0
 40
1.0
 40
1.0
 40
2.0
 40
2.0
 40
2.0
 40
3.0
 40
3.0
 40
3.0
 40
4.0
 40
4.0
 40
4.0
 40
5.0
 40
5.0
 40
5.0
 40
6.0
 40
6.0
 40
6.0
 40
7.0
 40
7.0
 40
7.0
 40
7.0
 10
105.3534315057797
 20
-130.3551784613348
 30
0.0
 10
105.3534315057797
 20
-130.3551784613348
 30
0.0
 10
104.2492784027571
 20
-130.3551784613348
 30
0.0
 10
104.2492784027571
 20
-130.3551784613348
 30
0.0
 10
104.2492784027571
 20
-130.3551784613348
 30
0.0
 10
104.2492784027571
 20
-130.6852186088218
 30
0.0
 10
104.2492784027571
 20
-130.6852186088218
 30
0.0
 10
104.2492784027571
 20
-130.6852186088218
 30
0.0
 10
104.1011392968914
 20
-130.6852186088218
 30
0.0
 10
104.1011392968914
 20
-130.6852186088218
 30
0.0
 10
104.0863253863048
 20
-130.3531114040437
 30
0.0
 10
103.9233723698525
 20
-130.3066026149928
 30
0.0
 10
103.8089951997422
 20
-130.2769747938196
 30
0.0
 10
103.8089951997422
 20
-130.2769747938196
 30
0.0
 10
103.8089951997422
 20
-130.1309027452451
 30
0.0
 10
103.8089951997422
 20
-130.1309027452451
 30
0.0
 10
103.8089951997422
 20
-130.1309027452451
 30
0.0
 10
105.3534315057797
 20
-130.1309027452451
 30
0.0
 10
105.3534315057797
 20
-130.1309027452451
 30
0.0
 10
105.3534315057797
 20
-130.1309027452451
 30
0.0
 10
105.3534315057797
 20
-130.3551784613348
 30
0.0
 10
105.3534315057797
 20
-130.3551784613348
 30
0.0
  0
HATCH
  5
7D
330
78
100
AcDbEntity
  8
_U+30EC_U+30A4_U+30E4_U+30FC 1
 62
   179
420
  2234388
100
AcDbHatch
 10
0.0
 20
0.0
 30
0.0
210
0.0
220
0.0
230
1.0
  2
SOLID
 70
     1
 71
     0
 91
        1
 92
        1
 93
        1
 72
     4
 94
        3
 73
     0
 74
     1
 95
       26
 96
       22
 40
0.0
 40
0.0
 40
0.0
 40
0.0
 40
1.0
 40
1.0
 40
1.0
 40
2.0
 40
2.0
 40
2.0
 40
3.0
 40
3.0
 40
3.0
 40
4.0
 40
4.0
 40
4.0
 40
5.0
 40
5.0
 40
5.0
 40
6.0
 40
6.0
 40
6.0
 40
7.0
 40
7.0
 40
7.0
 40
7.0
 10
105.3534315057797
 20
-130.3551784613348
 10
105.3534315057797
 20
-130.3551784613348
 10
104.2492784027571
 20
-130.3551784613348
 10
104.2492784027571
 20
-130.3551784613348
 10
104.2492784027571
 20
-130.3551784613348
 10
104.2492784027571
 20
-130.6852186088218
 10
104.2492784027571
 20
-130.6852186088218
 10
104.2492784027571
 20
-130.6852186088218
 10
104.1011392968914
 20
-130.6852186088218
 10
104.1011392968914
 20
-130.6852186088218
 10
104.0863253863048
 20
-130.3531114040437
 10
103.9233723698525
 20
-130.3066026149928
 10
103.8089951997422
 20
-130.2769747938196
 10
103.8089951997422
 20
-130.2769747938196
 10
103.8089951997422
 20
-130.1309027452451
 10
103.8089951997422
 20
-130.1309027452451
 10
103.8089951997422
 20
-130.1309027452451
 10
105.3534315057797
 20
-130.1309027452451
 10
105.3534315057797
 20
-130.1309027452451
 10
105.3534315057797
 20
-130.1309027452451
 10
105.3534315057797
 20
-130.3551784613348
 10
105.3534315057797
 20
-130.3551784613348
 97
        0
 97
        0
 75
     2
 76
     1
 98
        0
  0
SPLINE
  5
7E
330
78
100
AcDbEntity
  8
_U+30EC_U+30A4_U+30E4_U+30FC 1
370
     0
100
AcDbSpline
210
0.0
220
0.0
230
1.0
 70
    11
 71
     3
 72
    53
 73
    49
 74
     0
 42
0.0000000001
 43
0.0000000001
 12
1.0
 22
0.0
 32
0.0
 13
1.0
 23
0.0
 33
0.0
 40
0.0
 40
0.0
 40
0.0
 40
0.0
 40
1.0
 40
1.0
 40
1.0
 40
2.0
 40
2.0
 40
2.0
 40
3.0
 40
3.0
 40
3.0
 40
4.0
 40
4.0
 40
4.0
 40
5.0
 40
5.0
 40
5.0
 40
6.0
 40
6.0
 40
6.0
 40
7.0
 40
7.0
 40
7.0
 40
8.0
 40
8.0
 40
8.0
 40
9.0
 40
9.0
 40
9.0
 40
10.0
 40
10.0
 40
10.0
 40
11.0
 40
11.0
 40
11.0
 40
12.0
 40
12.0
 40
12.0
 40
13.0
 40
13.0
 40
13.0
 40
14.0
 40
14.0
 40
14.0
 40
15.0
 40
15.0
 40
15.0
 40
16.0
 40
16.0
 40
16.0
 40
16.0
 10
105.4040744094129
 20
-129.1487060224003
 30
0.0
 10
105.4040744094129
 20
-129.2269096899155
 30
0.0
 10
105.3871934415351
 20
-129.3285400067304
 30
0.0
 10
105.3238036846066
 20
-129.4301703235452
 30
0.0
 10
105.2139051386271
 20
-129.6034586264533
 30
0.0
 10
105.0826470006391
 20
-129.6248182184619
 30
0.0
 10
104.9748155119508
 20
-129.6437662436307
 30
0.0
 10
104.9748155119508
 20
-129.6437662436307
 30
0.0
 10
104.9748155119508
 20
-129.4215575848321
 30
0.0
 10
104.9748155119508
 20
-129.4215575848321
 30
0.0
 10
105.1735975214497
 20
-129.3667805666167
 30
0.0
 10
105.2032253426228
 20
-129.2396565432109
 30
0.0
 10
105.2032253426228
 20
-129.1466389651092
 30
0.0
 10
105.2032253426228
 20
-129.0071125979566
 30
0.0
 10
105.1036620830991
 20
-128.8548393775085
 30
0.0
 10
104.8711181378447
 20
-128.8548393775085
 30
0.0
 10
104.6151475432907
 20
-128.8548393775085
 30
0.0
 10
104.5452121049401
 20
-129.0346733618386
 30
0.0
 10
104.5452121049401
 20
-129.1552517038223
 30
0.0
 10
104.5452121049401
 20
-129.1869465822866
 30
0.0
 10
104.5452121049401
 20
-129.3285400067304
 30
0.0
 10
104.674403185637
 20
-129.4174234702498
 30
0.0
 10
104.674403185637
 20
-129.4174234702498
 30
0.0
 10
104.6554551604681
 20
-129.5931233399976
 30
0.0
 10
104.6554551604681
 20
-129.5931233399976
 30
0.0
 10
104.6554551604681
 20
-129.5931233399976
 30
0.0
 10
103.8089951997422
 20
-129.4725449980138
 30
0.0
 10
103.8089951997422
 20
-129.4725449980138
 30
0.0
 10
103.8089951997422
 20
-129.4725449980138
 30
0.0
 10
103.8089951997422
 20
-128.6939534183473
 30
0.0
 10
103.8089951997422
 20
-128.6939534183473
 30
0.0
 10
103.8089951997422
 20
-128.6939534183473
 30
0.0
 10
104.0036430946588
 20
-128.6939534183473
 30
0.0
 10
104.0036430946588
 20
-128.6939534183473
 30
0.0
 10
104.0036430946588
 20
-128.6939534183473
 30
0.0
 10
104.0036430946588
 20
-129.3095919815615
 30
0.0
 10
104.0036430946588
 20
-129.3095919815615
 30
0.0
 10
104.0036430946588
 20
-129.3095919815615
 30
0.0
 10
104.4267008202475
 20
-129.3750487957813
 30
0.0
 10
104.4267008202475
 20
-129.3750487957813
 30
0.0
 10
104.3929388844921
 20
-129.3137260961438
 30
0.0
 10
104.3526312673146
 20
-129.2313883140463
 30
0.0
 10
104.3526312673146
 20
-129.1128770293537
 30
0.0
 10
104.3526312673146
 20
-128.8589734920908
 30
0.0
 10
104.5390109330666
 20
-128.6219509227056
 30
0.0
 10
104.8521701126759
 20
-128.6219509227056
 30
0.0
 10
105.1694634068674
 20
-128.6219509227056
 30
0.0
 10
105.4040744094129
 20
-128.8462266387954
 30
0.0
 10
105.4040744094129
 20
-129.1487060224003
 30
0.0
  0
HATCH
  5
7F
330
78
100
AcDbEntity
  8
_U+30EC_U+30A4_U+30E4_U+30FC 1
 62
   179
420
  2234388
100
AcDbHatch
 10
0.0
 20
0.0
 30
0.0
210
0.0
220
0.0
230
1.0
  2
SOLID
 70
     1
 71
     0
 91
        1
 92
        1
 93
        1
 72
     4
 94
        3
 73
     0
 74
     1
 95
       53
 96
       49
 40
0.0
 40
0.0
 40
0.0
 40
0.0
 40
1.0
 40
1.0
 40
1.0
 40
2.0
 40
2.0
 40
2.0
 40
3.0
 40
3.0
 40
3.0
 40
4.0
 40
4.0
 40
4.0
 40
5.0
 40
5.0
 40
5.0
 40
6.0
 40
6.0
 40
6.0
 40
7.0
 40
7.0
 40
7.0
 40
8.0
 40
8.0
 40
8.0
 40
9.0
 40
9.0
 40
9.0
 40
10.0
 40
10.0
 40
10.0
 40
11.0
 40
11.0
 40
11.0
 40
12.0
 40
12.0
 40
12.0
 40
13.0
 40
13.0
 40
13.0
 40
14.0
 40
14.0
 40
14.0
 40
15.0
 40
15.0
 40
15.0
 40
16.0
 40
16.0
 40
16.0
 40
16.0
 10
105.4040744094129
 20
-129.1487060224003
 10
105.4040744094129
 20
-129.2269096899155
 10
105.3871934415351
 20
-129.3285400067304
 10
105.3238036846066
 20
-129.4301703235452
 10
105.2139051386271
 20
-129.6034586264533
 10
105.0826470006391
 20
-129.6248182184619
 10
104.9748155119508
 20
-129.6437662436307
 10
104.9748155119508
 20
-129.6437662436307
 10
104.9748155119508
 20
-129.4215575848321
 10
104.9748155119508
 20
-129.4215575848321
 10
105.1735975214497
 20
-129.3667805666167
 10
105.2032253426228
 20
-129.2396565432109
 10
105.2032253426228
 20
-129.1466389651092
 10
105.2032253426228
 20
-129.0071125979566
 10
105.1036620830991
 20
-128.8548393775085
 10
104.8711181378447
 20
-128.8548393775085
 10
104.6151475432907
 20
-128.8548393775085
 10
104.5452121049401
 20
-129.0346733618386
 10
104.5452121049401
 20
-129.1552517038223
 10
104.5452121049401
 20
-129.1869465822866
 10
104.5452121049401
 20
-129.3285400067304
 10
104.674403185637
 20
-129.4174234702498
 10
104.674403185637
 20
-129.4174234702498
 10
104.6554551604681
 20
-129.5931233399976
 10
104.6554551604681
 20
-129.5931233399976
 10
104.6554551604681
 20
-129.5931233399976
 10
103.8089951997422
 20
-129.4725449980138
 10
103.8089951997422
 20
-129.4725449980138
 10
103.8089951997422
 20
-129.4725449980138
 10
103.8089951997422
 20
-128.6939534183473
 10
103.8089951997422
 20
-128.6939534183473
 10
103.8089951997422
 20
-128.6939534183473
 10
104.0036430946588
 20
-128.6939534183473
 10
104.0036430946588
 20
-128.6939534183473
 10
104.0036430946588
 20
-128.6939534183473
 10
104.0036430946588
 20
-129.3095919815615
 10
104.0036430946588
 20
-129.3095919815615
 10
104.0036430946588
 20
-129.3095919815615
 10
104.4267008202475
 20
-129.3750487957813
 10
104.4267008202475
 20
-129.3750487957813
 10
104.3929388844921
 20
-129.3137260961438
 10
104.3526312673146
 20
-129.2313883140463
 10
104.3526312673146
 20
-129.1128770293537
 10
104.3526312673146
 20
-128.8589734920908
 10
104.5390109330666
 20
-128.6219509227056
 10
104.8521701126759
 20
-128.6219509227056
 10
105.1694634068674
 20
-128.6219509227056
 10
105.4040744094129
 20
-128.8462266387954
 10
105.4040744094129
 20
-129.1487060224003
 97
        0
 97
        0
 75
     2
 76
     1
 98
        0
  0
ENDBLK
  5
7B
330
78
100
AcDbEntity
  8
0
100
AcDbBlockEnd
  0
BLOCK
  5
8E
330
8C
100
AcDbEntity
  8
0
100
AcDbBlockBegin
  2
block 4
 70
     0
 10
0.0
 20
0.0
 30
0.0
  3
block 4
  1

  0
SPLINE
  5
90
330
8C
100
AcDbEntity
  8
_U+30EC_U+30A4_U+30E4_U+30FC 1
370
     0
100
AcDbSpline
210
0.0
220
0.0
230
1.0
 70
    11
 71
     3
 72
    62
 73
    58
 74
     0
 42
0.0000000001
 43
0.0000000001
 12
1.0
 22
0.0
 32
0.0
 13
1.0
 23
0.0
 33
0.0
 40
0.0
 40
0.0
 40
0.0
 40
0.0
 40
1.0
 40
1.0
 40
1.0
 40
2.0
 40
2.0
 40
2.0
 40
3.0
 40
3.0
 40
3.0
 40
4.0
 40
4.0
 40
4.0
 40
5.0
 40
5.0
 40
5.0
 40
6.0
 40
6.0
 40
6.0
 40
7.0
 40
7.0
 40
7.0
 40
8.0
 40
8.0
 40
8.0
 40
9.0
 40
9.0
 40
9.0
 40
10.0
 40
10.0
 40
10.0
 40
11.0
 40
11.0
 40
11.0
 40
12.0
 40
12.0
 40
12.0
 40
13.0
 40
13.0
 40
13.0
 40
14.0
 40
14.0
 40
14.0
 40
15.0
 40
15.0
 40
15.0
 40
16.0
 40
16.0
 40
16.0
 40
17.0
 40
17.0
 40
17.0
 40
18.0
 40
18.0
 40
18.0
 40
19.0
 40
19.0
 40
19.0
 40
19.0
 10
88.16688365851384
 20
-140.9753743137145
 30
0.0
 10
88.07162676834668
 20
-140.9753743137145
 30
0.0
 10
87.85372447890462
 20
-140.9543592312545
 30
0.0
 10
87.72901202233858
 20
-140.768324075051
 30
0.0
 10
87.65494246940571
 20
-140.6560139622318
 30
0.0
 10
87.65063610004916
 20
-140.5567952122566
 30
0.0
 10
87.64650198546686
 20
-140.4720458633195
 30
0.0
 10
87.64650198546686
 20
-140.4720458633195
 30
0.0
 10
87.86647133220005
 20
-140.4720458633195
 30
0.0
 10
87.86647133220005
 20
-140.4720458633195
 30
0.0
 10
87.8685383894912
 20
-140.5461154162524
 30
0.0
 10
87.87921818549547
 20
-140.7807264187979
 30
0.0
 10
88.16274954393154
 20
-140.7807264187979
 30
0.0
 10
88.30020885379301
 20
-140.7807264187979
 30
0.0
 10
88.45248207424105
 20
-140.7111354899958
 30
0.0
 10
88.45248207424105
 20
-140.4827256593238
 30
0.0
 10
88.45248207424105
 20
-140.3662814319223
 30
0.0
 10
88.41441376912904
 20
-140.3177055855803
 30
0.0
 10
88.38271889066475
 20
-140.286010707116
 30
0.0
 10
88.30864933773186
 20
-140.2119411541831
 30
0.0
 10
88.19220511033042
 20
-140.1991943008877
 30
0.0
 10
88.13725583734069
 20
-140.1991943008877
 30
0.0
 10
88.11830781217182
 20
-140.1991943008877
 30
0.0
 10
88.08230656435096
 20
-140.2012613581789
 30
0.0
 10
88.05474580046895
 20
-140.2053954727612
 30
0.0
 10
88.05474580046895
 20
-140.2053954727612
 30
0.0
 10
88.05474580046895
 20
-140.0107475778445
 30
0.0
 10
88.05474580046895
 20
-140.0107475778445
 30
0.0
 10
88.09281410558097
 20
-140.0172932592665
 30
0.0
 10
88.13518878004955
 20
-140.0193603165577
 30
0.0
 10
88.14156220669726
 20
-140.0193603165577
 30
0.0
 10
88.207019020917
 20
-140.0193603165577
 30
0.0
 10
88.40597328519017
 20
-139.9980007245491
 30
0.0
 10
88.40597328519017
 20
-139.7613226647125
 30
0.0
 10
88.40597328519017
 20
-139.5835557376735
 30
0.0
 10
88.27471514720216
 20
-139.5284342099096
 30
0.0
 10
88.16481660122268
 20
-139.5284342099096
 30
0.0
 10
87.90040552272977
 20
-139.5284342099096
 30
0.0
 10
87.8919650387909
 20
-139.7613226647125
 30
0.0
 10
87.88765866943434
 20
-139.8329806508056
 30
0.0
 10
87.88765866943434
 20
-139.8329806508056
 30
0.0
 10
87.68457029057886
 20
-139.8329806508056
 30
0.0
 10
87.68457029057886
 20
-139.8329806508056
 30
0.0
 10
87.69301077451772
 20
-139.7082681942396
 30
0.0
 10
87.72057153839972
 20
-139.3317192577018
 30
0.0
 10
88.17739119974385
 20
-139.3317192577018
 30
0.0
 10
88.40166691583362
 20
-139.3317192577018
 30
0.0
 10
88.6428235998011
 20
-139.4588432811075
 30
0.0
 10
88.6428235998011
 20
-139.7547769832905
 30
0.0
 10
88.6428235998011
 20
-139.9411566490425
 30
0.0
 10
88.54773896440821
 20
-140.02349443114
 30
0.0
 10
88.44817570488449
 20
-140.0848171307774
 30
0.0
 10
88.50967065929619
 20
-140.1123778946594
 30
0.0
 10
88.6915717009174
 20
-140.1926486194657
 30
0.0
 10
88.6915717009174
 20
-140.4699788060283
 30
0.0
 10
88.6915717009174
 20
-140.8082871826799
 30
0.0
 10
88.44404159030219
 20
-140.9753743137145
 30
0.0
 10
88.16688365851384
 20
-140.9753743137145
 30
0.0
  0
HATCH
  5
91
330
8C
100
AcDbEntity
  8
_U+30EC_U+30A4_U+30E4_U+30FC 1
 62
   179
420
  2234388
100
AcDbHatch
 10
0.0
 20
0.0
 30
0.0
210
0.0
220
0.0
230
1.0
  2
SOLID
 70
     1
 71
     0
 91
        1
 92
        1
 93
        1
 72
     4
 94
        3
 73
     0
 74
     1
 95
       62
 96
       58
 40
0.0
 40
0.0
 40
0.0
 40
0.0
 40
1.0
 40
1.0
 40
1.0
 40
2.0
 40
2.0
 40
2.0
 40
3.0
 40
3.0
 40
3.0
 40
4.0
 40
4.0
 40
4.0
 40
5.0
 40
5.0
 40
5.0
 40
6.0
 40
6.0
 40
6.0
 40
7.0
 40
7.0
 40
7.0
 40
8.0
 40
8.0
 40
8.0
 40
9.0
 40
9.0
 40
9.0
 40
10.0
 40
10.0
 40
10.0
 40
11.0
 40
11.0
 40
11.0
 40
12.0
 40
12.0
 40
12.0
 40
13.0
 40
13.0
 40
13.0
 40
14.0
 40
14.0
 40
14.0
 40
15.0
 40
15.0
 40
15.0
 40
16.0
 40
16.0
 40
16.0
 40
17.0
 40
17.0
 40
17.0
 40
18.0
 40
18.0
 40
18.0
 40
19.0
 40
19.0
 40
19.0
 40
19.0
 10
88.16688365851384
 20
-140.9753743137145
 10
88.07162676834668
 20
-140.9753743137145
 10
87.85372447890462
 20
-140.9543592312545
 10
87.72901202233858
 20
-140.768324075051
 10
87.65494246940571
 20
-140.6560139622318
 10
87.65063610004916
 20
-140.5567952122566
 10
87.64650198546686
 20
-140.4720458633195
 10
87.64650198546686
 20
-140.4720458633195
 10
87.86647133220005
 20
-140.4720458633195
 10
87.86647133220005
 20
-140.4720458633195
 10
87.8685383894912
 20
-140.5461154162524
 10
87.87921818549547
 20
-140.7807264187979
 10
88.16274954393154
 20
-140.7807264187979
 10
88.30020885379301
 20
-140.7807264187979
 10
88.45248207424105
 20
-140.7111354899958
 10
88.45248207424105
 20
-140.4827256593238
 10
88.45248207424105
 20
-140.3662814319223
 10
88.41441376912904
 20
-140.3177055855803
 10
88.38271889066475
 20
-140.286010707116
 10
88.30864933773186
 20
-140.2119411541831
 10
88.19220511033042
 20
-140.1991943008877
 10
88.13725583734069
 20
-140.1991943008877
 10
88.11830781217182
 20
-140.1991943008877
 10
88.08230656435096
 20
-140.2012613581789
 10
88.05474580046895
 20
-140.2053954727612
 10
88.05474580046895
 20
-140.2053954727612
 10
88.05474580046895
 20
-140.0107475778445
 10
88.05474580046895
 20
-140.0107475778445
 10
88.09281410558097
 20
-140.0172932592665
 10
88.13518878004955
 20
-140.0193603165577
 10
88.14156220669726
 20
-140.0193603165577
 10
88.207019020917
 20
-140.0193603165577
 10
88.40597328519017
 20
-139.9980007245491
 10
88.40597328519017
 20
-139.7613226647125
 10
88.40597328519017
 20
-139.5835557376735
 10
88.27471514720216
 20
-139.5284342099096
 10
88.16481660122268
 20
-139.5284342099096
 10
87.90040552272977
 20
-139.5284342099096
 10
87.8919650387909
 20
-139.7613226647125
 10
87.88765866943434
 20
-139.8329806508056
 10
87.88765866943434
 20
-139.8329806508056
 10
87.68457029057886
 20
-139.8329806508056
 10
87.68457029057886
 20
-139.8329806508056
 10
87.69301077451772
 20
-139.7082681942396
 10
87.72057153839972
 20
-139.3317192577018
 10
88.17739119974385
 20
-139.3317192577018
 10
88.40166691583362
 20
-139.3317192577018
 10
88.6428235998011
 20
-139.4588432811075
 10
88.6428235998011
 20
-139.7547769832905
 10
88.6428235998011
 20
-139.9411566490425
 10
88.54773896440821
 20
-140.02349443114
 10
88.44817570488449
 20
-140.0848171307774
 10
88.50967065929619
 20
-140.1123778946594
 10
88.6915717009174
 20
-140.1926486194657
 10
88.6915717009174
 20
-140.4699788060283
 10
88.6915717009174
 20
-140.8082871826799
 10
88.44404159030219
 20
-140.9753743137145
 10
88.16688365851384
 20
-140.9753743137145
 97
        0
 97
        0
 75
     2
 76
     1
 98
        0
  0
SPLINE
  5
92
330
8C
100
AcDbEntity
  8
_U+30EC_U+30A4_U+30E4_U+30FC 1
370
     0
100
AcDbSpline
210
0.0
220
0.0
230
1.0
 70
    11
 71
     3
 72
    29
 73
    25
 74
     0
 42
0.0000000001
 43
0.0000000001
 12
1.0
 22
0.0
 32
0.0
 13
1.0
 23
0.0
 33
0.0
 40
0.0
 40
0.0
 40
0.0
 40
0.0
 40
1.0
 40
1.0
 40
1.0
 40
2.0
 40
2.0
 40
2.0
 40
3.0
 40
3.0
 40
3.0
 40
4.0
 40
4.0
 40
4.0
 40
5.0
 40
5.0
 40
5.0
 40
6.0
 40
6.0
 40
6.0
 40
7.0
 40
7.0
 40
7.0
 40
8.0
 40
8.0
 40
8.0
 40
8.0
 10
89.74990503398614
 20
-140.7469644830424
 30
0.0
 10
89.64207354529782
 20
-140.9564262885456
 30
0.0
 10
89.46844073284123
 20
-140.9753743137145
 30
0.0
 10
89.35234101498831
 20
-140.9753743137145
 30
0.0
 10
89.19145505582713
 20
-140.9753743137145
 30
0.0
 10
89.04968937660911
 20
-140.9288655246636
 30
0.0
 10
88.95443248644195
 20
-140.7469644830424
 30
0.0
 10
88.8509073671102
 20
-140.5523165881258
 30
0.0
 10
88.83178708716706
 20
-140.3152940187406
 30
0.0
 10
88.83178708716706
 20
-140.1526855118368
 30
0.0
 10
88.83178708716706
 20
-140.0086805205534
 30
0.0
 10
88.84866805504478
 20
-139.7568440405816
 30
0.0
 10
88.95443248644195
 20
-139.5580620310827
 30
0.0
 10
89.06243622990453
 20
-139.3551459070015
 30
0.0
 10
89.22314993429144
 20
-139.3317192577018
 30
0.0
 10
89.35234101498831
 20
-139.3317192577018
 30
0.0
 10
89.5108154073098
 20
-139.3317192577018
 30
0.0
 10
89.65482039859324
 20
-139.3761609894615
 30
0.0
 10
89.74990503398614
 20
-139.5580620310827
 30
0.0
 10
89.84946829350986
 20
-139.7506428687082
 30
0.0
 10
89.87255043326104
 20
-139.9790526993802
 30
0.0
 10
89.87255043326104
 20
-140.1526855118368
 30
0.0
 10
89.87255043326104
 20
-140.3239067574538
 30
0.0
 10
89.85153535080102
 20
-140.554383645417
 30
0.0
 10
89.74990503398614
 20
-140.7469644830424
 30
0.0
  0
SPLINE
  5
93
330
8C
100
AcDbEntity
  8
_U+30EC_U+30A4_U+30E4_U+30FC 1
370
     0
100
AcDbSpline
210
0.0
220
0.0
230
1.0
 70
    11
 71
     3
 72
    17
 73
    13
 74
     0
 42
0.0000000001
 43
0.0000000001
 12
1.0
 22
0.0
 32
0.0
 13
1.0
 23
0.0
 33
0.0
 40
0.0
 40
0.0
 40
0.0
 40
0.0
 40
1.0
 40
1.0
 40
1.0
 40
2.0
 40
2.0
 40
2.0
 40
3.0
 40
3.0
 40
3.0
 40
4.0
 40
4.0
 40
4.0
 40
4.0
 10
89.35234101498831
 20
-139.5243000953273
 30
0.0
 10
89.1025715923077
 20
-139.5243000953273
 30
0.0
 10
89.05606280325682
 20
-139.8078314537633
 30
0.0
 10
89.05606280325682
 20
-140.1526855118368
 30
0.0
 10
89.05606280325682
 20
-140.4720458633195
 30
0.0
 10
89.09206405107768
 20
-140.7807264187979
 30
0.0
 10
89.35234101498831
 20
-140.7807264187979
 30
0.0
 10
89.59969887082924
 20
-140.7807264187979
 30
0.0
 10
89.64827471717126
 20
-140.4996066272015
 30
0.0
 10
89.64827471717126
 20
-140.1526855118368
 30
0.0
 10
89.64827471717126
 20
-139.8329806508056
 30
0.0
 10
89.61037866683353
 20
-139.5243000953273
 30
0.0
 10
89.35234101498831
 20
-139.5243000953273
 30
0.0
  0
HATCH
  5
94
330
8C
100
AcDbEntity
  8
_U+30EC_U+30A4_U+30E4_U+30FC 1
 62
   179
420
  2234388
100
AcDbHatch
 10
0.0
 20
0.0
 30
0.0
210
0.0
220
0.0
230
1.0
  2
SOLID
 70
     1
 71
     0
 91
        2
 92
        1
 93
        1
 72
     4
 94
        3
 73
     0
 74
     1
 95
       29
 96
       25
 40
0.0
 40
0.0
 40
0.0
 40
0.0
 40
1.0
 40
1.0
 40
1.0
 40
2.0
 40
2.0
 40
2.0
 40
3.0
 40
3.0
 40
3.0
 40
4.0
 40
4.0
 40
4.0
 40
5.0
 40
5.0
 40
5.0
 40
6.0
 40
6.0
 40
6.0
 40
7.0
 40
7.0
 40
7.0
 40
8.0
 40
8.0
 40
8.0
 40
8.0
 10
89.74990503398614
 20
-140.7469644830424
 10
89.64207354529782
 20
-140.9564262885456
 10
89.46844073284123
 20
-140.9753743137145
 10
89.35234101498831
 20
-140.9753743137145
 10
89.19145505582713
 20
-140.9753743137145
 10
89.04968937660911
 20
-140.9288655246636
 10
88.95443248644195
 20
-140.7469644830424
 10
88.8509073671102
 20
-140.5523165881258
 10
88.83178708716706
 20
-140.3152940187406
 10
88.83178708716706
 20
-140.1526855118368
 10
88.83178708716706
 20
-140.0086805205534
 10
88.84866805504478
 20
-139.7568440405816
 10
88.95443248644195
 20
-139.5580620310827
 10
89.06243622990453
 20
-139.3551459070015
 10
89.22314993429144
 20
-139.3317192577018
 10
89.35234101498831
 20
-139.3317192577018
 10
89.5108154073098
 20
-139.3317192577018
 10
89.65482039859324
 20
-139.3761609894615
 10
89.74990503398614
 20
-139.5580620310827
 10
89.84946829350986
 20
-139.7506428687082
 10
89.87255043326104
 20
-139.9790526993802
 10
89.87255043326104
 20
-140.1526855118368
 10
89.87255043326104
 20
-140.3239067574538
 10
89.85153535080102
 20
-140.554383645417
 10
89.74990503398614
 20
-140.7469644830424
 97
        0
 97
        0
 92
        1
 93
        1
 72
     4
 94
        3
 73
     0
 74
     1
 95
       17
 96
       13
 40
0.0
 40
0.0
 40
0.0
 40
0.0
 40
1.0
 40
1.0
 40
1.0
 40
2.0
 40
2.0
 40
2.0
 40
3.0
 40
3.0
 40
3.0
 40
4.0
 40
4.0
 40
4.0
 40
4.0
 10
89.35234101498831
 20
-139.5243000953273
 10
89.1025715923077
 20
-139.5243000953273
 10
89.05606280325682
 20
-139.8078314537633
 10
89.05606280325682
 20
-140.1526855118368
 10
89.05606280325682
 20
-140.4720458633195
 10
89.09206405107768
 20
-140.7807264187979
 10
89.35234101498831
 20
-140.7807264187979
 10
89.59969887082924
 20
-140.7807264187979
 10
89.64827471717126
 20
-140.4996066272015
 10
89.64827471717126
 20
-140.1526855118368
 10
89.64827471717126
 20
-139.8329806508056
 10
89.61037866683353
 20
-139.5243000953273
 10
89.35234101498831
 20
-139.5243000953273
 97
        0
 97
        0
 75
     2
 76
     1
 98
        0
  0
ENDBLK
  5
8F
330
8C
100
AcDbEntity
  8
0
100
AcDbBlockEnd
  0
ENDSEC
  0
SECTION
  2
ENTITIES
  0
POLYLINE
  5
41
330
1F
100
AcDbEntity
  8
_U+30EC_U+30A4_U+30E4_U+30FC 1
 62
   179
420
  2234388
370
    25
100
AcDb2dPolyline
 66
     1
 10
0.0
 20
0.0
 30
0.0
  0
VERTEX
  5
42
330
41
100
AcDbEntity
  8
_U+30EC_U+30A4_U+30E4_U+30FC 1
 62
   179
420
  2234388
370
    25
100
AcDbVertex
100
AcDb2dVertex
 10
73.76413811812006
 20
-137.2181377434732
 30
0.0
  0
VERTEX
  5
43
330
41
100
AcDbEntity
  8
_U+30EC_U+30A4_U+30E4_U+30FC 1
 62
   179
420
  2234388
370
    25
100
AcDbVertex
100
AcDb2dVertex
 10
103.7628426305671
 20
-137.2181377434732
 30
0.0
  0
SEQEND
  5
44
330
41
100
AcDbEntity
  8
_U+30EC_U+30A4_U+30E4_U+30FC 1
 62
   179
420
  2234388
370
    25
  0
POLYLINE
  5
45
330
1F
100
AcDbEntity
  8
_U+30EC_U+30A4_U+30E4_U+30FC 1
 62
   179
420
  2234388
370
    25
100
AcDb2dPolyline
 66
     1
 10
0.0
 20
0.0
 30
0.0
  0
VERTEX
  5
46
330
45
100
AcDbEntity
  8
_U+30EC_U+30A4_U+30E4_U+30FC 1
 62
   179
420
  2234388
370
    25
100
AcDbVertex
100
AcDb2dVertex
 10
78.76451604610534
 20
-122.2176738583345
 30
0.0
  0
VERTEX
  5
47
330
45
100
AcDbEntity
  8
_U+30EC_U+30A4_U+30E4_U+30FC 1
 62
   179
420
  2234388
370
    25
100
AcDbVertex
100
AcDb2dVertex
 10
98.76468720252514
 20
-122.2176738583345
 30
0.0
  0
SEQEND
  5
48
330
45
100
AcDbEntity
  8
_U+30EC_U+30A4_U+30E4_U+30FC 1
 62
   179
420
  2234388
370
    25
  0
POLYLINE
  5
49
330
1F
100
AcDbEntity
  8
_U+30EC_U+30A4_U+30E4_U+30FC 1
 62
   179
420
  2234388
370
    25
100
AcDb2dPolyline
 66
     1
 10
0.0
 20
0.0
 30
0.0
  0
VERTEX
  5
4A
330
49
100
AcDbEntity
  8
_U+30EC_U+30A4_U+30E4_U+30FC 1
 62
   179
420
  2234388
370
    25
100
AcDbVertex
100
AcDb2dVertex
 10
78.76451604610534
 20
-122.2176738583345
 30
0.0
  0
VERTEX
  5
4B
330
49
100
AcDbEntity
  8
_U+30EC_U+30A4_U+30E4_U+30FC 1
 62
   179
420
  2234388
370
    25
100
AcDbVertex
100
AcDb2dVertex
 10
73.76413811812006
 20
-137.2181377434732
 30
0.0
  0
SEQEND
  5
4C
330
49
100
AcDbEntity
  8
_U+30EC_U+30A4_U+30E4_U+30FC 1
 62
   179
420
  2234388
370
    25
  0
POLYLINE
  5
4D
330
1F
100
AcDbEntity
  8
_U+30EC_U+30A4_U+30E4_U+30FC 1
 62
   179
420
  2234388
370
    25
100
AcDb2dPolyline
 66
     1
 10
0.0
 20
0.0
 30
0.0
  0
VERTEX
  5
4E
330
4D
100
AcDbEntity
  8
_U+30EC_U+30A4_U+30E4_U+30FC 1
 62
   179
420
  2234388
370
    25
100
AcDbVertex
100
AcDb2dVertex
 10
98.76468720252514
 20
-122.2176738583345
 30
0.0
  0
VERTEX
  5
4F
330
4D
100
AcDbEntity
  8
_U+30EC_U+30A4_U+30E4_U+30FC 1
 62
   179
420
  2234388
370
    25
100
AcDbVertex
100
AcDb2dVertex
 10
103.7628426305671
 20
-137.2181377434732
 30
0.0
  0
SEQEND
  5
50
330
4D
100
AcDbEntity
  8
_U+30EC_U+30A4_U+30E4_U+30FC 1
 62
   179
420
  2234388
370
    25
  0
SPLINE
  5
51
330
1F
100
AcDbEntity
  8
_U+30EC_U+30A4_U+30E4_U+30FC 1
 62
   179
420
  2234388
370
     9
100
AcDbSpline
210
0.0
220
0.0
230
1.0
 70
    11
 71
     3
 72
    17
 73
    13
 74
     0
 42
0.0000000001
 43
0.0000000001
 12
1.0
 22
0.0
 32
0.0
 13
1.0
 23
0.0
 33
0.0
 40
0.0
 40
0.0
 40
0.0
 40
0.0
 40
1.0
 40
1.0
 40
1.0
 40
2.0
 40
2.0
 40
2.0
 40
3.0
 40
3.0
 40
3.0
 40
4.0
 40
4.0
 40
4.0
 40
4.0
 10
73.8640447822379
 20
-141.2178969091401
 30
0.0
 10
73.8640447822379
 20
-141.1627930202651
 30
0.0
 10
73.81927728338
 20
-141.1179902424984
 30
0.0
 10
73.76413811812006
 20
-141.1179902424984
 30
0.0
 10
73.70903609268396
 20
-141.1179902424984
 30
0.0
 10
73.66423331491724
 20
-141.1627930202651
 30
0.0
 10
73.66423331491724
 20
-141.2178969091401
 30
0.0
 10
73.66423331491724
 20
-141.2730360757931
 30
0.0
 10
73.70903609268396
 20
-141.3178035757817
 30
0.0
 10
73.76413811812006
 20
-141.3178035757817
 30
0.0
 10
73.81927728338
 20
-141.3178035757817
 30
0.0
 10
73.8640447822379
 20
-141.2730360757931
 30
0.0
 10
73.8640447822379
 20
-141.2178969091401
 30
0.0
  0
SPLINE
  5
52
330
1F
100
AcDbEntity
  8
_U+30EC_U+30A4_U+30E4_U+30FC 1
 62
   179
420
  2234388
370
     9
100
AcDbSpline
210
0.0
220
0.0
230
1.0
 70
    11
 71
     3
 72
    17
 73
    13
 74
     0
 42
0.0000000001
 43
0.0000000001
 12
1.0
 22
0.0
 32
0.0
 13
1.0
 23
0.0
 33
0.0
 40
0.0
 40
0.0
 40
0.0
 40
0.0
 40
1.0
 40
1.0
 40
1.0
 40
2.0
 40
2.0
 40
2.0
 40
3.0
 40
3.0
 40
3.0
 40
4.0
 40
4.0
 40
4.0
 40
4.0
 10
103.8634221962561
 20
-141.2178969091401
 30
0.0
 10
103.8634221962561
 20
-141.1627930202651
 30
0.0
 10
103.8186520735877
 20
-141.1179902424984
 30
0.0
 10
103.7628426305671
 20
-141.1179902424984
 30
0.0
 10
103.7077034653072
 20
-141.1179902424984
 30
0.0
 10
103.6629359664493
 20
-141.1627930202651
 30
0.0
 10
103.6629359664493
 20
-141.2178969091401
 30
0.0
 10
103.6629359664493
 20
-141.2730360757931
 30
0.0
 10
103.7077034653072
 20
-141.3178035757817
 30
0.0
 10
103.7628426305671
 20
-141.3178035757817
 30
0.0
 10
103.8186520735877
 20
-141.3178035757817
 30
0.0
 10
103.8634221962561
 20
-141.2730360757931
 30
0.0
 10
103.8634221962561
 20
-141.2178969091401
 30
0.0
  0
SPLINE
  5
53
330
1F
100
AcDbEntity
  8
_U+30EC_U+30A4_U+30E4_U+30FC 1
 62
   179
420
  2234388
370
     9
100
AcDbSpline
210
0.0
220
0.0
230
1.0
 70
    11
 71
     3
 72
    17
 73
    13
 74
     0
 42
0.0000000001
 43
0.0000000001
 12
1.0
 22
0.0
 32
0.0
 13
1.0
 23
0.0
 33
0.0
 40
0.0
 40
0.0
 40
0.0
 40
0.0
 40
1.0
 40
1.0
 40
1.0
 40
2.0
 40
2.0
 40
2.0
 40
3.0
 40
3.0
 40
3.0
 40
4.0
 40
4.0
 40
4.0
 40
4.0
 10
105.7465120244039
 20
-137.2181377434732
 30
0.0
 10
105.7465120244039
 20
-137.1623282990427
 30
0.0
 10
105.7017471957969
 20
-137.1175607990542
 30
0.0
 10
105.6466053602861
 20
-137.1175607990542
 30
0.0
 10
105.591501472803
 20
-137.1175607990542
 30
0.0
 10
105.5466986961683
 20
-137.1623282990427
 30
0.0
 10
105.5466986961683
 20
-137.2181377434732
 30
0.0
 10
105.5466986961683
 20
-137.2732769101262
 30
0.0
 10
105.591501472803
 20
-137.3180444101148
 30
0.0
 10
105.6466053602861
 20
-137.3180444101148
 30
0.0
 10
105.7017471957969
 20
-137.3180444101148
 30
0.0
 10
105.7465120244039
 20
-137.2732769101262
 30
0.0
 10
105.7465120244039
 20
-137.2181377434732
 30
0.0
  0
SPLINE
  5
54
330
1F
100
AcDbEntity
  8
_U+30EC_U+30A4_U+30E4_U+30FC 1
 62
   179
420
  2234388
370
     9
100
AcDbSpline
210
0.0
220
0.0
230
1.0
 70
    11
 71
     3
 72
    17
 73
    13
 74
     0
 42
0.0000000001
 43
0.0000000001
 12
1.0
 22
0.0
 32
0.0
 13
1.0
 23
0.0
 33
0.0
 40
0.0
 40
0.0
 40
0.0
 40
0.0
 40
1.0
 40
1.0
 40
1.0
 40
2.0
 40
2.0
 40
2.0
 40
3.0
 40
3.0
 40
3.0
 40
4.0
 40
4.0
 40
4.0
 40
4.0
 10
105.7465120244039
 20
-122.2176738583345
 30
0.0
 10
105.7465120244039
 20
-122.1625699694592
 30
0.0
 10
105.7017471957969
 20
-122.1177671916928
 30
0.0
 10
105.6466053602861
 20
-122.1177671916928
 30
0.0
 10
105.591501472803
 20
-122.1177671916928
 30
0.0
 10
105.5466986961683
 20
-122.1625699694592
 30
0.0
 10
105.5466986961683
 20
-122.2176738583345
 30
0.0
 10
105.5466986961683
 20
-122.2728130249872
 30
0.0
 10
105.591501472803
 20
-122.317615802754
 30
0.0
 10
105.6466053602861
 20
-122.317615802754
 30
0.0
 10
105.7017471957969
 20
-122.317615802754
 30
0.0
 10
105.7465120244039
 20
-122.2728130249872
 30
0.0
 10
105.7465120244039
 20
-122.2176738583345
 30
0.0
  0
SPLINE
  5
55
330
1F
100
AcDbEntity
  8
_U+30EC_U+30A4_U+30E4_U+30FC 1
 62
   179
420
  2234388
370
     9
100
AcDbSpline
210
0.0
220
0.0
230
1.0
 70
    11
 71
     3
 72
    17
 73
    13
 74
     0
 42
0.0000000001
 43
0.0000000001
 12
1.0
 22
0.0
 32
0.0
 13
1.0
 23
0.0
 33
0.0
 40
0.0
 40
0.0
 40
0.0
 40
0.0
 40
1.0
 40
1.0
 40
1.0
 40
2.0
 40
2.0
 40
2.0
 40
3.0
 40
3.0
 40
3.0
 40
4.0
 40
4.0
 40
4.0
 40
4.0
 10
98.86459386664296
 20
-118.2179499704454
 30
0.0
 10
98.86459386664296
 20
-118.1628108037927
 30
0.0
 10
98.81979109000821
 20
-118.1180433038038
 30
0.0
 10
98.76468720252514
 20
-118.1180433038038
 30
0.0
 10
98.70954803726518
 20
-118.1180433038038
 30
0.0
 10
98.6647805384073
 20
-118.1628108037927
 30
0.0
 10
98.6647805384073
 20
-118.2179499704454
 30
0.0
 10
98.6647805384073
 20
-118.2730538593207
 30
0.0
 10
98.70954803726518
 20
-118.3178566370871
 30
0.0
 10
98.76468720252514
 20
-118.3178566370871
 30
0.0
 10
98.81979109000821
 20
-118.3178566370871
 30
0.0
 10
98.86459386664296
 20
-118.2730538593207
 30
0.0
 10
98.86459386664296
 20
-118.2179499704454
 30
0.0
  0
SPLINE
  5
56
330
1F
100
AcDbEntity
  8
_U+30EC_U+30A4_U+30E4_U+30FC 1
 62
   179
420
  2234388
370
     9
100
AcDbSpline
210
0.0
220
0.0
230
1.0
 70
    11
 71
     3
 72
    17
 73
    13
 74
     0
 42
0.0000000001
 43
0.0000000001
 12
1.0
 22
0.0
 32
0.0
 13
1.0
 23
0.0
 33
0.0
 40
0.0
 40
0.0
 40
0.0
 40
0.0
 40
1.0
 40
1.0
 40
1.0
 40
2.0
 40
2.0
 40
2.0
 40
3.0
 40
3.0
 40
3.0
 40
4.0
 40
4.0
 40
4.0
 40
4.0
 10
78.86442271022318
 20
-118.2179499704454
 30
0.0
 10
78.86442271022318
 20
-118.1628108037927
 30
0.0
 10
78.81965521136529
 20
-118.1180433038038
 30
0.0
 10
78.76451604610534
 20
-118.1180433038038
 30
0.0
 10
78.70941215862227
 20
-118.1180433038038
 30
0.0
 10
78.6646093819875
 20
-118.1628108037927
 30
0.0
 10
78.6646093819875
 20
-118.2179499704454
 30
0.0
 10
78.6646093819875
 20
-118.2730538593207
 30
0.0
 10
78.70941215862227
 20
-118.3178566370871
 30
0.0
 10
78.76451604610534
 20
-118.3178566370871
 30
0.0
 10
78.81965521136529
 20
-118.3178566370871
 30
0.0
 10
78.86442271022318
 20
-118.2730538593207
 30
0.0
 10
78.86442271022318
 20
-118.2179499704454
 30
0.0
  0
POLYLINE
  5
57
330
1F
100
AcDbEntity
  8
_U+30EC_U+30A4_U+30E4_U+30FC 1
 62
   179
420
  2234388
370
     9
100
AcDb2dPolyline
 66
     1
 10
0.0
 20
0.0
 30
0.0
  0
VERTEX
  5
58
330
57
100
AcDbEntity
  8
_U+30EC_U+30A4_U+30E4_U+30FC 1
 62
   179
420
  2234388
370
     9
100
AcDbVertex
100
AcDb2dVertex
 10
78.76451604610534
 20
-118.2179499704454
 30
0.0
  0
VERTEX
  5
59
330
57
100
AcDbEntity
  8
_U+30EC_U+30A4_U+30E4_U+30FC 1
 62
   179
420
  2234388
370
     9
100
AcDbVertex
100
AcDb2dVertex
 10
98.76468720252514
 20
-118.2179499704454
 30
0.0
  0
SEQEND
  5
5A
330
57
100
AcDbEntity
  8
_U+30EC_U+30A4_U+30E4_U+30FC 1
 62
   179
420
  2234388
370
     9
  0
POLYLINE
  5
5B
330
1F
100
AcDbEntity
  8
_U+30EC_U+30A4_U+30E4_U+30FC 1
 62
   179
420
  2234388
370
     9
100
AcDb2dPolyline
 66
     1
 10
0.0
 20
0.0
 30
0.0
  0
VERTEX
  5
5C
330
5B
100
AcDbEntity
  8
_U+30EC_U+30A4_U+30E4_U+30FC 1
 62
   179
420
  2234388
370
     9
100
AcDbVertex
100
AcDb2dVertex
 10
78.76451604610534
 20
-119.6779560811916
 30
0.0
  0
VERTEX
  5
5D
330
5B
100
AcDbEntity
  8
_U+30EC_U+30A4_U+30E4_U+30FC 1
 62
   179
420
  2234388
370
     9
100
AcDbVertex
100
AcDb2dVertex
 10
78.76451604610534
 20
-117.2178249706955
 30
0.0
  0
SEQEND
  5
5E
330
5B
100
AcDbEntity
  8
_U+30EC_U+30A4_U+30E4_U+30FC 1
 62
   179
420
  2234388
370
     9
  0
POLYLINE
  5
5F
330
1F
100
AcDbEntity
  8
_U+30EC_U+30A4_U+30E4_U+30FC 1
 62
   179
420
  2234388
370
     9
100
AcDb2dPolyline
 66
     1
 10
0.0
 20
0.0
 30
0.0
  0
VERTEX
  5
60
330
5F
100
AcDbEntity
  8
_U+30EC_U+30A4_U+30E4_U+30FC 1
 62
   179
420
  2234388
370
     9
100
AcDbVertex
100
AcDb2dVertex
 10
98.76468720252514
 20
-119.6779560811916
 30
0.0
  0
VERTEX
  5
61
330
5F
100
AcDbEntity
  8
_U+30EC_U+30A4_U+30E4_U+30FC 1
 62
   179
420
  2234388
370
     9
100
AcDbVertex
100
AcDb2dVertex
 10
98.76468720252514
 20
-117.2178249706955
 30
0.0
  0
SEQEND
  5
62
330
5F
100
AcDbEntity
  8
_U+30EC_U+30A4_U+30E4_U+30FC 1
 62
   179
420
  2234388
370
     9
  0
INSERT
  5
64
330
1F
100
AcDbEntity
  8
_U+30EC_U+30A4_U+30E4_U+30FC 1
100
AcDbBlockReference
  2
block 2
 10
0.0
 20
0.0
 30
0.0
  0
POLYLINE
  5
6C
330
1F
100
AcDbEntity
  8
_U+30EC_U+30A4_U+30E4_U+30FC 1
 62
   179
420
  2234388
370
     9
100
AcDb2dPolyline
 66
     1
 10
0.0
 20
0.0
 30
0.0
  0
VERTEX
  5
6D
330
6C
100
AcDbEntity
  8
_U+30EC_U+30A4_U+30E4_U+30FC 1
 62
   179
420
  2234388
370
     9
100
AcDbVertex
100
AcDb2dVertex
 10
105.6466053602861
 20
-122.2176738583345
 30
0.0
  0
VERTEX
  5
6E
330
6C
100
AcDbEntity
  8
_U+30EC_U+30A4_U+30E4_U+30FC 1
 62
   179
420
  2234388
370
     9
100
AcDbVertex
100
AcDb2dVertex
 10
105.6466053602861
 20
-137.2181377434732
 30
0.0
  0
SEQEND
  5
6F
330
6C
100
AcDbEntity
  8
_U+30EC_U+30A4_U+30E4_U+30FC 1
 62
   179
420
  2234388
370
     9
  0
POLYLINE
  5
70
330
1F
100
AcDbEntity
  8
_U+30EC_U+30A4_U+30E4_U+30FC 1
 62
   179
420
  2234388
370
     9
100
AcDb2dPolyline
 66
     1
 10
0.0
 20
0.0
 30
0.0
  0
VERTEX
  5
71
330
70
100
AcDbEntity
  8
_U+30EC_U+30A4_U+30E4_U+30FC 1
 62
   179
420
  2234388
370
     9
100
AcDbVertex
100
AcDb2dVertex
 10
101.3040521377405
 20
-122.2176738583345
 30
0.0
  0
VERTEX
  5
72
330
70
100
AcDbEntity
  8
_U+30EC_U+30A4_U+30E4_U+30FC 1
 62
   179
420
  2234388
370
     9
100
AcDbVertex
100
AcDb2dVertex
 10
106.646377557002
 20
-122.2176738583345
 30
0.0
  0
SEQEND
  5
73
330
70
100
AcDbEntity
  8
_U+30EC_U+30A4_U+30E4_U+30FC 1
 62
   179
420
  2234388
370
     9
  0
POLYLINE
  5
74
330
1F
100
AcDbEntity
  8
_U+30EC_U+30A4_U+30E4_U+30FC 1
 62
   179
420
  2234388
370
     9
100
AcDb2dPolyline
 66
     1
 10
0.0
 20
0.0
 30
0.0
  0
VERTEX
  5
75
330
74
100
AcDbEntity
  8
_U+30EC_U+30A4_U+30E4_U+30FC 1
 62
   179
420
  2234388
370
     9
100
AcDbVertex
100
AcDb2dVertex
 10
104.5049106671909
 20
-137.2181377434732
 30
0.0
  0
VERTEX
  5
76
330
74
100
AcDbEntity
  8
_U+30EC_U+30A4_U+30E4_U+30FC 1
 62
   179
420
  2234388
370
     9
100
AcDbVertex
100
AcDb2dVertex
 10
106.646377557002
 20
-137.2181377434732
 30
0.0
  0
SEQEND
  5
77
330
74
100
AcDbEntity
  8
_U+30EC_U+30A4_U+30E4_U+30FC 1
 62
   179
420
  2234388
370
     9
  0
INSERT
  5
79
330
1F
100
AcDbEntity
  8
_U+30EC_U+30A4_U+30E4_U+30FC 1
100
AcDbBlockReference
  2
block 3
 10
0.0
 20
0.0
 30
0.0
  0
POLYLINE
  5
80
330
1F
100
AcDbEntity
  8
_U+30EC_U+30A4_U+30E4_U+30FC 1
 62
   179
420
  2234388
370
     9
100
AcDb2dPolyline
 66
     1
 10
0.0
 20
0.0
 30
0.0
  0
VERTEX
  5
81
330
80
100
AcDbEntity
  8
_U+30EC_U+30A4_U+30E4_U+30FC 1
 62
   179
420
  2234388
370
     9
100
AcDbVertex
100
AcDb2dVertex
 10
73.76413811812006
 20
-141.2178969091401
 30
0.0
  0
VERTEX
  5
82
330
80
100
AcDbEntity
  8
_U+30EC_U+30A4_U+30E4_U+30FC 1
 62
   179
420
  2234388
370
     9
100
AcDbVertex
100
AcDb2dVertex
 10
103.7628426305671
 20
-141.2178969091401
 30
0.0
  0
SEQEND
  5
83
330
80
100
AcDbEntity
  8
_U+30EC_U+30A4_U+30E4_U+30FC 1
 62
   179
420
  2234388
370
     9
  0
POLYLINE
  5
84
330
1F
100
AcDbEntity
  8
_U+30EC_U+30A4_U+30E4_U+30FC 1
 62
   179
420
  2234388
370
     9
100
AcDb2dPolyline
 66
     1
 10
0.0
 20
0.0
 30
0.0
  0
VERTEX
  5
85
330
84
100
AcDbEntity
  8
_U+30EC_U+30A4_U+30E4_U+30FC 1
 62
   179
420
  2234388
370
     9
100
AcDbVertex
100
AcDb2dVertex
 10
73.76413811812006
 20
-139.7578907983938
 30
0.0
  0
VERTEX
  5
86
330
84
100
AcDbEntity
  8
_U+30EC_U+30A4_U+30E4_U+30FC 1
 62
   179
420
  2234388
370
     9
100
AcDbVertex
100
AcDb2dVertex
 10
73.76413811812006
 20
-142.2176691311119
 30
0.0
  0
SEQEND
  5
87
330
84
100
AcDbEntity
  8
_U+30EC_U+30A4_U+30E4_U+30FC 1
 62
   179
420
  2234388
370
     9
  0
POLYLINE
  5
88
330
1F
100
AcDbEntity
  8
_U+30EC_U+30A4_U+30E4_U+30FC 1
 62
   179
420
  2234388
370
     9
100
AcDb2dPolyline
 66
     1
 10
0.0
 20
0.0
 30
0.0
  0
VERTEX
  5
89
330
88
100
AcDbEntity
  8
_U+30EC_U+30A4_U+30E4_U+30FC 1
 62
   179
420
  2234388
370
     9
100
AcDbVertex
100
AcDb2dVertex
 10
103.7628426305671
 20
-139.7578907983938
 30
0.0
  0
VERTEX
  5
8A
330
88
100
AcDbEntity
  8
_U+30EC_U+30A4_U+30E4_U+30FC 1
 62
   179
420
  2234388
370
     9
100
AcDbVertex
100
AcDb2dVertex
 10
103.7628426305671
 20
-142.2176691311119
 30
0.0
  0
SEQEND
  5
8B
330
88
100
AcDbEntity
  8
_U+30EC_U+30A4_U+30E4_U+30FC 1
 62
   179
420
  2234388
370
     9
  0
INSERT
  5
8D
330
1F
100
AcDbEntity
  8
_U+30EC_U+30A4_U+30E4_U+30FC 1
100
AcDbBlockReference
  2
block 4
 10
0.0
 20
0.0
 30
0.0
  0
SPLINE
  5
95
330
1F
100
AcDbEntity
  8
_U+30EC_U+30A4_U+30E4_U+30FC 1
370
     0
100
AcDbSpline
210
0.0
220
0.0
230
1.0
 70
    11
 71
     3
 72
    17
 73
    13
 74
     0
 42
0.0000000001
 43
0.0000000001
 12
1.0
 22
0.0
 32
0.0
 13
1.0
 23
0.0
 33
0.0
 40
0.0
 40
0.0
 40
0.0
 40
0.0
 40
1.0
 40
1.0
 40
1.0
 40
2.0
 40
2.0
 40
2.0
 40
3.0
 40
3.0
 40
3.0
 40
4.0
 40
4.0
 40
4.0
 40
4.0
 10
73.74572498156346
 20
-137.1878341323696
 30
0.0
 10
74.01030831483064
 20
-137.1878341323696
 30
0.0
 10
103.6422631891989
 20
-137.1878341323696
 30
0.0
 10
103.6422631891989
 20
-137.1878341323696
 30
0.0
 10
103.6422631891989
 20
-137.1878341323696
 30
0.0
 10
98.79294719752387
 20
-122.2831494138736
 30
0.0
 10
98.79294719752387
 20
-122.2831494138736
 30
0.0
 10
98.79294719752387
 20
-122.2831494138736
 30
0.0
 10
78.77280831364001
 20
-122.2831494138736
 30
0.0
 10
78.77280831364001
 20
-122.2831494138736
 30
0.0
 10
78.77280831364001
 20
-122.2831494138736
 30
0.0
 10
73.74572498156346
 20
-137.1878341323696
 30
0.0
 10
73.74572498156346
 20
-137.1878341323696
 30
0.0
  0
HATCH
  5
96
330
1F
100
AcDbEntity
  8
_U+30EC_U+30A4_U+30E4_U+30FC 1
 62
   178
420
        0
100
AcDbHatch
 10
0.0
 20
0.0
 30
0.0
210
0.0
220
0.0
230
1.0
  2
AI_USER_DEFINED_HATCH
 70
     0
 71
     0
 91
        1
 92
        1
 93
        1
 72
     4
 94
        3
 73
     0
 74
     1
 95
       17
 96
       13
 40
0.0
 40
0.0
 40
0.0
 40
0.0
 40
1.0
 40
1.0
 40
1.0
 40
2.0
 40
2.0
 40
2.0
 40
3.0
 40
3.0
 40
3.0
 40
4.0
 40
4.0
 40
4.0
 40
4.0
 10
73.74572498156346
 20
-137.1878341323696
 10
74.01030831483064
 20
-137.1878341323696
 10
103.6422631891989
 20
-137.1878341323696
 10
103.6422631891989
 20
-137.1878341323696
 10
103.6422631891989
 20
-137.1878341323696
 10
98.79294719752387
 20
-122.2831494138736
 10
98.79294719752387
 20
-122.2831494138736
 10
98.79294719752387
 20
-122.2831494138736
 10
78.77280831364001
 20
-122.2831494138736
 10
78.77280831364001
 20
-122.2831494138736
 10
78.77280831364001
 20
-122.2831494138736
 10
73.74572498156346
 20
-137.1878341323696
 10
73.74572498156346
 20
-137.1878341323696
 97
        0
 97
        0
 75
     2
 76
     0
 52
45.0
 41
10.0
 77
     0
 78
     1
 53
45.0
 43
0.0
 44
0.0
 45
-7.071067811865475
 46
7.071067811865476
 79
     0
 98
        0
  0
ENDSEC
  0
SECTION
  2
OBJECTS
  0
DICTIONARY
  5
C
330
0
100
AcDbDictionary
281
     1
  3
ACAD_GROUP
350
D
  3
ACAD_LAYOUT
350
1A
  3
ACAD_MATERIAL
350
3B
  3
ACAD_MLEADERSTYLE
350
98
  3
ACAD_MLINESTYLE
350
17
  3
ACAD_PLOTSETTINGS
350
19
  3
ACAD_PLOTSTYLENAME
350
E
  3
ACAD_TABLESTYLE
350
97
  3
ACAD_VISUALSTYLE
350
2A
  0
SUN
  5
3F
330
29
100
AcDbSun
 90
        1
290
     0
 63
     7
421
 16777215
 40
1.0
291
     1
 91
  2455826
 92
 54000000
292
     0
 70
     2
 71
   256
280
     1
  0
DICTIONARY
  5
D
102
{ACAD_REACTORS
330
C
102
}
330
C
100
AcDbDictionary
281
     1
  0
DICTIONARY
  5
1A
102
{ACAD_REACTORS
330
C
102
}
330
C
100
AcDbDictionary
281
     1
  3
Layout1
350
1E
  3
Layout2
350
26
  3
Model
350
22
  0
DICTIONARY
  5
3B
102
{ACAD_REACTORS
330
C
102
}
330
C
100
AcDbDictionary
281
     1
  3
ByBlock
350
3D
  3
ByLayer
350
3C
  3
Global
350
3E
  0
DICTIONARY
  5
98
102
{ACAD_REACTORS
330
C
102
}
330
C
100
AcDbDictionary
281
     1
  0
DICTIONARY
  5
17
102
{ACAD_REACTORS
330
C
102
}
330
C
100
AcDbDictionary
281
     1
  3
Standard
350
18
  0
DICTIONARY
  5
19
102
{ACAD_REACTORS
330
C
102
}
330
C
100
AcDbDictionary
281
     1
  0
ACDBDICTIONARYWDFLT
  5
E
102
{ACAD_REACTORS
330
C
102
}
330
C
100
AcDbDictionary
281
     1
  3
Normal
350
F
100
AcDbDictionaryWithDefault
340
F
  0
DICTIONARY
  5
97
102
{ACAD_REACTORS
330
C
102
}
330
C
100
AcDbDictionary
281
     1
  0
DICTIONARY
  5
2A
102
{ACAD_REACTORS
330
C
102
}
330
C
100
AcDbDictionary
281
     1
  3
2dWireframe
350
2F
  3
3D Hidden
350
31
  3
3dWireframe
350
30
  3
Basic
350
32
  3
Brighten
350
36
  3
ColorChange
350
3A
  3
Conceptual
350
34
  3
Dim
350
35
  3
Facepattern
350
39
  3
Flat
350
2B
  3
FlatWithEdges
350
2C
  3
Gouraud
350
2D
  3
GouraudWithEdges
350
2E
  3
Linepattern
350
38
  3
Realistic
350
33
  3
Thicken
350
37
  0
LAYOUT
  5
1E
102
{ACAD_REACTORS
330
1A
102
}
330
1A
100
AcDbPlotSettings
  1

  2
none_device
  4

  6

 40
0.0
 41
0.0
 42
0.0
 43
0.0
 44
0.0
 45
0.0
 46
0.0
 47
0.0
 48
0.0
 49
0.0
140
0.0
141
0.0
142
1.0
143
1.0
 70
   688
 72
     0
 73
     0
 74
     5
  7

 75
    16
 76
     0
 77
     2
 78
   300
147
1.0
148
0.0
149
0.0
100
AcDbLayout
  1
Layout1
 70
     1
 71
     1
 10
0.0
 20
0.0
 11
12.0
 21
9.0
 12
0.0
 22
0.0
 32
0.0
 14
1.000000000000000E+20
 24
1.000000000000000E+20
 34
1.000000000000000E+20
 15
-1.000000000000000E+20
 25
-1.000000000000000E+20
 35
-1.000000000000000E+20
146
0.0
 13
0.0
 23
0.0
 33
0.0
 16
1.0
 26
0.0
 36
0.0
 17
0.0
 27
1.0
 37
0.0
 76
     0
330
1B
  0
LAYOUT
  5
26
102
{ACAD_REACTORS
330
1A
102
}
330
1A
100
AcDbPlotSettings
  1

  2
none_device
  4

  6

 40
0.0
 41
0.0
 42
0.0
 43
0.0
 44
0.0
 45
0.0
 46
0.0
 47
0.0
 48
0.0
 49
0.0
140
0.0
141
0.0
142
1.0
143
1.0
 70
   688
 72
     0
 73
     0
 74
     5
  7

 75
    16
 76
     0
 77
     2
 78
   300
147
1.0
148
0.0
149
0.0
100
AcDbLayout
  1
Layout2
 70
     1
 71
     2
 10
0.0
 20
0.0
 11
0.0
 21
0.0
 12
0.0
 22
0.0
 32
0.0
 14
0.0
 24
0.0
 34
0.0
 15
0.0
 25
0.0
 35
0.0
146
0.0
 13
0.0
 23
0.0
 33
0.0
 16
1.0
 26
0.0
 36
0.0
 17
0.0
 27
1.0
 37
0.0
 76
     0
330
23
  0
LAYOUT
  5
22
102
{ACAD_REACTORS
330
1A
102
}
330
1A
100
AcDbPlotSettings
  1

  2
none_device
  4

  6

 40
0.0
 41
0.0
 42
0.0
 43
0.0
 44
0.0
 45
0.0
 46
0.0
 47
0.0
 48
0.0
 49
0.0
140
0.0
141
0.0
142
1.0
143
1.0
 70
  1712
 72
     0
 73
     0
 74
     0
  7

 75
     0
 76
     0
 77
     2
 78
   300
147
1.0
148
0.0
149
0.0
100
AcDbLayout
  1
Model
 70
     1
 71
     0
 10
0.0
 20
0.0
 11
12.0
 21
9.0
 12
0.0
 22
0.0
 32
0.0
 14
1.000000000000000E+20
 24
1.000000000000000E+20
 34
1.000000000000000E+20
 15
-1.000000000000000E+20
 25
-1.000000000000000E+20
 35
-1.000000000000000E+20
146
0.0
 13
0.0
 23
0.0
 33
0.0
 16
1.0
 26
0.0
 36
0.0
 17
0.0
 27
1.0
 37
0.0
 76
     0
330
1F
331
29
  0
MATERIAL
  5
3D
102
{ACAD_REACTORS
330
3B
102
}
330
3B
100
AcDbMaterial
  1
ByBlock
 72
     1
 94
      127
  0
MATERIAL
  5
3C
102
{ACAD_REACTORS
330
3B
102
}
330
3B
100
AcDbMaterial
  1
ByLayer
 72
     1
 94
      127
  0
MATERIAL
  5
3E
102
{ACAD_REACTORS
330
3B
102
}
330
3B
100
AcDbMaterial
  1
Global
 72
     1
 94
      127
  0
MLINESTYLE
  5
18
102
{ACAD_REACTORS
330
17
102
}
330
17
100
AcDbMlineStyle
  2
Standard
 70
     0
  3

 62
   256
 51
90.0
 52
90.0
 71
     2
 49
0.5
 62
   256
  6
BYLAYER
 49
-0.5
 62
   256
  6
BYLAYER
  0
ACDBPLACEHOLDER
  5
F
102
{ACAD_REACTORS
330
E
102
}
330
E
  0
VISUALSTYLE
  5
2F
102
{ACAD_REACTORS
330
2A
102
}
330
2A
100
AcDbVisualStyle
  2
2dWireframe
 70
     4
177
     2
291
     0
 71
     0
176
     1
 72
     2
176
     1
 73
     0
176
     1
 90
        0
176
     1
 40
-0.6
176
     1
 41
-30.0
176
     1
 62
     5
 63
     7
421
 16777215
176
     1
 74
     1
176
     1
 91
        4
176
     1
 64
     7
176
     1
 65
   257
176
     1
 75
     1
176
     1
175
     1
176
     1
 42
1.0
176
     1
 92
        0
176
     1
 66
   257
176
     1
 43
1.0
176
     1
 76
     1
176
     1
 77
     6
176
     1
 78
     2
176
     1
 67
     7
176
     1
 79
     5
176
     1
170
     0
176
     1
171
     0
176
     1
290
     0
176
     1
 93
        1
176
     1
 44
0.0
176
     1
173
     0
176
     1
  0
VISUALSTYLE
  5
31
102
{ACAD_REACTORS
330
2A
102
}
330
2A
100
AcDbVisualStyle
  2
3D Hidden
 70
     6
177
     2
291
     0
 71
     1
176
     1
 72
     2
176
     1
 73
     2
176
     1
 90
        0
176
     1
 40
-0.6
176
     1
 41
-30.0
176
     1
 62
     5
 63
     7
421
 16777215
176
     1
 74
     2
176
     1
 91
        2
176
     1
 64
     7
176
     1
 65
   257
176
     1
 75
     2
176
     1
175
     1
176
     1
 42
40.0
176
     1
 92
        0
176
     1
 66
   257
176
     1
 43
1.0
176
     1
 76
     1
176
     1
 77
     6
176
     1
 78
     2
176
     1
 67
     7
176
     1
 79
     3
176
     1
170
     0
176
     1
171
     0
176
     1
290
     0
176
     1
 93
        1
176
     1
 44
0.0
176
     1
173
     0
176
     1
  0
VISUALSTYLE
  5
30
102
{ACAD_REACTORS
330
2A
102
}
330
2A
100
AcDbVisualStyle
  2
3dWireframe
 70
     5
177
     2
291
     0
 71
     0
176
     1
 72
     2
176
     1
 73
     0
176
     1
 90
        0
176
     1
 40
-0.6
176
     1
 41
-30.0
176
     1
 62
     5
 63
     7
421
 16777215
176
     1
 74
     1
176
     1
 91
        4
176
     1
 64
     7
176
     1
 65
   257
176
     1
 75
     1
176
     1
175
     1
176
     1
 42
1.0
176
     1
 92
        0
176
     1
 66
   257
176
     1
 43
1.0
176
     1
 76
     1
176
     1
 77
     6
176
     1
 78
     2
176
     1
 67
     7
176
     1
 79
     5
176
     1
170
     0
176
     1
171
     0
176
     1
290
     0
176
     1
 93
        1
176
     1
 44
0.0
176
     1
173
     0
176
     1
  0
VISUALSTYLE
  5
32
102
{ACAD_REACTORS
330
2A
102
}
330
2A
100
AcDbVisualStyle
  2
Basic
 70
     7
177
     2
291
     1
 71
     1
176
     1
 72
     0
176
     1
 73
     1
176
     1
 90
        0
176
     1
 40
-0.6
176
     1
 41
-30.0
176
     1
 62
     5
 63
     7
421
 16777215
176
     1
 74
     0
176
     1
 91
        4
176
     1
 64
     7
176
     1
 65
   257
176
     1
 75
     1
176
     1
175
     1
176
     1
 42
1.0
176
     1
 92
        8
176
     1
 66
     7
176
     1
 43
1.0
176
     1
 76
     1
176
     1
 77
     6
176
     1
 78
     2
176
     1
 67
     7
176
     1
 79
     5
176
     1
170
     0
176
     1
171
     0
176
     1
290
     0
176
     1
 93
        1
176
     1
 44
0.0
176
     1
173
     0
176
     1
  0
VISUALSTYLE
  5
36
102
{ACAD_REACTORS
330
2A
102
}
330
2A
100
AcDbVisualStyle
  2
Brighten
 70
    12
177
     2
291
     1
 71
     2
176
     1
 72
     2
176
     1
 73
     0
176
     1
 90
        0
176
     1
 40
-0.6
176
     1
 41
-30.0
176
     1
 62
     5
 63
     7
421
 16777215
176
     1
 74
     1
176
     1
 91
        4
176
     1
 64
     7
176
     1
 65
   257
176
     1
 75
     1
176
     1
175
     1
176
     1
 42
1.0
176
     1
 92
        8
176
     1
 66
     7
176
     1
 43
1.0
176
     1
 76
     1
176
     1
 77
     6
176
     1
 78
     2
176
     1
 67
     7
176
     1
 79
     5
176
     1
170
     0
176
     1
171
     0
176
     1
290
     0
176
     1
 93
        1
176
     1
 44
50.0
176
     1
173
     0
176
     1
  0
VISUALSTYLE
  5
3A
102
{ACAD_REACTORS
330
2A
102
}
330
2A
100
AcDbVisualStyle
  2
ColorChange
 70
    16
177
     2
291
     1
 71
     2
176
     1
 72
     2
176
     1
 73
     3
176
     1
 90
        0
176
     1
 40
-0.6
176
     1
 41
-30.0
176
     1
 62
     5
 63
     8
421
  8421504
176
     1
 74
     1
176
     1
 91
        4
176
     1
 64
     7
176
     1
 65
   257
176
     1
 75
     1
176
     1
175
     1
176
     1
 42
1.0
176
     1
 92
        8
176
     1
 66
     8
424
  8421504
176
     1
 43
1.0
176
     1
 76
     1
176
     1
 77
     6
176
     1
 78
     2
176
     1
 67
     7
176
     1
 79
     5
176
     1
170
     0
176
     1
171
     0
176
     1
290
     0
176
     1
 93
        1
176
     1
 44
0.0
176
     1
173
     0
176
     1
  0
VISUALSTYLE
  5
34
102
{ACAD_REACTORS
330
2A
102
}
330
2A
100
AcDbVisualStyle
  2
Conceptual
 70
     9
177
     2
291
     0
 71
     3
176
     1
 72
     2
176
     1
 73
     0
176
     1
 90
        0
176
     1
 40
-0.6
176
     1
 41
-30.0
176
     1
 62
     5
 63
     7
421
 16777215
176
     1
 74
     2
176
     1
 91
        2
176
     1
 64
     7
176
     1
 65
   257
176
     1
 75
     1
176
     1
175
     1
176
     1
 42
40.0
176
     1
 92
        8
176
     1
 66
     7
176
     1
 43
1.0
176
     1
 76
     1
176
     1
 77
     6
176
     1
 78
     2
176
     1
 67
     7
176
     1
 79
     3
176
     1
170
     0
176
     1
171
     0
176
     1
290
     0
176
     1
 93
        1
176
     1
 44
0.0
176
     1
173
     0
176
     1
  0
VISUALSTYLE
  5
35
102
{ACAD_REACTORS
330
2A
102
}
330
2A
100
AcDbVisualStyle
  2
Dim
 70
    11
177
     2
291
     1
 71
     2
176
     1
 72
     2
176
     1
 73
     0
176
     1
 90
        0
176
     1
 40
-0.6
176
     1
 41
-30.0
176
     1
 62
     5
 63
     7
421
 16777215
176
     1
 74
     1
176
     1
 91
        4
176
     1
 64
     7
176
     1
 65
   257
176
     1
 75
     1
176
     1
175
     1
176
     1
 42
1.0
176
     1
 92
        8
176
     1
 66
     7
176
     1
 43
1.0
176
     1
 76
     1
176
     1
 77
     6
176
     1
 78
     2
176
     1
 67
     7
176
     1
 79
     5
176
     1
170
     0
176
     1
171
     0
176
     1
290
     0
176
     1
 93
        1
176
     1
 44
-50.0
176
     1
173
     0
176
     1
  0
VISUALSTYLE
  5
39
102
{ACAD_REACTORS
330
2A
102
}
330
2A
100
AcDbVisualStyle
  2
Facepattern
 70
    15
177
     2
291
     1
 71
     2
176
     1
 72
     2
176
     1
 73
     0
176
     1
 90
        0
176
     1
 40
-0.6
176
     1
 41
-30.0
176
     1
 62
     5
 63
     7
421
 16777215
176
     1
 74
     1
176
     1
 91
        4
176
     1
 64
     7
176
     1
 65
   257
176
     1
 75
     1
176
     1
175
     1
176
     1
 42
1.0
176
     1
 92
        8
176
     1
 66
     7
176
     1
 43
1.0
176
     1
 76
     1
176
     1
 77
     6
176
     1
 78
     2
176
     1
 67
     7
176
     1
 79
     5
176
     1
170
     0
176
     1
171
     0
176
     1
290
     0
176
     1
 93
        1
176
     1
 44
0.0
176
     1
173
     0
176
     1
  0
VISUALSTYLE
  5
2B
102
{ACAD_REACTORS
330
2A
102
}
330
2A
100
AcDbVisualStyle
  2
Flat
 70
     0
177
     2
291
     1
 71
     2
176
     1
 72
     1
176
     1
 73
     1
176
     1
 90
        2
176
     1
 40
-0.6
176
     1
 41
30.0
176
     1
 62
     5
 63
     7
421
 16777215
176
     1
 74
     0
176
     1
 91
        4
176
     1
 64
     7
176
     1
 65
   257
176
     1
 75
     1
176
     1
175
     1
176
     1
 42
1.0
176
     1
 92
        8
176
     1
 66
     7
176
     1
 43
1.0
176
     1
 76
     1
176
     1
 77
     6
176
     1
 78
     2
176
     1
 67
     7
176
     1
 79
     5
176
     1
170
     0
176
     1
171
     0
176
     1
290
     0
176
     1
 93
       13
176
     1
 44
0.0
176
     1
173
     0
176
     1
  0
VISUALSTYLE
  5
2C
102
{ACAD_REACTORS
330
2A
102
}
330
2A
100
AcDbVisualStyle
  2
FlatWithEdges
 70
     1
177
     2
291
     1
 71
     2
176
     1
 72
     1
176
     1
 73
     1
176
     1
 90
        2
176
     1
 40
-0.6
176
     1
 41
30.0
176
     1
 62
     5
 63
     7
421
 16777215
176
     1
 74
     1
176
     1
 91
        4
176
     1
 64
     7
176
     1
 65
   257
176
     1
 75
     1
176
     1
175
     1
176
     1
 42
1.0
176
     1
 92
        0
176
     1
 66
   257
176
     1
 43
1.0
176
     1
 76
     1
176
     1
 77
     6
176
     1
 78
     2
176
     1
 67
     7
176
     1
 79
     5
176
     1
170
     0
176
     1
171
     0
176
     1
290
     0
176
     1
 93
       13
176
     1
 44
0.0
176
     1
173
     0
176
     1
  0
VISUALSTYLE
  5
2D
102
{ACAD_REACTORS
330
2A
102
}
330
2A
100
AcDbVisualStyle
  2
Gouraud
 70
     2
177
     2
291
     1
 71
     2
176
     1
 72
     2
176
     1
 73
     1
176
     1
 90
        2
176
     1
 40
-0.6
176
     1
 41
30.0
176
     1
 62
     5
 63
     7
421
 16777215
176
     1
 74
     0
176
     1
 91
        4
176
     1
 64
     7
176
     1
 65
   257
176
     1
 75
     1
176
     1
175
     1
176
     1
 42
1.0
176
     1
 92
        0
176
     1
 66
     7
176
     1
 43
1.0
176
     1
 76
     1
176
     1
 77
     6
176
     1
 78
     2
176
     1
 67
     7
176
     1
 79
     5
176
     1
170
     0
176
     1
171
     0
176
     1
290
     0
176
     1
 93
       13
176
     1
 44
0.0
176
     1
173
     0
176
     1
  0
VISUALSTYLE
  5
2E
102
{ACAD_REACTORS
330
2A
102
}
330
2A
100
AcDbVisualStyle
  2
GouraudWithEdges
 70
     3
177
     2
291
     1
 71
     2
176
     1
 72
     2
176
     1
 73
     1
176
     1
 90
        2
176
     1
 40
-0.6
176
     1
 41
30.0
176
     1
 62
     5
 63
     7
421
 16777215
176
     1
 74
     1
176
     1
 91
        4
176
     1
 64
     7
176
     1
 65
   257
176
     1
 75
     1
176
     1
175
     1
176
     1
 42
1.0
176
     1
 92
        0
176
     1
 66
   257
176
     1
 43
1.0
176
     1
 76
     1
176
     1
 77
     6
176
     1
 78
     2
176
     1
 67
     7
176
     1
 79
     5
176
     1
170
     0
176
     1
171
     0
176
     1
290
     0
176
     1
 93
       13
176
     1
 44
0.0
176
     1
173
     0
176
     1
  0
VISUALSTYLE
  5
38
102
{ACAD_REACTORS
330
2A
102
}
330
2A
100
AcDbVisualStyle
  2
Linepattern
 70
    14
177
     2
291
     1
 71
     2
176
     1
 72
     2
176
     1
 73
     0
176
     1
 90
        0
176
     1
 40
-0.6
176
     1
 41
-30.0
176
     1
 62
     5
 63
     7
421
 16777215
176
     1
 74
     1
176
     1
 91
        4
176
     1
 64
     7
176
     1
 65
   257
176
     1
 75
     7
176
     1
175
     7
176
     1
 42
1.0
176
     1
 92
        8
176
     1
 66
     7
176
     1
 43
1.0
176
     1
 76
     1
176
     1
 77
     6
176
     1
 78
     2
176
     1
 67
     7
176
     1
 79
     5
176
     1
170
     0
176
     1
171
     0
176
     1
290
     0
176
     1
 93
        1
176
     1
 44
0.0
176
     1
173
     0
176
     1
  0
VISUALSTYLE
  5
33
102
{ACAD_REACTORS
330
2A
102
}
330
2A
100
AcDbVisualStyle
  2
Realistic
 70
     8
177
     2
291
     0
 71
     2
176
     1
 72
     2
176
     1
 73
     0
176
     1
 90
        0
176
     1
 40
-0.6
176
     1
 41
-30.0
176
     1
 62
     5
 63
     7
421
 16777215
176
     1
 74
     1
176
     1
 91
        0
176
     1
 64
     7
176
     1
 65
   257
176
     1
 75
     1
176
     1
175
     1
176
     1
 42
1.0
176
     1
 92
        8
176
     1
 66
     8
424
  7895160
176
     1
 43
1.0
176
     1
 76
     1
176
     1
 77
     6
176
     1
 78
     2
176
     1
 67
     7
176
     1
 79
     5
176
     1
170
     0
176
     1
171
     0
176
     1
290
     0
176
     1
 93
       13
176
     1
 44
0.0
176
     1
173
     0
176
     1
  0
VISUALSTYLE
  5
37
102
{ACAD_REACTORS
330
2A
102
}
330
2A
100
AcDbVisualStyle
  2
Thicken
 70
    13
177
     2
291
     1
 71
     2
176
     1
 72
     2
176
     1
 73
     0
176
     1
 90
        0
176
     1
 40
-0.6
176
     1
 41
-30.0
176
     1
 62
     5
 63
     7
421
 16777215
176
     1
 74
     1
176
     1
 91
        4
176
     1
 64
     7
176
     1
 65
   257
176
     1
 75
     1
176
     1
175
     1
176
     1
 42
1.0
176
     1
 92
       12
176
     1
 66
     7
176
     1
 43
1.0
176
     1
 76
     1
176
     1
 77
     6
176
     1
 78
     2
176
     1
 67
     7
176
     1
 79
     5
176
     1
170
     0
176
     1
171
     0
176
     1
290
     0
176
     1
 93
        1
176
     1
 44
0.0
176
     1
173
     0
176
     1
  0
ENDSEC
  0
EOF
