  0
SECTION
  2
HEADER
  9
$ACADVER
  1
AC1024
  9
$ACADMAINTVER
 70
     6
  9
$DWGCODEPAGE
  3
UNDEFINED
  9
$INSBASE
 10
0.0
 20
0.0
 30
0.0
  9
$EXTMIN
 10
1.000000000000000E+20
 20
1.000000000000000E+20
 30
1.000000000000000E+20
  9
$EXTMAX
 10
-1.000000000000000E+20
 20
-1.000000000000000E+20
 30
-1.000000000000000E+20
  9
$LIMMIN
 10
0.0
 20
0.0
  9
$LIMMAX
 10
12.0
 20
9.0
  9
$ORTHOMODE
 70
     0
  9
$REGENMODE
 70
     1
  9
$FILLMODE
 70
     1
  9
$QTEXTMODE
 70
     0
  9
$MIRRTEXT
 70
     1
  9
$LTSCALE
 40
1.0
  9
$ATTMODE
 70
     1
  9
$TEXTSIZE
 40
0.2
  9
$TRACEWID
 40
0.05
  9
$TEXTSTYLE
  7
Standard
  9
$CLAYER
  8
0
  9
$CELTYPE
  6
ByLayer
  9
$CECOLOR
 62
   256
  9
$CELTSCALE
 40
1.0
  9
$DISPSILH
 70
     0
  9
$DIMSCALE
 40
1.0
  9
$DIMASZ
 40
0.18
  9
$DIMEXO
 40
0.0625
  9
$DIMDLI
 40
0.38
  9
$DIMRND
 40
0.0
  9
$DIMDLE
 40
0.0
  9
$DIMEXE
 40
0.18
  9
$DIMTP
 40
0.0
  9
$DIMTM
 40
0.0
  9
$DIMTXT
 40
0.18
  9
$DIMCEN
 40
0.09
  9
$DIMTSZ
 40
0.0
  9
$DIMTOL
 70
     0
  9
$DIMLIM
 70
     0
  9
$DIMTIH
 70
     1
  9
$DIMTOH
 70
     1
  9
$DIMSE1
 70
     0
  9
$DIMSE2
 70
     0
  9
$DIMTAD
 70
     0
  9
$DIMZIN
 70
     0
  9
$DIMBLK
  1

  9
$DIMASO
 70
     1
  9
$DIMSHO
 70
     1
  9
$DIMPOST
  1

  9
$DIMAPOST
  1

  9
$DIMALT
 70
     0
  9
$DIMALTD
 70
     2
  9
$DIMALTF
 40
25.4
  9
$DIMLFAC
 40
1.0
  9
$DIMTOFL
 70
     0
  9
$DIMTVP
 40
0.0
  9
$DIMTIX
 70
     0
  9
$DIMSOXD
 70
     0
  9
$DIMSAH
 70
     0
  9
$DIMBLK1
  1

  9
$DIMBLK2
  1

  9
$DIMSTYLE
  2
Standard
  9
$DIMCLRD
 70
     0
  9
$DIMCLRE
 70
     0
  9
$DIMCLRT
 70
     0
  9
$DIMTFAC
 40
1.0
  9
$DIMGAP
 40
0.09
  9
$DIMJUST
 70
     0
  9
$DIMSD1
 70
     0
  9
$DIMSD2
 70
     0
  9
$DIMTOLJ
 70
     1
  9
$DIMTZIN
 70
     0
  9
$DIMALTZ
 70
     0
  9
$DIMALTTZ
 70
     0
  9
$DIMUPT
 70
     0
  9
$DIMDEC
 70
     4
  9
$DIMTDEC
 70
     4
  9
$DIMALTU
 70
     2
  9
$DIMALTTD
 70
     2
  9
$DIMTXSTY
  7
Standard
  9
$DIMAUNIT
 70
     0
  9
$DIMADEC
 70
     0
  9
$DIMALTRND
 40
0.0
  9
$DIMAZIN
 70
     0
  9
$DIMDSEP
 70
    46
  9
$DIMATFIT
 70
     3
  9
$DIMFRAC
 70
     0
  9
$DIMLDRBLK
  1

  9
$DIMLUNIT
 70
     2
  9
$DIMLWD
 70
    -2
  9
$DIMLWE
 70
    -2
  9
$DIMTMOVE
 70
     0
  9
$DIMFXL
 40
1.0
  9
$DIMFXLON
 70
     0
  9
$DIMJOGANG
 40
0.7853981633974483
  9
$DIMTFILL
 70
     0
  9
$DIMTFILLCLR
 70
     0
  9
$DIMARCSYM
 70
     0
  9
$DIMLTYPE
  6

  9
$DIMLTEX1
  6

  9
$DIMLTEX2
  6

  9
$DIMTXTDIRECTION
 70
     0
  9
$LUNITS
 70
     2
  9
$LUPREC
 70
     4
  9
$SKETCHINC
 40
0.1
  9
$FILLETRAD
 40
0.5
  9
$AUNITS
 70
     0
  9
$AUPREC
 70
     0
  9
$MENU
  1
.
  9
$ELEVATION
 40
0.0
  9
$PELEVATION
 40
0.0
  9
$THICKNESS
 40
0.0
  9
$LIMCHECK
 70
     0
  9
$CHAMFERA
 40
0.5
  9
$CHAMFERB
 40
0.5
  9
$CHAMFERC
 40
1.0
  9
$CHAMFERD
 40
0.0
  9
$SKPOLY
 70
     0
  9
$TDCREATE
 40
2457917.636805556
  9
$TDUCREATE
 40
2457917.261805556
  9
$TDUPDATE
 40
2457917.636805556
  9
$TDUUPDATE
 40
2457917.261805556
  9
$TDINDWG
 40
0.0000000116
  9
$TDUSRTIMER
 40
0.0000000116
  9
$USRTIMER
 70
     1
  9
$ANGBASE
 50
0.0
  9
$ANGDIR
 70
     0
  9
$PDMODE
 70
     0
  9
$PDSIZE
 40
0.0
  9
$PLINEWID
 40
0.0
  9
$SPLFRAME
 70
     0
  9
$SPLINETYPE
 70
     6
  9
$SPLINESEGS
 70
     8
  9
$HANDSEED
  5
9E
  9
$SURFTAB1
 70
     6
  9
$SURFTAB2
 70
     6
  9
$SURFTYPE
 70
     6
  9
$SURFU
 70
     6
  9
$SURFV
 70
     6
  9
$UCSBASE
  2

  9
$UCSNAME
  2

  9
$UCSORG
 10
0.0
 20
0.0
 30
0.0
  9
$UCSXDIR
 10
1.0
 20
0.0
 30
0.0
  9
$UCSYDIR
 10
0.0
 20
1.0
 30
0.0
  9
$UCSORTHOREF
  2

  9
$UCSORTHOVIEW
 70
     0
  9
$UCSORGTOP
 10
0.0
 20
0.0
 30
0.0
  9
$UCSORGBOTTOM
 10
0.0
 20
0.0
 30
0.0
  9
$UCSORGLEFT
 10
0.0
 20
0.0
 30
0.0
  9
$UCSORGRIGHT
 10
0.0
 20
0.0
 30
0.0
  9
$UCSORGFRONT
 10
0.0
 20
0.0
 30
0.0
  9
$UCSORGBACK
 10
0.0
 20
0.0
 30
0.0
  9
$PUCSBASE
  2

  9
$PUCSNAME
  2

  9
$PUCSORG
 10
0.0
 20
0.0
 30
0.0
  9
$PUCSXDIR
 10
1.0
 20
0.0
 30
0.0
  9
$PUCSYDIR
 10
0.0
 20
1.0
 30
0.0
  9
$PUCSORTHOREF
  2

  9
$PUCSORTHOVIEW
 70
     0
  9
$PUCSORGTOP
 10
0.0
 20
0.0
 30
0.0
  9
$PUCSORGBOTTOM
 10
0.0
 20
0.0
 30
0.0
  9
$PUCSORGLEFT
 10
0.0
 20
0.0
 30
0.0
  9
$PUCSORGRIGHT
 10
0.0
 20
0.0
 30
0.0
  9
$PUCSORGFRONT
 10
0.0
 20
0.0
 30
0.0
  9
$PUCSORGBACK
 10
0.0
 20
0.0
 30
0.0
  9
$USERI1
 70
     0
  9
$USERI2
 70
     0
  9
$USERI3
 70
     0
  9
$USERI4
 70
     0
  9
$USERI5
 70
     0
  9
$USERR1
 40
0.0
  9
$USERR2
 40
0.0
  9
$USERR3
 40
0.0
  9
$USERR4
 40
0.0
  9
$USERR5
 40
0.0
  9
$WORLDVIEW
 70
     1
  9
$SHADEDGE
 70
     3
  9
$SHADEDIF
 70
    70
  9
$TILEMODE
 70
     1
  9
$MAXACTVP
 70
    64
  9
$PINSBASE
 10
0.0
 20
0.0
 30
0.0
  9
$PLIMCHECK
 70
     0
  9
$PEXTMIN
 10
1.000000000000000E+20
 20
1.000000000000000E+20
 30
1.000000000000000E+20
  9
$PEXTMAX
 10
-1.000000000000000E+20
 20
-1.000000000000000E+20
 30
-1.000000000000000E+20
  9
$PLIMMIN
 10
0.0
 20
0.0
  9
$PLIMMAX
 10
12.0
 20
9.0
  9
$UNITMODE
 70
     0
  9
$VISRETAIN
 70
     1
  9
$PLINEGEN
 70
     0
  9
$PSLTSCALE
 70
     1
  9
$TREEDEPTH
 70
  3020
  9
$CMLSTYLE
  2
Standard
  9
$CMLJUST
 70
     0
  9
$CMLSCALE
 40
1.0
  9
$PROXYGRAPHICS
 70
     1
  9
$MEASUREMENT
 70
     0
  9
$CELWEIGHT
370
    -1
  9
$ENDCAPS
280
     0
  9
$JOINSTYLE
280
     0
  9
$LWDISPLAY
290
     1
  9
$INSUNITS
 70
     1
  9
$HYPERLINKBASE
  1

  9
$STYLESHEET
  1

  9
$XEDIT
290
     1
  9
$CEPSNTYPE
380
     0
  9
$PSTYLEMODE
290
     1
  9
$FINGERPRINTGUID
  2
{44241BAE-1BD8-735D-3698-7A5F7E755B4E}
  9
$VERSIONGUID
  2
{FAEB1C32-E019-11D5-929B-00C0DF256EC4}
  9
$EXTNAMES
290
     1
  9
$PSVPSCALE
 40
0.0
  9
$OLESTARTUP
290
     0
  9
$SORTENTS
280
   127
  9
$INDEXCTL
280
     0
  9
$HIDETEXT
280
     1
  9
$XCLIPFRAME
280
     2
  9
$HALOGAP
280
     0
  9
$OBSCOLOR
 70
   257
  9
$OBSLTYPE
280
     0
  9
$INTERSECTIONDISPLAY
280
     0
  9
$INTERSECTIONCOLOR
 70
   257
  9
$DIMASSOC
280
     2
  9
$PROJECTNAME
  1

  9
$CAMERADISPLAY
290
     0
  9
$LENSLENGTH
 40
50.0
  9
$CAMERAHEIGHT
 40
0.0
  9
$STEPSPERSEC
 40
2.0
  9
$STEPSIZE
 40
6.0
  9
$3DDWFPREC
 40
2.0
  9
$PSOLWIDTH
 40
0.25
  9
$PSOLHEIGHT
 40
4.0
  9
$LOFTANG1
 40
1.570796326794897
  9
$LOFTANG2
 40
1.570796326794897
  9
$LOFTMAG1
 40
0.0
  9
$LOFTMAG2
 40
0.0
  9
$LOFTPARAM
 70
     7
  9
$LOFTNORMALS
280
     1
  9
$LATITUDE
 40
37.795
  9
$LONGITUDE
 40
-122.394
  9
$NORTHDIRECTION
 40
0.0
  9
$TIMEZONE
 70
 -8000
  9
$LIGHTGLYPHDISPLAY
280
     1
  9
$TILEMODELIGHTSYNCH
280
     1
  9
$CMATERIAL
347
3C
  9
$SOLIDHIST
280
     1
  9
$SHOWHIST
280
     1
  9
$DWFFRAME
280
     2
  9
$DGNFRAME
280
     2
  9
$REALWORLDSCALE
290
     1
  9
$INTERFERECOLOR
 62
   256
  9
$CSHADOW
280
     0
  9
$SHADOWPLANELOCATION
 40
0.0
  0
ENDSEC
  0
SECTION
  2
CLASSES
  0
CLASS
  1
ACDBDICTIONARYWDFLT
  2
AcDbDictionaryWithDefault
  3
ObjectDBX Classes
 90
        0
 91
        4
280
     0
281
     0
  0
CLASS
  1
VISUALSTYLE
  2
AcDbVisualStyle
  3
ObjectDBX Classes
 90
     4095
 91
        4
280
     0
281
     0
  0
CLASS
  1
MATERIAL
  2
AcDbMaterial
  3
ObjectDBX Classes
 90
     1153
 91
        4
280
     0
281
     0
  0
CLASS
  1
SUN
  2
AcDbSun
  3
SCENEOE
 90
     1024
 91
        4
280
     0
281
     0
  0
ENDSEC
  0
SECTION
  2
TABLES
  0
TABLE
  2
VPORT
  5
8
330
0
100
AcDbSymbolTable
 70
     1
  0
VPORT
  5
29
330
8
100
AcDbSymbolTableRecord
100
AcDbViewportTableRecord
  2
*Active
 70
     0
 10
0.0
 20
0.0
 11
1.0
 21
1.0
 12
0.0
 22
0.0
 13
0.0
 23
0.0
 14
0.5
 24
0.5
 15
0.5
 25
0.5
 16
0.0
 26
0.0
 36
1.0
 17
91.00082462281999
 27
-128.4993055234307
 37
0.0
 40
256.9986110468615
 41
0.7081814508812795
 42
50.0
 43
0.0
 44
0.0
 50
0.0
 51
0.0
 71
     0
 72
   100
 73
     1
 74
     3
 75
     0
 76
     0
 77
     0
 78
     0
281
     0
 65
     1
110
0.0
120
0.0
130
0.0
111
1.0
121
0.0
131
0.0
112
0.0
122
1.0
132
0.0
 79
     0
146
0.0
 60
     3
 61
     5
292
     1
282
     1
141
0.0
142
0.0
 63
   250
361
3F
  0
ENDTAB
  0
TABLE
  2
LTYPE
  5
5
330
0
100
AcDbSymbolTable
 70
     1
  0
LTYPE
  5
14
330
5
100
AcDbSymbolTableRecord
100
AcDbLinetypeTableRecord
  2
ByBlock
 70
     0
  3

 72
    65
 73
     0
 40
0.0
  0
LTYPE
  5
15
330
5
100
AcDbSymbolTableRecord
100
AcDbLinetypeTableRecord
  2
ByLayer
 70
     0
  3

 72
    65
 73
     0
 40
0.0
  0
LTYPE
  5
16
330
5
100
AcDbSymbolTableRecord
100
AcDbLinetypeTableRecord
  2
Continuous
 70
     0
  3
Solid line
 72
    65
 73
     0
 40
0.0
  0
ENDTAB
  0
TABLE
  2
LAYER
  5
2
330
0
100
AcDbSymbolTable
 70
     2
  0
LAYER
  5
10
330
2
100
AcDbSymbolTableRecord
100
AcDbLayerTableRecord
  2
0
 70
     0
 62
     7
  6
Continuous
370
    -3
390
F
347
3E
  0
LAYER
  5
40
330
2
100
AcDbSymbolTableRecord
100
AcDbLayerTableRecord
  2
_U+30EC_U+30A4_U+30E4_U+30FC 1
 70
     0
 62
     7
  6
Continuous
370
    -3
390
F
347
3E
  0
ENDTAB
  0
TABLE
  2
STYLE
  5
3
330
0
100
AcDbSymbolTable
 70
     1
  0
STYLE
  5
11
330
3
100
AcDbSymbolTableRecord
100
AcDbTextStyleTableRecord
  2
Standard
 70
     0
 40
0.0
 41
1.0
 50
0.0
 71
     0
 42
0.2
  3
txt
  4

  0
ENDTAB
  0
TABLE
  2
VIEW
  5
6
330
0
100
AcDbSymbolTable
 70
     0
  0
ENDTAB
  0
TABLE
  2
UCS
  5
7
330
0
100
AcDbSymbolTable
 70
     0
  0
ENDTAB
  0
TABLE
  2
APPID
  5
9
330
0
100
AcDbSymbolTable
 70
     1
  0
APPID
  5
12
330
9
100
AcDbSymbolTableRecord
100
AcDbRegAppTableRecord
  2
ACAD
 70
     0
  0
ENDTAB
  0
TABLE
  2
DIMSTYLE
  5
A
330
0
100
AcDbSymbolTable
 70
     1
100
AcDbDimStyleTable
  0
DIMSTYLE
105
27
330
A
100
AcDbSymbolTableRecord
100
AcDbDimStyleTableRecord
  2
Standard
 70
     0
178
     0
340
11
  0
ENDTAB
  0
TABLE
  2
BLOCK_RECORD
  5
1
330
0
100
AcDbSymbolTable
 70
     4
  0
BLOCK_RECORD
  5
1F
330
1
100
AcDbSymbolTableRecord
100
AcDbBlockTableRecord
  2
*Model_Space
340
22
 70
     0
280
     1
281
     0
  0
BLOCK_RECORD
  5
1B
330
1
100
AcDbSymbolTableRecord
100
AcDbBlockTableRecord
  2
*Paper_Space
340
1E
 70
     0
280
     1
281
     0
  0
BLOCK_RECORD
  5
23
330
1
100
AcDbSymbolTableRecord
100
AcDbBlockTableRecord
  2
*Paper_Space0
340
26
 70
     0
280
     1
281
     0
  0
BLOCK_RECORD
  5
63
330
1
100
AcDbSymbolTableRecord
100
AcDbBlockTableRecord
  2
block 2
340
0
102
{BLKREFS
331
64
102
}
 70
     0
280
     1
281
     0
  0
BLOCK_RECORD
  5
77
330
1
100
AcDbSymbolTableRecord
100
AcDbBlockTableRecord
  2
block 3
340
0
102
{BLKREFS
331
78
102
}
 70
     0
280
     1
281
     0
  0
BLOCK_RECORD
  5
8B
330
1
100
AcDbSymbolTableRecord
100
AcDbBlockTableRecord
  2
block 4
340
0
102
{BLKREFS
331
8C
102
}
 70
     0
280
     1
281
     0
  0
ENDTAB
  0
ENDSEC
  0
SECTION
  2
BLOCKS
  0
BLOCK
  5
20
330
1F
100
AcDbEntity
  8
0
100
AcDbBlockBegin
  2
*Model_Space
 70
     0
 10
0.0
 20
0.0
 30
0.0
  3
*Model_Space
  1

  0
ENDBLK
  5
21
330
1F
100
AcDbEntity
  8
0
100
AcDbBlockEnd
  0
BLOCK
  5
1C
330
1B
100
AcDbEntity
 67
     1
  8
0
100
AcDbBlockBegin
  2
*Paper_Space
 70
     0
 10
0.0
 20
0.0
 30
0.0
  3
*Paper_Space
  1

  0
ENDBLK
  5
1D
330
1B
100
AcDbEntity
 67
     1
  8
0
100
AcDbBlockEnd
  0
BLOCK
  5
24
330
23
100
AcDbEntity
  8
0
100
AcDbBlockBegin
  2
*Paper_Space0
 70
     0
 10
0.0
 20
0.0
 30
0.0
  3
*Paper_Space0
  1

  0
ENDBLK
  5
25
330
23
100
AcDbEntity
  8
0
100
AcDbBlockEnd
  0
BLOCK
  5
65
330
63
100
AcDbEntity
  8
0
100
AcDbBlockBegin
  2
block 2
 70
     0
 10
0.0
 20
0.0
 30
0.0
  3
block 2
  1

  0
SPLINE
  5
67
330
63
100
AcDbEntity
  8
_U+30EC_U+30A4_U+30E4_U+30FC 1
370
     0
100
AcDbSpline
210
0.0
220
0.0
230
1.0
 70
    11
 71
     3
 72
    26
 73
    22
 74
     0
 42
0.0000000001
 43
0.0000000001
 12
1.0
 22
0.0
 32
0.0
 13
1.0
 23
0.0
 33
0.0
 40
0.0
 40
0.0
 40
0.0
 40
0.0
 40
1.0
 40
1.0
 40
1.0
 40
2.0
 40
2.0
 40
2.0
 40
3.0
 40
3.0
 40
3.0
 40
4.0
 40
4.0
 40
4.0
 40
5.0
 40
5.0
 40
5.0
 40
6.0
 40
6.0
 40
6.0
 40
7.0
 40
7.0
 40
7.0
 40
7.0
 10
101.4184434425273
 20
-130.2432128580642
 30
0.0
 10
101.4184434425273
 20
-130.2432128580642
 30
0.0
 10
100.3142903395048
 20
-130.2432128580642
 30
0.0
 10
100.3142903395048
 20
-130.2432128580642
 30
0.0
 10
100.3142903395048
 20
-130.2432128580642
 30
0.0
 10
100.3142903395048
 20
-130.5732530055511
 30
0.0
 10
100.3142903395048
 20
-130.5732530055511
 30
0.0
 10
100.3142903395048
 20
-130.5732530055511
 30
0.0
 10
100.166151233639
 20
-130.5732530055511
 30
0.0
 10
100.166151233639
 20
-130.5732530055511
 30
0.0
 10
100.1513373230524
 20
-130.241145800773
 30
0.0
 10
99.98838430660012
 20
-130.1946370117222
 30
0.0
 10
99.87400713648984
 20
-130.165009190549
 30
0.0
 10
99.87400713648984
 20
-130.165009190549
 30
0.0
 10
99.87400713648984
 20
-130.0189371419744
 30
0.0
 10
99.87400713648984
 20
-130.0189371419744
 30
0.0
 10
99.87400713648984
 20
-130.0189371419744
 30
0.0
 10
101.4184434425273
 20
-130.0189371419744
 30
0.0
 10
101.4184434425273
 20
-130.0189371419744
 30
0.0
 10
101.4184434425273
 20
-130.0189371419744
 30
0.0
 10
101.4184434425273
 20
-130.2432128580642
 30
0.0
 10
101.4184434425273
 20
-130.2432128580642
 30
0.0
  0
HATCH
  5
68
330
63
100
AcDbEntity
  8
_U+30EC_U+30A4_U+30E4_U+30FC 1
 62
   179
420
  2234388
100
AcDbHatch
 10
0.0
 20
0.0
 30
0.0
210
0.0
220
0.0
230
1.0
  2
SOLID
 70
     1
 71
     0
 91
        1
 92
        1
 93
        1
 72
     4
 94
        3
 73
     0
 74
     1
 95
       26
 96
       22
 40
0.0
 40
0.0
 40
0.0
 40
0.0
 40
1.0
 40
1.0
 40
1.0
 40
2.0
 40
2.0
 40
2.0
 40
3.0
 40
3.0
 40
3.0
 40
4.0
 40
4.0
 40
4.0
 40
5.0
 40
5.0
 40
5.0
 40
6.0
 40
6.0
 40
6.0
 40
7.0
 40
7.0
 40
7.0
 40
7.0
 10
101.4184434425273
 20
-130.2432128580642
 10
101.4184434425273
 20
-130.2432128580642
 10
100.3142903395048
 20
-130.2432128580642
 10
100.3142903395048
 20
-130.2432128580642
 10
100.3142903395048
 20
-130.2432128580642
 10
100.3142903395048
 20
-130.5732530055511
 10
100.3142903395048
 20
-130.5732530055511
 10
100.3142903395048
 20
-130.5732530055511
 10
100.166151233639
 20
-130.5732530055511
 10
100.166151233639
 20
-130.5732530055511
 10
100.1513373230524
 20
-130.241145800773
 10
99.98838430660012
 20
-130.1946370117222
 10
99.87400713648984
 20
-130.165009190549
 10
99.87400713648984
 20
-130.165009190549
 10
99.87400713648984
 20
-130.0189371419744
 10
99.87400713648984
 20
-130.0189371419744
 10
99.87400713648984
 20
-130.0189371419744
 10
101.4184434425273
 20
-130.0189371419744
 10
101.4184434425273
 20
-130.0189371419744
 10
101.4184434425273
 20
-130.0189371419744
 10
101.4184434425273
 20
-130.2432128580642
 10
101.4184434425273
 20
-130.2432128580642
 97
        0
 97
        0
 75
     2
 76
     1
 98
        0
  0
SPLINE
  5
69
330
63
100
AcDbEntity
  8
_U+30EC_U+30A4_U+30E4_U+30FC 1
370
     0
100
AcDbSpline
210
0.0
220
0.0
230
1.0
 70
    11
 71
     3
 72
    53
 73
    49
 74
     0
 42
0.0000000001
 43
0.0000000001
 12
1.0
 22
0.0
 32
0.0
 13
1.0
 23
0.0
 33
0.0
 40
0.0
 40
0.0
 40
0.0
 40
0.0
 40
1.0
 40
1.0
 40
1.0
 40
2.0
 40
2.0
 40
2.0
 40
3.0
 40
3.0
 40
3.0
 40
4.0
 40
4.0
 40
4.0
 40
5.0
 40
5.0
 40
5.0
 40
6.0
 40
6.0
 40
6.0
 40
7.0
 40
7.0
 40
7.0
 40
8.0
 40
8.0
 40
8.0
 40
9.0
 40
9.0
 40
9.0
 40
10.0
 40
10.0
 40
10.0
 40
11.0
 40
11.0
 40
11.0
 40
12.0
 40
12.0
 40
12.0
 40
13.0
 40
13.0
 40
13.0
 40
14.0
 40
14.0
 40
14.0
 40
15.0
 40
15.0
 40
15.0
 40
16.0
 40
16.0
 40
16.0
 40
16.0
 10
101.4690863461605
 20
-129.0367404191297
 30
0.0
 10
101.4690863461605
 20
-129.1149440866449
 30
0.0
 10
101.4522053782828
 20
-129.2165744034598
 30
0.0
 10
101.3888156213542
 20
-129.3182047202746
 30
0.0
 10
101.2789170753747
 20
-129.4914930231827
 30
0.0
 10
101.1476589373867
 20
-129.5128526151912
 30
0.0
 10
101.0398274486984
 20
-129.5318006403601
 30
0.0
 10
101.0398274486984
 20
-129.5318006403601
 30
0.0
 10
101.0398274486984
 20
-129.3095919815615
 30
0.0
 10
101.0398274486984
 20
-129.3095919815615
 30
0.0
 10
101.2386094581973
 20
-129.254814963346
 30
0.0
 10
101.2682372793704
 20
-129.1276909399403
 30
0.0
 10
101.2682372793704
 20
-129.0346733618386
 30
0.0
 10
101.2682372793704
 20
-128.8951469946859
 30
0.0
 10
101.1686740198467
 20
-128.7428737742379
 30
0.0
 10
100.9361300745924
 20
-128.7428737742379
 30
0.0
 10
100.6801594800383
 20
-128.7428737742379
 30
0.0
 10
100.6102240416877
 20
-128.922707758568
 30
0.0
 10
100.6102240416877
 20
-129.0432861005517
 30
0.0
 10
100.6102240416877
 20
-129.074980979016
 30
0.0
 10
100.6102240416877
 20
-129.2165744034598
 30
0.0
 10
100.7394151223846
 20
-129.3054578669792
 30
0.0
 10
100.7394151223846
 20
-129.3054578669792
 30
0.0
 10
100.7204670972157
 20
-129.4811577367269
 30
0.0
 10
100.7204670972157
 20
-129.4811577367269
 30
0.0
 10
100.7204670972157
 20
-129.4811577367269
 30
0.0
 10
99.87400713648984
 20
-129.3605793947432
 30
0.0
 10
99.87400713648984
 20
-129.3605793947432
 30
0.0
 10
99.87400713648984
 20
-129.3605793947432
 30
0.0
 10
99.87400713648984
 20
-128.5819878150767
 30
0.0
 10
99.87400713648984
 20
-128.5819878150767
 30
0.0
 10
99.87400713648984
 20
-128.5819878150767
 30
0.0
 10
100.0686550314065
 20
-128.5819878150767
 30
0.0
 10
100.0686550314065
 20
-128.5819878150767
 30
0.0
 10
100.0686550314065
 20
-128.5819878150767
 30
0.0
 10
100.0686550314065
 20
-129.1976263782909
 30
0.0
 10
100.0686550314065
 20
-129.1976263782909
 30
0.0
 10
100.0686550314065
 20
-129.1976263782909
 30
0.0
 10
100.4917127569951
 20
-129.2630831925106
 30
0.0
 10
100.4917127569951
 20
-129.2630831925106
 30
0.0
 10
100.4579508212397
 20
-129.2017604928732
 30
0.0
 10
100.4176432040623
 20
-129.1194227107757
 30
0.0
 10
100.4176432040623
 20
-129.0009114260831
 30
0.0
 10
100.4176432040623
 20
-128.7470078888202
 30
0.0
 10
100.6040228698143
 20
-128.509985319435
 30
0.0
 10
100.9171820494235
 20
-128.509985319435
 30
0.0
 10
101.234475343615
 20
-128.509985319435
 30
0.0
 10
101.4690863461605
 20
-128.7342610355248
 30
0.0
 10
101.4690863461605
 20
-129.0367404191297
 30
0.0
  0
HATCH
  5
6A
330
63
100
AcDbEntity
  8
_U+30EC_U+30A4_U+30E4_U+30FC 1
 62
   179
420
  2234388
100
AcDbHatch
 10
0.0
 20
0.0
 30
0.0
210
0.0
220
0.0
230
1.0
  2
SOLID
 70
     1
 71
     0
 91
        1
 92
        1
 93
        1
 72
     4
 94
        3
 73
     0
 74
     1
 95
       53
 96
       49
 40
0.0
 40
0.0
 40
0.0
 40
0.0
 40
1.0
 40
1.0
 40
1.0
 40
2.0
 40
2.0
 40
2.0
 40
3.0
 40
3.0
 40
3.0
 40
4.0
 40
4.0
 40
4.0
 40
5.0
 40
5.0
 40
5.0
 40
6.0
 40
6.0
 40
6.0
 40
7.0
 40
7.0
 40
7.0
 40
8.0
 40
8.0
 40
8.0
 40
9.0
 40
9.0
 40
9.0
 40
10.0
 40
10.0
 40
10.0
 40
11.0
 40
11.0
 40
11.0
 40
12.0
 40
12.0
 40
12.0
 40
13.0
 40
13.0
 40
13.0
 40
14.0
 40
14.0
 40
14.0
 40
15.0
 40
15.0
 40
15.0
 40
16.0
 40
16.0
 40
16.0
 40
16.0
 10
101.4690863461605
 20
-129.0367404191297
 10
101.4690863461605
 20
-129.1149440866449
 10
101.4522053782828
 20
-129.2165744034598
 10
101.3888156213542
 20
-129.3182047202746
 10
101.2789170753747
 20
-129.4914930231827
 10
101.1476589373867
 20
-129.5128526151912
 10
101.0398274486984
 20
-129.5318006403601
 10
101.0398274486984
 20
-129.5318006403601
 10
101.0398274486984
 20
-129.3095919815615
 10
101.0398274486984
 20
-129.3095919815615
 10
101.2386094581973
 20
-129.254814963346
 10
101.2682372793704
 20
-129.1276909399403
 10
101.2682372793704
 20
-129.0346733618386
 10
101.2682372793704
 20
-128.8951469946859
 10
101.1686740198467
 20
-128.7428737742379
 10
100.9361300745924
 20
-128.7428737742379
 10
100.6801594800383
 20
-128.7428737742379
 10
100.6102240416877
 20
-128.922707758568
 10
100.6102240416877
 20
-129.0432861005517
 10
100.6102240416877
 20
-129.074980979016
 10
100.6102240416877
 20
-129.2165744034598
 10
100.7394151223846
 20
-129.3054578669792
 10
100.7394151223846
 20
-129.3054578669792
 10
100.7204670972157
 20
-129.4811577367269
 10
100.7204670972157
 20
-129.4811577367269
 10
100.7204670972157
 20
-129.4811577367269
 10
99.87400713648984
 20
-129.3605793947432
 10
99.87400713648984
 20
-129.3605793947432
 10
99.87400713648984
 20
-129.3605793947432
 10
99.87400713648984
 20
-128.5819878150767
 10
99.87400713648984
 20
-128.5819878150767
 10
99.87400713648984
 20
-128.5819878150767
 10
100.0686550314065
 20
-128.5819878150767
 10
100.0686550314065
 20
-128.5819878150767
 10
100.0686550314065
 20
-128.5819878150767
 10
100.0686550314065
 20
-129.1976263782909
 10
100.0686550314065
 20
-129.1976263782909
 10
100.0686550314065
 20
-129.1976263782909
 10
100.4917127569951
 20
-129.2630831925106
 10
100.4917127569951
 20
-129.2630831925106
 10
100.4579508212397
 20
-129.2017604928732
 10
100.4176432040623
 20
-129.1194227107757
 10
100.4176432040623
 20
-129.0009114260831
 10
100.4176432040623
 20
-128.7470078888202
 10
100.6040228698143
 20
-128.509985319435
 10
100.9171820494235
 20
-128.509985319435
 10
101.234475343615
 20
-128.509985319435
 10
101.4690863461605
 20
-128.7342610355248
 10
101.4690863461605
 20
-129.0367404191297
 97
        0
 97
        0
 75
     2
 76
     1
 98
        0
  0
ENDBLK
  5
66
330
63
100
AcDbEntity
  8
0
100
AcDbBlockEnd
  0
BLOCK
  5
79
330
77
100
AcDbEntity
  8
0
100
AcDbBlockBegin
  2
block 3
 70
     0
 10
0.0
 20
0.0
 30
0.0
  3
block 3
  1

  0
SPLINE
  5
7B
330
77
100
AcDbEntity
  8
_U+30EC_U+30A4_U+30E4_U+30FC 1
370
     0
100
AcDbSpline
210
0.0
220
0.0
230
1.0
 70
    11
 71
     3
 72
    26
 73
    22
 74
     0
 42
0.0000000001
 43
0.0000000001
 12
1.0
 22
0.0
 32
0.0
 13
1.0
 23
0.0
 33
0.0
 40
0.0
 40
0.0
 40
0.0
 40
0.0
 40
1.0
 40
1.0
 40
1.0
 40
2.0
 40
2.0
 40
2.0
 40
3.0
 40
3.0
 40
3.0
 40
4.0
 40
4.0
 40
4.0
 40
5.0
 40
5.0
 40
5.0
 40
6.0
 40
6.0
 40
6.0
 40
7.0
 40
7.0
 40
7.0
 40
7.0
 10
87.07444388014112
 20
-117.8119303090887
 30
0.0
 10
87.07444388014112
 20
-117.8119303090887
 30
0.0
 10
87.07444388014112
 20
-116.7076049512919
 30
0.0
 10
87.07444388014112
 20
-116.7076049512919
 30
0.0
 10
87.07444388014112
 20
-116.7076049512919
 30
0.0
 10
86.74440373265418
 20
-116.7076049512919
 30
0.0
 10
86.74440373265418
 20
-116.7076049512919
 30
0.0
 10
86.74440373265418
 20
-116.7076049512919
 30
0.0
 10
86.74440373265418
 20
-116.5596381002004
 30
0.0
 10
86.74440373265418
 20
-116.5596381002004
 30
0.0
 10
87.07651093743226
 20
-116.5448241896138
 30
0.0
 10
87.12301972648314
 20
-116.3818711731615
 30
0.0
 10
87.15264754765629
 20
-116.2676662578255
 30
0.0
 10
87.15264754765629
 20
-116.2676662578255
 30
0.0
 10
87.29871959623088
 20
-116.2676662578255
 30
0.0
 10
87.29871959623088
 20
-116.2676662578255
 30
0.0
 10
87.29871959623088
 20
-116.2676662578255
 30
0.0
 10
87.29871959623088
 20
-117.8119303090887
 30
0.0
 10
87.29871959623088
 20
-117.8119303090887
 30
0.0
 10
87.29871959623088
 20
-117.8119303090887
 30
0.0
 10
87.07444388014112
 20
-117.8119303090887
 30
0.0
 10
87.07444388014112
 20
-117.8119303090887
 30
0.0
  0
HATCH
  5
7C
330
77
100
AcDbEntity
  8
_U+30EC_U+30A4_U+30E4_U+30FC 1
 62
   179
420
  2234388
100
AcDbHatch
 10
0.0
 20
0.0
 30
0.0
210
0.0
220
0.0
230
1.0
  2
SOLID
 70
     1
 71
     0
 91
        1
 92
        1
 93
        1
 72
     4
 94
        3
 73
     0
 74
     1
 95
       26
 96
       22
 40
0.0
 40
0.0
 40
0.0
 40
0.0
 40
1.0
 40
1.0
 40
1.0
 40
2.0
 40
2.0
 40
2.0
 40
3.0
 40
3.0
 40
3.0
 40
4.0
 40
4.0
 40
4.0
 40
5.0
 40
5.0
 40
5.0
 40
6.0
 40
6.0
 40
6.0
 40
7.0
 40
7.0
 40
7.0
 40
7.0
 10
87.07444388014112
 20
-117.8119303090887
 10
87.07444388014112
 20
-117.8119303090887
 10
87.07444388014112
 20
-116.7076049512919
 10
87.07444388014112
 20
-116.7076049512919
 10
87.07444388014112
 20
-116.7076049512919
 10
86.74440373265418
 20
-116.7076049512919
 10
86.74440373265418
 20
-116.7076049512919
 10
86.74440373265418
 20
-116.7076049512919
 10
86.74440373265418
 20
-116.5596381002004
 10
86.74440373265418
 20
-116.5596381002004
 10
87.07651093743226
 20
-116.5448241896138
 10
87.12301972648314
 20
-116.3818711731615
 10
87.15264754765629
 20
-116.2676662578255
 10
87.15264754765629
 20
-116.2676662578255
 10
87.29871959623088
 20
-116.2676662578255
 10
87.29871959623088
 20
-116.2676662578255
 10
87.29871959623088
 20
-116.2676662578255
 10
87.29871959623088
 20
-117.8119303090887
 10
87.29871959623088
 20
-117.8119303090887
 10
87.29871959623088
 20
-117.8119303090887
 10
87.07444388014112
 20
-117.8119303090887
 10
87.07444388014112
 20
-117.8119303090887
 97
        0
 97
        0
 75
     2
 76
     1
 98
        0
  0
SPLINE
  5
7D
330
77
100
AcDbEntity
  8
_U+30EC_U+30A4_U+30E4_U+30FC 1
370
     0
100
AcDbSpline
210
0.0
220
0.0
230
1.0
 70
    11
 71
     3
 72
    53
 73
    49
 74
     0
 42
0.0000000001
 43
0.0000000001
 12
1.0
 22
0.0
 32
0.0
 13
1.0
 23
0.0
 33
0.0
 40
0.0
 40
0.0
 40
0.0
 40
0.0
 40
1.0
 40
1.0
 40
1.0
 40
2.0
 40
2.0
 40
2.0
 40
3.0
 40
3.0
 40
3.0
 40
4.0
 40
4.0
 40
4.0
 40
5.0
 40
5.0
 40
5.0
 40
6.0
 40
6.0
 40
6.0
 40
7.0
 40
7.0
 40
7.0
 40
8.0
 40
8.0
 40
8.0
 40
9.0
 40
9.0
 40
9.0
 40
10.0
 40
10.0
 40
10.0
 40
11.0
 40
11.0
 40
11.0
 40
12.0
 40
12.0
 40
12.0
 40
13.0
 40
13.0
 40
13.0
 40
14.0
 40
14.0
 40
14.0
 40
15.0
 40
15.0
 40
15.0
 40
16.0
 40
16.0
 40
16.0
 40
16.0
 10
88.28091631907562
 20
-117.8627454674961
 30
0.0
 10
88.20271265156043
 20
-117.8627454674961
 30
0.0
 10
88.10108233474557
 20
-117.8456922448441
 30
0.0
 10
87.9994520179307
 20
-117.7823024879155
 30
0.0
 10
87.82599146024836
 20
-117.6722316871618
 30
0.0
 10
87.80480412301408
 20
-117.5411458039481
 30
0.0
 10
87.78585609784521
 20
-117.4333143152597
 30
0.0
 10
87.78585609784521
 20
-117.4333143152597
 30
0.0
 10
88.00789250186956
 20
-117.4333143152597
 30
0.0
 10
88.00789250186956
 20
-117.4333143152597
 30
0.0
 10
88.06301402963355
 20
-117.6320963247586
 30
0.0
 10
88.189965798265
 20
-117.6617241459318
 30
0.0
 10
88.28298337636676
 20
-117.6617241459318
 30
0.0
 10
88.42250974351937
 20
-117.6617241459318
 30
0.0
 10
88.57478296396742
 20
-117.5623331411823
 30
0.0
 10
88.57478296396742
 20
-117.3296169411537
 30
0.0
 10
88.57478296396742
 20
-117.0736463465996
 30
0.0
 10
88.39494897963738
 20
-117.0038831630233
 30
0.0
 10
88.27437063765363
 20
-117.0038831630233
 30
0.0
 10
88.24267575918934
 20
-117.0038831630233
 30
0.0
 10
88.10108233474557
 20
-117.0038831630233
 30
0.0
 10
88.01219887122612
 20
-117.1329019889459
 30
0.0
 10
88.01219887122612
 20
-117.1329019889459
 30
0.0
 10
87.83667125625264
 20
-117.1137817090028
 30
0.0
 10
87.83667125625264
 20
-117.1137817090028
 30
0.0
 10
87.83667125625264
 20
-117.1137817090028
 30
0.0
 10
87.95724959823639
 20
-116.2676662578255
 30
0.0
 10
87.95724959823639
 20
-116.2676662578255
 30
0.0
 10
87.95724959823639
 20
-116.2676662578255
 30
0.0
 10
88.73566892312859
 20
-116.2676662578255
 30
0.0
 10
88.73566892312859
 20
-116.2676662578255
 30
0.0
 10
88.73566892312859
 20
-116.2676662578255
 30
0.0
 10
88.73566892312859
 20
-116.4623141527421
 30
0.0
 10
88.73566892312859
 20
-116.4623141527421
 30
0.0
 10
88.73566892312859
 20
-116.4623141527421
 30
0.0
 10
88.12003035991444
 20
-116.4623141527421
 30
0.0
 10
88.12003035991444
 20
-116.4623141527421
 30
0.0
 10
88.12003035991444
 20
-116.4623141527421
 30
0.0
 10
88.0545735456947
 20
-116.8853718783307
 30
0.0
 10
88.0545735456947
 20
-116.8853718783307
 30
0.0
 10
88.11589624533214
 20
-116.851437687801
 30
0.0
 10
88.1982340274296
 20
-116.8113023253979
 30
0.0
 10
88.31674531212221
 20
-116.8113023253979
 30
0.0
 10
88.57064884938512
 20
-116.8113023253979
 30
0.0
 10
88.80767141877031
 20
-116.9975097363756
 30
0.0
 10
88.80767141877031
 20
-117.3104966612106
 30
0.0
 10
88.80767141877031
 20
-117.6279622101763
 30
0.0
 10
88.58339570268055
 20
-117.8627454674961
 30
0.0
 10
88.28091631907562
 20
-117.8627454674961
 30
0.0
  0
HATCH
  5
7E
330
77
100
AcDbEntity
  8
_U+30EC_U+30A4_U+30E4_U+30FC 1
 62
   179
420
  2234388
100
AcDbHatch
 10
0.0
 20
0.0
 30
0.0
210
0.0
220
0.0
230
1.0
  2
SOLID
 70
     1
 71
     0
 91
        1
 92
        1
 93
        1
 72
     4
 94
        3
 73
     0
 74
     1
 95
       53
 96
       49
 40
0.0
 40
0.0
 40
0.0
 40
0.0
 40
1.0
 40
1.0
 40
1.0
 40
2.0
 40
2.0
 40
2.0
 40
3.0
 40
3.0
 40
3.0
 40
4.0
 40
4.0
 40
4.0
 40
5.0
 40
5.0
 40
5.0
 40
6.0
 40
6.0
 40
6.0
 40
7.0
 40
7.0
 40
7.0
 40
8.0
 40
8.0
 40
8.0
 40
9.0
 40
9.0
 40
9.0
 40
10.0
 40
10.0
 40
10.0
 40
11.0
 40
11.0
 40
11.0
 40
12.0
 40
12.0
 40
12.0
 40
13.0
 40
13.0
 40
13.0
 40
14.0
 40
14.0
 40
14.0
 40
15.0
 40
15.0
 40
15.0
 40
16.0
 40
16.0
 40
16.0
 40
16.0
 10
88.28091631907562
 20
-117.8627454674961
 10
88.20271265156043
 20
-117.8627454674961
 10
88.10108233474557
 20
-117.8456922448441
 10
87.9994520179307
 20
-117.7823024879155
 10
87.82599146024836
 20
-117.6722316871618
 10
87.80480412301408
 20
-117.5411458039481
 10
87.78585609784521
 20
-117.4333143152597
 10
87.78585609784521
 20
-117.4333143152597
 10
88.00789250186956
 20
-117.4333143152597
 10
88.00789250186956
 20
-117.4333143152597
 10
88.06301402963355
 20
-117.6320963247586
 10
88.189965798265
 20
-117.6617241459318
 10
88.28298337636676
 20
-117.6617241459318
 10
88.42250974351937
 20
-117.6617241459318
 10
88.57478296396742
 20
-117.5623331411823
 10
88.57478296396742
 20
-117.3296169411537
 10
88.57478296396742
 20
-117.0736463465996
 10
88.39494897963738
 20
-117.0038831630233
 10
88.27437063765363
 20
-117.0038831630233
 10
88.24267575918934
 20
-117.0038831630233
 10
88.10108233474557
 20
-117.0038831630233
 10
88.01219887122612
 20
-117.1329019889459
 10
88.01219887122612
 20
-117.1329019889459
 10
87.83667125625264
 20
-117.1137817090028
 10
87.83667125625264
 20
-117.1137817090028
 10
87.83667125625264
 20
-117.1137817090028
 10
87.95724959823639
 20
-116.2676662578255
 10
87.95724959823639
 20
-116.2676662578255
 10
87.95724959823639
 20
-116.2676662578255
 10
88.73566892312859
 20
-116.2676662578255
 10
88.73566892312859
 20
-116.2676662578255
 10
88.73566892312859
 20
-116.2676662578255
 10
88.73566892312859
 20
-116.4623141527421
 10
88.73566892312859
 20
-116.4623141527421
 10
88.73566892312859
 20
-116.4623141527421
 10
88.12003035991444
 20
-116.4623141527421
 10
88.12003035991444
 20
-116.4623141527421
 10
88.12003035991444
 20
-116.4623141527421
 10
88.0545735456947
 20
-116.8853718783307
 10
88.0545735456947
 20
-116.8853718783307
 10
88.11589624533214
 20
-116.851437687801
 10
88.1982340274296
 20
-116.8113023253979
 10
88.31674531212221
 20
-116.8113023253979
 10
88.57064884938512
 20
-116.8113023253979
 10
88.80767141877031
 20
-116.9975097363756
 10
88.80767141877031
 20
-117.3104966612106
 10
88.80767141877031
 20
-117.6279622101763
 10
88.58339570268055
 20
-117.8627454674961
 10
88.28091631907562
 20
-117.8627454674961
 97
        0
 97
        0
 75
     2
 76
     1
 98
        0
  0
ENDBLK
  5
7A
330
77
100
AcDbEntity
  8
0
100
AcDbBlockEnd
  0
BLOCK
  5
8D
330
8B
100
AcDbEntity
  8
0
100
AcDbBlockBegin
  2
block 4
 70
     0
 10
0.0
 20
0.0
 30
0.0
  3
block 4
  1

  0
SPLINE
  5
8F
330
8B
100
AcDbEntity
  8
_U+30EC_U+30A4_U+30E4_U+30FC 1
370
     0
100
AcDbSpline
210
0.0
220
0.0
230
1.0
 70
    11
 71
     3
 72
    44
 73
    40
 74
     0
 42
0.0000000001
 43
0.0000000001
 12
1.0
 22
0.0
 32
0.0
 13
1.0
 23
0.0
 33
0.0
 40
0.0
 40
0.0
 40
0.0
 40
0.0
 40
1.0
 40
1.0
 40
1.0
 40
2.0
 40
2.0
 40
2.0
 40
3.0
 40
3.0
 40
3.0
 40
4.0
 40
4.0
 40
4.0
 40
5.0
 40
5.0
 40
5.0
 40
6.0
 40
6.0
 40
6.0
 40
7.0
 40
7.0
 40
7.0
 40
8.0
 40
8.0
 40
8.0
 40
9.0
 40
9.0
 40
9.0
 40
10.0
 40
10.0
 40
10.0
 40
11.0
 40
11.0
 40
11.0
 40
12.0
 40
12.0
 40
12.0
 40
13.0
 40
13.0
 40
13.0
 40
13.0
 10
87.21620955935914
 20
-140.2298556507064
 30
0.0
 10
86.99830726991709
 20
-140.3886745525764
 30
0.0
 10
86.90511743704108
 20
-140.4627441055093
 30
0.0
 10
86.85654159069907
 20
-140.6064045872442
 30
0.0
 10
86.85654159069907
 20
-140.6064045872442
 30
0.0
 10
87.63496091559126
 20
-140.6064045872442
 30
0.0
 10
87.63496091559126
 20
-140.6064045872442
 30
0.0
 10
87.63496091559126
 20
-140.6064045872442
 30
0.0
 10
87.63496091559126
 20
-140.8117322781651
 30
0.0
 10
87.63496091559126
 20
-140.8117322781651
 30
0.0
 10
87.63496091559126
 20
-140.8117322781651
 30
0.0
 10
86.60694442279271
 20
-140.8117322781651
 30
0.0
 10
86.60694442279271
 20
-140.8117322781651
 30
0.0
 10
86.63863930125702
 20
-140.4541313667962
 30
0.0
 10
86.70409611547676
 20
-140.375927699281
 30
0.0
 10
87.08925779072769
 20
-140.0775824302584
 30
0.0
 10
87.34522838528176
 20
-139.8788004207595
 30
0.0
 10
87.4106851995015
 20
-139.8109320397
 30
0.0
 10
87.4106851995015
 20
-139.6734727298386
 30
0.0
 10
87.4106851995015
 20
-139.554961445146
 30
0.0
 10
87.33885495863404
 20
-139.4240478167065
 30
0.0
 10
87.14214000642627
 20
-139.4240478167065
 30
0.0
 10
86.88186304251565
 20
-139.4240478167065
 30
0.0
 10
86.87342255857679
 20
-139.6545247046697
 30
0.0
 10
86.86911618922022
 20
-139.7709689320712
 30
0.0
 10
86.86911618922022
 20
-139.7709689320712
 30
0.0
 10
86.64501272790473
 20
-139.7709689320712
 30
0.0
 10
86.64501272790473
 20
-139.7709689320712
 30
0.0
 10
86.65345321184358
 20
-139.6438449086654
 30
0.0
 10
86.6639607530736
 20
-139.5318793053948
 30
0.0
 10
86.74440373265418
 20
-139.4133680207022
 30
0.0
 10
86.85430227863365
 20
-139.2524820615411
 30
0.0
 10
87.0405096896114
 20
-139.2187201257856
 30
0.0
 10
87.15695391701284
 20
-139.2187201257856
 30
0.0
 10
87.4341118488012
 20
-139.2187201257856
 30
0.0
 10
87.64133434223898
 20
-139.402688224698
 30
0.0
 10
87.64133434223898
 20
-139.6755397871297
 30
0.0
 10
87.64133434223898
 20
-139.9042941273503
 30
0.0
 10
87.52506236961179
 20
-140.0035128773255
 30
0.0
 10
87.21620955935914
 20
-140.2298556507064
 30
0.0
  0
HATCH
  5
90
330
8B
100
AcDbEntity
  8
_U+30EC_U+30A4_U+30E4_U+30FC 1
 62
   179
420
  2234388
100
AcDbHatch
 10
0.0
 20
0.0
 30
0.0
210
0.0
220
0.0
230
1.0
  2
SOLID
 70
     1
 71
     0
 91
        1
 92
        1
 93
        1
 72
     4
 94
        3
 73
     0
 74
     1
 95
       44
 96
       40
 40
0.0
 40
0.0
 40
0.0
 40
0.0
 40
1.0
 40
1.0
 40
1.0
 40
2.0
 40
2.0
 40
2.0
 40
3.0
 40
3.0
 40
3.0
 40
4.0
 40
4.0
 40
4.0
 40
5.0
 40
5.0
 40
5.0
 40
6.0
 40
6.0
 40
6.0
 40
7.0
 40
7.0
 40
7.0
 40
8.0
 40
8.0
 40
8.0
 40
9.0
 40
9.0
 40
9.0
 40
10.0
 40
10.0
 40
10.0
 40
11.0
 40
11.0
 40
11.0
 40
12.0
 40
12.0
 40
12.0
 40
13.0
 40
13.0
 40
13.0
 40
13.0
 10
87.21620955935914
 20
-140.2298556507064
 10
86.99830726991709
 20
-140.3886745525764
 10
86.90511743704108
 20
-140.4627441055093
 10
86.85654159069907
 20
-140.6064045872442
 10
86.85654159069907
 20
-140.6064045872442
 10
87.63496091559126
 20
-140.6064045872442
 10
87.63496091559126
 20
-140.6064045872442
 10
87.63496091559126
 20
-140.6064045872442
 10
87.63496091559126
 20
-140.8117322781651
 10
87.63496091559126
 20
-140.8117322781651
 10
87.63496091559126
 20
-140.8117322781651
 10
86.60694442279271
 20
-140.8117322781651
 10
86.60694442279271
 20
-140.8117322781651
 10
86.63863930125702
 20
-140.4541313667962
 10
86.70409611547676
 20
-140.375927699281
 10
87.08925779072769
 20
-140.0775824302584
 10
87.34522838528176
 20
-139.8788004207595
 10
87.4106851995015
 20
-139.8109320397
 10
87.4106851995015
 20
-139.6734727298386
 10
87.4106851995015
 20
-139.554961445146
 10
87.33885495863404
 20
-139.4240478167065
 10
87.14214000642627
 20
-139.4240478167065
 10
86.88186304251565
 20
-139.4240478167065
 10
86.87342255857679
 20
-139.6545247046697
 10
86.86911618922022
 20
-139.7709689320712
 10
86.86911618922022
 20
-139.7709689320712
 10
86.64501272790473
 20
-139.7709689320712
 10
86.64501272790473
 20
-139.7709689320712
 10
86.65345321184358
 20
-139.6438449086654
 10
86.6639607530736
 20
-139.5318793053948
 10
86.74440373265418
 20
-139.4133680207022
 10
86.85430227863365
 20
-139.2524820615411
 10
87.0405096896114
 20
-139.2187201257856
 10
87.15695391701284
 20
-139.2187201257856
 10
87.4341118488012
 20
-139.2187201257856
 10
87.64133434223898
 20
-139.402688224698
 10
87.64133434223898
 20
-139.6755397871297
 10
87.64133434223898
 20
-139.9042941273503
 10
87.52506236961179
 20
-140.0035128773255
 10
87.21620955935914
 20
-140.2298556507064
 97
        0
 97
        0
 75
     2
 76
     1
 98
        0
  0
SPLINE
  5
91
330
8B
100
AcDbEntity
  8
_U+30EC_U+30A4_U+30E4_U+30FC 1
370
     0
100
AcDbSpline
210
0.0
220
0.0
230
1.0
 70
    11
 71
     3
 72
    29
 73
    25
 74
     0
 42
0.0000000001
 43
0.0000000001
 12
1.0
 22
0.0
 32
0.0
 13
1.0
 23
0.0
 33
0.0
 40
0.0
 40
0.0
 40
0.0
 40
0.0
 40
1.0
 40
1.0
 40
1.0
 40
2.0
 40
2.0
 40
2.0
 40
3.0
 40
3.0
 40
3.0
 40
4.0
 40
4.0
 40
4.0
 40
5.0
 40
5.0
 40
5.0
 40
6.0
 40
6.0
 40
6.0
 40
7.0
 40
7.0
 40
7.0
 40
8.0
 40
8.0
 40
8.0
 40
8.0
 10
88.69777287279084
 20
-140.6339653511262
 30
0.0
 10
88.58959687455399
 20
-140.8434271566294
 30
0.0
 10
88.41630857164593
 20
-140.8623751817983
 30
0.0
 10
88.29986434424448
 20
-140.8623751817983
 30
0.0
 10
88.13915063985758
 20
-140.8623751817983
 30
0.0
 10
87.99738496063955
 20
-140.8158663927474
 30
0.0
 10
87.90212807047239
 20
-140.6339653511262
 30
0.0
 10
87.79860295114064
 20
-140.4393174562096
 30
0.0
 10
87.7794826711975
 20
-140.2022948868244
 30
0.0
 10
87.7794826711975
 20
-140.0396863799207
 30
0.0
 10
87.7794826711975
 20
-139.8956813886372
 30
0.0
 10
87.79636363907522
 20
-139.6438449086654
 30
0.0
 10
87.90212807047239
 20
-139.4450628991665
 30
0.0
 10
88.01013181393498
 20
-139.2421467750853
 30
0.0
 10
88.17084551832187
 20
-139.2187201257856
 30
0.0
 10
88.29986434424448
 20
-139.2187201257856
 30
0.0
 10
88.4586832461145
 20
-139.2187201257856
 30
0.0
 10
88.60234372784942
 20
-139.2631618575453
 30
0.0
 10
88.69777287279084
 20
-139.4450628991665
 30
0.0
 10
88.79699162276603
 20
-139.637643736792
 30
0.0
 10
88.82041827206574
 20
-139.866053567464
 30
0.0
 10
88.82041827206574
 20
-140.0396863799207
 30
0.0
 10
88.82041827206574
 20
-140.2109076255375
 30
0.0
 10
88.79905868005719
 20
-140.4413845135008
 30
0.0
 10
88.69777287279084
 20
-140.6339653511262
 30
0.0
  0
SPLINE
  5
92
330
8B
100
AcDbEntity
  8
_U+30EC_U+30A4_U+30E4_U+30FC 1
370
     0
100
AcDbSpline
210
0.0
220
0.0
230
1.0
 70
    11
 71
     3
 72
    17
 73
    13
 74
     0
 42
0.0000000001
 43
0.0000000001
 12
1.0
 22
0.0
 32
0.0
 13
1.0
 23
0.0
 33
0.0
 40
0.0
 40
0.0
 40
0.0
 40
0.0
 40
1.0
 40
1.0
 40
1.0
 40
2.0
 40
2.0
 40
2.0
 40
3.0
 40
3.0
 40
3.0
 40
4.0
 40
4.0
 40
4.0
 40
4.0
 10
88.29986434424448
 20
-139.4113009634111
 30
0.0
 10
88.05026717633814
 20
-139.4113009634111
 30
0.0
 10
88.00375838728726
 20
-139.6948323218471
 30
0.0
 10
88.00375838728726
 20
-140.0396863799207
 30
0.0
 10
88.00375838728726
 20
-140.3590467314033
 30
0.0
 10
88.03975963510813
 20
-140.6677272868817
 30
0.0
 10
88.29986434424448
 20
-140.6677272868817
 30
0.0
 10
88.54756670963394
 20
-140.6677272868817
 30
0.0
 10
88.59614255597597
 20
-140.3866074952853
 30
0.0
 10
88.59614255597597
 20
-140.0396863799207
 30
0.0
 10
88.59614255597597
 20
-139.7199815188895
 30
0.0
 10
88.5579019960897
 20
-139.4113009634111
 30
0.0
 10
88.29986434424448
 20
-139.4113009634111
 30
0.0
  0
HATCH
  5
93
330
8B
100
AcDbEntity
  8
_U+30EC_U+30A4_U+30E4_U+30FC 1
 62
   179
420
  2234388
100
AcDbHatch
 10
0.0
 20
0.0
 30
0.0
210
0.0
220
0.0
230
1.0
  2
SOLID
 70
     1
 71
     0
 91
        2
 92
        1
 93
        1
 72
     4
 94
        3
 73
     0
 74
     1
 95
       29
 96
       25
 40
0.0
 40
0.0
 40
0.0
 40
0.0
 40
1.0
 40
1.0
 40
1.0
 40
2.0
 40
2.0
 40
2.0
 40
3.0
 40
3.0
 40
3.0
 40
4.0
 40
4.0
 40
4.0
 40
5.0
 40
5.0
 40
5.0
 40
6.0
 40
6.0
 40
6.0
 40
7.0
 40
7.0
 40
7.0
 40
8.0
 40
8.0
 40
8.0
 40
8.0
 10
88.69777287279084
 20
-140.6339653511262
 10
88.58959687455399
 20
-140.8434271566294
 10
88.41630857164593
 20
-140.8623751817983
 10
88.29986434424448
 20
-140.8623751817983
 10
88.13915063985758
 20
-140.8623751817983
 10
87.99738496063955
 20
-140.8158663927474
 10
87.90212807047239
 20
-140.6339653511262
 10
87.79860295114064
 20
-140.4393174562096
 10
87.7794826711975
 20
-140.2022948868244
 10
87.7794826711975
 20
-140.0396863799207
 10
87.7794826711975
 20
-139.8956813886372
 10
87.79636363907522
 20
-139.6438449086654
 10
87.90212807047239
 20
-139.4450628991665
 10
88.01013181393498
 20
-139.2421467750853
 10
88.17084551832187
 20
-139.2187201257856
 10
88.29986434424448
 20
-139.2187201257856
 10
88.4586832461145
 20
-139.2187201257856
 10
88.60234372784942
 20
-139.2631618575453
 10
88.69777287279084
 20
-139.4450628991665
 10
88.79699162276603
 20
-139.637643736792
 10
88.82041827206574
 20
-139.866053567464
 10
88.82041827206574
 20
-140.0396863799207
 10
88.82041827206574
 20
-140.2109076255375
 10
88.79905868005719
 20
-140.4413845135008
 10
88.69777287279084
 20
-140.6339653511262
 97
        0
 97
        0
 92
        1
 93
        1
 72
     4
 94
        3
 73
     0
 74
     1
 95
       17
 96
       13
 40
0.0
 40
0.0
 40
0.0
 40
0.0
 40
1.0
 40
1.0
 40
1.0
 40
2.0
 40
2.0
 40
2.0
 40
3.0
 40
3.0
 40
3.0
 40
4.0
 40
4.0
 40
4.0
 40
4.0
 10
88.29986434424448
 20
-139.4113009634111
 10
88.05026717633814
 20
-139.4113009634111
 10
88.00375838728726
 20
-139.6948323218471
 10
88.00375838728726
 20
-140.0396863799207
 10
88.00375838728726
 20
-140.3590467314033
 10
88.03975963510813
 20
-140.6677272868817
 10
88.29986434424448
 20
-140.6677272868817
 10
88.54756670963394
 20
-140.6677272868817
 10
88.59614255597597
 20
-140.3866074952853
 10
88.59614255597597
 20
-140.0396863799207
 10
88.59614255597597
 20
-139.7199815188895
 10
88.5579019960897
 20
-139.4113009634111
 10
88.29986434424448
 20
-139.4113009634111
 97
        0
 97
        0
 75
     2
 76
     1
 98
        0
  0
ENDBLK
  5
8E
330
8B
100
AcDbEntity
  8
0
100
AcDbBlockEnd
  0
ENDSEC
  0
SECTION
  2
ENTITIES
  0
POLYLINE
  5
41
330
1F
100
AcDbEntity
  8
_U+30EC_U+30A4_U+30E4_U+30FC 1
 62
   179
420
  2234388
370
    25
100
AcDb2dPolyline
 66
     1
 10
0.0
 20
0.0
 30
0.0
  0
VERTEX
  5
42
330
41
100
AcDbEntity
  8
_U+30EC_U+30A4_U+30E4_U+30FC 1
 62
   179
420
  2234388
370
    25
100
AcDbVertex
100
AcDb2dVertex
 10
77.71172135074215
 20
-137.1051430212794
 30
0.0
  0
VERTEX
  5
43
330
41
100
AcDbEntity
  8
_U+30EC_U+30A4_U+30E4_U+30FC 1
 62
   179
420
  2234388
370
    25
100
AcDbVertex
100
AcDb2dVertex
 10
97.71185722938506
 20
-137.1051430212794
 30
0.0
  0
SEQEND
  5
44
330
41
100
AcDbEntity
  8
_U+30EC_U+30A4_U+30E4_U+30FC 1
 62
   179
420
  2234388
370
    25
  0
POLYLINE
  5
45
330
1F
100
AcDbEntity
  8
_U+30EC_U+30A4_U+30E4_U+30FC 1
 62
   179
420
  2234388
370
    25
100
AcDb2dPolyline
 66
     1
 10
0.0
 20
0.0
 30
0.0
  0
VERTEX
  5
46
330
45
100
AcDbEntity
  8
_U+30EC_U+30A4_U+30E4_U+30FC 1
 62
   179
420
  2234388
370
    25
100
AcDbVertex
100
AcDb2dVertex
 10
80.21146934252383
 20
-122.1050319139182
 30
0.0
  0
VERTEX
  5
47
330
45
100
AcDbEntity
  8
_U+30EC_U+30A4_U+30E4_U+30FC 1
 62
   179
420
  2234388
370
    25
100
AcDbVertex
100
AcDb2dVertex
 10
95.21140368206584
 20
-122.1050319139182
 30
0.0
  0
SEQEND
  5
48
330
45
100
AcDbEntity
  8
_U+30EC_U+30A4_U+30E4_U+30FC 1
 62
   179
420
  2234388
370
    25
  0
POLYLINE
  5
49
330
1F
100
AcDbEntity
  8
_U+30EC_U+30A4_U+30E4_U+30FC 1
 62
   179
420
  2234388
370
    25
100
AcDb2dPolyline
 66
     1
 10
0.0
 20
0.0
 30
0.0
  0
VERTEX
  5
4A
330
49
100
AcDbEntity
  8
_U+30EC_U+30A4_U+30E4_U+30FC 1
 62
   179
420
  2234388
370
    25
100
AcDbVertex
100
AcDb2dVertex
 10
80.21146934252383
 20
-122.1050319139182
 30
0.0
  0
VERTEX
  5
4B
330
49
100
AcDbEntity
  8
_U+30EC_U+30A4_U+30E4_U+30FC 1
 62
   179
420
  2234388
370
    25
100
AcDbVertex
100
AcDb2dVertex
 10
77.71172135074215
 20
-137.1051430212794
 30
0.0
  0
SEQEND
  5
4C
330
49
100
AcDbEntity
  8
_U+30EC_U+30A4_U+30E4_U+30FC 1
 62
   179
420
  2234388
370
    25
  0
POLYLINE
  5
4D
330
1F
100
AcDbEntity
  8
_U+30EC_U+30A4_U+30E4_U+30FC 1
 62
   179
420
  2234388
370
    25
100
AcDb2dPolyline
 66
     1
 10
0.0
 20
0.0
 30
0.0
  0
VERTEX
  5
4E
330
4D
100
AcDbEntity
  8
_U+30EC_U+30A4_U+30E4_U+30FC 1
 62
   179
420
  2234388
370
    25
100
AcDbVertex
100
AcDb2dVertex
 10
95.21140368206584
 20
-122.1050319139182
 30
0.0
  0
VERTEX
  5
4F
330
4D
100
AcDbEntity
  8
_U+30EC_U+30A4_U+30E4_U+30FC 1
 62
   179
420
  2234388
370
    25
100
AcDbVertex
100
AcDb2dVertex
 10
97.71185722938506
 20
-137.1051430212794
 30
0.0
  0
SEQEND
  5
50
330
4D
100
AcDbEntity
  8
_U+30EC_U+30A4_U+30E4_U+30FC 1
 62
   179
420
  2234388
370
    25
  0
SPLINE
  5
51
330
1F
100
AcDbEntity
  8
_U+30EC_U+30A4_U+30E4_U+30FC 1
 62
   179
420
  2234388
370
     9
100
AcDbSpline
210
0.0
220
0.0
230
1.0
 70
    11
 71
     3
 72
    17
 73
    13
 74
     0
 42
0.0000000001
 43
0.0000000001
 12
1.0
 22
0.0
 32
0.0
 13
1.0
 23
0.0
 33
0.0
 40
0.0
 40
0.0
 40
0.0
 40
0.0
 40
1.0
 40
1.0
 40
1.0
 40
2.0
 40
2.0
 40
2.0
 40
3.0
 40
3.0
 40
3.0
 40
4.0
 40
4.0
 40
4.0
 40
4.0
 10
101.8115229581272
 20
-122.1050319139182
 30
0.0
 10
101.8115229581272
 20
-122.0499280250432
 30
0.0
 10
101.7667554592693
 20
-122.0051252472765
 30
0.0
 10
101.7116162940094
 20
-122.0051252472765
 30
0.0
 10
101.6565124065263
 20
-122.0051252472765
 30
0.0
 10
101.6117096298915
 20
-122.0499280250432
 30
0.0
 10
101.6117096298915
 20
-122.1050319139182
 30
0.0
 10
101.6117096298915
 20
-122.1601710805712
 30
0.0
 10
101.6565124065263
 20
-122.2049385805598
 30
0.0
 10
101.7116162940094
 20
-122.2049385805598
 30
0.0
 10
101.7667554592693
 20
-122.2049385805598
 30
0.0
 10
101.8115229581272
 20
-122.1601710805712
 30
0.0
 10
101.8115229581272
 20
-122.1050319139182
 30
0.0
  0
SPLINE
  5
52
330
1F
100
AcDbEntity
  8
_U+30EC_U+30A4_U+30E4_U+30FC 1
 62
   179
420
  2234388
370
     9
100
AcDbSpline
210
0.0
220
0.0
230
1.0
 70
    11
 71
     3
 72
    17
 73
    13
 74
     0
 42
0.0000000001
 43
0.0000000001
 12
1.0
 22
0.0
 32
0.0
 13
1.0
 23
0.0
 33
0.0
 40
0.0
 40
0.0
 40
0.0
 40
0.0
 40
1.0
 40
1.0
 40
1.0
 40
2.0
 40
2.0
 40
2.0
 40
3.0
 40
3.0
 40
3.0
 40
4.0
 40
4.0
 40
4.0
 40
4.0
 10
101.8115229581272
 20
-137.1051430212794
 30
0.0
 10
101.8115229581272
 20
-137.0500391324045
 30
0.0
 10
101.7667554592693
 20
-137.0052363546378
 30
0.0
 10
101.7116162940094
 20
-137.0052363546378
 30
0.0
 10
101.6565124065263
 20
-137.0052363546378
 30
0.0
 10
101.6117096298915
 20
-137.0500391324045
 30
0.0
 10
101.6117096298915
 20
-137.1051430212794
 30
0.0
 10
101.6117096298915
 20
-137.1602821879325
 30
0.0
 10
101.6565124065263
 20
-137.205049687921
 30
0.0
 10
101.7116162940094
 20
-137.205049687921
 30
0.0
 10
101.7667554592693
 20
-137.205049687921
 30
0.0
 10
101.8115229581272
 20
-137.1602821879325
 30
0.0
 10
101.8115229581272
 20
-137.1051430212794
 30
0.0
  0
SPLINE
  5
53
330
1F
100
AcDbEntity
  8
_U+30EC_U+30A4_U+30E4_U+30FC 1
 62
   179
420
  2234388
370
     9
100
AcDbSpline
210
0.0
220
0.0
230
1.0
 70
    11
 71
     3
 72
    17
 73
    13
 74
     0
 42
0.0000000001
 43
0.0000000001
 12
1.0
 22
0.0
 32
0.0
 13
1.0
 23
0.0
 33
0.0
 40
0.0
 40
0.0
 40
0.0
 40
0.0
 40
1.0
 40
1.0
 40
1.0
 40
2.0
 40
2.0
 40
2.0
 40
3.0
 40
3.0
 40
3.0
 40
4.0
 40
4.0
 40
4.0
 40
4.0
 10
95.31131034618367
 20
-118.1052727482516
 30
0.0
 10
95.31131034618367
 20
-118.0501688593764
 30
0.0
 10
95.26654284732578
 20
-118.0053660816096
 30
0.0
 10
95.21140368206584
 20
-118.0053660816096
 30
0.0
 10
95.15629979458276
 20
-118.0053660816096
 30
0.0
 10
95.111497017948
 20
-118.0501688593764
 30
0.0
 10
95.111497017948
 20
-118.1052727482516
 30
0.0
 10
95.111497017948
 20
-118.1604119149043
 30
0.0
 10
95.15629979458276
 20
-118.2051794148932
 30
0.0
 10
95.21140368206584
 20
-118.2051794148932
 30
0.0
 10
95.26654284732578
 20
-118.2051794148932
 30
0.0
 10
95.31131034618367
 20
-118.1604119149043
 30
0.0
 10
95.31131034618367
 20
-118.1052727482516
 30
0.0
  0
SPLINE
  5
54
330
1F
100
AcDbEntity
  8
_U+30EC_U+30A4_U+30E4_U+30FC 1
 62
   179
420
  2234388
370
     9
100
AcDbSpline
210
0.0
220
0.0
230
1.0
 70
    11
 71
     3
 72
    17
 73
    13
 74
     0
 42
0.0000000001
 43
0.0000000001
 12
1.0
 22
0.0
 32
0.0
 13
1.0
 23
0.0
 33
0.0
 40
0.0
 40
0.0
 40
0.0
 40
0.0
 40
1.0
 40
1.0
 40
1.0
 40
2.0
 40
2.0
 40
2.0
 40
3.0
 40
3.0
 40
3.0
 40
4.0
 40
4.0
 40
4.0
 40
4.0
 10
80.31208156217922
 20
-118.1052727482516
 30
0.0
 10
80.31208156217922
 20
-118.0501688593764
 30
0.0
 10
80.26727878554445
 20
-118.0053660816096
 30
0.0
 10
80.21146934252383
 20
-118.0053660816096
 30
0.0
 10
80.15633017726387
 20
-118.0053660816096
 30
0.0
 10
80.11156267840599
 20
-118.0501688593764
 30
0.0
 10
80.11156267840599
 20
-118.1052727482516
 30
0.0
 10
80.11156267840599
 20
-118.1604119149043
 30
0.0
 10
80.15633017726387
 20
-118.2051794148932
 30
0.0
 10
80.21146934252383
 20
-118.2051794148932
 30
0.0
 10
80.26727878554445
 20
-118.2051794148932
 30
0.0
 10
80.31208156217922
 20
-118.1604119149043
 30
0.0
 10
80.31208156217922
 20
-118.1052727482516
 30
0.0
  0
SPLINE
  5
55
330
1F
100
AcDbEntity
  8
_U+30EC_U+30A4_U+30E4_U+30FC 1
 62
   179
420
  2234388
370
     9
100
AcDbSpline
210
0.0
220
0.0
230
1.0
 70
    11
 71
     3
 72
    17
 73
    13
 74
     0
 42
0.0000000001
 43
0.0000000001
 12
1.0
 22
0.0
 32
0.0
 13
1.0
 23
0.0
 33
0.0
 40
0.0
 40
0.0
 40
0.0
 40
0.0
 40
1.0
 40
1.0
 40
1.0
 40
2.0
 40
2.0
 40
2.0
 40
3.0
 40
3.0
 40
3.0
 40
4.0
 40
4.0
 40
4.0
 40
4.0
 10
77.81162801485999
 20
-141.1049021869463
 30
0.0
 10
77.81162801485999
 20
-141.0497982980707
 30
0.0
 10
77.76682523822522
 20
-141.004995520304
 30
0.0
 10
77.71172135074215
 20
-141.004995520304
 30
0.0
 10
77.65658218548221
 20
-141.004995520304
 30
0.0
 10
77.61181664726386
 20
-141.0497982980707
 30
0.0
 10
77.61181664726386
 20
-141.1049021869463
 30
0.0
 10
77.61181664726386
 20
-141.1607116313767
 30
0.0
 10
77.65658218548221
 20
-141.2048088535879
 30
0.0
 10
77.71172135074215
 20
-141.2048088535879
 30
0.0
 10
77.76682523822522
 20
-141.2048088535879
 30
0.0
 10
77.81162801485999
 20
-141.1607116313767
 30
0.0
 10
77.81162801485999
 20
-141.1049021869463
 30
0.0
  0
SPLINE
  5
56
330
1F
100
AcDbEntity
  8
_U+30EC_U+30A4_U+30E4_U+30FC 1
 62
   179
420
  2234388
370
     9
100
AcDbSpline
210
0.0
220
0.0
230
1.0
 70
    11
 71
     3
 72
    17
 73
    13
 74
     0
 42
0.0000000001
 43
0.0000000001
 12
1.0
 22
0.0
 32
0.0
 13
1.0
 23
0.0
 33
0.0
 40
0.0
 40
0.0
 40
0.0
 40
0.0
 40
1.0
 40
1.0
 40
1.0
 40
2.0
 40
2.0
 40
2.0
 40
3.0
 40
3.0
 40
3.0
 40
4.0
 40
4.0
 40
4.0
 40
4.0
 10
97.8117638935029
 20
-141.1049021869463
 30
0.0
 10
97.8117638935029
 20
-141.0497982980707
 30
0.0
 10
97.76699639464502
 20
-141.004995520304
 30
0.0
 10
97.71185722938506
 20
-141.004995520304
 30
0.0
 10
97.65675334190199
 20
-141.004995520304
 30
0.0
 10
97.61195056526722
 20
-141.0497982980707
 30
0.0
 10
97.61195056526722
 20
-141.1049021869463
 30
0.0
 10
97.61195056526722
 20
-141.1607116313767
 30
0.0
 10
97.65675334190199
 20
-141.2048088535879
 30
0.0
 10
97.71185722938506
 20
-141.2048088535879
 30
0.0
 10
97.76699639464502
 20
-141.2048088535879
 30
0.0
 10
97.8117638935029
 20
-141.1607116313767
 30
0.0
 10
97.8117638935029
 20
-141.1049021869463
 30
0.0
  0
POLYLINE
  5
57
330
1F
100
AcDbEntity
  8
_U+30EC_U+30A4_U+30E4_U+30FC 1
 62
   179
420
  2234388
370
     9
100
AcDb2dPolyline
 66
     1
 10
0.0
 20
0.0
 30
0.0
  0
VERTEX
  5
58
330
57
100
AcDbEntity
  8
_U+30EC_U+30A4_U+30E4_U+30FC 1
 62
   179
420
  2234388
370
     9
100
AcDbVertex
100
AcDb2dVertex
 10
101.7116162940094
 20
-122.1050319139182
 30
0.0
  0
VERTEX
  5
59
330
57
100
AcDbEntity
  8
_U+30EC_U+30A4_U+30E4_U+30FC 1
 62
   179
420
  2234388
370
     9
100
AcDbVertex
100
AcDb2dVertex
 10
101.7116162940094
 20
-137.1051430212794
 30
0.0
  0
SEQEND
  5
5A
330
57
100
AcDbEntity
  8
_U+30EC_U+30A4_U+30E4_U+30FC 1
 62
   179
420
  2234388
370
     9
  0
POLYLINE
  5
5B
330
1F
100
AcDbEntity
  8
_U+30EC_U+30A4_U+30E4_U+30FC 1
 62
   179
420
  2234388
370
     9
100
AcDb2dPolyline
 66
     1
 10
0.0
 20
0.0
 30
0.0
  0
VERTEX
  5
5C
330
5B
100
AcDbEntity
  8
_U+30EC_U+30A4_U+30E4_U+30FC 1
 62
   179
420
  2234388
370
     9
100
AcDbVertex
100
AcDb2dVertex
 10
97.75182695058757
 20
-122.1050319139182
 30
0.0
  0
VERTEX
  5
5D
330
5B
100
AcDbEntity
  8
_U+30EC_U+30A4_U+30E4_U+30FC 1
 62
   179
420
  2234388
370
     9
100
AcDbVertex
100
AcDb2dVertex
 10
102.7113884907253
 20
-122.1050319139182
 30
0.0
  0
SEQEND
  5
5E
330
5B
100
AcDbEntity
  8
_U+30EC_U+30A4_U+30E4_U+30FC 1
 62
   179
420
  2234388
370
     9
  0
POLYLINE
  5
5F
330
1F
100
AcDbEntity
  8
_U+30EC_U+30A4_U+30E4_U+30FC 1
 62
   179
420
  2234388
370
     9
100
AcDb2dPolyline
 66
     1
 10
0.0
 20
0.0
 30
0.0
  0
VERTEX
  5
60
330
5F
100
AcDbEntity
  8
_U+30EC_U+30A4_U+30E4_U+30FC 1
 62
   179
420
  2234388
370
     9
100
AcDbVertex
100
AcDb2dVertex
 10
100.2515749423692
 20
-137.1051430212794
 30
0.0
  0
VERTEX
  5
61
330
5F
100
AcDbEntity
  8
_U+30EC_U+30A4_U+30E4_U+30FC 1
 62
   179
420
  2234388
370
     9
100
AcDbVertex
100
AcDb2dVertex
 10
102.7113884907253
 20
-137.1051430212794
 30
0.0
  0
SEQEND
  5
62
330
5F
100
AcDbEntity
  8
_U+30EC_U+30A4_U+30E4_U+30FC 1
 62
   179
420
  2234388
370
     9
  0
INSERT
  5
64
330
1F
100
AcDbEntity
  8
_U+30EC_U+30A4_U+30E4_U+30FC 1
100
AcDbBlockReference
  2
block 2
 10
0.0
 20
0.0
 30
0.0
  0
POLYLINE
  5
6B
330
1F
100
AcDbEntity
  8
_U+30EC_U+30A4_U+30E4_U+30FC 1
 62
   179
420
  2234388
370
     9
100
AcDb2dPolyline
 66
     1
 10
0.0
 20
0.0
 30
0.0
  0
VERTEX
  5
6C
330
6B
100
AcDbEntity
  8
_U+30EC_U+30A4_U+30E4_U+30FC 1
 62
   179
420
  2234388
370
     9
100
AcDbVertex
100
AcDb2dVertex
 10
80.21146934252383
 20
-118.1052727482516
 30
0.0
  0
VERTEX
  5
6D
330
6B
100
AcDbEntity
  8
_U+30EC_U+30A4_U+30E4_U+30FC 1
 62
   179
420
  2234388
370
     9
100
AcDbVertex
100
AcDb2dVertex
 10
95.21140368206584
 20
-118.1052727482516
 30
0.0
  0
SEQEND
  5
6E
330
6B
100
AcDbEntity
  8
_U+30EC_U+30A4_U+30E4_U+30FC 1
 62
   179
420
  2234388
370
     9
  0
POLYLINE
  5
6F
330
1F
100
AcDbEntity
  8
_U+30EC_U+30A4_U+30E4_U+30FC 1
 62
   179
420
  2234388
370
     9
100
AcDb2dPolyline
 66
     1
 10
0.0
 20
0.0
 30
0.0
  0
VERTEX
  5
70
330
6F
100
AcDbEntity
  8
_U+30EC_U+30A4_U+30E4_U+30FC 1
 62
   179
420
  2234388
370
     9
100
AcDbVertex
100
AcDb2dVertex
 10
80.21146934252383
 20
-119.5653141367753
 30
0.0
  0
VERTEX
  5
71
330
6F
100
AcDbEntity
  8
_U+30EC_U+30A4_U+30E4_U+30FC 1
 62
   179
420
  2234388
370
     9
100
AcDbVertex
100
AcDb2dVertex
 10
80.21146934252383
 20
-117.1051830262791
 30
0.0
  0
SEQEND
  5
72
330
6F
100
AcDbEntity
  8
_U+30EC_U+30A4_U+30E4_U+30FC 1
 62
   179
420
  2234388
370
     9
  0
POLYLINE
  5
73
330
1F
100
AcDbEntity
  8
_U+30EC_U+30A4_U+30E4_U+30FC 1
 62
   179
420
  2234388
370
     9
100
AcDb2dPolyline
 66
     1
 10
0.0
 20
0.0
 30
0.0
  0
VERTEX
  5
74
330
73
100
AcDbEntity
  8
_U+30EC_U+30A4_U+30E4_U+30FC 1
 62
   179
420
  2234388
370
     9
100
AcDbVertex
100
AcDb2dVertex
 10
95.21140368206584
 20
-119.5653141367753
 30
0.0
  0
VERTEX
  5
75
330
73
100
AcDbEntity
  8
_U+30EC_U+30A4_U+30E4_U+30FC 1
 62
   179
420
  2234388
370
     9
100
AcDbVertex
100
AcDb2dVertex
 10
95.21140368206584
 20
-117.1051830262791
 30
0.0
  0
SEQEND
  5
76
330
73
100
AcDbEntity
  8
_U+30EC_U+30A4_U+30E4_U+30FC 1
 62
   179
420
  2234388
370
     9
  0
INSERT
  5
78
330
1F
100
AcDbEntity
  8
_U+30EC_U+30A4_U+30E4_U+30FC 1
100
AcDbBlockReference
  2
block 3
 10
0.0
 20
0.0
 30
0.0
  0
POLYLINE
  5
7F
330
1F
100
AcDbEntity
  8
_U+30EC_U+30A4_U+30E4_U+30FC 1
 62
   179
420
  2234388
370
     9
100
AcDb2dPolyline
 66
     1
 10
0.0
 20
0.0
 30
0.0
  0
VERTEX
  5
80
330
7F
100
AcDbEntity
  8
_U+30EC_U+30A4_U+30E4_U+30FC 1
 62
   179
420
  2234388
370
     9
100
AcDbVertex
100
AcDb2dVertex
 10
77.71172135074215
 20
-141.1049021869463
 30
0.0
  0
VERTEX
  5
81
330
7F
100
AcDbEntity
  8
_U+30EC_U+30A4_U+30E4_U+30FC 1
 62
   179
420
  2234388
370
     9
100
AcDbVertex
100
AcDb2dVertex
 10
97.71185722938506
 20
-141.1049021869463
 30
0.0
  0
SEQEND
  5
82
330
7F
100
AcDbEntity
  8
_U+30EC_U+30A4_U+30E4_U+30FC 1
 62
   179
420
  2234388
370
     9
  0
POLYLINE
  5
83
330
1F
100
AcDbEntity
  8
_U+30EC_U+30A4_U+30E4_U+30FC 1
 62
   179
420
  2234388
370
     9
100
AcDb2dPolyline
 66
     1
 10
0.0
 20
0.0
 30
0.0
  0
VERTEX
  5
84
330
83
100
AcDbEntity
  8
_U+30EC_U+30A4_U+30E4_U+30FC 1
 62
   179
420
  2234388
370
     9
100
AcDbVertex
100
AcDb2dVertex
 10
77.71172135074215
 20
-139.6448960762001
 30
0.0
  0
VERTEX
  5
85
330
83
100
AcDbEntity
  8
_U+30EC_U+30A4_U+30E4_U+30FC 1
 62
   179
420
  2234388
370
     9
100
AcDbVertex
100
AcDb2dVertex
 10
77.71172135074215
 20
-142.1053799644737
 30
0.0
  0
SEQEND
  5
86
330
83
100
AcDbEntity
  8
_U+30EC_U+30A4_U+30E4_U+30FC 1
 62
   179
420
  2234388
370
     9
  0
POLYLINE
  5
87
330
1F
100
AcDbEntity
  8
_U+30EC_U+30A4_U+30E4_U+30FC 1
 62
   179
420
  2234388
370
     9
100
AcDb2dPolyline
 66
     1
 10
0.0
 20
0.0
 30
0.0
  0
VERTEX
  5
88
330
87
100
AcDbEntity
  8
_U+30EC_U+30A4_U+30E4_U+30FC 1
 62
   179
420
  2234388
370
     9
100
AcDbVertex
100
AcDb2dVertex
 10
97.71185722938506
 20
-139.6448960762001
 30
0.0
  0
VERTEX
  5
89
330
87
100
AcDbEntity
  8
_U+30EC_U+30A4_U+30E4_U+30FC 1
 62
   179
420
  2234388
370
     9
100
AcDbVertex
100
AcDb2dVertex
 10
97.71185722938506
 20
-142.1053799644737
 30
0.0
  0
SEQEND
  5
8A
330
87
100
AcDbEntity
  8
_U+30EC_U+30A4_U+30E4_U+30FC 1
 62
   179
420
  2234388
370
     9
  0
INSERT
  5
8C
330
1F
100
AcDbEntity
  8
_U+30EC_U+30A4_U+30E4_U+30FC 1
100
AcDbBlockReference
  2
block 4
 10
0.0
 20
0.0
 30
0.0
  0
POLYLINE
  5
94
330
1F
100
AcDbEntity
  8
_U+30EC_U+30A4_U+30E4_U+30FC 1
370
     0
100
AcDb2dPolyline
 66
     1
 10
0.0
 20
0.0
 30
0.0
  0
VERTEX
  5
95
330
94
100
AcDbEntity
  8
_U+30EC_U+30A4_U+30E4_U+30FC 1
370
     0
100
AcDbVertex
100
AcDb2dVertex
 10
77.65450275836402
 20
-136.9032835768852
 30
0.0
  0
VERTEX
  5
96
330
94
100
AcDbEntity
  8
_U+30EC_U+30A4_U+30E4_U+30FC 1
370
     0
100
AcDbVertex
100
AcDb2dVertex
 10
97.76283608667026
 20
-136.9914780213076
 30
0.0
  0
VERTEX
  5
97
330
94
100
AcDbEntity
  8
_U+30EC_U+30A4_U+30E4_U+30FC 1
370
     0
100
AcDbVertex
100
AcDb2dVertex
 10
95.11700275399839
 20
-121.9985988583892
 30
0.0
  0
VERTEX
  5
98
330
94
100
AcDbEntity
  8
_U+30EC_U+30A4_U+30E4_U+30FC 1
370
     0
100
AcDbVertex
100
AcDb2dVertex
 10
80.12394720219109
 20
-122.174987747234
 30
0.0
  0
VERTEX
  5
99
330
94
100
AcDbEntity
  8
_U+30EC_U+30A4_U+30E4_U+30FC 1
370
     0
100
AcDbVertex
100
AcDb2dVertex
 10
77.65450275836402
 20
-136.9032835768852
 30
0.0
  0
SEQEND
  5
9B
330
94
100
AcDbEntity
  8
_U+30EC_U+30A4_U+30E4_U+30FC 1
370
     0
  0
HATCH
  5
9A
330
1F
100
AcDbEntity
  8
_U+30EC_U+30A4_U+30E4_U+30FC 1
 62
   178
420
        0
100
AcDbHatch
 10
0.0
 20
0.0
 30
0.0
210
0.0
220
0.0
230
1.0
  2
AI_USER_DEFINED_HATCH
 70
     0
 71
     0
 91
        1
 92
        1
 93
        4
 72
     1
 10
77.65450275836402
 20
-136.9032835768852
 11
97.76283608667026
 21
-136.9914780213076
 72
     1
 10
97.76283608667026
 20
-136.9914780213076
 11
95.11700275399839
 21
-121.9985988583892
 72
     1
 10
95.11700275399839
 20
-121.9985988583892
 11
80.12394720219109
 21
-122.174987747234
 72
     1
 10
80.12394720219109
 20
-122.174987747234
 11
77.65450275836402
 21
-136.9032835768852
 97
        0
 75
     2
 76
     0
 52
45.0
 41
10.0
 77
     0
 78
     1
 53
45.0
 43
0.0
 44
0.0
 45
-7.071067811865475
 46
7.071067811865476
 79
     0
 98
        0
  0
ENDSEC
  0
SECTION
  2
OBJECTS
  0
DICTIONARY
  5
C
330
0
100
AcDbDictionary
281
     1
  3
ACAD_GROUP
350
D
  3
ACAD_LAYOUT
350
1A
  3
ACAD_MATERIAL
350
3B
  3
ACAD_MLEADERSTYLE
350
9D
  3
ACAD_MLINESTYLE
350
17
  3
ACAD_PLOTSETTINGS
350
19
  3
ACAD_PLOTSTYLENAME
350
E
  3
ACAD_TABLESTYLE
350
9C
  3
ACAD_VISUALSTYLE
350
2A
  0
SUN
  5
3F
330
29
100
AcDbSun
 90
        1
290
     0
 63
     7
421
 16777215
 40
1.0
291
     1
 91
  2455826
 92
 54000000
292
     0
 70
     2
 71
   256
280
     1
  0
DICTIONARY
  5
D
102
{ACAD_REACTORS
330
C
102
}
330
C
100
AcDbDictionary
281
     1
  0
DICTIONARY
  5
1A
102
{ACAD_REACTORS
330
C
102
}
330
C
100
AcDbDictionary
281
     1
  3
Layout1
350
1E
  3
Layout2
350
26
  3
Model
350
22
  0
DICTIONARY
  5
3B
102
{ACAD_REACTORS
330
C
102
}
330
C
100
AcDbDictionary
281
     1
  3
ByBlock
350
3D
  3
ByLayer
350
3C
  3
Global
350
3E
  0
DICTIONARY
  5
9D
102
{ACAD_REACTORS
330
C
102
}
330
C
100
AcDbDictionary
281
     1
  0
DICTIONARY
  5
17
102
{ACAD_REACTORS
330
C
102
}
330
C
100
AcDbDictionary
281
     1
  3
Standard
350
18
  0
DICTIONARY
  5
19
102
{ACAD_REACTORS
330
C
102
}
330
C
100
AcDbDictionary
281
     1
  0
ACDBDICTIONARYWDFLT
  5
E
102
{ACAD_REACTORS
330
C
102
}
330
C
100
AcDbDictionary
281
     1
  3
Normal
350
F
100
AcDbDictionaryWithDefault
340
F
  0
DICTIONARY
  5
9C
102
{ACAD_REACTORS
330
C
102
}
330
C
100
AcDbDictionary
281
     1
  0
DICTIONARY
  5
2A
102
{ACAD_REACTORS
330
C
102
}
330
C
100
AcDbDictionary
281
     1
  3
2dWireframe
350
2F
  3
3D Hidden
350
31
  3
3dWireframe
350
30
  3
Basic
350
32
  3
Brighten
350
36
  3
ColorChange
350
3A
  3
Conceptual
350
34
  3
Dim
350
35
  3
Facepattern
350
39
  3
Flat
350
2B
  3
FlatWithEdges
350
2C
  3
Gouraud
350
2D
  3
GouraudWithEdges
350
2E
  3
Linepattern
350
38
  3
Realistic
350
33
  3
Thicken
350
37
  0
LAYOUT
  5
1E
102
{ACAD_REACTORS
330
1A
102
}
330
1A
100
AcDbPlotSettings
  1

  2
none_device
  4

  6

 40
0.0
 41
0.0
 42
0.0
 43
0.0
 44
0.0
 45
0.0
 46
0.0
 47
0.0
 48
0.0
 49
0.0
140
0.0
141
0.0
142
1.0
143
1.0
 70
   688
 72
     0
 73
     0
 74
     5
  7

 75
    16
 76
     0
 77
     2
 78
   300
147
1.0
148
0.0
149
0.0
100
AcDbLayout
  1
Layout1
 70
     1
 71
     1
 10
0.0
 20
0.0
 11
12.0
 21
9.0
 12
0.0
 22
0.0
 32
0.0
 14
1.000000000000000E+20
 24
1.000000000000000E+20
 34
1.000000000000000E+20
 15
-1.000000000000000E+20
 25
-1.000000000000000E+20
 35
-1.000000000000000E+20
146
0.0
 13
0.0
 23
0.0
 33
0.0
 16
1.0
 26
0.0
 36
0.0
 17
0.0
 27
1.0
 37
0.0
 76
     0
330
1B
  0
LAYOUT
  5
26
102
{ACAD_REACTORS
330
1A
102
}
330
1A
100
AcDbPlotSettings
  1

  2
none_device
  4

  6

 40
0.0
 41
0.0
 42
0.0
 43
0.0
 44
0.0
 45
0.0
 46
0.0
 47
0.0
 48
0.0
 49
0.0
140
0.0
141
0.0
142
1.0
143
1.0
 70
   688
 72
     0
 73
     0
 74
     5
  7

 75
    16
 76
     0
 77
     2
 78
   300
147
1.0
148
0.0
149
0.0
100
AcDbLayout
  1
Layout2
 70
     1
 71
     2
 10
0.0
 20
0.0
 11
0.0
 21
0.0
 12
0.0
 22
0.0
 32
0.0
 14
0.0
 24
0.0
 34
0.0
 15
0.0
 25
0.0
 35
0.0
146
0.0
 13
0.0
 23
0.0
 33
0.0
 16
1.0
 26
0.0
 36
0.0
 17
0.0
 27
1.0
 37
0.0
 76
     0
330
23
  0
LAYOUT
  5
22
102
{ACAD_REACTORS
330
1A
102
}
330
1A
100
AcDbPlotSettings
  1

  2
none_device
  4

  6

 40
0.0
 41
0.0
 42
0.0
 43
0.0
 44
0.0
 45
0.0
 46
0.0
 47
0.0
 48
0.0
 49
0.0
140
0.0
141
0.0
142
1.0
143
1.0
 70
  1712
 72
     0
 73
     0
 74
     0
  7

 75
     0
 76
     0
 77
     2
 78
   300
147
1.0
148
0.0
149
0.0
100
AcDbLayout
  1
Model
 70
     1
 71
     0
 10
0.0
 20
0.0
 11
12.0
 21
9.0
 12
0.0
 22
0.0
 32
0.0
 14
1.000000000000000E+20
 24
1.000000000000000E+20
 34
1.000000000000000E+20
 15
-1.000000000000000E+20
 25
-1.000000000000000E+20
 35
-1.000000000000000E+20
146
0.0
 13
0.0
 23
0.0
 33
0.0
 16
1.0
 26
0.0
 36
0.0
 17
0.0
 27
1.0
 37
0.0
 76
     0
330
1F
331
29
  0
MATERIAL
  5
3D
102
{ACAD_REACTORS
330
3B
102
}
330
3B
100
AcDbMaterial
  1
ByBlock
 72
     1
 94
      127
  0
MATERIAL
  5
3C
102
{ACAD_REACTORS
330
3B
102
}
330
3B
100
AcDbMaterial
  1
ByLayer
 72
     1
 94
      127
  0
MATERIAL
  5
3E
102
{ACAD_REACTORS
330
3B
102
}
330
3B
100
AcDbMaterial
  1
Global
 72
     1
 94
      127
  0
MLINESTYLE
  5
18
102
{ACAD_REACTORS
330
17
102
}
330
17
100
AcDbMlineStyle
  2
Standard
 70
     0
  3

 62
   256
 51
90.0
 52
90.0
 71
     2
 49
0.5
 62
   256
  6
BYLAYER
 49
-0.5
 62
   256
  6
BYLAYER
  0
ACDBPLACEHOLDER
  5
F
102
{ACAD_REACTORS
330
E
102
}
330
E
  0
VISUALSTYLE
  5
2F
102
{ACAD_REACTORS
330
2A
102
}
330
2A
100
AcDbVisualStyle
  2
2dWireframe
 70
     4
177
     2
291
     0
 71
     0
176
     1
 72
     2
176
     1
 73
     0
176
     1
 90
        0
176
     1
 40
-0.6
176
     1
 41
-30.0
176
     1
 62
     5
 63
     7
421
 16777215
176
     1
 74
     1
176
     1
 91
        4
176
     1
 64
     7
176
     1
 65
   257
176
     1
 75
     1
176
     1
175
     1
176
     1
 42
1.0
176
     1
 92
        0
176
     1
 66
   257
176
     1
 43
1.0
176
     1
 76
     1
176
     1
 77
     6
176
     1
 78
     2
176
     1
 67
     7
176
     1
 79
     5
176
     1
170
     0
176
     1
171
     0
176
     1
290
     0
176
     1
 93
        1
176
     1
 44
0.0
176
     1
173
     0
176
     1
  0
VISUALSTYLE
  5
31
102
{ACAD_REACTORS
330
2A
102
}
330
2A
100
AcDbVisualStyle
  2
3D Hidden
 70
     6
177
     2
291
     0
 71
     1
176
     1
 72
     2
176
     1
 73
     2
176
     1
 90
        0
176
     1
 40
-0.6
176
     1
 41
-30.0
176
     1
 62
     5
 63
     7
421
 16777215
176
     1
 74
     2
176
     1
 91
        2
176
     1
 64
     7
176
     1
 65
   257
176
     1
 75
     2
176
     1
175
     1
176
     1
 42
40.0
176
     1
 92
        0
176
     1
 66
   257
176
     1
 43
1.0
176
     1
 76
     1
176
     1
 77
     6
176
     1
 78
     2
176
     1
 67
     7
176
     1
 79
     3
176
     1
170
     0
176
     1
171
     0
176
     1
290
     0
176
     1
 93
        1
176
     1
 44
0.0
176
     1
173
     0
176
     1
  0
VISUALSTYLE
  5
30
102
{ACAD_REACTORS
330
2A
102
}
330
2A
100
AcDbVisualStyle
  2
3dWireframe
 70
     5
177
     2
291
     0
 71
     0
176
     1
 72
     2
176
     1
 73
     0
176
     1
 90
        0
176
     1
 40
-0.6
176
     1
 41
-30.0
176
     1
 62
     5
 63
     7
421
 16777215
176
     1
 74
     1
176
     1
 91
        4
176
     1
 64
     7
176
     1
 65
   257
176
     1
 75
     1
176
     1
175
     1
176
     1
 42
1.0
176
     1
 92
        0
176
     1
 66
   257
176
     1
 43
1.0
176
     1
 76
     1
176
     1
 77
     6
176
     1
 78
     2
176
     1
 67
     7
176
     1
 79
     5
176
     1
170
     0
176
     1
171
     0
176
     1
290
     0
176
     1
 93
        1
176
     1
 44
0.0
176
     1
173
     0
176
     1
  0
VISUALSTYLE
  5
32
102
{ACAD_REACTORS
330
2A
102
}
330
2A
100
AcDbVisualStyle
  2
Basic
 70
     7
177
     2
291
     1
 71
     1
176
     1
 72
     0
176
     1
 73
     1
176
     1
 90
        0
176
     1
 40
-0.6
176
     1
 41
-30.0
176
     1
 62
     5
 63
     7
421
 16777215
176
     1
 74
     0
176
     1
 91
        4
176
     1
 64
     7
176
     1
 65
   257
176
     1
 75
     1
176
     1
175
     1
176
     1
 42
1.0
176
     1
 92
        8
176
     1
 66
     7
176
     1
 43
1.0
176
     1
 76
     1
176
     1
 77
     6
176
     1
 78
     2
176
     1
 67
     7
176
     1
 79
     5
176
     1
170
     0
176
     1
171
     0
176
     1
290
     0
176
     1
 93
        1
176
     1
 44
0.0
176
     1
173
     0
176
     1
  0
VISUALSTYLE
  5
36
102
{ACAD_REACTORS
330
2A
102
}
330
2A
100
AcDbVisualStyle
  2
Brighten
 70
    12
177
     2
291
     1
 71
     2
176
     1
 72
     2
176
     1
 73
     0
176
     1
 90
        0
176
     1
 40
-0.6
176
     1
 41
-30.0
176
     1
 62
     5
 63
     7
421
 16777215
176
     1
 74
     1
176
     1
 91
        4
176
     1
 64
     7
176
     1
 65
   257
176
     1
 75
     1
176
     1
175
     1
176
     1
 42
1.0
176
     1
 92
        8
176
     1
 66
     7
176
     1
 43
1.0
176
     1
 76
     1
176
     1
 77
     6
176
     1
 78
     2
176
     1
 67
     7
176
     1
 79
     5
176
     1
170
     0
176
     1
171
     0
176
     1
290
     0
176
     1
 93
        1
176
     1
 44
50.0
176
     1
173
     0
176
     1
  0
VISUALSTYLE
  5
3A
102
{ACAD_REACTORS
330
2A
102
}
330
2A
100
AcDbVisualStyle
  2
ColorChange
 70
    16
177
     2
291
     1
 71
     2
176
     1
 72
     2
176
     1
 73
     3
176
     1
 90
        0
176
     1
 40
-0.6
176
     1
 41
-30.0
176
     1
 62
     5
 63
     8
421
  8421504
176
     1
 74
     1
176
     1
 91
        4
176
     1
 64
     7
176
     1
 65
   257
176
     1
 75
     1
176
     1
175
     1
176
     1
 42
1.0
176
     1
 92
        8
176
     1
 66
     8
424
  8421504
176
     1
 43
1.0
176
     1
 76
     1
176
     1
 77
     6
176
     1
 78
     2
176
     1
 67
     7
176
     1
 79
     5
176
     1
170
     0
176
     1
171
     0
176
     1
290
     0
176
     1
 93
        1
176
     1
 44
0.0
176
     1
173
     0
176
     1
  0
VISUALSTYLE
  5
34
102
{ACAD_REACTORS
330
2A
102
}
330
2A
100
AcDbVisualStyle
  2
Conceptual
 70
     9
177
     2
291
     0
 71
     3
176
     1
 72
     2
176
     1
 73
     0
176
     1
 90
        0
176
     1
 40
-0.6
176
     1
 41
-30.0
176
     1
 62
     5
 63
     7
421
 16777215
176
     1
 74
     2
176
     1
 91
        2
176
     1
 64
     7
176
     1
 65
   257
176
     1
 75
     1
176
     1
175
     1
176
     1
 42
40.0
176
     1
 92
        8
176
     1
 66
     7
176
     1
 43
1.0
176
     1
 76
     1
176
     1
 77
     6
176
     1
 78
     2
176
     1
 67
     7
176
     1
 79
     3
176
     1
170
     0
176
     1
171
     0
176
     1
290
     0
176
     1
 93
        1
176
     1
 44
0.0
176
     1
173
     0
176
     1
  0
VISUALSTYLE
  5
35
102
{ACAD_REACTORS
330
2A
102
}
330
2A
100
AcDbVisualStyle
  2
Dim
 70
    11
177
     2
291
     1
 71
     2
176
     1
 72
     2
176
     1
 73
     0
176
     1
 90
        0
176
     1
 40
-0.6
176
     1
 41
-30.0
176
     1
 62
     5
 63
     7
421
 16777215
176
     1
 74
     1
176
     1
 91
        4
176
     1
 64
     7
176
     1
 65
   257
176
     1
 75
     1
176
     1
175
     1
176
     1
 42
1.0
176
     1
 92
        8
176
     1
 66
     7
176
     1
 43
1.0
176
     1
 76
     1
176
     1
 77
     6
176
     1
 78
     2
176
     1
 67
     7
176
     1
 79
     5
176
     1
170
     0
176
     1
171
     0
176
     1
290
     0
176
     1
 93
        1
176
     1
 44
-50.0
176
     1
173
     0
176
     1
  0
VISUALSTYLE
  5
39
102
{ACAD_REACTORS
330
2A
102
}
330
2A
100
AcDbVisualStyle
  2
Facepattern
 70
    15
177
     2
291
     1
 71
     2
176
     1
 72
     2
176
     1
 73
     0
176
     1
 90
        0
176
     1
 40
-0.6
176
     1
 41
-30.0
176
     1
 62
     5
 63
     7
421
 16777215
176
     1
 74
     1
176
     1
 91
        4
176
     1
 64
     7
176
     1
 65
   257
176
     1
 75
     1
176
     1
175
     1
176
     1
 42
1.0
176
     1
 92
        8
176
     1
 66
     7
176
     1
 43
1.0
176
     1
 76
     1
176
     1
 77
     6
176
     1
 78
     2
176
     1
 67
     7
176
     1
 79
     5
176
     1
170
     0
176
     1
171
     0
176
     1
290
     0
176
     1
 93
        1
176
     1
 44
0.0
176
     1
173
     0
176
     1
  0
VISUALSTYLE
  5
2B
102
{ACAD_REACTORS
330
2A
102
}
330
2A
100
AcDbVisualStyle
  2
Flat
 70
     0
177
     2
291
     1
 71
     2
176
     1
 72
     1
176
     1
 73
     1
176
     1
 90
        2
176
     1
 40
-0.6
176
     1
 41
30.0
176
     1
 62
     5
 63
     7
421
 16777215
176
     1
 74
     0
176
     1
 91
        4
176
     1
 64
     7
176
     1
 65
   257
176
     1
 75
     1
176
     1
175
     1
176
     1
 42
1.0
176
     1
 92
        8
176
     1
 66
     7
176
     1
 43
1.0
176
     1
 76
     1
176
     1
 77
     6
176
     1
 78
     2
176
     1
 67
     7
176
     1
 79
     5
176
     1
170
     0
176
     1
171
     0
176
     1
290
     0
176
     1
 93
       13
176
     1
 44
0.0
176
     1
173
     0
176
     1
  0
VISUALSTYLE
  5
2C
102
{ACAD_REACTORS
330
2A
102
}
330
2A
100
AcDbVisualStyle
  2
FlatWithEdges
 70
     1
177
     2
291
     1
 71
     2
176
     1
 72
     1
176
     1
 73
     1
176
     1
 90
        2
176
     1
 40
-0.6
176
     1
 41
30.0
176
     1
 62
     5
 63
     7
421
 16777215
176
     1
 74
     1
176
     1
 91
        4
176
     1
 64
     7
176
     1
 65
   257
176
     1
 75
     1
176
     1
175
     1
176
     1
 42
1.0
176
     1
 92
        0
176
     1
 66
   257
176
     1
 43
1.0
176
     1
 76
     1
176
     1
 77
     6
176
     1
 78
     2
176
     1
 67
     7
176
     1
 79
     5
176
     1
170
     0
176
     1
171
     0
176
     1
290
     0
176
     1
 93
       13
176
     1
 44
0.0
176
     1
173
     0
176
     1
  0
VISUALSTYLE
  5
2D
102
{ACAD_REACTORS
330
2A
102
}
330
2A
100
AcDbVisualStyle
  2
Gouraud
 70
     2
177
     2
291
     1
 71
     2
176
     1
 72
     2
176
     1
 73
     1
176
     1
 90
        2
176
     1
 40
-0.6
176
     1
 41
30.0
176
     1
 62
     5
 63
     7
421
 16777215
176
     1
 74
     0
176
     1
 91
        4
176
     1
 64
     7
176
     1
 65
   257
176
     1
 75
     1
176
     1
175
     1
176
     1
 42
1.0
176
     1
 92
        0
176
     1
 66
     7
176
     1
 43
1.0
176
     1
 76
     1
176
     1
 77
     6
176
     1
 78
     2
176
     1
 67
     7
176
     1
 79
     5
176
     1
170
     0
176
     1
171
     0
176
     1
290
     0
176
     1
 93
       13
176
     1
 44
0.0
176
     1
173
     0
176
     1
  0
VISUALSTYLE
  5
2E
102
{ACAD_REACTORS
330
2A
102
}
330
2A
100
AcDbVisualStyle
  2
GouraudWithEdges
 70
     3
177
     2
291
     1
 71
     2
176
     1
 72
     2
176
     1
 73
     1
176
     1
 90
        2
176
     1
 40
-0.6
176
     1
 41
30.0
176
     1
 62
     5
 63
     7
421
 16777215
176
     1
 74
     1
176
     1
 91
        4
176
     1
 64
     7
176
     1
 65
   257
176
     1
 75
     1
176
     1
175
     1
176
     1
 42
1.0
176
     1
 92
        0
176
     1
 66
   257
176
     1
 43
1.0
176
     1
 76
     1
176
     1
 77
     6
176
     1
 78
     2
176
     1
 67
     7
176
     1
 79
     5
176
     1
170
     0
176
     1
171
     0
176
     1
290
     0
176
     1
 93
       13
176
     1
 44
0.0
176
     1
173
     0
176
     1
  0
VISUALSTYLE
  5
38
102
{ACAD_REACTORS
330
2A
102
}
330
2A
100
AcDbVisualStyle
  2
Linepattern
 70
    14
177
     2
291
     1
 71
     2
176
     1
 72
     2
176
     1
 73
     0
176
     1
 90
        0
176
     1
 40
-0.6
176
     1
 41
-30.0
176
     1
 62
     5
 63
     7
421
 16777215
176
     1
 74
     1
176
     1
 91
        4
176
     1
 64
     7
176
     1
 65
   257
176
     1
 75
     7
176
     1
175
     7
176
     1
 42
1.0
176
     1
 92
        8
176
     1
 66
     7
176
     1
 43
1.0
176
     1
 76
     1
176
     1
 77
     6
176
     1
 78
     2
176
     1
 67
     7
176
     1
 79
     5
176
     1
170
     0
176
     1
171
     0
176
     1
290
     0
176
     1
 93
        1
176
     1
 44
0.0
176
     1
173
     0
176
     1
  0
VISUALSTYLE
  5
33
102
{ACAD_REACTORS
330
2A
102
}
330
2A
100
AcDbVisualStyle
  2
Realistic
 70
     8
177
     2
291
     0
 71
     2
176
     1
 72
     2
176
     1
 73
     0
176
     1
 90
        0
176
     1
 40
-0.6
176
     1
 41
-30.0
176
     1
 62
     5
 63
     7
421
 16777215
176
     1
 74
     1
176
     1
 91
        0
176
     1
 64
     7
176
     1
 65
   257
176
     1
 75
     1
176
     1
175
     1
176
     1
 42
1.0
176
     1
 92
        8
176
     1
 66
     8
424
  7895160
176
     1
 43
1.0
176
     1
 76
     1
176
     1
 77
     6
176
     1
 78
     2
176
     1
 67
     7
176
     1
 79
     5
176
     1
170
     0
176
     1
171
     0
176
     1
290
     0
176
     1
 93
       13
176
     1
 44
0.0
176
     1
173
     0
176
     1
  0
VISUALSTYLE
  5
37
102
{ACAD_REACTORS
330
2A
102
}
330
2A
100
AcDbVisualStyle
  2
Thicken
 70
    13
177
     2
291
     1
 71
     2
176
     1
 72
     2
176
     1
 73
     0
176
     1
 90
        0
176
     1
 40
-0.6
176
     1
 41
-30.0
176
     1
 62
     5
 63
     7
421
 16777215
176
     1
 74
     1
176
     1
 91
        4
176
     1
 64
     7
176
     1
 65
   257
176
     1
 75
     1
176
     1
175
     1
176
     1
 42
1.0
176
     1
 92
       12
176
     1
 66
     7
176
     1
 43
1.0
176
     1
 76
     1
176
     1
 77
     6
176
     1
 78
     2
176
     1
 67
     7
176
     1
 79
     5
176
     1
170
     0
176
     1
171
     0
176
     1
290
     0
176
     1
 93
        1
176
     1
 44
0.0
176
     1
173
     0
176
     1
  0
ENDSEC
  0
EOF
