  0
SECTION
  2
HEADER
  9
$ACADVER
  1
AC1024
  9
$ACADMAINTVER
 70
     6
  9
$DWGCODEPAGE
  3
UNDEFINED
  9
$INSBASE
 10
0.0
 20
0.0
 30
0.0
  9
$EXTMIN
 10
1.000000000000000E+20
 20
1.000000000000000E+20
 30
1.000000000000000E+20
  9
$EXTMAX
 10
-1.000000000000000E+20
 20
-1.000000000000000E+20
 30
-1.000000000000000E+20
  9
$LIMMIN
 10
0.0
 20
0.0
  9
$LIMMAX
 10
12.0
 20
9.0
  9
$ORTHOMODE
 70
     0
  9
$REGENMODE
 70
     1
  9
$FILLMODE
 70
     1
  9
$QTEXTMODE
 70
     0
  9
$MIRRTEXT
 70
     1
  9
$LTSCALE
 40
1.0
  9
$ATTMODE
 70
     1
  9
$TEXTSIZE
 40
0.2
  9
$TRACEWID
 40
0.05
  9
$TEXTSTYLE
  7
Standard
  9
$CLAYER
  8
0
  9
$CELTYPE
  6
ByLayer
  9
$CECOLOR
 62
   256
  9
$CELTSCALE
 40
1.0
  9
$DISPSILH
 70
     0
  9
$DIMSCALE
 40
1.0
  9
$DIMASZ
 40
0.18
  9
$DIMEXO
 40
0.0625
  9
$DIMDLI
 40
0.38
  9
$DIMRND
 40
0.0
  9
$DIMDLE
 40
0.0
  9
$DIMEXE
 40
0.18
  9
$DIMTP
 40
0.0
  9
$DIMTM
 40
0.0
  9
$DIMTXT
 40
0.18
  9
$DIMCEN
 40
0.09
  9
$DIMTSZ
 40
0.0
  9
$DIMTOL
 70
     0
  9
$DIMLIM
 70
     0
  9
$DIMTIH
 70
     1
  9
$DIMTOH
 70
     1
  9
$DIMSE1
 70
     0
  9
$DIMSE2
 70
     0
  9
$DIMTAD
 70
     0
  9
$DIMZIN
 70
     0
  9
$DIMBLK
  1

  9
$DIMASO
 70
     1
  9
$DIMSHO
 70
     1
  9
$DIMPOST
  1

  9
$DIMAPOST
  1

  9
$DIMALT
 70
     0
  9
$DIMALTD
 70
     2
  9
$DIMALTF
 40
25.4
  9
$DIMLFAC
 40
1.0
  9
$DIMTOFL
 70
     0
  9
$DIMTVP
 40
0.0
  9
$DIMTIX
 70
     0
  9
$DIMSOXD
 70
     0
  9
$DIMSAH
 70
     0
  9
$DIMBLK1
  1

  9
$DIMBLK2
  1

  9
$DIMSTYLE
  2
Standard
  9
$DIMCLRD
 70
     0
  9
$DIMCLRE
 70
     0
  9
$DIMCLRT
 70
     0
  9
$DIMTFAC
 40
1.0
  9
$DIMGAP
 40
0.09
  9
$DIMJUST
 70
     0
  9
$DIMSD1
 70
     0
  9
$DIMSD2
 70
     0
  9
$DIMTOLJ
 70
     1
  9
$DIMTZIN
 70
     0
  9
$DIMALTZ
 70
     0
  9
$DIMALTTZ
 70
     0
  9
$DIMUPT
 70
     0
  9
$DIMDEC
 70
     4
  9
$DIMTDEC
 70
     4
  9
$DIMALTU
 70
     2
  9
$DIMALTTD
 70
     2
  9
$DIMTXSTY
  7
Standard
  9
$DIMAUNIT
 70
     0
  9
$DIMADEC
 70
     0
  9
$DIMALTRND
 40
0.0
  9
$DIMAZIN
 70
     0
  9
$DIMDSEP
 70
    46
  9
$DIMATFIT
 70
     3
  9
$DIMFRAC
 70
     0
  9
$DIMLDRBLK
  1

  9
$DIMLUNIT
 70
     2
  9
$DIMLWD
 70
    -2
  9
$DIMLWE
 70
    -2
  9
$DIMTMOVE
 70
     0
  9
$DIMFXL
 40
1.0
  9
$DIMFXLON
 70
     0
  9
$DIMJOGANG
 40
0.7853981633974483
  9
$DIMTFILL
 70
     0
  9
$DIMTFILLCLR
 70
     0
  9
$DIMARCSYM
 70
     0
  9
$DIMLTYPE
  6

  9
$DIMLTEX1
  6

  9
$DIMLTEX2
  6

  9
$DIMTXTDIRECTION
 70
     0
  9
$LUNITS
 70
     2
  9
$LUPREC
 70
     4
  9
$SKETCHINC
 40
0.1
  9
$FILLETRAD
 40
0.5
  9
$AUNITS
 70
     0
  9
$AUPREC
 70
     0
  9
$MENU
  1
.
  9
$ELEVATION
 40
0.0
  9
$PELEVATION
 40
0.0
  9
$THICKNESS
 40
0.0
  9
$LIMCHECK
 70
     0
  9
$CHAMFERA
 40
0.5
  9
$CHAMFERB
 40
0.5
  9
$CHAMFERC
 40
1.0
  9
$CHAMFERD
 40
0.0
  9
$SKPOLY
 70
     0
  9
$TDCREATE
 40
2457917.623229155
  9
$TDUCREATE
 40
2457917.248229166
  9
$TDUPDATE
 40
2457917.623229155
  9
$TDUUPDATE
 40
2457917.248229166
  9
$TDINDWG
 40
0.0000000116
  9
$TDUSRTIMER
 40
0.0000000116
  9
$USRTIMER
 70
     1
  9
$ANGBASE
 50
0.0
  9
$ANGDIR
 70
     0
  9
$PDMODE
 70
     0
  9
$PDSIZE
 40
0.0
  9
$PLINEWID
 40
0.0
  9
$SPLFRAME
 70
     0
  9
$SPLINETYPE
 70
     6
  9
$SPLINESEGS
 70
     8
  9
$HANDSEED
  5
15A
  9
$SURFTAB1
 70
     6
  9
$SURFTAB2
 70
     6
  9
$SURFTYPE
 70
     6
  9
$SURFU
 70
     6
  9
$SURFV
 70
     6
  9
$UCSBASE
  2

  9
$UCSNAME
  2

  9
$UCSORG
 10
0.0
 20
0.0
 30
0.0
  9
$UCSXDIR
 10
1.0
 20
0.0
 30
0.0
  9
$UCSYDIR
 10
0.0
 20
1.0
 30
0.0
  9
$UCSORTHOREF
  2

  9
$UCSORTHOVIEW
 70
     0
  9
$UCSORGTOP
 10
0.0
 20
0.0
 30
0.0
  9
$UCSORGBOTTOM
 10
0.0
 20
0.0
 30
0.0
  9
$UCSORGLEFT
 10
0.0
 20
0.0
 30
0.0
  9
$UCSORGRIGHT
 10
0.0
 20
0.0
 30
0.0
  9
$UCSORGFRONT
 10
0.0
 20
0.0
 30
0.0
  9
$UCSORGBACK
 10
0.0
 20
0.0
 30
0.0
  9
$PUCSBASE
  2

  9
$PUCSNAME
  2

  9
$PUCSORG
 10
0.0
 20
0.0
 30
0.0
  9
$PUCSXDIR
 10
1.0
 20
0.0
 30
0.0
  9
$PUCSYDIR
 10
0.0
 20
1.0
 30
0.0
  9
$PUCSORTHOREF
  2

  9
$PUCSORTHOVIEW
 70
     0
  9
$PUCSORGTOP
 10
0.0
 20
0.0
 30
0.0
  9
$PUCSORGBOTTOM
 10
0.0
 20
0.0
 30
0.0
  9
$PUCSORGLEFT
 10
0.0
 20
0.0
 30
0.0
  9
$PUCSORGRIGHT
 10
0.0
 20
0.0
 30
0.0
  9
$PUCSORGFRONT
 10
0.0
 20
0.0
 30
0.0
  9
$PUCSORGBACK
 10
0.0
 20
0.0
 30
0.0
  9
$USERI1
 70
     0
  9
$USERI2
 70
     0
  9
$USERI3
 70
     0
  9
$USERI4
 70
     0
  9
$USERI5
 70
     0
  9
$USERR1
 40
0.0
  9
$USERR2
 40
0.0
  9
$USERR3
 40
0.0
  9
$USERR4
 40
0.0
  9
$USERR5
 40
0.0
  9
$WORLDVIEW
 70
     1
  9
$SHADEDGE
 70
     3
  9
$SHADEDIF
 70
    70
  9
$TILEMODE
 70
     1
  9
$MAXACTVP
 70
    64
  9
$PINSBASE
 10
0.0
 20
0.0
 30
0.0
  9
$PLIMCHECK
 70
     0
  9
$PEXTMIN
 10
1.000000000000000E+20
 20
1.000000000000000E+20
 30
1.000000000000000E+20
  9
$PEXTMAX
 10
-1.000000000000000E+20
 20
-1.000000000000000E+20
 30
-1.000000000000000E+20
  9
$PLIMMIN
 10
0.0
 20
0.0
  9
$PLIMMAX
 10
12.0
 20
9.0
  9
$UNITMODE
 70
     0
  9
$VISRETAIN
 70
     1
  9
$PLINEGEN
 70
     0
  9
$PSLTSCALE
 70
     1
  9
$TREEDEPTH
 70
  3020
  9
$CMLSTYLE
  2
Standard
  9
$CMLJUST
 70
     0
  9
$CMLSCALE
 40
1.0
  9
$PROXYGRAPHICS
 70
     1
  9
$MEASUREMENT
 70
     0
  9
$CELWEIGHT
370
    -1
  9
$ENDCAPS
280
     0
  9
$JOINSTYLE
280
     0
  9
$LWDISPLAY
290
     1
  9
$INSUNITS
 70
     1
  9
$HYPERLINKBASE
  1

  9
$STYLESHEET
  1

  9
$XEDIT
290
     1
  9
$CEPSNTYPE
380
     0
  9
$PSTYLEMODE
290
     1
  9
$FINGERPRINTGUID
  2
{E9C4C60D-4F2B-A358-057E-F8599FB39797}
  9
$VERSIONGUID
  2
{FAEB1C32-E019-11D5-929B-00C0DF256EC4}
  9
$EXTNAMES
290
     1
  9
$PSVPSCALE
 40
0.0
  9
$OLESTARTUP
290
     0
  9
$SORTENTS
280
   127
  9
$INDEXCTL
280
     0
  9
$HIDETEXT
280
     1
  9
$XCLIPFRAME
280
     2
  9
$HALOGAP
280
     0
  9
$OBSCOLOR
 70
   257
  9
$OBSLTYPE
280
     0
  9
$INTERSECTIONDISPLAY
280
     0
  9
$INTERSECTIONCOLOR
 70
   257
  9
$DIMASSOC
280
     2
  9
$PROJECTNAME
  1

  9
$CAMERADISPLAY
290
     0
  9
$LENSLENGTH
 40
50.0
  9
$CAMERAHEIGHT
 40
0.0
  9
$STEPSPERSEC
 40
2.0
  9
$STEPSIZE
 40
6.0
  9
$3DDWFPREC
 40
2.0
  9
$PSOLWIDTH
 40
0.25
  9
$PSOLHEIGHT
 40
4.0
  9
$LOFTANG1
 40
1.570796326794897
  9
$LOFTANG2
 40
1.570796326794897
  9
$LOFTMAG1
 40
0.0
  9
$LOFTMAG2
 40
0.0
  9
$LOFTPARAM
 70
     7
  9
$LOFTNORMALS
280
     1
  9
$LATITUDE
 40
37.795
  9
$LONGITUDE
 40
-122.394
  9
$NORTHDIRECTION
 40
0.0
  9
$TIMEZONE
 70
 -8000
  9
$LIGHTGLYPHDISPLAY
280
     1
  9
$TILEMODELIGHTSYNCH
280
     1
  9
$CMATERIAL
347
3C
  9
$SOLIDHIST
280
     1
  9
$SHOWHIST
280
     1
  9
$DWFFRAME
280
     2
  9
$DGNFRAME
280
     2
  9
$REALWORLDSCALE
290
     1
  9
$INTERFERECOLOR
 62
   256
  9
$CSHADOW
280
     0
  9
$SHADOWPLANELOCATION
 40
0.0
  0
ENDSEC
  0
SECTION
  2
CLASSES
  0
CLASS
  1
ACDBDICTIONARYWDFLT
  2
AcDbDictionaryWithDefault
  3
ObjectDBX Classes
 90
        0
 91
        4
280
     0
281
     0
  0
CLASS
  1
VISUALSTYLE
  2
AcDbVisualStyle
  3
ObjectDBX Classes
 90
     4095
 91
        4
280
     0
281
     0
  0
CLASS
  1
MATERIAL
  2
AcDbMaterial
  3
ObjectDBX Classes
 90
     1153
 91
        4
280
     0
281
     0
  0
CLASS
  1
SUN
  2
AcDbSun
  3
SCENEOE
 90
     1024
 91
        4
280
     0
281
     0
  0
ENDSEC
  0
SECTION
  2
TABLES
  0
TABLE
  2
VPORT
  5
8
330
0
100
AcDbSymbolTable
 70
     1
  0
VPORT
  5
29
330
8
100
AcDbSymbolTableRecord
100
AcDbViewportTableRecord
  2
*Active
 70
     0
 10
0.0
 20
0.0
 11
1.0
 21
1.0
 12
0.0
 22
0.0
 13
0.0
 23
0.0
 14
0.5
 24
0.5
 15
0.5
 25
0.5
 16
0.0
 26
0.0
 36
1.0
 17
91.00082462281999
 27
-128.4993055234307
 37
0.0
 40
256.9986110468615
 41
0.7081814508812795
 42
50.0
 43
0.0
 44
0.0
 50
0.0
 51
0.0
 71
     0
 72
   100
 73
     1
 74
     3
 75
     0
 76
     0
 77
     0
 78
     0
281
     0
 65
     1
110
0.0
120
0.0
130
0.0
111
1.0
121
0.0
131
0.0
112
0.0
122
1.0
132
0.0
 79
     0
146
0.0
 60
     3
 61
     5
292
     1
282
     1
141
0.0
142
0.0
 63
   250
361
3F
  0
ENDTAB
  0
TABLE
  2
LTYPE
  5
5
330
0
100
AcDbSymbolTable
 70
     1
  0
LTYPE
  5
14
330
5
100
AcDbSymbolTableRecord
100
AcDbLinetypeTableRecord
  2
ByBlock
 70
     0
  3

 72
    65
 73
     0
 40
0.0
  0
LTYPE
  5
15
330
5
100
AcDbSymbolTableRecord
100
AcDbLinetypeTableRecord
  2
ByLayer
 70
     0
  3

 72
    65
 73
     0
 40
0.0
  0
LTYPE
  5
16
330
5
100
AcDbSymbolTableRecord
100
AcDbLinetypeTableRecord
  2
Continuous
 70
     0
  3
Solid line
 72
    65
 73
     0
 40
0.0
  0
ENDTAB
  0
TABLE
  2
LAYER
  5
2
330
0
100
AcDbSymbolTable
 70
     2
  0
LAYER
  5
10
330
2
100
AcDbSymbolTableRecord
100
AcDbLayerTableRecord
  2
0
 70
     0
 62
     7
  6
Continuous
370
    -3
390
F
347
3E
  0
LAYER
  5
40
330
2
100
AcDbSymbolTableRecord
100
AcDbLayerTableRecord
  2
_U+30EC_U+30A4_U+30E4_U+30FC 1
 70
     0
 62
     7
  6
Continuous
370
    -3
390
F
347
3E
  0
ENDTAB
  0
TABLE
  2
STYLE
  5
3
330
0
100
AcDbSymbolTable
 70
     1
  0
STYLE
  5
11
330
3
100
AcDbSymbolTableRecord
100
AcDbTextStyleTableRecord
  2
Standard
 70
     0
 40
0.0
 41
1.0
 50
0.0
 71
     0
 42
0.2
  3
txt
  4

  0
ENDTAB
  0
TABLE
  2
VIEW
  5
6
330
0
100
AcDbSymbolTable
 70
     0
  0
ENDTAB
  0
TABLE
  2
UCS
  5
7
330
0
100
AcDbSymbolTable
 70
     0
  0
ENDTAB
  0
TABLE
  2
APPID
  5
9
330
0
100
AcDbSymbolTable
 70
     1
  0
APPID
  5
12
330
9
100
AcDbSymbolTableRecord
100
AcDbRegAppTableRecord
  2
ACAD
 70
     0
  0
ENDTAB
  0
TABLE
  2
DIMSTYLE
  5
A
330
0
100
AcDbSymbolTable
 70
     1
100
AcDbDimStyleTable
  0
DIMSTYLE
105
27
330
A
100
AcDbSymbolTableRecord
100
AcDbDimStyleTableRecord
  2
Standard
 70
     0
178
     0
340
11
  0
ENDTAB
  0
TABLE
  2
BLOCK_RECORD
  5
1
330
0
100
AcDbSymbolTable
 70
     8
  0
BLOCK_RECORD
  5
1F
330
1
100
AcDbSymbolTableRecord
100
AcDbBlockTableRecord
  2
*Model_Space
340
22
 70
     0
280
     1
281
     0
  0
BLOCK_RECORD
  5
1B
330
1
100
AcDbSymbolTableRecord
100
AcDbBlockTableRecord
  2
*Paper_Space
340
1E
 70
     0
280
     1
281
     0
  0
BLOCK_RECORD
  5
23
330
1
100
AcDbSymbolTableRecord
100
AcDbBlockTableRecord
  2
*Paper_Space0
340
26
 70
     0
280
     1
281
     0
  0
BLOCK_RECORD
  5
71
330
1
100
AcDbSymbolTableRecord
100
AcDbBlockTableRecord
  2
block 2
340
0
102
{BLKREFS
331
72
102
}
 70
     0
280
     1
281
     0
  0
BLOCK_RECORD
  5
97
330
1
100
AcDbSymbolTableRecord
100
AcDbBlockTableRecord
  2
block 3
340
0
102
{BLKREFS
331
98
102
}
 70
     0
280
     1
281
     0
  0
BLOCK_RECORD
  5
9D
330
1
100
AcDbSymbolTableRecord
100
AcDbBlockTableRecord
  2
block 4
340
0
102
{BLKREFS
331
9E
102
}
 70
     0
280
     1
281
     0
  0
BLOCK_RECORD
  5
AD
330
1
100
AcDbSymbolTableRecord
100
AcDbBlockTableRecord
  2
block 5
340
0
102
{BLKREFS
331
AE
102
}
 70
     0
280
     1
281
     0
  0
BLOCK_RECORD
  5
B6
330
1
100
AcDbSymbolTableRecord
100
AcDbBlockTableRecord
  2
block 6
340
0
102
{BLKREFS
331
B7
102
}
 70
     0
280
     1
281
     0
  0
BLOCK_RECORD
  5
D3
330
1
100
AcDbSymbolTableRecord
100
AcDbBlockTableRecord
  2
block 7
340
0
102
{BLKREFS
331
D4
102
}
 70
     0
280
     1
281
     0
  0
BLOCK_RECORD
  5
E8
330
1
100
AcDbSymbolTableRecord
100
AcDbBlockTableRecord
  2
block 8
340
0
102
{BLKREFS
331
E9
102
}
 70
     0
280
     1
281
     0
  0
ENDTAB
  0
ENDSEC
  0
SECTION
  2
BLOCKS
  0
BLOCK
  5
20
330
1F
100
AcDbEntity
  8
0
100
AcDbBlockBegin
  2
*Model_Space
 70
     0
 10
0.0
 20
0.0
 30
0.0
  3
*Model_Space
  1

  0
ENDBLK
  5
21
330
1F
100
AcDbEntity
  8
0
100
AcDbBlockEnd
  0
BLOCK
  5
1C
330
1B
100
AcDbEntity
 67
     1
  8
0
100
AcDbBlockBegin
  2
*Paper_Space
 70
     0
 10
0.0
 20
0.0
 30
0.0
  3
*Paper_Space
  1

  0
ENDBLK
  5
1D
330
1B
100
AcDbEntity
 67
     1
  8
0
100
AcDbBlockEnd
  0
BLOCK
  5
24
330
23
100
AcDbEntity
  8
0
100
AcDbBlockBegin
  2
*Paper_Space0
 70
     0
 10
0.0
 20
0.0
 30
0.0
  3
*Paper_Space0
  1

  0
ENDBLK
  5
25
330
23
100
AcDbEntity
  8
0
100
AcDbBlockEnd
  0
BLOCK
  5
73
330
71
100
AcDbEntity
  8
0
100
AcDbBlockBegin
  2
block 2
 70
     0
 10
0.0
 20
0.0
 30
0.0
  3
block 2
  1

  0
SPLINE
  5
75
330
71
100
AcDbEntity
  8
_U+30EC_U+30A4_U+30E4_U+30FC 1
370
     0
100
AcDbSpline
210
0.0
220
0.0
230
1.0
 70
    11
 71
     3
 72
    26
 73
    22
 74
     0
 42
0.0000000001
 43
0.0000000001
 12
1.0
 22
0.0
 32
0.0
 13
1.0
 23
0.0
 33
0.0
 40
0.0
 40
0.0
 40
0.0
 40
0.0
 40
1.0
 40
1.0
 40
1.0
 40
2.0
 40
2.0
 40
2.0
 40
3.0
 40
3.0
 40
3.0
 40
4.0
 40
4.0
 40
4.0
 40
5.0
 40
5.0
 40
5.0
 40
6.0
 40
6.0
 40
6.0
 40
7.0
 40
7.0
 40
7.0
 40
7.0
 10
115.0627441118593
 20
-139.5170653948082
 30
0.0
 10
115.0627441118593
 20
-139.5170653948082
 30
0.0
 10
113.9585910088367
 20
-139.5170653948082
 30
0.0
 10
113.9585910088367
 20
-139.5170653948082
 30
0.0
 10
113.9585910088367
 20
-139.5170653948082
 30
0.0
 10
113.9585910088367
 20
-139.8694986629493
 30
0.0
 10
113.9585910088367
 20
-139.8694986629493
 30
0.0
 10
113.9585910088367
 20
-139.8694986629493
 30
0.0
 10
113.810451902971
 20
-139.8694986629493
 30
0.0
 10
113.810451902971
 20
-139.8694986629493
 30
0.0
 10
113.7956379923844
 20
-139.5146538279686
 30
0.0
 10
113.6326849759321
 20
-139.465044452981
 30
0.0
 10
113.5183078058218
 20
-139.4333495745167
 30
0.0
 10
113.5183078058218
 20
-139.4333495745167
 30
0.0
 10
113.5183078058218
 20
-139.2772867490349
 30
0.0
 10
113.5183078058218
 20
-139.2772867490349
 30
0.0
 10
113.5183078058218
 20
-139.2772867490349
 30
0.0
 10
115.0627441118593
 20
-139.2772867490349
 30
0.0
 10
115.0627441118593
 20
-139.2772867490349
 30
0.0
 10
115.0627441118593
 20
-139.2772867490349
 30
0.0
 10
115.0627441118593
 20
-139.5170653948082
 30
0.0
 10
115.0627441118593
 20
-139.5170653948082
 30
0.0
  0
HATCH
  5
76
330
71
100
AcDbEntity
  8
_U+30EC_U+30A4_U+30E4_U+30FC 1
 62
     7
420
 16777215
100
AcDbHatch
 10
0.0
 20
0.0
 30
0.0
210
0.0
220
0.0
230
1.0
  2
SOLID
 70
     1
 71
     0
 91
        1
 92
        1
 93
        1
 72
     4
 94
        3
 73
     0
 74
     1
 95
       26
 96
       22
 40
0.0
 40
0.0
 40
0.0
 40
0.0
 40
1.0
 40
1.0
 40
1.0
 40
2.0
 40
2.0
 40
2.0
 40
3.0
 40
3.0
 40
3.0
 40
4.0
 40
4.0
 40
4.0
 40
5.0
 40
5.0
 40
5.0
 40
6.0
 40
6.0
 40
6.0
 40
7.0
 40
7.0
 40
7.0
 40
7.0
 10
115.0627441118593
 20
-139.5170653948082
 10
115.0627441118593
 20
-139.5170653948082
 10
113.9585910088367
 20
-139.5170653948082
 10
113.9585910088367
 20
-139.5170653948082
 10
113.9585910088367
 20
-139.5170653948082
 10
113.9585910088367
 20
-139.8694986629493
 10
113.9585910088367
 20
-139.8694986629493
 10
113.9585910088367
 20
-139.8694986629493
 10
113.810451902971
 20
-139.8694986629493
 10
113.810451902971
 20
-139.8694986629493
 10
113.7956379923844
 20
-139.5146538279686
 10
113.6326849759321
 20
-139.465044452981
 10
113.5183078058218
 20
-139.4333495745167
 10
113.5183078058218
 20
-139.4333495745167
 10
113.5183078058218
 20
-139.2772867490349
 10
113.5183078058218
 20
-139.2772867490349
 10
113.5183078058218
 20
-139.2772867490349
 10
115.0627441118593
 20
-139.2772867490349
 10
115.0627441118593
 20
-139.2772867490349
 10
115.0627441118593
 20
-139.2772867490349
 10
115.0627441118593
 20
-139.5170653948082
 10
115.0627441118593
 20
-139.5170653948082
 97
        0
 97
        0
 75
     2
 76
     1
 98
        0
  0
POLYLINE
  5
77
330
71
100
AcDbEntity
  8
_U+30EC_U+30A4_U+30E4_U+30FC 1
370
     0
100
AcDb2dPolyline
 66
     1
 10
0.0
 20
0.0
 30
0.0
  0
VERTEX
  5
78
330
77
100
AcDbEntity
  8
_U+30EC_U+30A4_U+30E4_U+30FC 1
370
     0
100
AcDbVertex
100
AcDb2dVertex
 10
115.0627441118593
 20
-138.6774956250528
 30
0.0
  0
VERTEX
  5
79
330
77
100
AcDbEntity
  8
_U+30EC_U+30A4_U+30E4_U+30FC 1
370
     0
100
AcDbVertex
100
AcDb2dVertex
 10
114.8109076318876
 20
-138.6774956250528
 30
0.0
  0
VERTEX
  5
7A
330
77
100
AcDbEntity
  8
_U+30EC_U+30A4_U+30E4_U+30FC 1
370
     0
100
AcDbVertex
100
AcDb2dVertex
 10
114.8109076318876
 20
-138.4084336676548
 30
0.0
  0
VERTEX
  5
7B
330
77
100
AcDbEntity
  8
_U+30EC_U+30A4_U+30E4_U+30FC 1
370
     0
100
AcDbVertex
100
AcDb2dVertex
 10
115.0627441118593
 20
-138.4084336676548
 30
0.0
  0
VERTEX
  5
7C
330
77
100
AcDbEntity
  8
_U+30EC_U+30A4_U+30E4_U+30FC 1
370
     0
100
AcDbVertex
100
AcDb2dVertex
 10
115.0627441118593
 20
-138.6774956250528
 30
0.0
  0
SEQEND
  5
7D
330
77
100
AcDbEntity
  8
_U+30EC_U+30A4_U+30E4_U+30FC 1
370
     0
  0
HATCH
  5
7E
330
71
100
AcDbEntity
  8
_U+30EC_U+30A4_U+30E4_U+30FC 1
 62
     7
420
 16777215
100
AcDbHatch
 10
0.0
 20
0.0
 30
0.0
210
0.0
220
0.0
230
1.0
  2
SOLID
 70
     1
 71
     0
 91
        1
 92
        1
 93
        4
 72
     1
 10
115.0627441118593
 20
-138.6774956250528
 11
114.8109076318876
 21
-138.6774956250528
 72
     1
 10
114.8109076318876
 20
-138.6774956250528
 11
114.8109076318876
 21
-138.4084336676548
 72
     1
 10
114.8109076318876
 20
-138.4084336676548
 11
115.0627441118593
 21
-138.4084336676548
 72
     1
 10
115.0627441118593
 20
-138.4084336676548
 11
115.0627441118593
 21
-138.6774956250528
 97
        0
 75
     2
 76
     1
 98
        0
  0
SPLINE
  5
7F
330
71
100
AcDbEntity
  8
_U+30EC_U+30A4_U+30E4_U+30FC 1
370
     0
100
AcDbSpline
210
0.0
220
0.0
230
1.0
 70
    11
 71
     3
 72
    53
 73
    49
 74
     0
 42
0.0000000001
 43
0.0000000001
 12
1.0
 22
0.0
 32
0.0
 13
1.0
 23
0.0
 33
0.0
 40
0.0
 40
0.0
 40
0.0
 40
0.0
 40
1.0
 40
1.0
 40
1.0
 40
2.0
 40
2.0
 40
2.0
 40
3.0
 40
3.0
 40
3.0
 40
4.0
 40
4.0
 40
4.0
 40
5.0
 40
5.0
 40
5.0
 40
6.0
 40
6.0
 40
6.0
 40
7.0
 40
7.0
 40
7.0
 40
8.0
 40
8.0
 40
8.0
 40
9.0
 40
9.0
 40
9.0
 40
10.0
 40
10.0
 40
10.0
 40
11.0
 40
11.0
 40
11.0
 40
12.0
 40
12.0
 40
12.0
 40
13.0
 40
13.0
 40
13.0
 40
14.0
 40
14.0
 40
14.0
 40
15.0
 40
15.0
 40
15.0
 40
16.0
 40
16.0
 40
16.0
 40
16.0
 10
115.1133870154925
 20
-137.6415554126382
 30
0.0
 10
115.1133870154925
 20
-137.7252712329298
 30
0.0
 10
115.0965060476148
 20
-137.8334472311666
 30
0.0
 10
115.0331162906862
 20
-137.9423122485005
 30
0.0
 10
114.9232177447067
 20
-138.127658385607
 30
0.0
 10
114.7919596067187
 20
-138.1500515062611
 30
0.0
 10
114.6841281180304
 20
-138.1703775696241
 30
0.0
 10
114.6841281180304
 20
-138.1703775696241
 30
0.0
 10
114.6841281180304
 20
-137.9330104906904
 30
0.0
 10
114.6841281180304
 20
-137.9330104906904
 30
0.0
 10
114.8829101275293
 20
-137.8744438674411
 30
0.0
 10
114.9125379487024
 20
-137.7387071053223
 30
0.0
 10
114.9125379487024
 20
-137.6391438457985
 30
0.0
 10
114.9125379487024
 20
-137.4899712112872
 30
0.0
 10
114.8129746891787
 20
-137.3270181948349
 30
0.0
 10
114.5804307439243
 20
-137.3270181948349
 30
0.0
 10
114.3244601493703
 20
-137.3270181948349
 30
0.0
 10
114.2545247110197
 20
-137.5192545229119
 30
0.0
 10
114.2545247110197
 20
-137.6481010940602
 30
0.0
 10
114.2545247110197
 20
-137.6822075393642
 30
0.0
 10
114.2545247110197
 20
-137.8334472311666
 30
0.0
 10
114.3837157917166
 20
-137.9285318665596
 30
0.0
 10
114.3837157917166
 20
-137.9285318665596
 30
0.0
 10
114.3647677665477
 20
-138.1162895705056
 30
0.0
 10
114.3647677665477
 20
-138.1162895705056
 30
0.0
 10
114.3647677665477
 20
-138.1162895705056
 30
0.0
 10
113.5183078058218
 20
-137.9874429993573
 30
0.0
 10
113.5183078058218
 20
-137.9874429993573
 30
0.0
 10
113.5183078058218
 20
-137.9874429993573
 30
0.0
 10
113.5183078058218
 20
-137.1554524396695
 30
0.0
 10
113.5183078058218
 20
-137.1554524396695
 30
0.0
 10
113.5183078058218
 20
-137.1554524396695
 30
0.0
 10
113.7129557007384
 20
-137.1554524396695
 30
0.0
 10
113.7129557007384
 20
-137.1554524396695
 30
0.0
 10
113.7129557007384
 20
-137.1554524396695
 30
0.0
 10
113.7129557007384
 20
-137.8131211678037
 30
0.0
 10
113.7129557007384
 20
-137.8131211678037
 30
0.0
 10
113.7129557007384
 20
-137.8131211678037
 30
0.0
 10
114.1360134263271
 20
-137.8834011157028
 30
0.0
 10
114.1360134263271
 20
-137.8834011157028
 30
0.0
 10
114.1022514905717
 20
-137.817944301483
 30
0.0
 10
114.0619438733942
 20
-137.7297498570606
 30
0.0
 10
114.0619438733942
 20
-137.6029703432034
 30
0.0
 10
114.0619438733942
 20
-137.3318413285143
 30
0.0
 10
114.2483235391463
 20
-137.0786268103484
 30
0.0
 10
114.5614827187555
 20
-137.0786268103484
 30
0.0
 10
114.878776012947
 20
-137.0786268103484
 30
0.0
 10
115.1133870154925
 20
-137.3180609465733
 30
0.0
 10
115.1133870154925
 20
-137.6415554126382
 30
0.0
  0
HATCH
  5
80
330
71
100
AcDbEntity
  8
_U+30EC_U+30A4_U+30E4_U+30FC 1
 62
     7
420
 16777215
100
AcDbHatch
 10
0.0
 20
0.0
 30
0.0
210
0.0
220
0.0
230
1.0
  2
SOLID
 70
     1
 71
     0
 91
        1
 92
        1
 93
        1
 72
     4
 94
        3
 73
     0
 74
     1
 95
       53
 96
       49
 40
0.0
 40
0.0
 40
0.0
 40
0.0
 40
1.0
 40
1.0
 40
1.0
 40
2.0
 40
2.0
 40
2.0
 40
3.0
 40
3.0
 40
3.0
 40
4.0
 40
4.0
 40
4.0
 40
5.0
 40
5.0
 40
5.0
 40
6.0
 40
6.0
 40
6.0
 40
7.0
 40
7.0
 40
7.0
 40
8.0
 40
8.0
 40
8.0
 40
9.0
 40
9.0
 40
9.0
 40
10.0
 40
10.0
 40
10.0
 40
11.0
 40
11.0
 40
11.0
 40
12.0
 40
12.0
 40
12.0
 40
13.0
 40
13.0
 40
13.0
 40
14.0
 40
14.0
 40
14.0
 40
15.0
 40
15.0
 40
15.0
 40
16.0
 40
16.0
 40
16.0
 40
16.0
 10
115.1133870154925
 20
-137.6415554126382
 10
115.1133870154925
 20
-137.7252712329298
 10
115.0965060476148
 20
-137.8334472311666
 10
115.0331162906862
 20
-137.9423122485005
 10
114.9232177447067
 20
-138.127658385607
 10
114.7919596067187
 20
-138.1500515062611
 10
114.6841281180304
 20
-138.1703775696241
 10
114.6841281180304
 20
-138.1703775696241
 10
114.6841281180304
 20
-137.9330104906904
 10
114.6841281180304
 20
-137.9330104906904
 10
114.8829101275293
 20
-137.8744438674411
 10
114.9125379487024
 20
-137.7387071053223
 10
114.9125379487024
 20
-137.6391438457985
 10
114.9125379487024
 20
-137.4899712112872
 10
114.8129746891787
 20
-137.3270181948349
 10
114.5804307439243
 20
-137.3270181948349
 10
114.3244601493703
 20
-137.3270181948349
 10
114.2545247110197
 20
-137.5192545229119
 10
114.2545247110197
 20
-137.6481010940602
 10
114.2545247110197
 20
-137.6822075393642
 10
114.2545247110197
 20
-137.8334472311666
 10
114.3837157917166
 20
-137.9285318665596
 10
114.3837157917166
 20
-137.9285318665596
 10
114.3647677665477
 20
-138.1162895705056
 10
114.3647677665477
 20
-138.1162895705056
 10
114.3647677665477
 20
-138.1162895705056
 10
113.5183078058218
 20
-137.9874429993573
 10
113.5183078058218
 20
-137.9874429993573
 10
113.5183078058218
 20
-137.9874429993573
 10
113.5183078058218
 20
-137.1554524396695
 10
113.5183078058218
 20
-137.1554524396695
 10
113.5183078058218
 20
-137.1554524396695
 10
113.7129557007384
 20
-137.1554524396695
 10
113.7129557007384
 20
-137.1554524396695
 10
113.7129557007384
 20
-137.1554524396695
 10
113.7129557007384
 20
-137.8131211678037
 10
113.7129557007384
 20
-137.8131211678037
 10
113.7129557007384
 20
-137.8131211678037
 10
114.1360134263271
 20
-137.8834011157028
 10
114.1360134263271
 20
-137.8834011157028
 10
114.1022514905717
 20
-137.817944301483
 10
114.0619438733942
 20
-137.7297498570606
 10
114.0619438733942
 20
-137.6029703432034
 10
114.0619438733942
 20
-137.3318413285143
 10
114.2483235391463
 20
-137.0786268103484
 10
114.5614827187555
 20
-137.0786268103484
 10
114.878776012947
 20
-137.0786268103484
 10
115.1133870154925
 20
-137.3180609465733
 10
115.1133870154925
 20
-137.6415554126382
 97
        0
 97
        0
 75
     2
 76
     1
 98
        0
  0
ENDBLK
  5
74
330
71
100
AcDbEntity
  8
0
100
AcDbBlockEnd
  0
BLOCK
  5
99
330
97
100
AcDbEntity
  8
0
100
AcDbBlockBegin
  2
block 3
 70
     0
 10
0.0
 20
0.0
 30
0.0
  3
block 3
  1

  0
SPLINE
  5
9B
330
97
100
AcDbEntity
  8
_U+30EC_U+30A4_U+30E4_U+30FC 1
370
     0
100
AcDbSpline
210
0.0
220
0.0
230
1.0
 70
    11
 71
     3
 72
    26
 73
    22
 74
     0
 42
0.0000000001
 43
0.0000000001
 12
1.0
 22
0.0
 32
0.0
 13
1.0
 23
0.0
 33
0.0
 40
0.0
 40
0.0
 40
0.0
 40
0.0
 40
1.0
 40
1.0
 40
1.0
 40
2.0
 40
2.0
 40
2.0
 40
3.0
 40
3.0
 40
3.0
 40
4.0
 40
4.0
 40
4.0
 40
5.0
 40
5.0
 40
5.0
 40
6.0
 40
6.0
 40
6.0
 40
7.0
 40
7.0
 40
7.0
 40
7.0
 10
115.0627441118593
 20
-127.2449462572513
 30
0.0
 10
115.0627441118593
 20
-127.2449462572513
 30
0.0
 10
113.9585910088367
 20
-127.2449462572513
 30
0.0
 10
113.9585910088367
 20
-127.2449462572513
 30
0.0
 10
113.9585910088367
 20
-127.2449462572513
 30
0.0
 10
113.9585910088367
 20
-127.5973795253923
 30
0.0
 10
113.9585910088367
 20
-127.5973795253923
 30
0.0
 10
113.9585910088367
 20
-127.5973795253923
 30
0.0
 10
113.810451902971
 20
-127.5973795253923
 30
0.0
 10
113.810451902971
 20
-127.5973795253923
 30
0.0
 10
113.7956379923844
 20
-127.2425346904116
 30
0.0
 10
113.6326849759321
 20
-127.192925315424
 30
0.0
 10
113.5183078058218
 20
-127.1612304369597
 30
0.0
 10
113.5183078058218
 20
-127.1612304369597
 30
0.0
 10
113.5183078058218
 20
-127.0051676114779
 30
0.0
 10
113.5183078058218
 20
-127.0051676114779
 30
0.0
 10
113.5183078058218
 20
-127.0051676114779
 30
0.0
 10
115.0627441118593
 20
-127.0051676114779
 30
0.0
 10
115.0627441118593
 20
-127.0051676114779
 30
0.0
 10
115.0627441118593
 20
-127.0051676114779
 30
0.0
 10
115.0627441118593
 20
-127.2449462572513
 30
0.0
 10
115.0627441118593
 20
-127.2449462572513
 30
0.0
  0
HATCH
  5
9C
330
97
100
AcDbEntity
  8
_U+30EC_U+30A4_U+30E4_U+30FC 1
 62
     7
420
 16777215
100
AcDbHatch
 10
0.0
 20
0.0
 30
0.0
210
0.0
220
0.0
230
1.0
  2
SOLID
 70
     1
 71
     0
 91
        1
 92
        1
 93
        1
 72
     4
 94
        3
 73
     0
 74
     1
 95
       26
 96
       22
 40
0.0
 40
0.0
 40
0.0
 40
0.0
 40
1.0
 40
1.0
 40
1.0
 40
2.0
 40
2.0
 40
2.0
 40
3.0
 40
3.0
 40
3.0
 40
4.0
 40
4.0
 40
4.0
 40
5.0
 40
5.0
 40
5.0
 40
6.0
 40
6.0
 40
6.0
 40
7.0
 40
7.0
 40
7.0
 40
7.0
 10
115.0627441118593
 20
-127.2449462572513
 10
115.0627441118593
 20
-127.2449462572513
 10
113.9585910088367
 20
-127.2449462572513
 10
113.9585910088367
 20
-127.2449462572513
 10
113.9585910088367
 20
-127.2449462572513
 10
113.9585910088367
 20
-127.5973795253923
 10
113.9585910088367
 20
-127.5973795253923
 10
113.9585910088367
 20
-127.5973795253923
 10
113.810451902971
 20
-127.5973795253923
 10
113.810451902971
 20
-127.5973795253923
 10
113.7956379923844
 20
-127.2425346904116
 10
113.6326849759321
 20
-127.192925315424
 10
113.5183078058218
 20
-127.1612304369597
 10
113.5183078058218
 20
-127.1612304369597
 10
113.5183078058218
 20
-127.0051676114779
 10
113.5183078058218
 20
-127.0051676114779
 10
113.5183078058218
 20
-127.0051676114779
 10
115.0627441118593
 20
-127.0051676114779
 10
115.0627441118593
 20
-127.0051676114779
 10
115.0627441118593
 20
-127.0051676114779
 10
115.0627441118593
 20
-127.2449462572513
 10
115.0627441118593
 20
-127.2449462572513
 97
        0
 97
        0
 75
     2
 76
     1
 98
        0
  0
ENDBLK
  5
9A
330
97
100
AcDbEntity
  8
0
100
AcDbBlockEnd
  0
BLOCK
  5
9F
330
9D
100
AcDbEntity
  8
0
100
AcDbBlockBegin
  2
block 4
 70
     0
 10
0.0
 20
0.0
 30
0.0
  3
block 4
  1

  0
SPLINE
  5
A1
330
9D
100
AcDbEntity
  8
_U+30EC_U+30A4_U+30E4_U+30FC 1
370
     0
100
AcDbSpline
210
0.0
220
0.0
230
1.0
 70
    11
 71
     3
 72
    44
 73
    40
 74
     0
 42
0.0000000001
 43
0.0000000001
 12
1.0
 22
0.0
 32
0.0
 13
1.0
 23
0.0
 33
0.0
 40
0.0
 40
0.0
 40
0.0
 40
0.0
 40
1.0
 40
1.0
 40
1.0
 40
2.0
 40
2.0
 40
2.0
 40
3.0
 40
3.0
 40
3.0
 40
4.0
 40
4.0
 40
4.0
 40
5.0
 40
5.0
 40
5.0
 40
6.0
 40
6.0
 40
6.0
 40
7.0
 40
7.0
 40
7.0
 40
8.0
 40
8.0
 40
8.0
 40
9.0
 40
9.0
 40
9.0
 40
10.0
 40
10.0
 40
10.0
 40
11.0
 40
11.0
 40
11.0
 40
12.0
 40
12.0
 40
12.0
 40
13.0
 40
13.0
 40
13.0
 40
13.0
 10
114.4808674844006
 20
-116.7212130784586
 30
0.0
 10
114.6396863862706
 20
-116.9541015332615
 30
0.0
 10
114.7137559392035
 20
-117.0536647927852
 30
0.0
 10
114.8574164209384
 20
-117.105341225064
 30
0.0
 10
114.8574164209384
 20
-117.105341225064
 30
0.0
 10
114.8574164209384
 20
-116.2736951749246
 30
0.0
 10
114.8574164209384
 20
-116.2736951749246
 30
0.0
 10
114.8574164209384
 20
-116.2736951749246
 30
0.0
 10
115.0627441118593
 20
-116.2736951749246
 30
0.0
 10
115.0627441118593
 20
-116.2736951749246
 30
0.0
 10
115.0627441118593
 20
-116.2736951749246
 30
0.0
 10
115.0627441118593
 20
-117.3723361251708
 30
0.0
 10
115.0627441118593
 20
-117.3723361251708
 30
0.0
 10
114.7051432004904
 20
-117.3382296798668
 30
0.0
 10
114.6269395329752
 20
-117.2682942415163
 30
0.0
 10
114.3285942639526
 20
-116.8569498405774
 30
0.0
 10
114.1298122544537
 20
-116.5834092590486
 30
0.0
 10
114.0619438733942
 20
-116.5131293111495
 30
0.0
 10
113.9244845635328
 20
-116.5131293111495
 30
0.0
 10
113.8059732788402
 20
-116.5131293111495
 30
0.0
 10
113.6750596504007
 20
-116.5899549404706
 30
0.0
 10
113.6750596504007
 20
-116.8004502746193
 30
0.0
 10
113.6750596504007
 20
-117.078469480279
 30
0.0
 10
113.9055365383639
 20
-117.0874267285406
 30
0.0
 10
114.0219807657653
 20
-117.0919053526715
 30
0.0
 10
114.0219807657653
 20
-117.0919053526715
 30
0.0
 10
114.0219807657653
 20
-117.3316839984449
 30
0.0
 10
114.0219807657653
 20
-117.3316839984449
 30
0.0
 10
113.8948567423596
 20
-117.3223822406347
 30
0.0
 10
113.782891139089
 20
-117.3113579350819
 30
0.0
 10
113.6643798543964
 20
-117.2252305479506
 30
0.0
 10
113.5034938952352
 20
-117.1077527919036
 30
0.0
 10
113.4697319594798
 20
-116.9089707824047
 30
0.0
 10
113.4697319594798
 20
-116.7846028353872
 30
0.0
 10
113.4697319594798
 20
-116.4883246236557
 30
0.0
 10
113.6537000583921
 20
-116.2668049839541
 30
0.0
 10
113.9265516208239
 20
-116.2668049839541
 30
0.0
 10
114.1553059610445
 20
-116.2668049839541
 30
0.0
 10
114.2545247110197
 20
-116.3911729309717
 30
0.0
 10
114.4808674844006
 20
-116.7212130784586
 30
0.0
  0
HATCH
  5
A2
330
9D
100
AcDbEntity
  8
_U+30EC_U+30A4_U+30E4_U+30FC 1
 62
     7
420
 16777215
100
AcDbHatch
 10
0.0
 20
0.0
 30
0.0
210
0.0
220
0.0
230
1.0
  2
SOLID
 70
     1
 71
     0
 91
        1
 92
        1
 93
        1
 72
     4
 94
        3
 73
     0
 74
     1
 95
       44
 96
       40
 40
0.0
 40
0.0
 40
0.0
 40
0.0
 40
1.0
 40
1.0
 40
1.0
 40
2.0
 40
2.0
 40
2.0
 40
3.0
 40
3.0
 40
3.0
 40
4.0
 40
4.0
 40
4.0
 40
5.0
 40
5.0
 40
5.0
 40
6.0
 40
6.0
 40
6.0
 40
7.0
 40
7.0
 40
7.0
 40
8.0
 40
8.0
 40
8.0
 40
9.0
 40
9.0
 40
9.0
 40
10.0
 40
10.0
 40
10.0
 40
11.0
 40
11.0
 40
11.0
 40
12.0
 40
12.0
 40
12.0
 40
13.0
 40
13.0
 40
13.0
 40
13.0
 10
114.4808674844006
 20
-116.7212130784586
 10
114.6396863862706
 20
-116.9541015332615
 10
114.7137559392035
 20
-117.0536647927852
 10
114.8574164209384
 20
-117.105341225064
 10
114.8574164209384
 20
-117.105341225064
 10
114.8574164209384
 20
-116.2736951749246
 10
114.8574164209384
 20
-116.2736951749246
 10
114.8574164209384
 20
-116.2736951749246
 10
115.0627441118593
 20
-116.2736951749246
 10
115.0627441118593
 20
-116.2736951749246
 10
115.0627441118593
 20
-116.2736951749246
 10
115.0627441118593
 20
-117.3723361251708
 10
115.0627441118593
 20
-117.3723361251708
 10
114.7051432004904
 20
-117.3382296798668
 10
114.6269395329752
 20
-117.2682942415163
 10
114.3285942639526
 20
-116.8569498405774
 10
114.1298122544537
 20
-116.5834092590486
 10
114.0619438733942
 20
-116.5131293111495
 10
113.9244845635328
 20
-116.5131293111495
 10
113.8059732788402
 20
-116.5131293111495
 10
113.6750596504007
 20
-116.5899549404706
 10
113.6750596504007
 20
-116.8004502746193
 10
113.6750596504007
 20
-117.078469480279
 10
113.9055365383639
 20
-117.0874267285406
 10
114.0219807657653
 20
-117.0919053526715
 10
114.0219807657653
 20
-117.0919053526715
 10
114.0219807657653
 20
-117.3316839984449
 10
114.0219807657653
 20
-117.3316839984449
 10
113.8948567423596
 20
-117.3223822406347
 10
113.782891139089
 20
-117.3113579350819
 10
113.6643798543964
 20
-117.2252305479506
 10
113.5034938952352
 20
-117.1077527919036
 10
113.4697319594798
 20
-116.9089707824047
 10
113.4697319594798
 20
-116.7846028353872
 10
113.4697319594798
 20
-116.4883246236557
 10
113.6537000583921
 20
-116.2668049839541
 10
113.9265516208239
 20
-116.2668049839541
 10
114.1553059610445
 20
-116.2668049839541
 10
114.2545247110197
 20
-116.3911729309717
 10
114.4808674844006
 20
-116.7212130784586
 97
        0
 97
        0
 75
     2
 76
     1
 98
        0
  0
SPLINE
  5
A3
330
9D
100
AcDbEntity
  8
_U+30EC_U+30A4_U+30E4_U+30FC 1
370
     0
100
AcDbSpline
210
0.0
220
0.0
230
1.0
 70
    11
 71
     3
 72
    26
 73
    22
 74
     0
 42
0.0000000001
 43
0.0000000001
 12
1.0
 22
0.0
 32
0.0
 13
1.0
 23
0.0
 33
0.0
 40
0.0
 40
0.0
 40
0.0
 40
0.0
 40
1.0
 40
1.0
 40
1.0
 40
2.0
 40
2.0
 40
2.0
 40
3.0
 40
3.0
 40
3.0
 40
4.0
 40
4.0
 40
4.0
 40
5.0
 40
5.0
 40
5.0
 40
6.0
 40
6.0
 40
6.0
 40
7.0
 40
7.0
 40
7.0
 40
7.0
 10
115.0627441118593
 20
-115.6149929181449
 30
0.0
 10
115.0627441118593
 20
-115.6149929181449
 30
0.0
 10
113.9585910088367
 20
-115.6149929181449
 30
0.0
 10
113.9585910088367
 20
-115.6149929181449
 30
0.0
 10
113.9585910088367
 20
-115.6149929181449
 30
0.0
 10
113.9585910088367
 20
-115.9674261862859
 30
0.0
 10
113.9585910088367
 20
-115.9674261862859
 30
0.0
 10
113.9585910088367
 20
-115.9674261862859
 30
0.0
 10
113.810451902971
 20
-115.9674261862859
 30
0.0
 10
113.810451902971
 20
-115.9674261862859
 30
0.0
 10
113.7956379923844
 20
-115.6125813513052
 30
0.0
 10
113.6326849759321
 20
-115.5629719763176
 30
0.0
 10
113.5183078058218
 20
-115.5312770978533
 30
0.0
 10
113.5183078058218
 20
-115.5312770978533
 30
0.0
 10
113.5183078058218
 20
-115.3752142723715
 30
0.0
 10
113.5183078058218
 20
-115.3752142723715
 30
0.0
 10
113.5183078058218
 20
-115.3752142723715
 30
0.0
 10
115.0627441118593
 20
-115.3752142723715
 30
0.0
 10
115.0627441118593
 20
-115.3752142723715
 30
0.0
 10
115.0627441118593
 20
-115.3752142723715
 30
0.0
 10
115.0627441118593
 20
-115.6149929181449
 30
0.0
 10
115.0627441118593
 20
-115.6149929181449
 30
0.0
  0
HATCH
  5
A4
330
9D
100
AcDbEntity
  8
_U+30EC_U+30A4_U+30E4_U+30FC 1
 62
     7
420
 16777215
100
AcDbHatch
 10
0.0
 20
0.0
 30
0.0
210
0.0
220
0.0
230
1.0
  2
SOLID
 70
     1
 71
     0
 91
        1
 92
        1
 93
        1
 72
     4
 94
        3
 73
     0
 74
     1
 95
       26
 96
       22
 40
0.0
 40
0.0
 40
0.0
 40
0.0
 40
1.0
 40
1.0
 40
1.0
 40
2.0
 40
2.0
 40
2.0
 40
3.0
 40
3.0
 40
3.0
 40
4.0
 40
4.0
 40
4.0
 40
5.0
 40
5.0
 40
5.0
 40
6.0
 40
6.0
 40
6.0
 40
7.0
 40
7.0
 40
7.0
 40
7.0
 10
115.0627441118593
 20
-115.6149929181449
 10
115.0627441118593
 20
-115.6149929181449
 10
113.9585910088367
 20
-115.6149929181449
 10
113.9585910088367
 20
-115.6149929181449
 10
113.9585910088367
 20
-115.6149929181449
 10
113.9585910088367
 20
-115.9674261862859
 10
113.9585910088367
 20
-115.9674261862859
 10
113.9585910088367
 20
-115.9674261862859
 10
113.810451902971
 20
-115.9674261862859
 10
113.810451902971
 20
-115.9674261862859
 10
113.7956379923844
 20
-115.6125813513052
 10
113.6326849759321
 20
-115.5629719763176
 10
113.5183078058218
 20
-115.5312770978533
 10
113.5183078058218
 20
-115.5312770978533
 10
113.5183078058218
 20
-115.3752142723715
 10
113.5183078058218
 20
-115.3752142723715
 10
113.5183078058218
 20
-115.3752142723715
 10
115.0627441118593
 20
-115.3752142723715
 10
115.0627441118593
 20
-115.3752142723715
 10
115.0627441118593
 20
-115.3752142723715
 10
115.0627441118593
 20
-115.6149929181449
 10
115.0627441118593
 20
-115.6149929181449
 97
        0
 97
        0
 75
     2
 76
     1
 98
        0
  0
ENDBLK
  5
A0
330
9D
100
AcDbEntity
  8
0
100
AcDbBlockEnd
  0
BLOCK
  5
AF
330
AD
100
AcDbEntity
  8
0
100
AcDbBlockBegin
  2
block 5
 70
     0
 10
0.0
 20
0.0
 30
0.0
  3
block 5
  1

  0
SPLINE
  5
B1
330
AD
100
AcDbEntity
  8
_U+30EC_U+30A4_U+30E4_U+30FC 1
370
     0
100
AcDbSpline
210
0.0
220
0.0
230
1.0
 70
    11
 71
     3
 72
    26
 73
    22
 74
     0
 42
0.0000000001
 43
0.0000000001
 12
1.0
 22
0.0
 32
0.0
 13
1.0
 23
0.0
 33
0.0
 40
0.0
 40
0.0
 40
0.0
 40
0.0
 40
1.0
 40
1.0
 40
1.0
 40
2.0
 40
2.0
 40
2.0
 40
3.0
 40
3.0
 40
3.0
 40
4.0
 40
4.0
 40
4.0
 40
5.0
 40
5.0
 40
5.0
 40
6.0
 40
6.0
 40
6.0
 40
7.0
 40
7.0
 40
7.0
 40
7.0
 10
111.1825330668224
 20
-133.3727375968652
 30
0.0
 10
111.1825330668224
 20
-133.3727375968652
 30
0.0
 10
110.0783799637999
 20
-133.3727375968652
 30
0.0
 10
110.0783799637999
 20
-133.3727375968652
 30
0.0
 10
110.0783799637999
 20
-133.3727375968652
 30
0.0
 10
110.0783799637999
 20
-133.7251708650062
 30
0.0
 10
110.0783799637999
 20
-133.7251708650062
 30
0.0
 10
110.0783799637999
 20
-133.7251708650062
 30
0.0
 10
109.9302408579341
 20
-133.7251708650062
 30
0.0
 10
109.9302408579341
 20
-133.7251708650062
 30
0.0
 10
109.9154269473475
 20
-133.3703260300255
 30
0.0
 10
109.7524739308952
 20
-133.3207166550379
 30
0.0
 10
109.6380967607849
 20
-133.2890217765736
 30
0.0
 10
109.6380967607849
 20
-133.2890217765736
 30
0.0
 10
109.6380967607849
 20
-133.1329589510918
 30
0.0
 10
109.6380967607849
 20
-133.1329589510918
 30
0.0
 10
109.6380967607849
 20
-133.1329589510918
 30
0.0
 10
111.1825330668224
 20
-133.1329589510918
 30
0.0
 10
111.1825330668224
 20
-133.1329589510918
 30
0.0
 10
111.1825330668224
 20
-133.1329589510918
 30
0.0
 10
111.1825330668224
 20
-133.3727375968652
 30
0.0
 10
111.1825330668224
 20
-133.3727375968652
 30
0.0
  0
HATCH
  5
B2
330
AD
100
AcDbEntity
  8
_U+30EC_U+30A4_U+30E4_U+30FC 1
 62
     7
420
 16777215
100
AcDbHatch
 10
0.0
 20
0.0
 30
0.0
210
0.0
220
0.0
230
1.0
  2
SOLID
 70
     1
 71
     0
 91
        1
 92
        1
 93
        1
 72
     4
 94
        3
 73
     0
 74
     1
 95
       26
 96
       22
 40
0.0
 40
0.0
 40
0.0
 40
0.0
 40
1.0
 40
1.0
 40
1.0
 40
2.0
 40
2.0
 40
2.0
 40
3.0
 40
3.0
 40
3.0
 40
4.0
 40
4.0
 40
4.0
 40
5.0
 40
5.0
 40
5.0
 40
6.0
 40
6.0
 40
6.0
 40
7.0
 40
7.0
 40
7.0
 40
7.0
 10
111.1825330668224
 20
-133.3727375968652
 10
111.1825330668224
 20
-133.3727375968652
 10
110.0783799637999
 20
-133.3727375968652
 10
110.0783799637999
 20
-133.3727375968652
 10
110.0783799637999
 20
-133.3727375968652
 10
110.0783799637999
 20
-133.7251708650062
 10
110.0783799637999
 20
-133.7251708650062
 10
110.0783799637999
 20
-133.7251708650062
 10
109.9302408579341
 20
-133.7251708650062
 10
109.9302408579341
 20
-133.7251708650062
 10
109.9154269473475
 20
-133.3703260300255
 10
109.7524739308952
 20
-133.3207166550379
 10
109.6380967607849
 20
-133.2890217765736
 10
109.6380967607849
 20
-133.2890217765736
 10
109.6380967607849
 20
-133.1329589510918
 10
109.6380967607849
 20
-133.1329589510918
 10
109.6380967607849
 20
-133.1329589510918
 10
111.1825330668224
 20
-133.1329589510918
 10
111.1825330668224
 20
-133.1329589510918
 10
111.1825330668224
 20
-133.1329589510918
 10
111.1825330668224
 20
-133.3727375968652
 10
111.1825330668224
 20
-133.3727375968652
 97
        0
 97
        0
 75
     2
 76
     1
 98
        0
  0
SPLINE
  5
B3
330
AD
100
AcDbEntity
  8
_U+30EC_U+30A4_U+30E4_U+30FC 1
370
     0
100
AcDbSpline
210
0.0
220
0.0
230
1.0
 70
    11
 71
     3
 72
    29
 73
    25
 74
     0
 42
0.0000000001
 43
0.0000000001
 12
1.0
 22
0.0
 32
0.0
 13
1.0
 23
0.0
 33
0.0
 40
0.0
 40
0.0
 40
0.0
 40
0.0
 40
1.0
 40
1.0
 40
1.0
 40
2.0
 40
2.0
 40
2.0
 40
3.0
 40
3.0
 40
3.0
 40
4.0
 40
4.0
 40
4.0
 40
5.0
 40
5.0
 40
5.0
 40
6.0
 40
6.0
 40
6.0
 40
7.0
 40
7.0
 40
7.0
 40
8.0
 40
8.0
 40
8.0
 40
8.0
 10
111.0047661397835
 20
-131.6377875104933
 30
0.0
 10
111.2142279452867
 20
-131.7528536997007
 30
0.0
 10
111.2331759704556
 20
-131.9385443463557
 30
0.0
 10
111.2331759704556
 20
-132.0629122933732
 30
0.0
 10
111.2331759704556
 20
-132.2344780485386
 30
0.0
 10
111.1866671814047
 20
-132.3860622498896
 30
0.0
 10
111.0047661397835
 20
-132.4876925667045
 30
0.0
 10
110.8101182448669
 20
-132.5986246413295
 30
0.0
 10
110.5730956754817
 20
-132.6189507046925
 30
0.0
 10
110.4104871685779
 20
-132.6189507046925
 30
0.0
 10
110.2664821772945
 20
-132.6189507046925
 30
0.0
 10
110.0146456973227
 20
-132.6006916986207
 30
0.0
 10
109.8158636878238
 20
-132.4876925667045
 30
0.0
 10
109.6129475637426
 20
-132.3726263774971
 30
0.0
 10
109.5895209144429
 20
-132.2007161127832
 30
0.0
 10
109.5895209144429
 20
-132.0629122933732
 30
0.0
 10
109.5895209144429
 20
-131.8930690859503
 30
0.0
 10
109.6339626462026
 20
-131.7394178273082
 30
0.0
 10
109.8158636878238
 20
-131.6377875104933
 30
0.0
 10
110.0084445254493
 20
-131.5313340599991
 30
0.0
 10
110.2368543561213
 20
-131.5065293725053
 30
0.0
 10
110.4104871685779
 20
-131.5065293725053
 30
0.0
 10
110.5817084141948
 20
-131.5065293725053
 30
0.0
 10
110.8121853021581
 20
-131.529267002708
 30
0.0
 10
111.0047661397835
 20
-131.6377875104933
 30
0.0
  0
SPLINE
  5
B4
330
AD
100
AcDbEntity
  8
_U+30EC_U+30A4_U+30E4_U+30FC 1
370
     0
100
AcDbSpline
210
0.0
220
0.0
230
1.0
 70
    11
 71
     3
 72
    17
 73
    13
 74
     0
 42
0.0000000001
 43
0.0000000001
 12
1.0
 22
0.0
 32
0.0
 13
1.0
 23
0.0
 33
0.0
 40
0.0
 40
0.0
 40
0.0
 40
0.0
 40
1.0
 40
1.0
 40
1.0
 40
2.0
 40
2.0
 40
2.0
 40
3.0
 40
3.0
 40
3.0
 40
4.0
 40
4.0
 40
4.0
 40
4.0
 10
109.7821017520684
 20
-132.0629122933732
 30
0.0
 10
109.7821017520684
 20
-132.3295626839315
 30
0.0
 10
110.0656331105044
 20
-132.3791720589191
 30
0.0
 10
110.4104871685779
 20
-132.3791720589191
 30
0.0
 10
110.7298475200606
 20
-132.3791720589191
 30
0.0
 10
111.038528075539
 20
-132.3409314990328
 30
0.0
 10
111.038528075539
 20
-132.0629122933732
 30
0.0
 10
111.038528075539
 20
-131.798328960106
 30
0.0
 10
110.7574082839426
 20
-131.7463080182787
 30
0.0
 10
110.4104871685779
 20
-131.7463080182787
 30
0.0
 10
110.0907823075468
 20
-131.7463080182787
 30
0.0
 10
109.7821017520684
 20
-131.7869601450047
 30
0.0
 10
109.7821017520684
 20
-132.0629122933732
 30
0.0
  0
HATCH
  5
B5
330
AD
100
AcDbEntity
  8
_U+30EC_U+30A4_U+30E4_U+30FC 1
 62
     7
420
 16777215
100
AcDbHatch
 10
0.0
 20
0.0
 30
0.0
210
0.0
220
0.0
230
1.0
  2
SOLID
 70
     1
 71
     0
 91
        2
 92
        1
 93
        1
 72
     4
 94
        3
 73
     0
 74
     1
 95
       29
 96
       25
 40
0.0
 40
0.0
 40
0.0
 40
0.0
 40
1.0
 40
1.0
 40
1.0
 40
2.0
 40
2.0
 40
2.0
 40
3.0
 40
3.0
 40
3.0
 40
4.0
 40
4.0
 40
4.0
 40
5.0
 40
5.0
 40
5.0
 40
6.0
 40
6.0
 40
6.0
 40
7.0
 40
7.0
 40
7.0
 40
8.0
 40
8.0
 40
8.0
 40
8.0
 10
111.0047661397835
 20
-131.6377875104933
 10
111.2142279452867
 20
-131.7528536997007
 10
111.2331759704556
 20
-131.9385443463557
 10
111.2331759704556
 20
-132.0629122933732
 10
111.2331759704556
 20
-132.2344780485386
 10
111.1866671814047
 20
-132.3860622498896
 10
111.0047661397835
 20
-132.4876925667045
 10
110.8101182448669
 20
-132.5986246413295
 10
110.5730956754817
 20
-132.6189507046925
 10
110.4104871685779
 20
-132.6189507046925
 10
110.2664821772945
 20
-132.6189507046925
 10
110.0146456973227
 20
-132.6006916986207
 10
109.8158636878238
 20
-132.4876925667045
 10
109.6129475637426
 20
-132.3726263774971
 10
109.5895209144429
 20
-132.2007161127832
 10
109.5895209144429
 20
-132.0629122933732
 10
109.5895209144429
 20
-131.8930690859503
 10
109.6339626462026
 20
-131.7394178273082
 10
109.8158636878238
 20
-131.6377875104933
 10
110.0084445254493
 20
-131.5313340599991
 10
110.2368543561213
 20
-131.5065293725053
 10
110.4104871685779
 20
-131.5065293725053
 10
110.5817084141948
 20
-131.5065293725053
 10
110.8121853021581
 20
-131.529267002708
 10
111.0047661397835
 20
-131.6377875104933
 97
        0
 97
        0
 92
        1
 93
        1
 72
     4
 94
        3
 73
     0
 74
     1
 95
       17
 96
       13
 40
0.0
 40
0.0
 40
0.0
 40
0.0
 40
1.0
 40
1.0
 40
1.0
 40
2.0
 40
2.0
 40
2.0
 40
3.0
 40
3.0
 40
3.0
 40
4.0
 40
4.0
 40
4.0
 40
4.0
 10
109.7821017520684
 20
-132.0629122933732
 10
109.7821017520684
 20
-132.3295626839315
 10
110.0656331105044
 20
-132.3791720589191
 10
110.4104871685779
 20
-132.3791720589191
 10
110.7298475200606
 20
-132.3791720589191
 10
111.038528075539
 20
-132.3409314990328
 10
111.038528075539
 20
-132.0629122933732
 10
111.038528075539
 20
-131.798328960106
 10
110.7574082839426
 20
-131.7463080182787
 10
110.4104871685779
 20
-131.7463080182787
 10
110.0907823075468
 20
-131.7463080182787
 10
109.7821017520684
 20
-131.7869601450047
 10
109.7821017520684
 20
-132.0629122933732
 97
        0
 97
        0
 75
     2
 76
     1
 98
        0
  0
ENDBLK
  5
B0
330
AD
100
AcDbEntity
  8
0
100
AcDbBlockEnd
  0
BLOCK
  5
B8
330
B6
100
AcDbEntity
  8
0
100
AcDbBlockBegin
  2
block 6
 70
     0
 10
0.0
 20
0.0
 30
0.0
  3
block 6
  1

  0
SPLINE
  5
BA
330
B6
100
AcDbEntity
  8
_U+30EC_U+30A4_U+30E4_U+30FC 1
370
     0
100
AcDbSpline
210
0.0
220
0.0
230
1.0
 70
    11
 71
     3
 72
    26
 73
    22
 74
     0
 42
0.0000000001
 43
0.0000000001
 12
1.0
 22
0.0
 32
0.0
 13
1.0
 23
0.0
 33
0.0
 40
0.0
 40
0.0
 40
0.0
 40
0.0
 40
1.0
 40
1.0
 40
1.0
 40
2.0
 40
2.0
 40
2.0
 40
3.0
 40
3.0
 40
3.0
 40
4.0
 40
4.0
 40
4.0
 40
5.0
 40
5.0
 40
5.0
 40
6.0
 40
6.0
 40
6.0
 40
7.0
 40
7.0
 40
7.0
 40
7.0
 10
72.06278481271347
 20
-138.1197346659909
 30
0.0
 10
72.06278481271347
 20
-138.1197346659909
 30
0.0
 10
72.84361570444536
 20
-137.3387315194848
 30
0.0
 10
72.84361570444536
 20
-137.3387315194848
 30
0.0
 10
72.84361570444536
 20
-137.3387315194848
 30
0.0
 10
72.61021048531967
 20
-137.1054985551334
 30
0.0
 10
72.61021048531967
 20
-137.1054985551334
 30
0.0
 10
72.61021048531967
 20
-137.1054985551334
 30
0.0
 10
72.71494138807127
 20
-137.0007676523818
 30
0.0
 10
72.71494138807127
 20
-137.0007676523818
 30
0.0
 10
72.96023218662106
 20
-137.2250433684715
 30
0.0
 10
73.10819903771254
 20
-137.1430500959226
 30
0.0
 10
73.21017386407593
 20
-137.0831054344792
 30
0.0
 10
73.21017386407593
 20
-137.0831054344792
 30
0.0
 10
73.31335447385916
 20
-137.1861137894882
 30
0.0
 10
73.31335447385916
 20
-137.1861137894882
 30
0.0
 10
73.31335447385916
 20
-137.1861137894882
 30
0.0
 10
72.22125920503497
 20
-138.2782090583124
 30
0.0
 10
72.22125920503497
 20
-138.2782090583124
 30
0.0
 10
72.22125920503497
 20
-138.2782090583124
 30
0.0
 10
72.06278481271347
 20
-138.1197346659909
 30
0.0
 10
72.06278481271347
 20
-138.1197346659909
 30
0.0
  0
HATCH
  5
BB
330
B6
100
AcDbEntity
  8
_U+30EC_U+30A4_U+30E4_U+30FC 1
 62
     7
420
 16777215
100
AcDbHatch
 10
0.0
 20
0.0
 30
0.0
210
0.0
220
0.0
230
1.0
  2
SOLID
 70
     1
 71
     0
 91
        1
 92
        1
 93
        1
 72
     4
 94
        3
 73
     0
 74
     1
 95
       26
 96
       22
 40
0.0
 40
0.0
 40
0.0
 40
0.0
 40
1.0
 40
1.0
 40
1.0
 40
2.0
 40
2.0
 40
2.0
 40
3.0
 40
3.0
 40
3.0
 40
4.0
 40
4.0
 40
4.0
 40
5.0
 40
5.0
 40
5.0
 40
6.0
 40
6.0
 40
6.0
 40
7.0
 40
7.0
 40
7.0
 40
7.0
 10
72.06278481271347
 20
-138.1197346659909
 10
72.06278481271347
 20
-138.1197346659909
 10
72.84361570444536
 20
-137.3387315194848
 10
72.84361570444536
 20
-137.3387315194848
 10
72.84361570444536
 20
-137.3387315194848
 10
72.61021048531967
 20
-137.1054985551334
 10
72.61021048531967
 20
-137.1054985551334
 10
72.61021048531967
 20
-137.1054985551334
 10
72.71494138807127
 20
-137.0007676523818
 10
72.71494138807127
 20
-137.0007676523818
 10
72.96023218662106
 20
-137.2250433684715
 10
73.10819903771254
 20
-137.1430500959226
 10
73.21017386407593
 20
-137.0831054344792
 10
73.21017386407593
 20
-137.0831054344792
 10
73.31335447385916
 20
-137.1861137894882
 10
73.31335447385916
 20
-137.1861137894882
 10
73.31335447385916
 20
-137.1861137894882
 10
72.22125920503497
 20
-138.2782090583124
 10
72.22125920503497
 20
-138.2782090583124
 10
72.22125920503497
 20
-138.2782090583124
 10
72.06278481271347
 20
-138.1197346659909
 10
72.06278481271347
 20
-138.1197346659909
 97
        0
 97
        0
 75
     2
 76
     1
 98
        0
  0
SPLINE
  5
BC
330
B6
100
AcDbEntity
  8
_U+30EC_U+30A4_U+30E4_U+30FC 1
370
     0
100
AcDbSpline
210
0.0
220
0.0
230
1.0
 70
    11
 71
     3
 72
    53
 73
    49
 74
     0
 42
0.0000000001
 43
0.0000000001
 12
1.0
 22
0.0
 32
0.0
 13
1.0
 23
0.0
 33
0.0
 40
0.0
 40
0.0
 40
0.0
 40
0.0
 40
1.0
 40
1.0
 40
1.0
 40
2.0
 40
2.0
 40
2.0
 40
3.0
 40
3.0
 40
3.0
 40
4.0
 40
4.0
 40
4.0
 40
5.0
 40
5.0
 40
5.0
 40
6.0
 40
6.0
 40
6.0
 40
7.0
 40
7.0
 40
7.0
 40
8.0
 40
8.0
 40
8.0
 40
9.0
 40
9.0
 40
9.0
 40
10.0
 40
10.0
 40
10.0
 40
11.0
 40
11.0
 40
11.0
 40
12.0
 40
12.0
 40
12.0
 40
13.0
 40
13.0
 40
13.0
 40
14.0
 40
14.0
 40
14.0
 40
15.0
 40
15.0
 40
15.0
 40
16.0
 40
16.0
 40
16.0
 40
16.0
 10
72.87996146181473
 20
-139.0085693011854
 30
0.0
 10
72.82466767927647
 20
-138.9531032638728
 30
0.0
 10
72.76472301783313
 20
-138.8697319531298
 30
0.0
 10
72.73785127304818
 20
-138.7525987066313
 30
0.0
 10
72.69306503173993
 20
-138.5527831684868
 30
0.0
 10
72.77075193493232
 20
-138.44460717025
 30
0.0
 10
72.83345267276387
 20
-138.3550346876335
 30
0.0
 10
72.83345267276387
 20
-138.3550346876335
 30
0.0
 10
72.99054902689126
 20
-138.5121310417609
 30
0.0
 10
72.99054902689126
 20
-138.5121310417609
 30
0.0
 10
72.88874645530213
 20
-138.6912760069939
 30
0.0
 10
72.95782061978139
 20
-138.8022080816189
 30
0.0
 10
73.02362194354966
 20
-138.8680094053872
 30
0.0
 10
73.12232392920207
 20
-138.9668836458139
 30
0.0
 10
73.30026311101521
 20
-139.0040906770545
 30
0.0
 10
73.4647664204359
 20
-138.8394151128596
 30
0.0
 10
73.64580618818577
 20
-138.658547599884
 30
0.0
 10
73.56794703021913
 20
-138.4818142014907
 30
0.0
 10
73.4826809169592
 20
-138.3963758334565
 30
0.0
 10
73.46028779630507
 20
-138.3743272223509
 30
0.0
 10
73.36020777245857
 20
-138.2740749437301
 30
0.0
 10
73.20586749471937
 20
-138.3026692362577
 30
0.0
 10
73.20586749471937
 20
-138.3026692362577
 30
0.0
 10
73.09510767486859
 20
-138.1648654168477
 30
0.0
 10
73.09510767486859
 20
-138.1648654168477
 30
0.0
 10
73.09510767486859
 20
-138.1648654168477
 30
0.0
 10
73.77895912869069
 20
-137.6515461895455
 30
0.0
 10
73.77895912869069
 20
-137.6515461895455
 30
0.0
 10
73.77895912869069
 20
-137.6515461895455
 30
0.0
 10
74.3294853872336
 20
-138.2020724480884
 30
0.0
 10
74.3294853872336
 20
-138.2020724480884
 30
0.0
 10
74.3294853872336
 20
-138.2020724480884
 30
0.0
 10
74.19185382259788
 20
-138.3398762674984
 30
0.0
 10
74.19185382259788
 20
-138.3398762674984
 30
0.0
 10
74.19185382259788
 20
-138.3398762674984
 30
0.0
 10
73.75656600803656
 20
-137.9044161981628
 30
0.0
 10
73.75656600803656
 20
-137.9044161981628
 30
0.0
 10
73.75656600803656
 20
-137.9044161981628
 30
0.0
 10
73.411022930866
 20
-138.1572862067801
 30
0.0
 10
73.411022930866
 20
-138.1572862067801
 30
0.0
 10
73.47837454760263
 20
-138.176923251046
 30
0.0
 10
73.56501869905667
 20
-138.2068955817677
 30
0.0
 10
73.64873451934824
 20
-138.2902668925108
 30
0.0
 10
73.82839624890401
 20
-138.4701008768408
 30
0.0
 10
73.86422524195062
 20
-138.769479674509
 30
0.0
 10
73.64287785702331
 20
-138.9909993142106
 30
0.0
 10
73.41842988615929
 20
-139.2152750303003
 30
0.0
 10
73.09390189144875
 20
-139.2225097308194
 30
0.0
 10
72.87996146181473
 20
-139.0085693011854
 30
0.0
  0
HATCH
  5
BD
330
B6
100
AcDbEntity
  8
_U+30EC_U+30A4_U+30E4_U+30FC 1
 62
     7
420
 16777215
100
AcDbHatch
 10
0.0
 20
0.0
 30
0.0
210
0.0
220
0.0
230
1.0
  2
SOLID
 70
     1
 71
     0
 91
        1
 92
        1
 93
        1
 72
     4
 94
        3
 73
     0
 74
     1
 95
       53
 96
       49
 40
0.0
 40
0.0
 40
0.0
 40
0.0
 40
1.0
 40
1.0
 40
1.0
 40
2.0
 40
2.0
 40
2.0
 40
3.0
 40
3.0
 40
3.0
 40
4.0
 40
4.0
 40
4.0
 40
5.0
 40
5.0
 40
5.0
 40
6.0
 40
6.0
 40
6.0
 40
7.0
 40
7.0
 40
7.0
 40
8.0
 40
8.0
 40
8.0
 40
9.0
 40
9.0
 40
9.0
 40
10.0
 40
10.0
 40
10.0
 40
11.0
 40
11.0
 40
11.0
 40
12.0
 40
12.0
 40
12.0
 40
13.0
 40
13.0
 40
13.0
 40
14.0
 40
14.0
 40
14.0
 40
15.0
 40
15.0
 40
15.0
 40
16.0
 40
16.0
 40
16.0
 40
16.0
 10
72.87996146181473
 20
-139.0085693011854
 10
72.82466767927647
 20
-138.9531032638728
 10
72.76472301783313
 20
-138.8697319531298
 10
72.73785127304818
 20
-138.7525987066313
 10
72.69306503173993
 20
-138.5527831684868
 10
72.77075193493232
 20
-138.44460717025
 10
72.83345267276387
 20
-138.3550346876335
 10
72.83345267276387
 20
-138.3550346876335
 10
72.99054902689126
 20
-138.5121310417609
 10
72.99054902689126
 20
-138.5121310417609
 10
72.88874645530213
 20
-138.6912760069939
 10
72.95782061978139
 20
-138.8022080816189
 10
73.02362194354966
 20
-138.8680094053872
 10
73.12232392920207
 20
-138.9668836458139
 10
73.30026311101521
 20
-139.0040906770545
 10
73.4647664204359
 20
-138.8394151128596
 10
73.64580618818577
 20
-138.658547599884
 10
73.56794703021913
 20
-138.4818142014907
 10
73.4826809169592
 20
-138.3963758334565
 10
73.46028779630507
 20
-138.3743272223509
 10
73.36020777245857
 20
-138.2740749437301
 10
73.20586749471937
 20
-138.3026692362577
 10
73.20586749471937
 20
-138.3026692362577
 10
73.09510767486859
 20
-138.1648654168477
 10
73.09510767486859
 20
-138.1648654168477
 10
73.09510767486859
 20
-138.1648654168477
 10
73.77895912869069
 20
-137.6515461895455
 10
73.77895912869069
 20
-137.6515461895455
 10
73.77895912869069
 20
-137.6515461895455
 10
74.3294853872336
 20
-138.2020724480884
 10
74.3294853872336
 20
-138.2020724480884
 10
74.3294853872336
 20
-138.2020724480884
 10
74.19185382259788
 20
-138.3398762674984
 10
74.19185382259788
 20
-138.3398762674984
 10
74.19185382259788
 20
-138.3398762674984
 10
73.75656600803656
 20
-137.9044161981628
 10
73.75656600803656
 20
-137.9044161981628
 10
73.75656600803656
 20
-137.9044161981628
 10
73.411022930866
 20
-138.1572862067801
 10
73.411022930866
 20
-138.1572862067801
 10
73.47837454760263
 20
-138.176923251046
 10
73.56501869905667
 20
-138.2068955817677
 10
73.64873451934824
 20
-138.2902668925108
 10
73.82839624890401
 20
-138.4701008768408
 10
73.86422524195062
 20
-138.769479674509
 10
73.64287785702331
 20
-138.9909993142106
 10
73.41842988615929
 20
-139.2152750303003
 10
73.09390189144875
 20
-139.2225097308194
 10
72.87996146181473
 20
-139.0085693011854
 97
        0
 97
        0
 75
     2
 76
     1
 98
        0
  0
ENDBLK
  5
B9
330
B6
100
AcDbEntity
  8
0
100
AcDbBlockEnd
  0
BLOCK
  5
D5
330
D3
100
AcDbEntity
  8
0
100
AcDbBlockBegin
  2
block 7
 70
     0
 10
0.0
 20
0.0
 30
0.0
  3
block 7
  1

  0
SPLINE
  5
D7
330
D3
100
AcDbEntity
  8
_U+30EC_U+30A4_U+30E4_U+30FC 1
370
     0
100
AcDbSpline
210
0.0
220
0.0
230
1.0
 70
    11
 71
     3
 72
    26
 73
    22
 74
     0
 42
0.0000000001
 43
0.0000000001
 12
1.0
 22
0.0
 32
0.0
 13
1.0
 23
0.0
 33
0.0
 40
0.0
 40
0.0
 40
0.0
 40
0.0
 40
1.0
 40
1.0
 40
1.0
 40
2.0
 40
2.0
 40
2.0
 40
3.0
 40
3.0
 40
3.0
 40
4.0
 40
4.0
 40
4.0
 40
5.0
 40
5.0
 40
5.0
 40
6.0
 40
6.0
 40
6.0
 40
7.0
 40
7.0
 40
7.0
 40
7.0
 10
86.5633639649043
 20
-144.8859021990216
 30
0.0
 10
86.5633639649043
 20
-144.8859021990216
 30
0.0
 10
86.5633639649043
 20
-143.781749095999
 30
0.0
 10
86.5633639649043
 20
-143.781749095999
 30
0.0
 10
86.5633639649043
 20
-143.781749095999
 30
0.0
 10
86.23332381741737
 20
-143.781749095999
 30
0.0
 10
86.23332381741737
 20
-143.781749095999
 30
0.0
 10
86.23332381741737
 20
-143.781749095999
 30
0.0
 10
86.23332381741737
 20
-143.6336099901333
 30
0.0
 10
86.23332381741737
 20
-143.6336099901333
 30
0.0
 10
86.56543102219545
 20
-143.6187960795467
 30
0.0
 10
86.61193981124633
 20
-143.4558430630944
 30
0.0
 10
86.64156763241947
 20
-143.3414658929841
 30
0.0
 10
86.64156763241947
 20
-143.3414658929841
 30
0.0
 10
86.78763968099406
 20
-143.3414658929841
 30
0.0
 10
86.78763968099406
 20
-143.3414658929841
 30
0.0
 10
86.78763968099406
 20
-143.3414658929841
 30
0.0
 10
86.78763968099406
 20
-144.8859021990216
 30
0.0
 10
86.78763968099406
 20
-144.8859021990216
 30
0.0
 10
86.78763968099406
 20
-144.8859021990216
 30
0.0
 10
86.5633639649043
 20
-144.8859021990216
 30
0.0
 10
86.5633639649043
 20
-144.8859021990216
 30
0.0
  0
HATCH
  5
D8
330
D3
100
AcDbEntity
  8
_U+30EC_U+30A4_U+30E4_U+30FC 1
 62
     7
420
 16777215
100
AcDbHatch
 10
0.0
 20
0.0
 30
0.0
210
0.0
220
0.0
230
1.0
  2
SOLID
 70
     1
 71
     0
 91
        1
 92
        1
 93
        1
 72
     4
 94
        3
 73
     0
 74
     1
 95
       26
 96
       22
 40
0.0
 40
0.0
 40
0.0
 40
0.0
 40
1.0
 40
1.0
 40
1.0
 40
2.0
 40
2.0
 40
2.0
 40
3.0
 40
3.0
 40
3.0
 40
4.0
 40
4.0
 40
4.0
 40
5.0
 40
5.0
 40
5.0
 40
6.0
 40
6.0
 40
6.0
 40
7.0
 40
7.0
 40
7.0
 40
7.0
 10
86.5633639649043
 20
-144.8859021990216
 10
86.5633639649043
 20
-144.8859021990216
 10
86.5633639649043
 20
-143.781749095999
 10
86.5633639649043
 20
-143.781749095999
 10
86.5633639649043
 20
-143.781749095999
 10
86.23332381741737
 20
-143.781749095999
 10
86.23332381741737
 20
-143.781749095999
 10
86.23332381741737
 20
-143.781749095999
 10
86.23332381741737
 20
-143.6336099901333
 10
86.23332381741737
 20
-143.6336099901333
 10
86.56543102219545
 20
-143.6187960795467
 10
86.61193981124633
 20
-143.4558430630944
 10
86.64156763241947
 20
-143.3414658929841
 10
86.64156763241947
 20
-143.3414658929841
 10
86.78763968099406
 20
-143.3414658929841
 10
86.78763968099406
 20
-143.3414658929841
 10
86.78763968099406
 20
-143.3414658929841
 10
86.78763968099406
 20
-144.8859021990216
 10
86.78763968099406
 20
-144.8859021990216
 10
86.78763968099406
 20
-144.8859021990216
 10
86.5633639649043
 20
-144.8859021990216
 10
86.5633639649043
 20
-144.8859021990216
 97
        0
 97
        0
 75
     2
 76
     1
 98
        0
  0
SPLINE
  5
D9
330
D3
100
AcDbEntity
  8
_U+30EC_U+30A4_U+30E4_U+30FC 1
370
     0
100
AcDbSpline
210
0.0
220
0.0
230
1.0
 70
    11
 71
     3
 72
    29
 73
    25
 74
     0
 42
0.0000000001
 43
0.0000000001
 12
1.0
 22
0.0
 32
0.0
 13
1.0
 23
0.0
 33
0.0
 40
0.0
 40
0.0
 40
0.0
 40
0.0
 40
1.0
 40
1.0
 40
1.0
 40
2.0
 40
2.0
 40
2.0
 40
3.0
 40
3.0
 40
3.0
 40
4.0
 40
4.0
 40
4.0
 40
5.0
 40
5.0
 40
5.0
 40
6.0
 40
6.0
 40
6.0
 40
7.0
 40
7.0
 40
7.0
 40
8.0
 40
8.0
 40
8.0
 40
8.0
 10
88.18652070277976
 20
-144.7081352719827
 30
0.0
 10
88.07868921409144
 20
-144.9175970774859
 30
0.0
 10
87.90522865640911
 20
-144.9365451026547
 30
0.0
 10
87.78878442900766
 20
-144.9365451026547
 30
0.0
 10
87.62807072462077
 20
-144.9365451026547
 30
0.0
 10
87.48630504540273
 20
-144.8900363136039
 30
0.0
 10
87.39104815523558
 20
-144.7081352719827
 30
0.0
 10
87.28752303590382
 20
-144.5134873770661
 30
0.0
 10
87.26840275596068
 20
-144.2764648076809
 30
0.0
 10
87.26840275596068
 20
-144.1138563007771
 30
0.0
 10
87.26840275596068
 20
-143.9698513094937
 30
0.0
 10
87.2852837238384
 20
-143.7180148295219
 30
0.0
 10
87.39104815523558
 20
-143.519232820023
 30
0.0
 10
87.49905189869816
 20
-143.3163166959418
 30
0.0
 10
87.65976560308506
 20
-143.2928900466421
 30
0.0
 10
87.78878442900766
 20
-143.2928900466421
 30
0.0
 10
87.94743107610343
 20
-143.2928900466421
 30
0.0
 10
88.09126381261261
 20
-143.3373317784018
 30
0.0
 10
88.18652070277976
 20
-143.519232820023
 30
0.0
 10
88.28591170752922
 20
-143.7118136576484
 30
0.0
 10
88.30916610205466
 20
-143.9402234883205
 30
0.0
 10
88.30916610205466
 20
-144.1138563007771
 30
0.0
 10
88.30916610205466
 20
-144.285077546394
 30
0.0
 10
88.28815101959464
 20
-144.5155544343572
 30
0.0
 10
88.18652070277976
 20
-144.7081352719827
 30
0.0
  0
SPLINE
  5
DA
330
D3
100
AcDbEntity
  8
_U+30EC_U+30A4_U+30E4_U+30FC 1
370
     0
100
AcDbSpline
210
0.0
220
0.0
230
1.0
 70
    11
 71
     3
 72
    17
 73
    13
 74
     0
 42
0.0000000001
 43
0.0000000001
 12
1.0
 22
0.0
 32
0.0
 13
1.0
 23
0.0
 33
0.0
 40
0.0
 40
0.0
 40
0.0
 40
0.0
 40
1.0
 40
1.0
 40
1.0
 40
2.0
 40
2.0
 40
2.0
 40
3.0
 40
3.0
 40
3.0
 40
4.0
 40
4.0
 40
4.0
 40
4.0
 10
87.78878442900766
 20
-143.4854708842675
 30
0.0
 10
87.53918726110132
 20
-143.4854708842675
 30
0.0
 10
87.49267847205044
 20
-143.7690022427036
 30
0.0
 10
87.49267847205044
 20
-144.1138563007771
 30
0.0
 10
87.49267847205044
 20
-144.4332166522597
 30
0.0
 10
87.5286797198713
 20
-144.7418972077381
 30
0.0
 10
87.78878442900766
 20
-144.7418972077381
 30
0.0
 10
88.03631453962286
 20
-144.7418972077381
 30
0.0
 10
88.08506264073915
 20
-144.4607774161418
 30
0.0
 10
88.08506264073915
 20
-144.1138563007771
 30
0.0
 10
88.08506264073915
 20
-143.7941514397459
 30
0.0
 10
88.04682208085288
 20
-143.4854708842675
 30
0.0
 10
87.78878442900766
 20
-143.4854708842675
 30
0.0
  0
HATCH
  5
DB
330
D3
100
AcDbEntity
  8
_U+30EC_U+30A4_U+30E4_U+30FC 1
 62
     7
420
 16777215
100
AcDbHatch
 10
0.0
 20
0.0
 30
0.0
210
0.0
220
0.0
230
1.0
  2
SOLID
 70
     1
 71
     0
 91
        2
 92
        1
 93
        1
 72
     4
 94
        3
 73
     0
 74
     1
 95
       29
 96
       25
 40
0.0
 40
0.0
 40
0.0
 40
0.0
 40
1.0
 40
1.0
 40
1.0
 40
2.0
 40
2.0
 40
2.0
 40
3.0
 40
3.0
 40
3.0
 40
4.0
 40
4.0
 40
4.0
 40
5.0
 40
5.0
 40
5.0
 40
6.0
 40
6.0
 40
6.0
 40
7.0
 40
7.0
 40
7.0
 40
8.0
 40
8.0
 40
8.0
 40
8.0
 10
88.18652070277976
 20
-144.7081352719827
 10
88.07868921409144
 20
-144.9175970774859
 10
87.90522865640911
 20
-144.9365451026547
 10
87.78878442900766
 20
-144.9365451026547
 10
87.62807072462077
 20
-144.9365451026547
 10
87.48630504540273
 20
-144.8900363136039
 10
87.39104815523558
 20
-144.7081352719827
 10
87.28752303590382
 20
-144.5134873770661
 10
87.26840275596068
 20
-144.2764648076809
 10
87.26840275596068
 20
-144.1138563007771
 10
87.26840275596068
 20
-143.9698513094937
 10
87.2852837238384
 20
-143.7180148295219
 10
87.39104815523558
 20
-143.519232820023
 10
87.49905189869816
 20
-143.3163166959418
 10
87.65976560308506
 20
-143.2928900466421
 10
87.78878442900766
 20
-143.2928900466421
 10
87.94743107610343
 20
-143.2928900466421
 10
88.09126381261261
 20
-143.3373317784018
 10
88.18652070277976
 20
-143.519232820023
 10
88.28591170752922
 20
-143.7118136576484
 10
88.30916610205466
 20
-143.9402234883205
 10
88.30916610205466
 20
-144.1138563007771
 10
88.30916610205466
 20
-144.285077546394
 10
88.28815101959464
 20
-144.5155544343572
 10
88.18652070277976
 20
-144.7081352719827
 97
        0
 97
        0
 92
        1
 93
        1
 72
     4
 94
        3
 73
     0
 74
     1
 95
       17
 96
       13
 40
0.0
 40
0.0
 40
0.0
 40
0.0
 40
1.0
 40
1.0
 40
1.0
 40
2.0
 40
2.0
 40
2.0
 40
3.0
 40
3.0
 40
3.0
 40
4.0
 40
4.0
 40
4.0
 40
4.0
 10
87.78878442900766
 20
-143.4854708842675
 10
87.53918726110132
 20
-143.4854708842675
 10
87.49267847205044
 20
-143.7690022427036
 10
87.49267847205044
 20
-144.1138563007771
 10
87.49267847205044
 20
-144.4332166522597
 10
87.5286797198713
 20
-144.7418972077381
 10
87.78878442900766
 20
-144.7418972077381
 10
88.03631453962286
 20
-144.7418972077381
 10
88.08506264073915
 20
-144.4607774161418
 10
88.08506264073915
 20
-144.1138563007771
 10
88.08506264073915
 20
-143.7941514397459
 10
88.04682208085288
 20
-143.4854708842675
 10
87.78878442900766
 20
-143.4854708842675
 97
        0
 97
        0
 75
     2
 76
     1
 98
        0
  0
ENDBLK
  5
D6
330
D3
100
AcDbEntity
  8
0
100
AcDbBlockEnd
  0
BLOCK
  5
EA
330
E8
100
AcDbEntity
  8
0
100
AcDbBlockBegin
  2
block 8
 70
     0
 10
0.0
 20
0.0
 30
0.0
  3
block 8
  1

  0
SPLINE
  5
EC
330
E8
100
AcDbEntity
  8
_U+30EC_U+30A4_U+30E4_U+30FC 1
370
     0
100
AcDbSpline
210
0.0
220
0.0
230
1.0
 70
    11
 71
     3
 72
    26
 73
    22
 74
     0
 42
0.0000000001
 43
0.0000000001
 12
1.0
 22
0.0
 32
0.0
 13
1.0
 23
0.0
 33
0.0
 40
0.0
 40
0.0
 40
0.0
 40
0.0
 40
1.0
 40
1.0
 40
1.0
 40
2.0
 40
2.0
 40
2.0
 40
3.0
 40
3.0
 40
3.0
 40
4.0
 40
4.0
 40
4.0
 40
5.0
 40
5.0
 40
5.0
 40
6.0
 40
6.0
 40
6.0
 40
7.0
 40
7.0
 40
7.0
 40
7.0
 10
92.13942326255543
 20
-149.1192355312966
 30
0.0
 10
92.13942326255543
 20
-149.1192355312966
 30
0.0
 10
92.13942326255543
 20
-148.015082428274
 30
0.0
 10
92.13942326255543
 20
-148.015082428274
 30
0.0
 10
92.13942326255543
 20
-148.015082428274
 30
0.0
 10
91.80938311506848
 20
-148.015082428274
 30
0.0
 10
91.80938311506848
 20
-148.015082428274
 30
0.0
 10
91.80938311506848
 20
-148.015082428274
 30
0.0
 10
91.80938311506848
 20
-147.8669433224083
 30
0.0
 10
91.80938311506848
 20
-147.8669433224083
 30
0.0
 10
92.14149031984658
 20
-147.8521294118217
 30
0.0
 10
92.18799910889744
 20
-147.6891763953694
 30
0.0
 10
92.2176269300706
 20
-147.5747992252591
 30
0.0
 10
92.2176269300706
 20
-147.5747992252591
 30
0.0
 10
92.36369897864519
 20
-147.5747992252591
 30
0.0
 10
92.36369897864519
 20
-147.5747992252591
 30
0.0
 10
92.36369897864519
 20
-147.5747992252591
 30
0.0
 10
92.36369897864519
 20
-149.1192355312966
 30
0.0
 10
92.36369897864519
 20
-149.1192355312966
 30
0.0
 10
92.36369897864519
 20
-149.1192355312966
 30
0.0
 10
92.13942326255543
 20
-149.1192355312966
 30
0.0
 10
92.13942326255543
 20
-149.1192355312966
 30
0.0
  0
HATCH
  5
ED
330
E8
100
AcDbEntity
  8
_U+30EC_U+30A4_U+30E4_U+30FC 1
 62
     7
420
 16777215
100
AcDbHatch
 10
0.0
 20
0.0
 30
0.0
210
0.0
220
0.0
230
1.0
  2
SOLID
 70
     1
 71
     0
 91
        1
 92
        1
 93
        1
 72
     4
 94
        3
 73
     0
 74
     1
 95
       26
 96
       22
 40
0.0
 40
0.0
 40
0.0
 40
0.0
 40
1.0
 40
1.0
 40
1.0
 40
2.0
 40
2.0
 40
2.0
 40
3.0
 40
3.0
 40
3.0
 40
4.0
 40
4.0
 40
4.0
 40
5.0
 40
5.0
 40
5.0
 40
6.0
 40
6.0
 40
6.0
 40
7.0
 40
7.0
 40
7.0
 40
7.0
 10
92.13942326255543
 20
-149.1192355312966
 10
92.13942326255543
 20
-149.1192355312966
 10
92.13942326255543
 20
-148.015082428274
 10
92.13942326255543
 20
-148.015082428274
 10
92.13942326255543
 20
-148.015082428274
 10
91.80938311506848
 20
-148.015082428274
 10
91.80938311506848
 20
-148.015082428274
 10
91.80938311506848
 20
-148.015082428274
 10
91.80938311506848
 20
-147.8669433224083
 10
91.80938311506848
 20
-147.8669433224083
 10
92.14149031984658
 20
-147.8521294118217
 10
92.18799910889744
 20
-147.6891763953694
 10
92.2176269300706
 20
-147.5747992252591
 10
92.2176269300706
 20
-147.5747992252591
 10
92.36369897864519
 20
-147.5747992252591
 10
92.36369897864519
 20
-147.5747992252591
 10
92.36369897864519
 20
-147.5747992252591
 10
92.36369897864519
 20
-149.1192355312966
 10
92.36369897864519
 20
-149.1192355312966
 10
92.36369897864519
 20
-149.1192355312966
 10
92.13942326255543
 20
-149.1192355312966
 10
92.13942326255543
 20
-149.1192355312966
 97
        0
 97
        0
 75
     2
 76
     1
 98
        0
  0
POLYLINE
  5
EE
330
E8
100
AcDbEntity
  8
_U+30EC_U+30A4_U+30E4_U+30FC 1
370
     0
100
AcDb2dPolyline
 66
     1
 10
0.0
 20
0.0
 30
0.0
  0
VERTEX
  5
EF
330
EE
100
AcDbEntity
  8
_U+30EC_U+30A4_U+30E4_U+30FC 1
370
     0
100
AcDbVertex
100
AcDb2dVertex
 10
92.92490503319239
 20
-149.1192355312966
 30
0.0
  0
VERTEX
  5
F0
330
EE
100
AcDbEntity
  8
_U+30EC_U+30A4_U+30E4_U+30FC 1
370
     0
100
AcDbVertex
100
AcDb2dVertex
 10
92.92490503319239
 20
-148.8673990513248
 30
0.0
  0
VERTEX
  5
F1
330
EE
100
AcDbEntity
  8
_U+30EC_U+30A4_U+30E4_U+30FC 1
370
     0
100
AcDbVertex
100
AcDb2dVertex
 10
93.17674151316415
 20
-148.8673990513248
 30
0.0
  0
VERTEX
  5
F2
330
EE
100
AcDbEntity
  8
_U+30EC_U+30A4_U+30E4_U+30FC 1
370
     0
100
AcDbVertex
100
AcDb2dVertex
 10
93.17674151316415
 20
-149.1192355312966
 30
0.0
  0
VERTEX
  5
F3
330
EE
100
AcDbEntity
  8
_U+30EC_U+30A4_U+30E4_U+30FC 1
370
     0
100
AcDbVertex
100
AcDb2dVertex
 10
92.92490503319239
 20
-149.1192355312966
 30
0.0
  0
SEQEND
  5
F4
330
EE
100
AcDbEntity
  8
_U+30EC_U+30A4_U+30E4_U+30FC 1
370
     0
  0
HATCH
  5
F5
330
E8
100
AcDbEntity
  8
_U+30EC_U+30A4_U+30E4_U+30FC 1
 62
     7
420
 16777215
100
AcDbHatch
 10
0.0
 20
0.0
 30
0.0
210
0.0
220
0.0
230
1.0
  2
SOLID
 70
     1
 71
     0
 91
        1
 92
        1
 93
        4
 72
     1
 10
92.92490503319239
 20
-149.1192355312966
 11
92.92490503319239
 21
-148.8673990513248
 72
     1
 10
92.92490503319239
 20
-148.8673990513248
 11
93.17674151316415
 21
-148.8673990513248
 72
     1
 10
93.17674151316415
 20
-148.8673990513248
 11
93.17674151316415
 21
-149.1192355312966
 72
     1
 10
93.17674151316415
 20
-149.1192355312966
 11
92.92490503319239
 21
-149.1192355312966
 97
        0
 75
     2
 76
     1
 98
        0
  0
SPLINE
  5
F6
330
E8
100
AcDbEntity
  8
_U+30EC_U+30A4_U+30E4_U+30FC 1
370
     0
100
AcDbSpline
210
0.0
220
0.0
230
1.0
 70
    11
 71
     3
 72
    53
 73
    49
 74
     0
 42
0.0000000001
 43
0.0000000001
 12
1.0
 22
0.0
 32
0.0
 13
1.0
 23
0.0
 33
0.0
 40
0.0
 40
0.0
 40
0.0
 40
0.0
 40
1.0
 40
1.0
 40
1.0
 40
2.0
 40
2.0
 40
2.0
 40
3.0
 40
3.0
 40
3.0
 40
4.0
 40
4.0
 40
4.0
 40
5.0
 40
5.0
 40
5.0
 40
6.0
 40
6.0
 40
6.0
 40
7.0
 40
7.0
 40
7.0
 40
8.0
 40
8.0
 40
8.0
 40
9.0
 40
9.0
 40
9.0
 40
10.0
 40
10.0
 40
10.0
 40
11.0
 40
11.0
 40
11.0
 40
12.0
 40
12.0
 40
12.0
 40
13.0
 40
13.0
 40
13.0
 40
14.0
 40
14.0
 40
14.0
 40
15.0
 40
15.0
 40
15.0
 40
16.0
 40
16.0
 40
16.0
 40
16.0
 10
93.89401039319317
 20
-149.1698784349298
 30
0.0
 10
93.815806725678
 20
-149.1698784349298
 30
0.0
 10
93.71417640886312
 20
-149.152997467052
 30
0.0
 10
93.61254609204826
 20
-149.0896077101234
 30
0.0
 10
93.43925778914019
 20
-148.979709164144
 30
0.0
 10
93.41789819713163
 20
-148.8484510261559
 30
0.0
 10
93.39895017196277
 20
-148.7406195374676
 30
0.0
 10
93.39895017196277
 20
-148.7406195374676
 30
0.0
 10
93.62115883076139
 20
-148.7406195374676
 30
0.0
 10
93.62115883076139
 20
-148.7406195374676
 30
0.0
 10
93.67593584897685
 20
-148.9394015469665
 30
0.0
 10
93.80305987238258
 20
-148.9690293681397
 30
0.0
 10
93.89607745048431
 20
-148.9690293681397
 30
0.0
 10
94.03560381763694
 20
-148.9690293681397
 30
0.0
 10
94.18787703808498
 20
-148.869466108616
 30
0.0
 10
94.18787703808498
 20
-148.6369221633616
 30
0.0
 10
94.18787703808498
 20
-148.3809515688075
 30
0.0
 10
94.00804305375493
 20
-148.311016130457
 30
0.0
 10
93.88746471177119
 20
-148.311016130457
 30
0.0
 10
93.8557698333069
 20
-148.311016130457
 30
0.0
 10
93.71417640886312
 20
-148.311016130457
 30
0.0
 10
93.62529294534369
 20
-148.4402072111538
 30
0.0
 10
93.62529294534369
 20
-148.4402072111538
 30
0.0
 10
93.44959307559594
 20
-148.421259185985
 30
0.0
 10
93.44959307559594
 20
-148.421259185985
 30
0.0
 10
93.44959307559594
 20
-148.421259185985
 30
0.0
 10
93.57017141757969
 20
-147.5747992252591
 30
0.0
 10
93.57017141757969
 20
-147.5747992252591
 30
0.0
 10
93.57017141757969
 20
-147.5747992252591
 30
0.0
 10
94.34876299724614
 20
-147.5747992252591
 30
0.0
 10
94.34876299724614
 20
-147.5747992252591
 30
0.0
 10
94.34876299724614
 20
-147.5747992252591
 30
0.0
 10
94.34876299724614
 20
-147.7694471201757
 30
0.0
 10
94.34876299724614
 20
-147.7694471201757
 30
0.0
 10
94.34876299724614
 20
-147.7694471201757
 30
0.0
 10
93.733124434032
 20
-147.7694471201757
 30
0.0
 10
93.733124434032
 20
-147.7694471201757
 30
0.0
 10
93.733124434032
 20
-147.7694471201757
 30
0.0
 10
93.66766761981225
 20
-148.1925048457644
 30
0.0
 10
93.66766761981225
 20
-148.1925048457644
 30
0.0
 10
93.72899031944971
 20
-148.1587429100089
 30
0.0
 10
93.81132810154718
 20
-148.1184352928315
 30
0.0
 10
93.92983938623976
 20
-148.1184352928315
 30
0.0
 10
94.18374292350268
 20
-148.1184352928315
 30
0.0
 10
94.42076549288787
 20
-148.3048149585835
 30
0.0
 10
94.42076549288787
 20
-148.6179741381927
 30
0.0
 10
94.42076549288787
 20
-148.9352674323843
 30
0.0
 10
94.1964897767981
 20
-149.1698784349298
 30
0.0
 10
93.89401039319317
 20
-149.1698784349298
 30
0.0
  0
HATCH
  5
F7
330
E8
100
AcDbEntity
  8
_U+30EC_U+30A4_U+30E4_U+30FC 1
 62
     7
420
 16777215
100
AcDbHatch
 10
0.0
 20
0.0
 30
0.0
210
0.0
220
0.0
230
1.0
  2
SOLID
 70
     1
 71
     0
 91
        1
 92
        1
 93
        1
 72
     4
 94
        3
 73
     0
 74
     1
 95
       53
 96
       49
 40
0.0
 40
0.0
 40
0.0
 40
0.0
 40
1.0
 40
1.0
 40
1.0
 40
2.0
 40
2.0
 40
2.0
 40
3.0
 40
3.0
 40
3.0
 40
4.0
 40
4.0
 40
4.0
 40
5.0
 40
5.0
 40
5.0
 40
6.0
 40
6.0
 40
6.0
 40
7.0
 40
7.0
 40
7.0
 40
8.0
 40
8.0
 40
8.0
 40
9.0
 40
9.0
 40
9.0
 40
10.0
 40
10.0
 40
10.0
 40
11.0
 40
11.0
 40
11.0
 40
12.0
 40
12.0
 40
12.0
 40
13.0
 40
13.0
 40
13.0
 40
14.0
 40
14.0
 40
14.0
 40
15.0
 40
15.0
 40
15.0
 40
16.0
 40
16.0
 40
16.0
 40
16.0
 10
93.89401039319317
 20
-149.1698784349298
 10
93.815806725678
 20
-149.1698784349298
 10
93.71417640886312
 20
-149.152997467052
 10
93.61254609204826
 20
-149.0896077101234
 10
93.43925778914019
 20
-148.979709164144
 10
93.41789819713163
 20
-148.8484510261559
 10
93.39895017196277
 20
-148.7406195374676
 10
93.39895017196277
 20
-148.7406195374676
 10
93.62115883076139
 20
-148.7406195374676
 10
93.62115883076139
 20
-148.7406195374676
 10
93.67593584897685
 20
-148.9394015469665
 10
93.80305987238258
 20
-148.9690293681397
 10
93.89607745048431
 20
-148.9690293681397
 10
94.03560381763694
 20
-148.9690293681397
 10
94.18787703808498
 20
-148.869466108616
 10
94.18787703808498
 20
-148.6369221633616
 10
94.18787703808498
 20
-148.3809515688075
 10
94.00804305375493
 20
-148.311016130457
 10
93.88746471177119
 20
-148.311016130457
 10
93.8557698333069
 20
-148.311016130457
 10
93.71417640886312
 20
-148.311016130457
 10
93.62529294534369
 20
-148.4402072111538
 10
93.62529294534369
 20
-148.4402072111538
 10
93.44959307559594
 20
-148.421259185985
 10
93.44959307559594
 20
-148.421259185985
 10
93.44959307559594
 20
-148.421259185985
 10
93.57017141757969
 20
-147.5747992252591
 10
93.57017141757969
 20
-147.5747992252591
 10
93.57017141757969
 20
-147.5747992252591
 10
94.34876299724614
 20
-147.5747992252591
 10
94.34876299724614
 20
-147.5747992252591
 10
94.34876299724614
 20
-147.5747992252591
 10
94.34876299724614
 20
-147.7694471201757
 10
94.34876299724614
 20
-147.7694471201757
 10
94.34876299724614
 20
-147.7694471201757
 10
93.733124434032
 20
-147.7694471201757
 10
93.733124434032
 20
-147.7694471201757
 10
93.733124434032
 20
-147.7694471201757
 10
93.66766761981225
 20
-148.1925048457644
 10
93.66766761981225
 20
-148.1925048457644
 10
93.72899031944971
 20
-148.1587429100089
 10
93.81132810154718
 20
-148.1184352928315
 10
93.92983938623976
 20
-148.1184352928315
 10
94.18374292350268
 20
-148.1184352928315
 10
94.42076549288787
 20
-148.3048149585835
 10
94.42076549288787
 20
-148.6179741381927
 10
94.42076549288787
 20
-148.9352674323843
 10
94.1964897767981
 20
-149.1698784349298
 10
93.89401039319317
 20
-149.1698784349298
 97
        0
 97
        0
 75
     2
 76
     1
 98
        0
  0
ENDBLK
  5
EB
330
E8
100
AcDbEntity
  8
0
100
AcDbBlockEnd
  0
ENDSEC
  0
SECTION
  2
ENTITIES
  0
POLYLINE
  5
41
330
1F
100
AcDbEntity
  8
_U+30EC_U+30A4_U+30E4_U+30FC 1
 62
   253
420
 10855845
370
     9
100
AcDb2dPolyline
 66
     1
 10
0.0
 20
0.0
 30
0.0
  0
VERTEX
  5
42
330
41
100
AcDbEntity
  8
_U+30EC_U+30A4_U+30E4_U+30FC 1
 62
   253
420
 10855845
370
     9
100
AcDbVertex
100
AcDb2dVertex
 10
83.69014036488664
 20
-105.6295688624816
 30
0.0
  0
VERTEX
  5
43
330
41
100
AcDbEntity
  8
_U+30EC_U+30A4_U+30E4_U+30FC 1
 62
   253
420
 10855845
370
     9
100
AcDbVertex
100
AcDb2dVertex
 10
83.69014036488664
 20
-105.6607191402514
 30
0.0
  0
VERTEX
  5
44
330
41
100
AcDbEntity
  8
_U+30EC_U+30A4_U+30E4_U+30FC 1
 62
   253
420
 10855845
370
     9
100
AcDbVertex
100
AcDb2dVertex
 10
84.71954589417987
 20
-105.6607191402514
 30
0.0
  0
VERTEX
  5
45
330
41
100
AcDbEntity
  8
_U+30EC_U+30A4_U+30E4_U+30FC 1
 62
   253
420
 10855845
370
     9
100
AcDbVertex
100
AcDb2dVertex
 10
84.71954589417987
 20
-126.7669549683082
 30
0.0
  0
VERTEX
  5
46
330
41
100
AcDbEntity
  8
_U+30EC_U+30A4_U+30E4_U+30FC 1
 62
   253
420
 10855845
370
     9
100
AcDbVertex
100
AcDb2dVertex
 10
105.7368811913163
 20
-126.8255160794047
 30
0.0
  0
VERTEX
  5
47
330
41
100
AcDbEntity
  8
_U+30EC_U+30A4_U+30E4_U+30FC 1
 62
   253
420
 10855845
370
     9
100
AcDbVertex
100
AcDb2dVertex
 10
105.7368811913163
 20
-127.825288301377
 30
0.0
  0
VERTEX
  5
48
330
41
100
AcDbEntity
  8
_U+30EC_U+30A4_U+30E4_U+30FC 1
 62
   253
420
 10855845
370
     9
100
AcDbVertex
100
AcDb2dVertex
 10
101.797729347368
 20
-127.825288301377
 30
0.0
  0
VERTEX
  5
49
330
41
100
AcDbEntity
  8
_U+30EC_U+30A4_U+30E4_U+30FC 1
 62
   253
420
 10855845
370
     9
100
AcDbVertex
100
AcDb2dVertex
 10
101.797729347368
 20
-127.8194321902673
 30
0.0
  0
VERTEX
  5
4A
330
41
100
AcDbEntity
  8
_U+30EC_U+30A4_U+30E4_U+30FC 1
 62
   253
420
 10855845
370
     9
100
AcDbVertex
100
AcDb2dVertex
 10
96.82924252968022
 20
-127.8194321902673
 30
0.0
  0
VERTEX
  5
4B
330
41
100
AcDbEntity
  8
_U+30EC_U+30A4_U+30E4_U+30FC 1
 62
   253
420
 10855845
370
     9
100
AcDbVertex
100
AcDb2dVertex
 10
96.82924252968022
 20
-127.7956549680511
 30
0.0
  0
VERTEX
  5
4C
330
41
100
AcDbEntity
  8
_U+30EC_U+30A4_U+30E4_U+30FC 1
 62
   253
420
 10855845
370
     9
100
AcDbVertex
100
AcDb2dVertex
 10
84.33713479282488
 20
-127.7956549680511
 30
0.0
  0
VERTEX
  5
4D
330
41
100
AcDbEntity
  8
_U+30EC_U+30A4_U+30E4_U+30FC 1
 62
   253
420
 10855845
370
     9
100
AcDbVertex
100
AcDb2dVertex
 10
78.1035888693629
 20
-133.7062349665734
 30
0.0
  0
VERTEX
  5
4E
330
41
100
AcDbEntity
  8
_U+30EC_U+30A4_U+30E4_U+30FC 1
 62
   253
420
 10855845
370
     9
100
AcDbVertex
100
AcDb2dVertex
 10
82.63078609045351
 20
-138.3509071876348
 30
0.0
  0
VERTEX
  5
4F
330
41
100
AcDbEntity
  8
_U+30EC_U+30A4_U+30E4_U+30FC 1
 62
   253
420
 10855845
370
     9
100
AcDbVertex
100
AcDb2dVertex
 10
91.62644071797031
 20
-138.4101738542865
 30
0.0
  0
VERTEX
  5
50
330
41
100
AcDbEntity
  8
_U+30EC_U+30A4_U+30E4_U+30FC 1
 62
   253
420
 10855845
370
     9
100
AcDbVertex
100
AcDb2dVertex
 10
92.12667959409704
 20
-137.8217405211005
 30
0.0
  0
VERTEX
  5
51
330
41
100
AcDbEntity
  8
_U+30EC_U+30A4_U+30E4_U+30FC 1
 62
   253
420
 10855845
370
     9
100
AcDbVertex
100
AcDb2dVertex
 10
93.6549128884419
 20
-137.9099349655228
 30
0.0
  0
VERTEX
  5
52
330
41
100
AcDbEntity
  8
_U+30EC_U+30A4_U+30E4_U+30FC 1
 62
   253
420
 10855845
370
     9
100
AcDbVertex
100
AcDb2dVertex
 10
92.15560737113681
 20
-139.3803127429329
 30
0.0
  0
VERTEX
  5
53
330
41
100
AcDbEntity
  8
_U+30EC_U+30A4_U+30E4_U+30FC 1
 62
   253
420
 10855845
370
     9
100
AcDbVertex
100
AcDb2dVertex
 10
82.10161942391913
 20
-139.3803127429329
 30
0.0
  0
VERTEX
  5
54
330
41
100
AcDbEntity
  8
_U+30EC_U+30A4_U+30E4_U+30FC 1
 62
   253
420
 10855845
370
     9
100
AcDbVertex
100
AcDb2dVertex
 10
71.45937220435735
 20
-128.7673460789192
 30
0.0
  0
VERTEX
  5
55
330
41
100
AcDbEntity
  8
_U+30EC_U+30A4_U+30E4_U+30FC 1
 62
   253
420
 10855845
370
     9
100
AcDbVertex
100
AcDb2dVertex
 10
71.48900553768321
 20
-118.7719169147515
 30
0.0
  0
VERTEX
  5
56
330
41
100
AcDbEntity
  8
_U+30EC_U+30A4_U+30E4_U+30FC 1
 62
   253
420
 10855845
370
     9
100
AcDbVertex
100
AcDb2dVertex
 10
73.04687220396048
 20
-117.2433308040227
 30
0.0
  0
VERTEX
  5
57
330
41
100
AcDbEntity
  8
_U+30EC_U+30A4_U+30E4_U+30FC 1
 62
   253
420
 10855845
370
     9
100
AcDbVertex
100
AcDb2dVertex
 10
73.04687220396048
 20
-118.654441914781
 30
0.0
  0
VERTEX
  5
58
330
41
100
AcDbEntity
  8
_U+30EC_U+30A4_U+30E4_U+30FC 1
 62
   253
420
 10855845
370
     9
100
AcDbVertex
100
AcDb2dVertex
 10
72.4295110930037
 20
-119.3599974701602
 30
0.0
  0
VERTEX
  5
59
330
41
100
AcDbEntity
  8
_U+30EC_U+30A4_U+30E4_U+30FC 1
 62
   253
420
 10855845
370
     9
100
AcDbVertex
100
AcDb2dVertex
 10
72.5177055374261
 20
-128.2676363568222
 30
0.0
  0
VERTEX
  5
5A
330
41
100
AcDbEntity
  8
_U+30EC_U+30A4_U+30E4_U+30FC 1
 62
   253
420
 10855845
370
     9
100
AcDbVertex
100
AcDb2dVertex
 10
77.30983886956133
 20
-133.0006794111942
 30
0.0
  0
VERTEX
  5
5B
330
41
100
AcDbEntity
  8
_U+30EC_U+30A4_U+30E4_U+30FC 1
 62
   253
420
 10855845
370
     9
100
AcDbVertex
100
AcDb2dVertex
 10
83.63157925526954
 20
-126.7962355238566
 30
0.0
  0
VERTEX
  5
5C
330
41
100
AcDbEntity
  8
_U+30EC_U+30A4_U+30E4_U+30FC 1
 62
   253
420
 10855845
370
     9
100
AcDbVertex
100
AcDb2dVertex
 10
83.71977369746396
 20
-110.6273716390098
 30
0.0
  0
VERTEX
  5
5D
330
41
100
AcDbEntity
  8
_U+30EC_U+30A4_U+30E4_U+30FC 1
 62
   253
420
 10855845
370
     9
100
AcDbVertex
100
AcDb2dVertex
 10
83.72598258619445
 20
-110.6566521945582
 30
0.0
  0
VERTEX
  5
5E
330
41
100
AcDbEntity
  8
_U+30EC_U+30A4_U+30E4_U+30FC 1
 62
   253
420
 10855845
370
     9
100
AcDbVertex
100
AcDb2dVertex
 10
83.72598258619445
 20
-105.6881299735778
 30
0.0
  0
VERTEX
  5
5F
330
41
100
AcDbEntity
  8
_U+30EC_U+30A4_U+30E4_U+30FC 1
 62
   253
420
 10855845
370
     9
100
AcDbVertex
100
AcDb2dVertex
 10
83.69014036488664
 20
-105.6295688624816
 30
0.0
  0
SEQEND
  5
61
330
41
100
AcDbEntity
  8
_U+30EC_U+30A4_U+30E4_U+30FC 1
 62
   253
420
 10855845
370
     9
  0
HATCH
  5
60
330
1F
100
AcDbEntity
  8
_U+30EC_U+30A4_U+30E4_U+30FC 1
 62
   253
420
 10855845
100
AcDbHatch
 10
0.0
 20
0.0
 30
0.0
210
0.0
220
0.0
230
1.0
  2
SOLID
 70
     1
 71
     0
 91
        1
 92
        1
 93
       29
 72
     1
 10
83.69014036488664
 20
-105.6295688624816
 11
83.69014036488664
 21
-105.6607191402514
 72
     1
 10
83.69014036488664
 20
-105.6607191402514
 11
84.71954589417987
 21
-105.6607191402514
 72
     1
 10
84.71954589417987
 20
-105.6607191402514
 11
84.71954589417987
 21
-126.7669549683082
 72
     1
 10
84.71954589417987
 20
-126.7669549683082
 11
105.7368811913163
 21
-126.8255160794047
 72
     1
 10
105.7368811913163
 20
-126.8255160794047
 11
105.7368811913163
 21
-127.825288301377
 72
     1
 10
105.7368811913163
 20
-127.825288301377
 11
101.797729347368
 21
-127.825288301377
 72
     1
 10
101.797729347368
 20
-127.825288301377
 11
101.797729347368
 21
-127.8194321902673
 72
     1
 10
101.797729347368
 20
-127.8194321902673
 11
96.82924252968022
 21
-127.8194321902673
 72
     1
 10
96.82924252968022
 20
-127.8194321902673
 11
96.82924252968022
 21
-127.7956549680511
 72
     1
 10
96.82924252968022
 20
-127.7956549680511
 11
84.33713479282488
 21
-127.7956549680511
 72
     1
 10
84.33713479282488
 20
-127.7956549680511
 11
78.1035888693629
 21
-133.7062349665734
 72
     1
 10
78.1035888693629
 20
-133.7062349665734
 11
82.63078609045351
 21
-138.3509071876348
 72
     1
 10
82.63078609045351
 20
-138.3509071876348
 11
91.62644071797031
 21
-138.4101738542865
 72
     1
 10
91.62644071797031
 20
-138.4101738542865
 11
92.12667959409704
 21
-137.8217405211005
 72
     1
 10
92.12667959409704
 20
-137.8217405211005
 11
93.6549128884419
 21
-137.9099349655228
 72
     1
 10
93.6549128884419
 20
-137.9099349655228
 11
92.15560737113681
 21
-139.3803127429329
 72
     1
 10
92.15560737113681
 20
-139.3803127429329
 11
82.10161942391913
 21
-139.3803127429329
 72
     1
 10
82.10161942391913
 20
-139.3803127429329
 11
71.45937220435735
 21
-128.7673460789192
 72
     1
 10
71.45937220435735
 20
-128.7673460789192
 11
71.48900553768321
 21
-118.7719169147515
 72
     1
 10
71.48900553768321
 20
-118.7719169147515
 11
73.04687220396048
 21
-117.2433308040227
 72
     1
 10
73.04687220396048
 20
-117.2433308040227
 11
73.04687220396048
 21
-118.654441914781
 72
     1
 10
73.04687220396048
 20
-118.654441914781
 11
72.4295110930037
 21
-119.3599974701602
 72
     1
 10
72.4295110930037
 20
-119.3599974701602
 11
72.5177055374261
 21
-128.2676363568222
 72
     1
 10
72.5177055374261
 20
-128.2676363568222
 11
77.30983886956133
 21
-133.0006794111942
 72
     1
 10
77.30983886956133
 20
-133.0006794111942
 11
83.63157925526954
 21
-126.7962355238566
 72
     1
 10
83.63157925526954
 20
-126.7962355238566
 11
83.71977369746396
 21
-110.6273716390098
 72
     1
 10
83.71977369746396
 20
-110.6273716390098
 11
83.72598258619445
 21
-110.6566521945582
 72
     1
 10
83.72598258619445
 20
-110.6566521945582
 11
83.72598258619445
 21
-105.6881299735778
 72
     1
 10
83.72598258619445
 20
-105.6881299735778
 11
83.69014036488664
 21
-105.6295688624816
 97
        0
 75
     2
 76
     1
 98
        0
  0
SPLINE
  5
62
330
1F
100
AcDbEntity
  8
_U+30EC_U+30A4_U+30E4_U+30FC 1
 62
     7
420
 16777215
370
     9
100
AcDbSpline
210
0.0
220
0.0
230
1.0
 70
    11
 71
     3
 72
    17
 73
    13
 74
     0
 42
0.0000000001
 43
0.0000000001
 12
1.0
 22
0.0
 32
0.0
 13
1.0
 23
0.0
 33
0.0
 40
0.0
 40
0.0
 40
0.0
 40
0.0
 40
1.0
 40
1.0
 40
1.0
 40
2.0
 40
2.0
 40
2.0
 40
3.0
 40
3.0
 40
3.0
 40
4.0
 40
4.0
 40
4.0
 40
4.0
 10
111.8784246457436
 20
-127.6915855236326
 30
0.0
 10
111.8784246457436
 20
-127.6364816347577
 30
0.0
 10
111.8336571468857
 20
-127.591678856991
 30
0.0
 10
111.7785179816258
 20
-127.591678856991
 30
0.0
 10
111.7234140941427
 20
-127.591678856991
 30
0.0
 10
111.6786113175079
 20
-127.6364816347577
 30
0.0
 10
111.6786113175079
 20
-127.6915855236326
 30
0.0
 10
111.6786113175079
 20
-127.7467246902857
 30
0.0
 10
111.7234140941427
 20
-127.7915274680521
 30
0.0
 10
111.7785179816258
 20
-127.7915274680521
 30
0.0
 10
111.8336571468857
 20
-127.7915274680521
 30
0.0
 10
111.8784246457436
 20
-127.7467246902857
 30
0.0
 10
111.8784246457436
 20
-127.6915855236326
 30
0.0
  0
SPLINE
  5
63
330
1F
100
AcDbEntity
  8
_U+30EC_U+30A4_U+30E4_U+30FC 1
 62
     7
420
 16777215
370
     9
100
AcDbSpline
210
0.0
220
0.0
230
1.0
 70
    11
 71
     3
 72
    17
 73
    13
 74
     0
 42
0.0000000001
 43
0.0000000001
 12
1.0
 22
0.0
 32
0.0
 13
1.0
 23
0.0
 33
0.0
 40
0.0
 40
0.0
 40
0.0
 40
0.0
 40
1.0
 40
1.0
 40
1.0
 40
2.0
 40
2.0
 40
2.0
 40
3.0
 40
3.0
 40
3.0
 40
4.0
 40
4.0
 40
4.0
 40
4.0
 10
111.8784246457436
 20
-137.6914949655771
 30
0.0
 10
111.8784246457436
 20
-137.6363910767022
 30
0.0
 10
111.8336571468857
 20
-137.5915882989354
 30
0.0
 10
111.7785179816258
 20
-137.5915882989354
 30
0.0
 10
111.7234140941427
 20
-137.5915882989354
 30
0.0
 10
111.6786113175079
 20
-137.6363910767022
 30
0.0
 10
111.6786113175079
 20
-137.6914949655771
 30
0.0
 10
111.6786113175079
 20
-137.7466341322302
 30
0.0
 10
111.7234140941427
 20
-137.7914016322187
 30
0.0
 10
111.7785179816258
 20
-137.7914016322187
 30
0.0
 10
111.8336571468857
 20
-137.7914016322187
 30
0.0
 10
111.8784246457436
 20
-137.7466341322302
 30
0.0
 10
111.8784246457436
 20
-137.6914949655771
 30
0.0
  0
SPLINE
  5
64
330
1F
100
AcDbEntity
  8
_U+30EC_U+30A4_U+30E4_U+30FC 1
 62
     7
420
 16777215
370
     9
100
AcDbSpline
210
0.0
220
0.0
230
1.0
 70
    11
 71
     3
 72
    17
 73
    13
 74
     0
 42
0.0000000001
 43
0.0000000001
 12
1.0
 22
0.0
 32
0.0
 13
1.0
 23
0.0
 33
0.0
 40
0.0
 40
0.0
 40
0.0
 40
0.0
 40
1.0
 40
1.0
 40
1.0
 40
2.0
 40
2.0
 40
2.0
 40
3.0
 40
3.0
 40
3.0
 40
4.0
 40
4.0
 40
4.0
 40
4.0
 10
111.8784246457436
 20
-139.291412742955
 30
0.0
 10
111.8784246457436
 20
-139.2362735763019
 30
0.0
 10
111.8336571468857
 20
-139.1915060763133
 30
0.0
 10
111.7785179816258
 20
-139.1915060763133
 30
0.0
 10
111.7234140941427
 20
-139.1915060763133
 30
0.0
 10
111.6786113175079
 20
-139.2362735763019
 30
0.0
 10
111.6786113175079
 20
-139.291412742955
 30
0.0
 10
111.6786113175079
 20
-139.3472221873854
 30
0.0
 10
111.7234140941427
 20
-139.3920249651521
 30
0.0
 10
111.7785179816258
 20
-139.3920249651521
 30
0.0
 10
111.8336571468857
 20
-139.3920249651521
 30
0.0
 10
111.8784246457436
 20
-139.3472221873854
 30
0.0
 10
111.8784246457436
 20
-139.291412742955
 30
0.0
  0
POLYLINE
  5
65
330
1F
100
AcDbEntity
  8
_U+30EC_U+30A4_U+30E4_U+30FC 1
 62
     7
420
 16777215
370
     9
100
AcDb2dPolyline
 66
     1
 10
0.0
 20
0.0
 30
0.0
  0
VERTEX
  5
66
330
65
100
AcDbEntity
  8
_U+30EC_U+30A4_U+30E4_U+30FC 1
 62
     7
420
 16777215
370
     9
100
AcDbVertex
100
AcDb2dVertex
 10
111.7785179816258
 20
-139.291412742955
 30
0.0
  0
VERTEX
  5
67
330
65
100
AcDbEntity
  8
_U+30EC_U+30A4_U+30E4_U+30FC 1
 62
     7
420
 16777215
370
     9
100
AcDbVertex
100
AcDb2dVertex
 10
111.7785179816258
 20
-137.7914016322187
 30
0.0
  0
SEQEND
  5
68
330
65
100
AcDbEntity
  8
_U+30EC_U+30A4_U+30E4_U+30FC 1
 62
     7
420
 16777215
370
     9
  0
POLYLINE
  5
69
330
1F
100
AcDbEntity
  8
_U+30EC_U+30A4_U+30E4_U+30FC 1
 62
     7
420
 16777215
370
     9
100
AcDb2dPolyline
 66
     1
 10
0.0
 20
0.0
 30
0.0
  0
VERTEX
  5
6A
330
69
100
AcDbEntity
  8
_U+30EC_U+30A4_U+30E4_U+30FC 1
 62
     7
420
 16777215
370
     9
100
AcDbVertex
100
AcDb2dVertex
 10
100.3187791073214
 20
-139.291412742955
 30
0.0
  0
VERTEX
  5
6B
330
69
100
AcDbEntity
  8
_U+30EC_U+30A4_U+30E4_U+30FC 1
 62
     7
420
 16777215
370
     9
100
AcDbVertex
100
AcDb2dVertex
 10
112.7789957338792
 20
-139.291412742955
 30
0.0
  0
SEQEND
  5
6C
330
69
100
AcDbEntity
  8
_U+30EC_U+30A4_U+30E4_U+30FC 1
 62
     7
420
 16777215
370
     9
  0
POLYLINE
  5
6D
330
1F
100
AcDbEntity
  8
_U+30EC_U+30A4_U+30E4_U+30FC 1
 62
     7
420
 16777215
370
     9
100
AcDb2dPolyline
 66
     1
 10
0.0
 20
0.0
 30
0.0
  0
VERTEX
  5
6E
330
6D
100
AcDbEntity
  8
_U+30EC_U+30A4_U+30E4_U+30FC 1
 62
     7
420
 16777215
370
     9
100
AcDbVertex
100
AcDb2dVertex
 10
100.3187791073214
 20
-137.6914949655771
 30
0.0
  0
VERTEX
  5
6F
330
6D
100
AcDbEntity
  8
_U+30EC_U+30A4_U+30E4_U+30FC 1
 62
     7
420
 16777215
370
     9
100
AcDbVertex
100
AcDb2dVertex
 10
112.7789957338792
 20
-137.6914949655771
 30
0.0
  0
SEQEND
  5
70
330
6D
100
AcDbEntity
  8
_U+30EC_U+30A4_U+30E4_U+30FC 1
 62
     7
420
 16777215
370
     9
  0
INSERT
  5
72
330
1F
100
AcDbEntity
  8
_U+30EC_U+30A4_U+30E4_U+30FC 1
100
AcDbBlockReference
  2
block 2
 10
0.0
 20
0.0
 30
0.0
  0
SPLINE
  5
81
330
1F
100
AcDbEntity
  8
_U+30EC_U+30A4_U+30E4_U+30FC 1
 62
     7
420
 16777215
370
     9
100
AcDbSpline
210
0.0
220
0.0
230
1.0
 70
    11
 71
     3
 72
    17
 73
    13
 74
     0
 42
0.0000000001
 43
0.0000000001
 12
1.0
 22
0.0
 32
0.0
 13
1.0
 23
0.0
 33
0.0
 40
0.0
 40
0.0
 40
0.0
 40
0.0
 40
1.0
 40
1.0
 40
1.0
 40
2.0
 40
2.0
 40
2.0
 40
3.0
 40
3.0
 40
3.0
 40
4.0
 40
4.0
 40
4.0
 40
4.0
 10
111.8784246457436
 20
-126.6918485794383
 30
0.0
 10
111.8784246457436
 20
-126.6367094127852
 30
0.0
 10
111.8336571468857
 20
-126.5919419127966
 30
0.0
 10
111.7785179816258
 20
-126.5919419127966
 30
0.0
 10
111.7234140941427
 20
-126.5919419127966
 30
0.0
 10
111.6786113175079
 20
-126.6367094127852
 30
0.0
 10
111.6786113175079
 20
-126.6918485794383
 30
0.0
 10
111.6786113175079
 20
-126.7469524683132
 30
0.0
 10
111.7234140941427
 20
-126.7917552460799
 30
0.0
 10
111.7785179816258
 20
-126.7917552460799
 30
0.0
 10
111.8336571468857
 20
-126.7917552460799
 30
0.0
 10
111.8784246457436
 20
-126.7469524683132
 30
0.0
 10
111.8784246457436
 20
-126.6918485794383
 30
0.0
  0
POLYLINE
  5
82
330
1F
100
AcDbEntity
  8
_U+30EC_U+30A4_U+30E4_U+30FC 1
 62
     7
420
 16777215
370
     9
100
AcDb2dPolyline
 66
     1
 10
0.0
 20
0.0
 30
0.0
  0
VERTEX
  5
83
330
82
100
AcDbEntity
  8
_U+30EC_U+30A4_U+30E4_U+30FC 1
 62
     7
420
 16777215
370
     9
100
AcDbVertex
100
AcDb2dVertex
 10
111.7785179816258
 20
-127.6915855236326
 30
0.0
  0
VERTEX
  5
84
330
82
100
AcDbEntity
  8
_U+30EC_U+30A4_U+30E4_U+30FC 1
 62
     7
420
 16777215
370
     9
100
AcDbVertex
100
AcDb2dVertex
 10
111.7785179816258
 20
-126.6918485794383
 30
0.0
  0
SEQEND
  5
85
330
82
100
AcDbEntity
  8
_U+30EC_U+30A4_U+30E4_U+30FC 1
 62
     7
420
 16777215
370
     9
  0
POLYLINE
  5
86
330
1F
100
AcDbEntity
  8
_U+30EC_U+30A4_U+30E4_U+30FC 1
 62
     7
420
 16777215
370
     9
100
AcDb2dPolyline
 66
     1
 10
0.0
 20
0.0
 30
0.0
  0
VERTEX
  5
87
330
86
100
AcDbEntity
  8
_U+30EC_U+30A4_U+30E4_U+30FC 1
 62
     7
420
 16777215
370
     9
100
AcDbVertex
100
AcDb2dVertex
 10
111.7785179816258
 20
-126.6918485794383
 30
0.0
  0
VERTEX
  5
88
330
86
100
AcDbEntity
  8
_U+30EC_U+30A4_U+30E4_U+30FC 1
 62
     7
420
 16777215
370
     9
100
AcDbVertex
100
AcDb2dVertex
 10
111.7785179816258
 20
-105.6910580291328
 30
0.0
  0
SEQEND
  5
89
330
86
100
AcDbEntity
  8
_U+30EC_U+30A4_U+30E4_U+30FC 1
 62
     7
420
 16777215
370
     9
  0
POLYLINE
  5
8A
330
1F
100
AcDbEntity
  8
_U+30EC_U+30A4_U+30E4_U+30FC 1
 62
     7
420
 16777215
370
     9
100
AcDb2dPolyline
 66
     1
 10
0.0
 20
0.0
 30
0.0
  0
VERTEX
  5
8B
330
8A
100
AcDbEntity
  8
_U+30EC_U+30A4_U+30E4_U+30FC 1
 62
     7
420
 16777215
370
     9
100
AcDbVertex
100
AcDb2dVertex
 10
111.8846335344741
 20
-127.6915855236326
 30
0.0
  0
VERTEX
  5
8C
330
8A
100
AcDbEntity
  8
_U+30EC_U+30A4_U+30E4_U+30FC 1
 62
     7
420
 16777215
370
     9
100
AcDbVertex
100
AcDb2dVertex
 10
112.7789957338792
 20
-127.6915855236326
 30
0.0
  0
SEQEND
  5
8D
330
8A
100
AcDbEntity
  8
_U+30EC_U+30A4_U+30E4_U+30FC 1
 62
     7
420
 16777215
370
     9
  0
POLYLINE
  5
8E
330
1F
100
AcDbEntity
  8
_U+30EC_U+30A4_U+30E4_U+30FC 1
 62
     7
420
 16777215
370
     9
100
AcDb2dPolyline
 66
     1
 10
0.0
 20
0.0
 30
0.0
  0
VERTEX
  5
8F
330
8E
100
AcDbEntity
  8
_U+30EC_U+30A4_U+30E4_U+30FC 1
 62
     7
420
 16777215
370
     9
100
AcDbVertex
100
AcDb2dVertex
 10
110.3185119077625
 20
-126.6918485794383
 30
0.0
  0
VERTEX
  5
90
330
8E
100
AcDbEntity
  8
_U+30EC_U+30A4_U+30E4_U+30FC 1
 62
     7
420
 16777215
370
     9
100
AcDbVertex
100
AcDb2dVertex
 10
112.7789957338792
 20
-126.6918485794383
 30
0.0
  0
SEQEND
  5
91
330
8E
100
AcDbEntity
  8
_U+30EC_U+30A4_U+30E4_U+30FC 1
 62
     7
420
 16777215
370
     9
  0
SPLINE
  5
92
330
1F
100
AcDbEntity
  8
_U+30EC_U+30A4_U+30E4_U+30FC 1
 62
     7
420
 16777215
370
     9
100
AcDbSpline
210
0.0
220
0.0
230
1.0
 70
    11
 71
     3
 72
    17
 73
    13
 74
     0
 42
0.0000000001
 43
0.0000000001
 12
1.0
 22
0.0
 32
0.0
 13
1.0
 23
0.0
 33
0.0
 40
0.0
 40
0.0
 40
0.0
 40
0.0
 40
1.0
 40
1.0
 40
1.0
 40
2.0
 40
2.0
 40
2.0
 40
3.0
 40
3.0
 40
3.0
 40
4.0
 40
4.0
 40
4.0
 40
4.0
 10
111.8784246457436
 20
-105.6910580291328
 30
0.0
 10
111.8784246457436
 20
-105.6359188624801
 30
0.0
 10
111.8336571468857
 20
-105.5911513624912
 30
0.0
 10
111.7785179816258
 20
-105.5911513624912
 30
0.0
 10
111.7234140941427
 20
-105.5911513624912
 30
0.0
 10
111.6786113175079
 20
-105.6359188624801
 30
0.0
 10
111.6786113175079
 20
-105.6910580291328
 30
0.0
 10
111.6786113175079
 20
-105.7461619180081
 30
0.0
 10
111.7234140941427
 20
-105.7909646957744
 30
0.0
 10
111.7785179816258
 20
-105.7909646957744
 30
0.0
 10
111.8336571468857
 20
-105.7909646957744
 30
0.0
 10
111.8784246457436
 20
-105.7461619180081
 30
0.0
 10
111.8784246457436
 20
-105.6910580291328
 30
0.0
  0
POLYLINE
  5
93
330
1F
100
AcDbEntity
  8
_U+30EC_U+30A4_U+30E4_U+30FC 1
 62
     7
420
 16777215
370
     9
100
AcDb2dPolyline
 66
     1
 10
0.0
 20
0.0
 30
0.0
  0
VERTEX
  5
94
330
93
100
AcDbEntity
  8
_U+30EC_U+30A4_U+30E4_U+30FC 1
 62
     7
420
 16777215
370
     9
100
AcDbVertex
100
AcDb2dVertex
 10
100.3187791073214
 20
-105.6910580291328
 30
0.0
  0
VERTEX
  5
95
330
93
100
AcDbEntity
  8
_U+30EC_U+30A4_U+30E4_U+30FC 1
 62
     7
420
 16777215
370
     9
100
AcDbVertex
100
AcDb2dVertex
 10
112.7789957338792
 20
-105.6910580291328
 30
0.0
  0
SEQEND
  5
96
330
93
100
AcDbEntity
  8
_U+30EC_U+30A4_U+30E4_U+30FC 1
 62
     7
420
 16777215
370
     9
  0
INSERT
  5
98
330
1F
100
AcDbEntity
  8
_U+30EC_U+30A4_U+30E4_U+30FC 1
100
AcDbBlockReference
  2
block 3
 10
0.0
 20
0.0
 30
0.0
  0
INSERT
  5
9E
330
1F
100
AcDbEntity
  8
_U+30EC_U+30A4_U+30E4_U+30FC 1
100
AcDbBlockReference
  2
block 4
 10
0.0
 20
0.0
 30
0.0
  0
POLYLINE
  5
A5
330
1F
100
AcDbEntity
  8
_U+30EC_U+30A4_U+30E4_U+30FC 1
 62
     7
420
 16777215
370
     9
100
AcDb2dPolyline
 66
     1
 10
0.0
 20
0.0
 30
0.0
  0
VERTEX
  5
A6
330
A5
100
AcDbEntity
  8
_U+30EC_U+30A4_U+30E4_U+30FC 1
 62
     7
420
 16777215
370
     9
100
AcDbVertex
100
AcDb2dVertex
 10
111.7785179816258
 20
-137.6914949655771
 30
0.0
  0
VERTEX
  5
A7
330
A5
100
AcDbEntity
  8
_U+30EC_U+30A4_U+30E4_U+30FC 1
 62
     7
420
 16777215
370
     9
100
AcDbVertex
100
AcDb2dVertex
 10
111.7785179816258
 20
-127.6915855236326
 30
0.0
  0
SEQEND
  5
A8
330
A5
100
AcDbEntity
  8
_U+30EC_U+30A4_U+30E4_U+30FC 1
 62
     7
420
 16777215
370
     9
  0
POLYLINE
  5
A9
330
1F
100
AcDbEntity
  8
_U+30EC_U+30A4_U+30E4_U+30FC 1
 62
     7
420
 16777215
370
     9
100
AcDb2dPolyline
 66
     1
 10
0.0
 20
0.0
 30
0.0
  0
VERTEX
  5
AA
330
A9
100
AcDbEntity
  8
_U+30EC_U+30A4_U+30E4_U+30FC 1
 62
     7
420
 16777215
370
     9
100
AcDbVertex
100
AcDb2dVertex
 10
110.3185119077625
 20
-127.6915855236326
 30
0.0
  0
VERTEX
  5
AB
330
A9
100
AcDbEntity
  8
_U+30EC_U+30A4_U+30E4_U+30FC 1
 62
     7
420
 16777215
370
     9
100
AcDbVertex
100
AcDb2dVertex
 10
112.7789957338792
 20
-127.6915855236326
 30
0.0
  0
SEQEND
  5
AC
330
A9
100
AcDbEntity
  8
_U+30EC_U+30A4_U+30E4_U+30FC 1
 62
     7
420
 16777215
370
     9
  0
INSERT
  5
AE
330
1F
100
AcDbEntity
  8
_U+30EC_U+30A4_U+30E4_U+30FC 1
100
AcDbBlockReference
  2
block 5
 10
0.0
 20
0.0
 30
0.0
  0
INSERT
  5
B7
330
1F
100
AcDbEntity
  8
_U+30EC_U+30A4_U+30E4_U+30FC 1
100
AcDbBlockReference
  2
block 6
 10
0.0
 20
0.0
 30
0.0
  0
SPLINE
  5
BE
330
1F
100
AcDbEntity
  8
_U+30EC_U+30A4_U+30E4_U+30FC 1
 62
     7
420
 16777215
370
     9
100
AcDbSpline
210
0.0
220
0.0
230
1.0
 70
    11
 71
     3
 72
    17
 73
    13
 74
     0
 42
0.0000000001
 43
0.0000000001
 12
1.0
 22
0.0
 32
0.0
 13
1.0
 23
0.0
 33
0.0
 40
0.0
 40
0.0
 40
0.0
 40
0.0
 40
1.0
 40
1.0
 40
1.0
 40
2.0
 40
2.0
 40
2.0
 40
3.0
 40
3.0
 40
3.0
 40
4.0
 40
4.0
 40
4.0
 40
4.0
 10
82.30076040033268
 20
-145.530464130284
 30
0.0
 10
82.30076040033268
 20
-145.475360241409
 30
0.0
 10
82.25595762369791
 20
-145.4305574636423
 30
0.0
 10
82.20085373621484
 20
-145.4305574636423
 30
0.0
 10
82.14571664613034
 20
-145.4305574636423
 30
0.0
 10
82.100947072097
 20
-145.475360241409
 30
0.0
 10
82.100947072097
 20
-145.530464130284
 30
0.0
 10
82.100947072097
 20
-145.5856032969371
 30
0.0
 10
82.14571664613034
 20
-145.6303707969256
 30
0.0
 10
82.20085373621484
 20
-145.6303707969256
 30
0.0
 10
82.25595762369791
 20
-145.6303707969256
 30
0.0
 10
82.30076040033268
 20
-145.5856032969371
 30
0.0
 10
82.30076040033268
 20
-145.530464130284
 30
0.0
  0
SPLINE
  5
BF
330
1F
100
AcDbEntity
  8
_U+30EC_U+30A4_U+30E4_U+30FC 1
 62
     7
420
 16777215
370
     9
100
AcDbSpline
210
0.0
220
0.0
230
1.0
 70
    11
 71
     3
 72
    17
 73
    13
 74
     0
 42
0.0000000001
 43
0.0000000001
 12
1.0
 22
0.0
 32
0.0
 13
1.0
 23
0.0
 33
0.0
 40
0.0
 40
0.0
 40
0.0
 40
0.0
 40
1.0
 40
1.0
 40
1.0
 40
2.0
 40
2.0
 40
2.0
 40
3.0
 40
3.0
 40
3.0
 40
4.0
 40
4.0
 40
4.0
 40
4.0
 10
93.90055204884179
 20
-145.530464130284
 30
0.0
 10
93.90055204884179
 20
-145.475360241409
 30
0.0
 10
93.8557845499839
 20
-145.4305574636423
 30
0.0
 10
93.80064538472395
 20
-145.4305574636423
 30
0.0
 10
93.74554149724088
 20
-145.4305574636423
 30
0.0
 10
93.70073872060611
 20
-145.475360241409
 30
0.0
 10
93.70073872060611
 20
-145.530464130284
 30
0.0
 10
93.70073872060611
 20
-145.5856032969371
 30
0.0
 10
93.74554149724088
 20
-145.6303707969256
 30
0.0
 10
93.80064538472395
 20
-145.6303707969256
 30
0.0
 10
93.8557845499839
 20
-145.6303707969256
 30
0.0
 10
93.90055204884179
 20
-145.5856032969371
 30
0.0
 10
93.90055204884179
 20
-145.530464130284
 30
0.0
  0
SPLINE
  5
C0
330
1F
100
AcDbEntity
  8
_U+30EC_U+30A4_U+30E4_U+30FC 1
 62
     7
420
 16777215
370
     9
100
AcDbSpline
210
0.0
220
0.0
230
1.0
 70
    11
 71
     3
 72
    17
 73
    13
 74
     0
 42
0.0000000001
 43
0.0000000001
 12
1.0
 22
0.0
 32
0.0
 13
1.0
 23
0.0
 33
0.0
 40
0.0
 40
0.0
 40
0.0
 40
0.0
 40
1.0
 40
1.0
 40
1.0
 40
2.0
 40
2.0
 40
2.0
 40
3.0
 40
3.0
 40
3.0
 40
4.0
 40
4.0
 40
4.0
 40
4.0
 10
92.40159930930548
 20
-145.530464130284
 30
0.0
 10
92.40159930930548
 20
-145.475360241409
 30
0.0
 10
92.35679653267071
 20
-145.4305574636423
 30
0.0
 10
92.30098708965008
 20
-145.4305574636423
 30
0.0
 10
92.24588320216701
 20
-145.4305574636423
 30
0.0
 10
92.20108042553225
 20
-145.475360241409
 30
0.0
 10
92.20108042553225
 20
-145.530464130284
 30
0.0
 10
92.20108042553225
 20
-145.5856032969371
 30
0.0
 10
92.24588320216701
 20
-145.6303707969256
 30
0.0
 10
92.30098708965008
 20
-145.6303707969256
 30
0.0
 10
92.35679653267071
 20
-145.6303707969256
 30
0.0
 10
92.40159930930548
 20
-145.5856032969371
 30
0.0
 10
92.40159930930548
 20
-145.530464130284
 30
0.0
  0
POLYLINE
  5
C1
330
1F
100
AcDbEntity
  8
_U+30EC_U+30A4_U+30E4_U+30FC 1
 62
     7
420
 16777215
370
     9
100
AcDb2dPolyline
 66
     1
 10
0.0
 20
0.0
 30
0.0
  0
VERTEX
  5
C2
330
C1
100
AcDbEntity
  8
_U+30EC_U+30A4_U+30E4_U+30FC 1
 62
     7
420
 16777215
370
     9
100
AcDbVertex
100
AcDb2dVertex
 10
82.20085373621484
 20
-145.530464130284
 30
0.0
  0
VERTEX
  5
C3
330
C1
100
AcDbEntity
  8
_U+30EC_U+30A4_U+30E4_U+30FC 1
 62
     7
420
 16777215
370
     9
100
AcDbVertex
100
AcDb2dVertex
 10
92.20108042553225
 20
-145.530464130284
 30
0.0
  0
SEQEND
  5
C4
330
C1
100
AcDbEntity
  8
_U+30EC_U+30A4_U+30E4_U+30FC 1
 62
     7
420
 16777215
370
     9
  0
POLYLINE
  5
C5
330
1F
100
AcDbEntity
  8
_U+30EC_U+30A4_U+30E4_U+30FC 1
 62
     7
420
 16777215
370
     9
100
AcDb2dPolyline
 66
     1
 10
0.0
 20
0.0
 30
0.0
  0
VERTEX
  5
C6
330
C5
100
AcDbEntity
  8
_U+30EC_U+30A4_U+30E4_U+30FC 1
 62
     7
420
 16777215
370
     9
100
AcDbVertex
100
AcDb2dVertex
 10
82.20085373621484
 20
-144.0704580195378
 30
0.0
  0
VERTEX
  5
C7
330
C5
100
AcDbEntity
  8
_U+30EC_U+30A4_U+30E4_U+30FC 1
 62
     7
420
 16777215
370
     9
100
AcDbVertex
100
AcDb2dVertex
 10
82.20085373621484
 20
-146.5302363522565
 30
0.0
  0
SEQEND
  5
C8
330
C5
100
AcDbEntity
  8
_U+30EC_U+30A4_U+30E4_U+30FC 1
 62
     7
420
 16777215
370
     9
  0
SPLINE
  5
C9
330
1F
100
AcDbEntity
  8
_U+30EC_U+30A4_U+30E4_U+30FC 1
 62
     7
420
 16777215
370
     9
100
AcDbSpline
210
0.0
220
0.0
230
1.0
 70
    11
 71
     3
 72
    17
 73
    13
 74
     0
 42
0.0000000001
 43
0.0000000001
 12
1.0
 22
0.0
 32
0.0
 13
1.0
 23
0.0
 33
0.0
 40
0.0
 40
0.0
 40
0.0
 40
0.0
 40
1.0
 40
1.0
 40
1.0
 40
2.0
 40
2.0
 40
2.0
 40
3.0
 40
3.0
 40
3.0
 40
4.0
 40
4.0
 40
4.0
 40
4.0
 10
77.2987949723879
 20
-144.2551019083805
 30
0.0
 10
77.33809441582973
 20
-144.2158377417241
 30
0.0
 10
77.33809441582973
 20
-144.1524435750731
 30
0.0
 10
77.29914775015666
 20
-144.1131794084161
 30
0.0
 10
77.26023636226049
 20
-144.0745855195371
 30
0.0
 10
77.19684219721114
 20
-144.0745855195371
 30
0.0
 10
77.1575780315462
 20
-144.1138496861934
 30
0.0
 10
77.11863331405377
 20
-144.1524435750731
 30
0.0
 10
77.11863331405377
 20
-144.2158377417241
 30
0.0
 10
77.1575780315462
 20
-144.2551019083805
 30
0.0
 10
77.19648941944237
 20
-144.2936957972602
 30
0.0
 10
77.25988358449172
 20
-144.2936957972602
 30
0.0
 10
77.2987949723879
 20
-144.2551019083805
 30
0.0
  0
POLYLINE
  5
CA
330
1F
100
AcDbEntity
  8
_U+30EC_U+30A4_U+30E4_U+30FC 1
 62
     7
420
 16777215
370
     9
100
AcDb2dPolyline
 66
     1
 10
0.0
 20
0.0
 30
0.0
  0
VERTEX
  5
CB
330
CA
100
AcDbEntity
  8
_U+30EC_U+30A4_U+30E4_U+30FC 1
 62
     7
420
 16777215
370
     9
100
AcDbVertex
100
AcDb2dVertex
 10
78.26067883673707
 20
-143.1520010753232
 30
0.0
  0
VERTEX
  5
CC
330
CA
100
AcDbEntity
  8
_U+30EC_U+30A4_U+30E4_U+30FC 1
 62
     7
420
 16777215
370
     9
100
AcDbVertex
100
AcDb2dVertex
 10
76.52123749222504
 20
-144.8910544082216
 30
0.0
  0
SEQEND
  5
CD
330
CA
100
AcDbEntity
  8
_U+30EC_U+30A4_U+30E4_U+30FC 1
 62
     7
420
 16777215
370
     9
  0
SPLINE
  5
CE
330
1F
100
AcDbEntity
  8
_U+30EC_U+30A4_U+30E4_U+30FC 1
 62
     7
420
 16777215
370
     9
100
AcDbSpline
210
0.0
220
0.0
230
1.0
 70
    11
 71
     3
 72
    17
 73
    13
 74
     0
 42
0.0000000001
 43
0.0000000001
 12
1.0
 22
0.0
 32
0.0
 13
1.0
 23
0.0
 33
0.0
 40
0.0
 40
0.0
 40
0.0
 40
0.0
 40
1.0
 40
1.0
 40
1.0
 40
2.0
 40
2.0
 40
2.0
 40
3.0
 40
3.0
 40
3.0
 40
4.0
 40
4.0
 40
4.0
 40
4.0
 10
66.73373579748056
 20
-133.7344571887885
 30
0.0
 10
66.77299996314552
 20
-133.6951930221315
 30
0.0
 10
66.77299996314552
 20
-133.6317988554811
 30
0.0
 10
66.73444135301811
 20
-133.5925346888241
 30
0.0
 10
66.69514190957628
 20
-133.5539407999451
 30
0.0
 10
66.63174774452693
 20
-133.5539407999451
 30
0.0
 10
66.59248357886199
 20
-133.5932402443796
 30
0.0
 10
66.5538896909577
 20
-133.6317988554811
 30
0.0
 10
66.5538896909577
 20
-133.6951930221315
 30
0.0
 10
66.59248357886199
 20
-133.7344571887885
 30
0.0
 10
66.63174774452693
 20
-133.7730510776675
 30
0.0
 10
66.69514190957628
 20
-133.7730510776675
 30
0.0
 10
66.73373579748056
 20
-133.7344571887885
 30
0.0
  0
POLYLINE
  5
CF
330
1F
100
AcDbEntity
  8
_U+30EC_U+30A4_U+30E4_U+30FC 1
 62
     7
420
 16777215
370
     9
100
AcDb2dPolyline
 66
     1
 10
0.0
 20
0.0
 30
0.0
  0
VERTEX
  5
D0
330
CF
100
AcDbEntity
  8
_U+30EC_U+30A4_U+30E4_U+30FC 1
 62
     7
420
 16777215
370
     9
100
AcDbVertex
100
AcDb2dVertex
 10
67.69561966182975
 20
-132.6313563557312
 30
0.0
  0
VERTEX
  5
D1
330
CF
100
AcDbEntity
  8
_U+30EC_U+30A4_U+30E4_U+30FC 1
 62
     7
420
 16777215
370
     9
100
AcDbVertex
100
AcDb2dVertex
 10
65.95653109508649
 20
-134.3704449664071
 30
0.0
  0
SEQEND
  5
D2
330
CF
100
AcDbEntity
  8
_U+30EC_U+30A4_U+30E4_U+30FC 1
 62
     7
420
 16777215
370
     9
  0
INSERT
  5
D4
330
1F
100
AcDbEntity
  8
_U+30EC_U+30A4_U+30E4_U+30FC 1
100
AcDbBlockReference
  2
block 7
 10
0.0
 20
0.0
 30
0.0
  0
POLYLINE
  5
DC
330
1F
100
AcDbEntity
  8
_U+30EC_U+30A4_U+30E4_U+30FC 1
 62
     7
420
 16777215
370
     9
100
AcDb2dPolyline
 66
     1
 10
0.0
 20
0.0
 30
0.0
  0
VERTEX
  5
DD
330
DC
100
AcDbEntity
  8
_U+30EC_U+30A4_U+30E4_U+30FC 1
 62
     7
420
 16777215
370
     9
100
AcDbVertex
100
AcDb2dVertex
 10
92.30098708965008
 20
-145.530464130284
 30
0.0
  0
VERTEX
  5
DE
330
DC
100
AcDbEntity
  8
_U+30EC_U+30A4_U+30E4_U+30FC 1
 62
     7
420
 16777215
370
     9
100
AcDbVertex
100
AcDb2dVertex
 10
93.80064538472395
 20
-145.530464130284
 30
0.0
  0
SEQEND
  5
DF
330
DC
100
AcDbEntity
  8
_U+30EC_U+30A4_U+30E4_U+30FC 1
 62
     7
420
 16777215
370
     9
  0
POLYLINE
  5
E0
330
1F
100
AcDbEntity
  8
_U+30EC_U+30A4_U+30E4_U+30FC 1
 62
     7
420
 16777215
370
     9
100
AcDb2dPolyline
 66
     1
 10
0.0
 20
0.0
 30
0.0
  0
VERTEX
  5
E1
330
E0
100
AcDbEntity
  8
_U+30EC_U+30A4_U+30E4_U+30FC 1
 62
     7
420
 16777215
370
     9
100
AcDbVertex
100
AcDb2dVertex
 10
92.30098708965008
 20
-144.0704580195378
 30
0.0
  0
VERTEX
  5
E2
330
E0
100
AcDbEntity
  8
_U+30EC_U+30A4_U+30E4_U+30FC 1
 62
     7
420
 16777215
370
     9
100
AcDbVertex
100
AcDb2dVertex
 10
92.30098708965008
 20
-146.5302363522565
 30
0.0
  0
SEQEND
  5
E3
330
E0
100
AcDbEntity
  8
_U+30EC_U+30A4_U+30E4_U+30FC 1
 62
     7
420
 16777215
370
     9
  0
POLYLINE
  5
E4
330
1F
100
AcDbEntity
  8
_U+30EC_U+30A4_U+30E4_U+30FC 1
 62
     7
420
 16777215
370
     9
100
AcDb2dPolyline
 66
     1
 10
0.0
 20
0.0
 30
0.0
  0
VERTEX
  5
E5
330
E4
100
AcDbEntity
  8
_U+30EC_U+30A4_U+30E4_U+30FC 1
 62
     7
420
 16777215
370
     9
100
AcDbVertex
100
AcDb2dVertex
 10
93.80064538472395
 20
-144.0704580195378
 30
0.0
  0
VERTEX
  5
E6
330
E4
100
AcDbEntity
  8
_U+30EC_U+30A4_U+30E4_U+30FC 1
 62
     7
420
 16777215
370
     9
100
AcDbVertex
100
AcDb2dVertex
 10
93.80064538472395
 20
-146.5302363522565
 30
0.0
  0
SEQEND
  5
E7
330
E4
100
AcDbEntity
  8
_U+30EC_U+30A4_U+30E4_U+30FC 1
 62
     7
420
 16777215
370
     9
  0
INSERT
  5
E9
330
1F
100
AcDbEntity
  8
_U+30EC_U+30A4_U+30E4_U+30FC 1
100
AcDbBlockReference
  2
block 8
 10
0.0
 20
0.0
 30
0.0
  0
POLYLINE
  5
F8
330
1F
100
AcDbEntity
  8
_U+30EC_U+30A4_U+30E4_U+30FC 1
 62
     7
420
 16777215
370
    25
100
AcDb2dPolyline
 66
     1
 10
0.0
 20
0.0
 30
0.0
  0
VERTEX
  5
F9
330
F8
100
AcDbEntity
  8
_U+30EC_U+30A4_U+30E4_U+30FC 1
 62
     7
420
 16777215
370
    25
100
AcDbVertex
100
AcDb2dVertex
 10
82.100947072097
 20
-139.3920249651521
 30
0.0
  0
VERTEX
  5
FA
330
F8
100
AcDbEntity
  8
_U+30EC_U+30A4_U+30E4_U+30FC 1
 62
     7
420
 16777215
370
    25
100
AcDbVertex
100
AcDb2dVertex
 10
92.10117376141442
 20
-139.3920249651521
 30
0.0
  0
SEQEND
  5
FB
330
F8
100
AcDbEntity
  8
_U+30EC_U+30A4_U+30E4_U+30FC 1
 62
     7
420
 16777215
370
    25
  0
POLYLINE
  5
FC
330
1F
100
AcDbEntity
  8
_U+30EC_U+30A4_U+30E4_U+30FC 1
 62
     7
420
 16777215
370
    25
100
AcDb2dPolyline
 66
     1
 10
0.0
 20
0.0
 30
0.0
  0
VERTEX
  5
FD
330
FC
100
AcDbEntity
  8
_U+30EC_U+30A4_U+30E4_U+30FC 1
 62
     7
420
 16777215
370
    25
100
AcDbVertex
100
AcDb2dVertex
 10
82.68451205720902
 20
-138.3922527431796
 30
0.0
  0
VERTEX
  5
FE
330
FC
100
AcDbEntity
  8
_U+30EC_U+30A4_U+30E4_U+30FC 1
 62
     7
420
 16777215
370
    25
100
AcDbVertex
100
AcDb2dVertex
 10
91.56167071962273
 20
-138.3922527431796
 30
0.0
  0
SEQEND
  5
FF
330
FC
100
AcDbEntity
  8
_U+30EC_U+30A4_U+30E4_U+30FC 1
 62
     7
420
 16777215
370
    25
  0
POLYLINE
  5
100
330
1F
100
AcDbEntity
  8
_U+30EC_U+30A4_U+30E4_U+30FC 1
 62
     7
420
 16777215
370
    25
100
AcDb2dPolyline
 66
     1
 10
0.0
 20
0.0
 30
0.0
  0
VERTEX
  5
101
330
100
100
AcDbEntity
  8
_U+30EC_U+30A4_U+30E4_U+30FC 1
 62
     7
420
 16777215
370
    25
100
AcDbVertex
100
AcDb2dVertex
 10
92.10117376141442
 20
-139.3920249651521
 30
0.0
  0
VERTEX
  5
102
330
100
100
AcDbEntity
  8
_U+30EC_U+30A4_U+30E4_U+30FC 1
 62
     7
420
 16777215
370
    25
100
AcDbVertex
100
AcDb2dVertex
 10
93.69040233198092
 20
-137.8024435766606
 30
0.0
  0
SEQEND
  5
103
330
100
100
AcDbEntity
  8
_U+30EC_U+30A4_U+30E4_U+30FC 1
 62
     7
420
 16777215
370
    25
  0
POLYLINE
  5
104
330
1F
100
AcDbEntity
  8
_U+30EC_U+30A4_U+30E4_U+30FC 1
 62
     7
420
 16777215
370
    25
100
AcDb2dPolyline
 66
     1
 10
0.0
 20
0.0
 30
0.0
  0
VERTEX
  5
105
330
104
100
AcDbEntity
  8
_U+30EC_U+30A4_U+30E4_U+30FC 1
 62
     7
420
 16777215
370
    25
100
AcDbVertex
100
AcDb2dVertex
 10
91.56167071962273
 20
-138.4287652431709
 30
0.0
  0
VERTEX
  5
106
330
104
100
AcDbEntity
  8
_U+30EC_U+30A4_U+30E4_U+30FC 1
 62
     7
420
 16777215
370
    25
100
AcDbVertex
100
AcDb2dVertex
 10
92.19487153680176
 20
-137.7962346877729
 30
0.0
  0
SEQEND
  5
107
330
104
100
AcDbEntity
  8
_U+30EC_U+30A4_U+30E4_U+30FC 1
 62
     7
420
 16777215
370
    25
  0
POLYLINE
  5
108
330
1F
100
AcDbEntity
  8
_U+30EC_U+30A4_U+30E4_U+30FC 1
 62
     7
420
 16777215
370
    25
100
AcDb2dPolyline
 66
     1
 10
0.0
 20
0.0
 30
0.0
  0
VERTEX
  5
109
330
108
100
AcDbEntity
  8
_U+30EC_U+30A4_U+30E4_U+30FC 1
 62
     7
420
 16777215
370
    25
100
AcDbVertex
100
AcDb2dVertex
 10
72.54906564911914
 20
-128.3468702456911
 30
0.0
  0
VERTEX
  5
10A
330
108
100
AcDbEntity
  8
_U+30EC_U+30A4_U+30E4_U+30FC 1
 62
     7
420
 16777215
370
    25
100
AcDbVertex
100
AcDb2dVertex
 10
77.21441053009627
 20
-133.0116860778579
 30
0.0
  0
SEQEND
  5
10B
330
108
100
AcDbEntity
  8
_U+30EC_U+30A4_U+30E4_U+30FC 1
 62
     7
420
 16777215
370
    25
  0
POLYLINE
  5
10C
330
1F
100
AcDbEntity
  8
_U+30EC_U+30A4_U+30E4_U+30FC 1
 62
     7
420
 16777215
370
    25
100
AcDb2dPolyline
 66
     1
 10
0.0
 20
0.0
 30
0.0
  0
VERTEX
  5
10D
330
10C
100
AcDbEntity
  8
_U+30EC_U+30A4_U+30E4_U+30FC 1
 62
     7
420
 16777215
370
    25
100
AcDbVertex
100
AcDb2dVertex
 10
78.01020662090494
 20
-133.7372441332325
 30
0.0
  0
VERTEX
  5
10E
330
10C
100
AcDbEntity
  8
_U+30EC_U+30A4_U+30E4_U+30FC 1
 62
     7
420
 16777215
370
    25
100
AcDbVertex
100
AcDb2dVertex
 10
82.56947122681062
 20
-138.2964735765373
 30
0.0
  0
SEQEND
  5
10F
330
10C
100
AcDbEntity
  8
_U+30EC_U+30A4_U+30E4_U+30FC 1
 62
     7
420
 16777215
370
    25
  0
POLYLINE
  5
110
330
1F
100
AcDbEntity
  8
_U+30EC_U+30A4_U+30E4_U+30FC 1
 62
     7
420
 16777215
370
    25
100
AcDb2dPolyline
 66
     1
 10
0.0
 20
0.0
 30
0.0
  0
VERTEX
  5
111
330
110
100
AcDbEntity
  8
_U+30EC_U+30A4_U+30E4_U+30FC 1
 62
     7
420
 16777215
370
    25
100
AcDbVertex
100
AcDb2dVertex
 10
92.24655347992768
 20
-137.8024435766606
 30
0.0
  0
VERTEX
  5
112
330
110
100
AcDbEntity
  8
_U+30EC_U+30A4_U+30E4_U+30FC 1
 62
     7
420
 16777215
370
    25
100
AcDbVertex
100
AcDb2dVertex
 10
93.74656455277034
 20
-137.8024435766606
 30
0.0
  0
SEQEND
  5
113
330
110
100
AcDbEntity
  8
_U+30EC_U+30A4_U+30E4_U+30FC 1
 62
     7
420
 16777215
370
    25
  0
POLYLINE
  5
114
330
1F
100
AcDbEntity
  8
_U+30EC_U+30A4_U+30E4_U+30FC 1
 62
     7
420
 16777215
370
    25
100
AcDb2dPolyline
 66
     1
 10
0.0
 20
0.0
 30
0.0
  0
VERTEX
  5
115
330
114
100
AcDbEntity
  8
_U+30EC_U+30A4_U+30E4_U+30FC 1
 62
     7
420
 16777215
370
    25
100
AcDbVertex
100
AcDb2dVertex
 10
71.49415428714327
 20
-128.785231912248
 30
0.0
  0
VERTEX
  5
116
330
114
100
AcDbEntity
  8
_U+30EC_U+30A4_U+30E4_U+30FC 1
 62
     7
420
 16777215
370
    25
100
AcDbVertex
100
AcDb2dVertex
 10
71.49415428714327
 20
-118.7853577480814
 30
0.0
  0
SEQEND
  5
117
330
114
100
AcDbEntity
  8
_U+30EC_U+30A4_U+30E4_U+30FC 1
 62
     7
420
 16777215
370
    25
  0
POLYLINE
  5
118
330
1F
100
AcDbEntity
  8
_U+30EC_U+30A4_U+30E4_U+30FC 1
 62
     7
420
 16777215
370
    25
100
AcDb2dPolyline
 66
     1
 10
0.0
 20
0.0
 30
0.0
  0
VERTEX
  5
119
330
118
100
AcDbEntity
  8
_U+30EC_U+30A4_U+30E4_U+30FC 1
 62
     7
420
 16777215
370
    25
100
AcDbVertex
100
AcDb2dVertex
 10
72.4574139847907
 20
-128.3468702456911
 30
0.0
  0
VERTEX
  5
11A
330
118
100
AcDbEntity
  8
_U+30EC_U+30A4_U+30E4_U+30FC 1
 62
     7
420
 16777215
370
    25
100
AcDbVertex
100
AcDb2dVertex
 10
72.4574139847907
 20
-119.4695349701326
 30
0.0
  0
SEQEND
  5
11B
330
118
100
AcDbEntity
  8
_U+30EC_U+30A4_U+30E4_U+30FC 1
 62
     7
420
 16777215
370
    25
  0
POLYLINE
  5
11C
330
1F
100
AcDbEntity
  8
_U+30EC_U+30A4_U+30E4_U+30FC 1
 62
     7
420
 16777215
370
    25
100
AcDb2dPolyline
 66
     1
 10
0.0
 20
0.0
 30
0.0
  0
VERTEX
  5
11D
330
11C
100
AcDbEntity
  8
_U+30EC_U+30A4_U+30E4_U+30FC 1
 62
     7
420
 16777215
370
    25
100
AcDbVertex
100
AcDb2dVertex
 10
71.49415428714327
 20
-118.7853577480814
 30
0.0
  0
VERTEX
  5
11E
330
11C
100
AcDbEntity
  8
_U+30EC_U+30A4_U+30E4_U+30FC 1
 62
     7
420
 16777215
370
    25
100
AcDbVertex
100
AcDb2dVertex
 10
73.08373563547858
 20
-117.1957763595899
 30
0.0
  0
SEQEND
  5
11F
330
11C
100
AcDbEntity
  8
_U+30EC_U+30A4_U+30E4_U+30FC 1
 62
     7
420
 16777215
370
    25
  0
POLYLINE
  5
120
330
1F
100
AcDbEntity
  8
_U+30EC_U+30A4_U+30E4_U+30FC 1
 62
     7
420
 16777215
370
    25
100
AcDb2dPolyline
 66
     1
 10
0.0
 20
0.0
 30
0.0
  0
VERTEX
  5
121
330
120
100
AcDbEntity
  8
_U+30EC_U+30A4_U+30E4_U+30FC 1
 62
     7
420
 16777215
370
    25
100
AcDbVertex
100
AcDb2dVertex
 10
72.4574139847907
 20
-119.3241552479469
 30
0.0
  0
VERTEX
  5
122
330
120
100
AcDbEntity
  8
_U+30EC_U+30A4_U+30E4_U+30FC 1
 62
     7
420
 16777215
370
    25
100
AcDbVertex
100
AcDb2dVertex
 10
73.08994452420906
 20
-118.6909544147716
 30
0.0
  0
SEQEND
  5
123
330
120
100
AcDbEntity
  8
_U+30EC_U+30A4_U+30E4_U+30FC 1
 62
     7
420
 16777215
370
    25
  0
POLYLINE
  5
124
330
1F
100
AcDbEntity
  8
_U+30EC_U+30A4_U+30E4_U+30FC 1
 62
     7
420
 16777215
370
    25
100
AcDb2dPolyline
 66
     1
 10
0.0
 20
0.0
 30
0.0
  0
VERTEX
  5
125
330
124
100
AcDbEntity
  8
_U+30EC_U+30A4_U+30E4_U+30FC 1
 62
     7
420
 16777215
370
    25
100
AcDbVertex
100
AcDb2dVertex
 10
73.08373563547858
 20
-118.6392724703401
 30
0.0
  0
VERTEX
  5
126
330
124
100
AcDbEntity
  8
_U+30EC_U+30A4_U+30E4_U+30FC 1
 62
     7
420
 16777215
370
    25
100
AcDbVertex
100
AcDb2dVertex
 10
73.08373563547858
 20
-117.1392613596042
 30
0.0
  0
SEQEND
  5
127
330
124
100
AcDbEntity
  8
_U+30EC_U+30A4_U+30E4_U+30FC 1
 62
     7
420
 16777215
370
    25
  0
POLYLINE
  5
128
330
1F
100
AcDbEntity
  8
_U+30EC_U+30A4_U+30E4_U+30FC 1
 62
     7
420
 16777215
370
    25
100
AcDb2dPolyline
 66
     1
 10
0.0
 20
0.0
 30
0.0
  0
VERTEX
  5
129
330
128
100
AcDbEntity
  8
_U+30EC_U+30A4_U+30E4_U+30FC 1
 62
     7
420
 16777215
370
    25
100
AcDbVertex
100
AcDb2dVertex
 10
84.79913255881611
 20
-126.8248105238492
 30
0.0
  0
VERTEX
  5
12A
330
128
100
AcDbEntity
  8
_U+30EC_U+30A4_U+30E4_U+30FC 1
 62
     7
420
 16777215
370
    25
100
AcDbVertex
100
AcDb2dVertex
 10
105.7992170230593
 20
-126.8248105238492
 30
0.0
  0
SEQEND
  5
12B
330
128
100
AcDbEntity
  8
_U+30EC_U+30A4_U+30E4_U+30FC 1
 62
     7
420
 16777215
370
    25
  0
POLYLINE
  5
12C
330
1F
100
AcDbEntity
  8
_U+30EC_U+30A4_U+30E4_U+30FC 1
 62
     7
420
 16777215
370
    25
100
AcDb2dPolyline
 66
     1
 10
0.0
 20
0.0
 30
0.0
  0
VERTEX
  5
12D
330
12C
100
AcDbEntity
  8
_U+30EC_U+30A4_U+30E4_U+30FC 1
 62
     7
420
 16777215
370
    25
100
AcDbVertex
100
AcDb2dVertex
 10
84.19623535197508
 20
-127.8245827458218
 30
0.0
  0
VERTEX
  5
12E
330
12C
100
AcDbEntity
  8
_U+30EC_U+30A4_U+30E4_U+30FC 1
 62
     7
420
 16777215
370
    25
100
AcDbVertex
100
AcDb2dVertex
 10
96.79925641933411
 20
-127.8245827458218
 30
0.0
  0
SEQEND
  5
12F
330
12C
100
AcDbEntity
  8
_U+30EC_U+30A4_U+30E4_U+30FC 1
 62
     7
420
 16777215
370
    25
  0
POLYLINE
  5
130
330
1F
100
AcDbEntity
  8
_U+30EC_U+30A4_U+30E4_U+30FC 1
 62
     7
420
 16777215
370
    25
100
AcDb2dPolyline
 66
     1
 10
0.0
 20
0.0
 30
0.0
  0
VERTEX
  5
131
330
130
100
AcDbEntity
  8
_U+30EC_U+30A4_U+30E4_U+30FC 1
 62
     7
420
 16777215
370
    25
100
AcDbVertex
100
AcDb2dVertex
 10
105.7992170230593
 20
-126.8248105238492
 30
0.0
  0
VERTEX
  5
132
330
130
100
AcDbEntity
  8
_U+30EC_U+30A4_U+30E4_U+30FC 1
 62
     7
420
 16777215
370
    25
100
AcDbVertex
100
AcDb2dVertex
 10
105.7992170230593
 20
-127.825288301377
 30
0.0
  0
SEQEND
  5
133
330
130
100
AcDbEntity
  8
_U+30EC_U+30A4_U+30E4_U+30FC 1
 62
     7
420
 16777215
370
    25
  0
POLYLINE
  5
134
330
1F
100
AcDbEntity
  8
_U+30EC_U+30A4_U+30E4_U+30FC 1
 62
     7
420
 16777215
370
    25
100
AcDb2dPolyline
 66
     1
 10
0.0
 20
0.0
 30
0.0
  0
VERTEX
  5
135
330
134
100
AcDbEntity
  8
_U+30EC_U+30A4_U+30E4_U+30FC 1
 62
     7
420
 16777215
370
    25
100
AcDbVertex
100
AcDb2dVertex
 10
96.82924252968022
 20
-127.8245827458218
 30
0.0
  0
VERTEX
  5
136
330
134
100
AcDbEntity
  8
_U+30EC_U+30A4_U+30E4_U+30FC 1
 62
     7
420
 16777215
370
    25
100
AcDbVertex
100
AcDb2dVertex
 10
105.7992170230593
 20
-127.8245827458218
 30
0.0
  0
SEQEND
  5
137
330
134
100
AcDbEntity
  8
_U+30EC_U+30A4_U+30E4_U+30FC 1
 62
     7
420
 16777215
370
    25
  0
POLYLINE
  5
138
330
1F
100
AcDbEntity
  8
_U+30EC_U+30A4_U+30E4_U+30FC 1
 62
     7
420
 16777215
370
    25
100
AcDb2dPolyline
 66
     1
 10
0.0
 20
0.0
 30
0.0
  0
VERTEX
  5
139
330
138
100
AcDbEntity
  8
_U+30EC_U+30A4_U+30E4_U+30FC 1
 62
     7
420
 16777215
370
    25
100
AcDbVertex
100
AcDb2dVertex
 10
83.70979008660755
 20
-126.766249412753
 30
0.0
  0
VERTEX
  5
13A
330
138
100
AcDbEntity
  8
_U+30EC_U+30A4_U+30E4_U+30FC 1
 62
     7
420
 16777215
370
    25
100
AcDbVertex
100
AcDb2dVertex
 10
83.70979008660755
 20
-110.6914360834382
 30
0.0
  0
SEQEND
  5
13B
330
138
100
AcDbEntity
  8
_U+30EC_U+30A4_U+30E4_U+30FC 1
 62
     7
420
 16777215
370
    25
  0
POLYLINE
  5
13C
330
1F
100
AcDbEntity
  8
_U+30EC_U+30A4_U+30E4_U+30FC 1
 62
     7
420
 16777215
370
    25
100
AcDb2dPolyline
 66
     1
 10
0.0
 20
0.0
 30
0.0
  0
VERTEX
  5
13D
330
13C
100
AcDbEntity
  8
_U+30EC_U+30A4_U+30E4_U+30FC 1
 62
     7
420
 16777215
370
    25
100
AcDbVertex
100
AcDb2dVertex
 10
84.70956228332346
 20
-126.8248105238492
 30
0.0
  0
VERTEX
  5
13E
330
13C
100
AcDbEntity
  8
_U+30EC_U+30A4_U+30E4_U+30FC 1
 62
     7
420
 16777215
370
    25
100
AcDbVertex
100
AcDb2dVertex
 10
84.70956228332346
 20
-105.6910580291328
 30
0.0
  0
SEQEND
  5
13F
330
13C
100
AcDbEntity
  8
_U+30EC_U+30A4_U+30E4_U+30FC 1
 62
     7
420
 16777215
370
    25
  0
POLYLINE
  5
140
330
1F
100
AcDbEntity
  8
_U+30EC_U+30A4_U+30E4_U+30FC 1
 62
     7
420
 16777215
370
    25
100
AcDb2dPolyline
 66
     1
 10
0.0
 20
0.0
 30
0.0
  0
VERTEX
  5
141
330
140
100
AcDbEntity
  8
_U+30EC_U+30A4_U+30E4_U+30FC 1
 62
     7
420
 16777215
370
    25
100
AcDbVertex
100
AcDb2dVertex
 10
83.70979008660755
 20
-105.6910580291328
 30
0.0
  0
VERTEX
  5
142
330
140
100
AcDbEntity
  8
_U+30EC_U+30A4_U+30E4_U+30FC 1
 62
     7
420
 16777215
370
    25
100
AcDbVertex
100
AcDb2dVertex
 10
84.71023256108414
 20
-105.6910580291328
 30
0.0
  0
SEQEND
  5
143
330
140
100
AcDbEntity
  8
_U+30EC_U+30A4_U+30E4_U+30FC 1
 62
     7
420
 16777215
370
    25
  0
POLYLINE
  5
144
330
1F
100
AcDbEntity
  8
_U+30EC_U+30A4_U+30E4_U+30FC 1
 62
     7
420
 16777215
370
    25
100
AcDb2dPolyline
 66
     1
 10
0.0
 20
0.0
 30
0.0
  0
VERTEX
  5
145
330
144
100
AcDbEntity
  8
_U+30EC_U+30A4_U+30E4_U+30FC 1
 62
     7
420
 16777215
370
    25
100
AcDbVertex
100
AcDb2dVertex
 10
83.70979008660755
 20
-110.6273716390098
 30
0.0
  0
VERTEX
  5
146
330
144
100
AcDbEntity
  8
_U+30EC_U+30A4_U+30E4_U+30FC 1
 62
     7
420
 16777215
370
    25
100
AcDbVertex
100
AcDb2dVertex
 10
83.70979008660755
 20
-105.6910580291328
 30
0.0
  0
SEQEND
  5
147
330
144
100
AcDbEntity
  8
_U+30EC_U+30A4_U+30E4_U+30FC 1
 62
     7
420
 16777215
370
    25
  0
POLYLINE
  5
148
330
1F
100
AcDbEntity
  8
_U+30EC_U+30A4_U+30E4_U+30FC 1
 62
     7
420
 16777215
370
    25
100
AcDb2dPolyline
 66
     1
 10
0.0
 20
0.0
 30
0.0
  0
VERTEX
  5
149
330
148
100
AcDbEntity
  8
_U+30EC_U+30A4_U+30E4_U+30FC 1
 62
     7
420
 16777215
370
    25
100
AcDbVertex
100
AcDb2dVertex
 10
77.34395052679143
 20
-133.0171894111901
 30
0.0
  0
VERTEX
  5
14A
330
148
100
AcDbEntity
  8
_U+30EC_U+30A4_U+30E4_U+30FC 1
 62
     7
420
 16777215
370
    25
100
AcDbVertex
100
AcDb2dVertex
 10
83.72633536396323
 20
-126.7965530238566
 30
0.0
  0
SEQEND
  5
14B
330
148
100
AcDbEntity
  8
_U+30EC_U+30A4_U+30E4_U+30FC 1
 62
     7
420
 16777215
370
    25
  0
POLYLINE
  5
14C
330
1F
100
AcDbEntity
  8
_U+30EC_U+30A4_U+30E4_U+30FC 1
 62
     7
420
 16777215
370
    25
100
AcDb2dPolyline
 66
     1
 10
0.0
 20
0.0
 30
0.0
  0
VERTEX
  5
14D
330
14C
100
AcDbEntity
  8
_U+30EC_U+30A4_U+30E4_U+30FC 1
 62
     7
420
 16777215
370
    25
100
AcDbVertex
100
AcDb2dVertex
 10
78.09014606330996
 20
-133.6690169110273
 30
0.0
  0
VERTEX
  5
14E
330
14C
100
AcDbEntity
  8
_U+30EC_U+30A4_U+30E4_U+30FC 1
 62
     7
420
 16777215
370
    25
100
AcDbVertex
100
AcDb2dVertex
 10
84.16730757493531
 20
-127.7956549680511
 30
0.0
  0
SEQEND
  5
14F
330
14C
100
AcDbEntity
  8
_U+30EC_U+30A4_U+30E4_U+30FC 1
 62
     7
420
 16777215
370
    25
  0
POLYLINE
  5
150
330
1F
100
AcDbEntity
  8
_U+30EC_U+30A4_U+30E4_U+30FC 1
 62
     7
420
 16777215
370
     9
100
AcDb2dPolyline
 66
     1
 10
0.0
 20
0.0
 30
0.0
  0
VERTEX
  5
151
330
150
100
AcDbEntity
  8
_U+30EC_U+30A4_U+30E4_U+30FC 1
 62
     7
420
 16777215
370
     9
100
AcDbVertex
100
AcDb2dVertex
 10
66.64345996645035
 20
-133.6359263554798
 30
0.0
  0
VERTEX
  5
152
330
150
100
AcDbEntity
  8
_U+30EC_U+30A4_U+30E4_U+30FC 1
 62
     7
420
 16777215
370
     9
100
AcDbVertex
100
AcDb2dVertex
 10
77.25025275140409
 20
-144.2427194083839
 30
0.0
  0
SEQEND
  5
153
330
150
100
AcDbEntity
  8
_U+30EC_U+30A4_U+30E4_U+30FC 1
 62
     7
420
 16777215
370
     9
  0
POLYLINE
  5
154
330
1F
100
AcDbEntity
  8
_U+30EC_U+30A4_U+30E4_U+30FC 1
 62
     7
420
 16777215
370
    25
100
AcDb2dPolyline
 66
     1
 10
0.0
 20
0.0
 30
0.0
  0
VERTEX
  5
155
330
154
100
AcDbEntity
  8
_U+30EC_U+30A4_U+30E4_U+30FC 1
 62
     7
420
 16777215
370
    25
100
AcDbVertex
100
AcDb2dVertex
 10
71.49415428714327
 20
-128.785231912248
 30
0.0
  0
VERTEX
  5
156
330
154
100
AcDbEntity
  8
_U+30EC_U+30A4_U+30E4_U+30FC 1
 62
     7
420
 16777215
370
    25
100
AcDbVertex
100
AcDb2dVertex
 10
82.100947072097
 20
-139.3920249651521
 30
0.0
  0
SEQEND
  5
157
330
154
100
AcDbEntity
  8
_U+30EC_U+30A4_U+30E4_U+30FC 1
 62
     7
420
 16777215
370
    25
  0
ENDSEC
  0
SECTION
  2
OBJECTS
  0
DICTIONARY
  5
C
330
0
100
AcDbDictionary
281
     1
  3
ACAD_GROUP
350
D
  3
ACAD_LAYOUT
350
1A
  3
ACAD_MATERIAL
350
3B
  3
ACAD_MLEADERSTYLE
350
159
  3
ACAD_MLINESTYLE
350
17
  3
ACAD_PLOTSETTINGS
350
19
  3
ACAD_PLOTSTYLENAME
350
E
  3
ACAD_TABLESTYLE
350
158
  3
ACAD_VISUALSTYLE
350
2A
  0
SUN
  5
3F
330
29
100
AcDbSun
 90
        1
290
     0
 63
     7
421
 16777215
 40
1.0
291
     1
 91
  2455826
 92
 54000000
292
     0
 70
     2
 71
   256
280
     1
  0
DICTIONARY
  5
D
102
{ACAD_REACTORS
330
C
102
}
330
C
100
AcDbDictionary
281
     1
  0
DICTIONARY
  5
1A
102
{ACAD_REACTORS
330
C
102
}
330
C
100
AcDbDictionary
281
     1
  3
Layout1
350
1E
  3
Layout2
350
26
  3
Model
350
22
  0
DICTIONARY
  5
3B
102
{ACAD_REACTORS
330
C
102
}
330
C
100
AcDbDictionary
281
     1
  3
ByBlock
350
3D
  3
ByLayer
350
3C
  3
Global
350
3E
  0
DICTIONARY
  5
159
102
{ACAD_REACTORS
330
C
102
}
330
C
100
AcDbDictionary
281
     1
  0
DICTIONARY
  5
17
102
{ACAD_REACTORS
330
C
102
}
330
C
100
AcDbDictionary
281
     1
  3
Standard
350
18
  0
DICTIONARY
  5
19
102
{ACAD_REACTORS
330
C
102
}
330
C
100
AcDbDictionary
281
     1
  0
ACDBDICTIONARYWDFLT
  5
E
102
{ACAD_REACTORS
330
C
102
}
330
C
100
AcDbDictionary
281
     1
  3
Normal
350
F
100
AcDbDictionaryWithDefault
340
F
  0
DICTIONARY
  5
158
102
{ACAD_REACTORS
330
C
102
}
330
C
100
AcDbDictionary
281
     1
  0
DICTIONARY
  5
2A
102
{ACAD_REACTORS
330
C
102
}
330
C
100
AcDbDictionary
281
     1
  3
2dWireframe
350
2F
  3
3D Hidden
350
31
  3
3dWireframe
350
30
  3
Basic
350
32
  3
Brighten
350
36
  3
ColorChange
350
3A
  3
Conceptual
350
34
  3
Dim
350
35
  3
Facepattern
350
39
  3
Flat
350
2B
  3
FlatWithEdges
350
2C
  3
Gouraud
350
2D
  3
GouraudWithEdges
350
2E
  3
Linepattern
350
38
  3
Realistic
350
33
  3
Thicken
350
37
  0
LAYOUT
  5
1E
102
{ACAD_REACTORS
330
1A
102
}
330
1A
100
AcDbPlotSettings
  1

  2
none_device
  4

  6

 40
0.0
 41
0.0
 42
0.0
 43
0.0
 44
0.0
 45
0.0
 46
0.0
 47
0.0
 48
0.0
 49
0.0
140
0.0
141
0.0
142
1.0
143
1.0
 70
   688
 72
     0
 73
     0
 74
     5
  7

 75
    16
 76
     0
 77
     2
 78
   300
147
1.0
148
0.0
149
0.0
100
AcDbLayout
  1
Layout1
 70
     1
 71
     1
 10
0.0
 20
0.0
 11
12.0
 21
9.0
 12
0.0
 22
0.0
 32
0.0
 14
1.000000000000000E+20
 24
1.000000000000000E+20
 34
1.000000000000000E+20
 15
-1.000000000000000E+20
 25
-1.000000000000000E+20
 35
-1.000000000000000E+20
146
0.0
 13
0.0
 23
0.0
 33
0.0
 16
1.0
 26
0.0
 36
0.0
 17
0.0
 27
1.0
 37
0.0
 76
     0
330
1B
  0
LAYOUT
  5
26
102
{ACAD_REACTORS
330
1A
102
}
330
1A
100
AcDbPlotSettings
  1

  2
none_device
  4

  6

 40
0.0
 41
0.0
 42
0.0
 43
0.0
 44
0.0
 45
0.0
 46
0.0
 47
0.0
 48
0.0
 49
0.0
140
0.0
141
0.0
142
1.0
143
1.0
 70
   688
 72
     0
 73
     0
 74
     5
  7

 75
    16
 76
     0
 77
     2
 78
   300
147
1.0
148
0.0
149
0.0
100
AcDbLayout
  1
Layout2
 70
     1
 71
     2
 10
0.0
 20
0.0
 11
0.0
 21
0.0
 12
0.0
 22
0.0
 32
0.0
 14
0.0
 24
0.0
 34
0.0
 15
0.0
 25
0.0
 35
0.0
146
0.0
 13
0.0
 23
0.0
 33
0.0
 16
1.0
 26
0.0
 36
0.0
 17
0.0
 27
1.0
 37
0.0
 76
     0
330
23
  0
LAYOUT
  5
22
102
{ACAD_REACTORS
330
1A
102
}
330
1A
100
AcDbPlotSettings
  1

  2
none_device
  4

  6

 40
0.0
 41
0.0
 42
0.0
 43
0.0
 44
0.0
 45
0.0
 46
0.0
 47
0.0
 48
0.0
 49
0.0
140
0.0
141
0.0
142
1.0
143
1.0
 70
  1712
 72
     0
 73
     0
 74
     0
  7

 75
     0
 76
     0
 77
     2
 78
   300
147
1.0
148
0.0
149
0.0
100
AcDbLayout
  1
Model
 70
     1
 71
     0
 10
0.0
 20
0.0
 11
12.0
 21
9.0
 12
0.0
 22
0.0
 32
0.0
 14
1.000000000000000E+20
 24
1.000000000000000E+20
 34
1.000000000000000E+20
 15
-1.000000000000000E+20
 25
-1.000000000000000E+20
 35
-1.000000000000000E+20
146
0.0
 13
0.0
 23
0.0
 33
0.0
 16
1.0
 26
0.0
 36
0.0
 17
0.0
 27
1.0
 37
0.0
 76
     0
330
1F
331
29
  0
MATERIAL
  5
3D
102
{ACAD_REACTORS
330
3B
102
}
330
3B
100
AcDbMaterial
  1
ByBlock
 72
     1
 94
      127
  0
MATERIAL
  5
3C
102
{ACAD_REACTORS
330
3B
102
}
330
3B
100
AcDbMaterial
  1
ByLayer
 72
     1
 94
      127
  0
MATERIAL
  5
3E
102
{ACAD_REACTORS
330
3B
102
}
330
3B
100
AcDbMaterial
  1
Global
 72
     1
 94
      127
  0
MLINESTYLE
  5
18
102
{ACAD_REACTORS
330
17
102
}
330
17
100
AcDbMlineStyle
  2
Standard
 70
     0
  3

 62
   256
 51
90.0
 52
90.0
 71
     2
 49
0.5
 62
   256
  6
BYLAYER
 49
-0.5
 62
   256
  6
BYLAYER
  0
ACDBPLACEHOLDER
  5
F
102
{ACAD_REACTORS
330
E
102
}
330
E
  0
VISUALSTYLE
  5
2F
102
{ACAD_REACTORS
330
2A
102
}
330
2A
100
AcDbVisualStyle
  2
2dWireframe
 70
     4
177
     2
291
     0
 71
     0
176
     1
 72
     2
176
     1
 73
     0
176
     1
 90
        0
176
     1
 40
-0.6
176
     1
 41
-30.0
176
     1
 62
     5
 63
     7
421
 16777215
176
     1
 74
     1
176
     1
 91
        4
176
     1
 64
     7
176
     1
 65
   257
176
     1
 75
     1
176
     1
175
     1
176
     1
 42
1.0
176
     1
 92
        0
176
     1
 66
   257
176
     1
 43
1.0
176
     1
 76
     1
176
     1
 77
     6
176
     1
 78
     2
176
     1
 67
     7
176
     1
 79
     5
176
     1
170
     0
176
     1
171
     0
176
     1
290
     0
176
     1
 93
        1
176
     1
 44
0.0
176
     1
173
     0
176
     1
  0
VISUALSTYLE
  5
31
102
{ACAD_REACTORS
330
2A
102
}
330
2A
100
AcDbVisualStyle
  2
3D Hidden
 70
     6
177
     2
291
     0
 71
     1
176
     1
 72
     2
176
     1
 73
     2
176
     1
 90
        0
176
     1
 40
-0.6
176
     1
 41
-30.0
176
     1
 62
     5
 63
     7
421
 16777215
176
     1
 74
     2
176
     1
 91
        2
176
     1
 64
     7
176
     1
 65
   257
176
     1
 75
     2
176
     1
175
     1
176
     1
 42
40.0
176
     1
 92
        0
176
     1
 66
   257
176
     1
 43
1.0
176
     1
 76
     1
176
     1
 77
     6
176
     1
 78
     2
176
     1
 67
     7
176
     1
 79
     3
176
     1
170
     0
176
     1
171
     0
176
     1
290
     0
176
     1
 93
        1
176
     1
 44
0.0
176
     1
173
     0
176
     1
  0
VISUALSTYLE
  5
30
102
{ACAD_REACTORS
330
2A
102
}
330
2A
100
AcDbVisualStyle
  2
3dWireframe
 70
     5
177
     2
291
     0
 71
     0
176
     1
 72
     2
176
     1
 73
     0
176
     1
 90
        0
176
     1
 40
-0.6
176
     1
 41
-30.0
176
     1
 62
     5
 63
     7
421
 16777215
176
     1
 74
     1
176
     1
 91
        4
176
     1
 64
     7
176
     1
 65
   257
176
     1
 75
     1
176
     1
175
     1
176
     1
 42
1.0
176
     1
 92
        0
176
     1
 66
   257
176
     1
 43
1.0
176
     1
 76
     1
176
     1
 77
     6
176
     1
 78
     2
176
     1
 67
     7
176
     1
 79
     5
176
     1
170
     0
176
     1
171
     0
176
     1
290
     0
176
     1
 93
        1
176
     1
 44
0.0
176
     1
173
     0
176
     1
  0
VISUALSTYLE
  5
32
102
{ACAD_REACTORS
330
2A
102
}
330
2A
100
AcDbVisualStyle
  2
Basic
 70
     7
177
     2
291
     1
 71
     1
176
     1
 72
     0
176
     1
 73
     1
176
     1
 90
        0
176
     1
 40
-0.6
176
     1
 41
-30.0
176
     1
 62
     5
 63
     7
421
 16777215
176
     1
 74
     0
176
     1
 91
        4
176
     1
 64
     7
176
     1
 65
   257
176
     1
 75
     1
176
     1
175
     1
176
     1
 42
1.0
176
     1
 92
        8
176
     1
 66
     7
176
     1
 43
1.0
176
     1
 76
     1
176
     1
 77
     6
176
     1
 78
     2
176
     1
 67
     7
176
     1
 79
     5
176
     1
170
     0
176
     1
171
     0
176
     1
290
     0
176
     1
 93
        1
176
     1
 44
0.0
176
     1
173
     0
176
     1
  0
VISUALSTYLE
  5
36
102
{ACAD_REACTORS
330
2A
102
}
330
2A
100
AcDbVisualStyle
  2
Brighten
 70
    12
177
     2
291
     1
 71
     2
176
     1
 72
     2
176
     1
 73
     0
176
     1
 90
        0
176
     1
 40
-0.6
176
     1
 41
-30.0
176
     1
 62
     5
 63
     7
421
 16777215
176
     1
 74
     1
176
     1
 91
        4
176
     1
 64
     7
176
     1
 65
   257
176
     1
 75
     1
176
     1
175
     1
176
     1
 42
1.0
176
     1
 92
        8
176
     1
 66
     7
176
     1
 43
1.0
176
     1
 76
     1
176
     1
 77
     6
176
     1
 78
     2
176
     1
 67
     7
176
     1
 79
     5
176
     1
170
     0
176
     1
171
     0
176
     1
290
     0
176
     1
 93
        1
176
     1
 44
50.0
176
     1
173
     0
176
     1
  0
VISUALSTYLE
  5
3A
102
{ACAD_REACTORS
330
2A
102
}
330
2A
100
AcDbVisualStyle
  2
ColorChange
 70
    16
177
     2
291
     1
 71
     2
176
     1
 72
     2
176
     1
 73
     3
176
     1
 90
        0
176
     1
 40
-0.6
176
     1
 41
-30.0
176
     1
 62
     5
 63
     8
421
  8421504
176
     1
 74
     1
176
     1
 91
        4
176
     1
 64
     7
176
     1
 65
   257
176
     1
 75
     1
176
     1
175
     1
176
     1
 42
1.0
176
     1
 92
        8
176
     1
 66
     8
424
  8421504
176
     1
 43
1.0
176
     1
 76
     1
176
     1
 77
     6
176
     1
 78
     2
176
     1
 67
     7
176
     1
 79
     5
176
     1
170
     0
176
     1
171
     0
176
     1
290
     0
176
     1
 93
        1
176
     1
 44
0.0
176
     1
173
     0
176
     1
  0
VISUALSTYLE
  5
34
102
{ACAD_REACTORS
330
2A
102
}
330
2A
100
AcDbVisualStyle
  2
Conceptual
 70
     9
177
     2
291
     0
 71
     3
176
     1
 72
     2
176
     1
 73
     0
176
     1
 90
        0
176
     1
 40
-0.6
176
     1
 41
-30.0
176
     1
 62
     5
 63
     7
421
 16777215
176
     1
 74
     2
176
     1
 91
        2
176
     1
 64
     7
176
     1
 65
   257
176
     1
 75
     1
176
     1
175
     1
176
     1
 42
40.0
176
     1
 92
        8
176
     1
 66
     7
176
     1
 43
1.0
176
     1
 76
     1
176
     1
 77
     6
176
     1
 78
     2
176
     1
 67
     7
176
     1
 79
     3
176
     1
170
     0
176
     1
171
     0
176
     1
290
     0
176
     1
 93
        1
176
     1
 44
0.0
176
     1
173
     0
176
     1
  0
VISUALSTYLE
  5
35
102
{ACAD_REACTORS
330
2A
102
}
330
2A
100
AcDbVisualStyle
  2
Dim
 70
    11
177
     2
291
     1
 71
     2
176
     1
 72
     2
176
     1
 73
     0
176
     1
 90
        0
176
     1
 40
-0.6
176
     1
 41
-30.0
176
     1
 62
     5
 63
     7
421
 16777215
176
     1
 74
     1
176
     1
 91
        4
176
     1
 64
     7
176
     1
 65
   257
176
     1
 75
     1
176
     1
175
     1
176
     1
 42
1.0
176
     1
 92
        8
176
     1
 66
     7
176
     1
 43
1.0
176
     1
 76
     1
176
     1
 77
     6
176
     1
 78
     2
176
     1
 67
     7
176
     1
 79
     5
176
     1
170
     0
176
     1
171
     0
176
     1
290
     0
176
     1
 93
        1
176
     1
 44
-50.0
176
     1
173
     0
176
     1
  0
VISUALSTYLE
  5
39
102
{ACAD_REACTORS
330
2A
102
}
330
2A
100
AcDbVisualStyle
  2
Facepattern
 70
    15
177
     2
291
     1
 71
     2
176
     1
 72
     2
176
     1
 73
     0
176
     1
 90
        0
176
     1
 40
-0.6
176
     1
 41
-30.0
176
     1
 62
     5
 63
     7
421
 16777215
176
     1
 74
     1
176
     1
 91
        4
176
     1
 64
     7
176
     1
 65
   257
176
     1
 75
     1
176
     1
175
     1
176
     1
 42
1.0
176
     1
 92
        8
176
     1
 66
     7
176
     1
 43
1.0
176
     1
 76
     1
176
     1
 77
     6
176
     1
 78
     2
176
     1
 67
     7
176
     1
 79
     5
176
     1
170
     0
176
     1
171
     0
176
     1
290
     0
176
     1
 93
        1
176
     1
 44
0.0
176
     1
173
     0
176
     1
  0
VISUALSTYLE
  5
2B
102
{ACAD_REACTORS
330
2A
102
}
330
2A
100
AcDbVisualStyle
  2
Flat
 70
     0
177
     2
291
     1
 71
     2
176
     1
 72
     1
176
     1
 73
     1
176
     1
 90
        2
176
     1
 40
-0.6
176
     1
 41
30.0
176
     1
 62
     5
 63
     7
421
 16777215
176
     1
 74
     0
176
     1
 91
        4
176
     1
 64
     7
176
     1
 65
   257
176
     1
 75
     1
176
     1
175
     1
176
     1
 42
1.0
176
     1
 92
        8
176
     1
 66
     7
176
     1
 43
1.0
176
     1
 76
     1
176
     1
 77
     6
176
     1
 78
     2
176
     1
 67
     7
176
     1
 79
     5
176
     1
170
     0
176
     1
171
     0
176
     1
290
     0
176
     1
 93
       13
176
     1
 44
0.0
176
     1
173
     0
176
     1
  0
VISUALSTYLE
  5
2C
102
{ACAD_REACTORS
330
2A
102
}
330
2A
100
AcDbVisualStyle
  2
FlatWithEdges
 70
     1
177
     2
291
     1
 71
     2
176
     1
 72
     1
176
     1
 73
     1
176
     1
 90
        2
176
     1
 40
-0.6
176
     1
 41
30.0
176
     1
 62
     5
 63
     7
421
 16777215
176
     1
 74
     1
176
     1
 91
        4
176
     1
 64
     7
176
     1
 65
   257
176
     1
 75
     1
176
     1
175
     1
176
     1
 42
1.0
176
     1
 92
        0
176
     1
 66
   257
176
     1
 43
1.0
176
     1
 76
     1
176
     1
 77
     6
176
     1
 78
     2
176
     1
 67
     7
176
     1
 79
     5
176
     1
170
     0
176
     1
171
     0
176
     1
290
     0
176
     1
 93
       13
176
     1
 44
0.0
176
     1
173
     0
176
     1
  0
VISUALSTYLE
  5
2D
102
{ACAD_REACTORS
330
2A
102
}
330
2A
100
AcDbVisualStyle
  2
Gouraud
 70
     2
177
     2
291
     1
 71
     2
176
     1
 72
     2
176
     1
 73
     1
176
     1
 90
        2
176
     1
 40
-0.6
176
     1
 41
30.0
176
     1
 62
     5
 63
     7
421
 16777215
176
     1
 74
     0
176
     1
 91
        4
176
     1
 64
     7
176
     1
 65
   257
176
     1
 75
     1
176
     1
175
     1
176
     1
 42
1.0
176
     1
 92
        0
176
     1
 66
     7
176
     1
 43
1.0
176
     1
 76
     1
176
     1
 77
     6
176
     1
 78
     2
176
     1
 67
     7
176
     1
 79
     5
176
     1
170
     0
176
     1
171
     0
176
     1
290
     0
176
     1
 93
       13
176
     1
 44
0.0
176
     1
173
     0
176
     1
  0
VISUALSTYLE
  5
2E
102
{ACAD_REACTORS
330
2A
102
}
330
2A
100
AcDbVisualStyle
  2
GouraudWithEdges
 70
     3
177
     2
291
     1
 71
     2
176
     1
 72
     2
176
     1
 73
     1
176
     1
 90
        2
176
     1
 40
-0.6
176
     1
 41
30.0
176
     1
 62
     5
 63
     7
421
 16777215
176
     1
 74
     1
176
     1
 91
        4
176
     1
 64
     7
176
     1
 65
   257
176
     1
 75
     1
176
     1
175
     1
176
     1
 42
1.0
176
     1
 92
        0
176
     1
 66
   257
176
     1
 43
1.0
176
     1
 76
     1
176
     1
 77
     6
176
     1
 78
     2
176
     1
 67
     7
176
     1
 79
     5
176
     1
170
     0
176
     1
171
     0
176
     1
290
     0
176
     1
 93
       13
176
     1
 44
0.0
176
     1
173
     0
176
     1
  0
VISUALSTYLE
  5
38
102
{ACAD_REACTORS
330
2A
102
}
330
2A
100
AcDbVisualStyle
  2
Linepattern
 70
    14
177
     2
291
     1
 71
     2
176
     1
 72
     2
176
     1
 73
     0
176
     1
 90
        0
176
     1
 40
-0.6
176
     1
 41
-30.0
176
     1
 62
     5
 63
     7
421
 16777215
176
     1
 74
     1
176
     1
 91
        4
176
     1
 64
     7
176
     1
 65
   257
176
     1
 75
     7
176
     1
175
     7
176
     1
 42
1.0
176
     1
 92
        8
176
     1
 66
     7
176
     1
 43
1.0
176
     1
 76
     1
176
     1
 77
     6
176
     1
 78
     2
176
     1
 67
     7
176
     1
 79
     5
176
     1
170
     0
176
     1
171
     0
176
     1
290
     0
176
     1
 93
        1
176
     1
 44
0.0
176
     1
173
     0
176
     1
  0
VISUALSTYLE
  5
33
102
{ACAD_REACTORS
330
2A
102
}
330
2A
100
AcDbVisualStyle
  2
Realistic
 70
     8
177
     2
291
     0
 71
     2
176
     1
 72
     2
176
     1
 73
     0
176
     1
 90
        0
176
     1
 40
-0.6
176
     1
 41
-30.0
176
     1
 62
     5
 63
     7
421
 16777215
176
     1
 74
     1
176
     1
 91
        0
176
     1
 64
     7
176
     1
 65
   257
176
     1
 75
     1
176
     1
175
     1
176
     1
 42
1.0
176
     1
 92
        8
176
     1
 66
     8
424
  7895160
176
     1
 43
1.0
176
     1
 76
     1
176
     1
 77
     6
176
     1
 78
     2
176
     1
 67
     7
176
     1
 79
     5
176
     1
170
     0
176
     1
171
     0
176
     1
290
     0
176
     1
 93
       13
176
     1
 44
0.0
176
     1
173
     0
176
     1
  0
VISUALSTYLE
  5
37
102
{ACAD_REACTORS
330
2A
102
}
330
2A
100
AcDbVisualStyle
  2
Thicken
 70
    13
177
     2
291
     1
 71
     2
176
     1
 72
     2
176
     1
 73
     0
176
     1
 90
        0
176
     1
 40
-0.6
176
     1
 41
-30.0
176
     1
 62
     5
 63
     7
421
 16777215
176
     1
 74
     1
176
     1
 91
        4
176
     1
 64
     7
176
     1
 65
   257
176
     1
 75
     1
176
     1
175
     1
176
     1
 42
1.0
176
     1
 92
       12
176
     1
 66
     7
176
     1
 43
1.0
176
     1
 76
     1
176
     1
 77
     6
176
     1
 78
     2
176
     1
 67
     7
176
     1
 79
     5
176
     1
170
     0
176
     1
171
     0
176
     1
290
     0
176
     1
 93
        1
176
     1
 44
0.0
176
     1
173
     0
176
     1
  0
ENDSEC
  0
EOF
