  0
SECTION
  2
HEADER
  9
$ACADVER
  1
AC1024
  9
$ACADMAINTVER
 70
     6
  9
$DWGCODEPAGE
  3
UNDEFINED
  9
$INSBASE
 10
0.0
 20
0.0
 30
0.0
  9
$EXTMIN
 10
1.000000000000000E+20
 20
1.000000000000000E+20
 30
1.000000000000000E+20
  9
$EXTMAX
 10
-1.000000000000000E+20
 20
-1.000000000000000E+20
 30
-1.000000000000000E+20
  9
$LIMMIN
 10
0.0
 20
0.0
  9
$LIMMAX
 10
12.0
 20
9.0
  9
$ORTHOMODE
 70
     0
  9
$REGENMODE
 70
     1
  9
$FILLMODE
 70
     1
  9
$QTEXTMODE
 70
     0
  9
$MIRRTEXT
 70
     1
  9
$LTSCALE
 40
1.0
  9
$ATTMODE
 70
     1
  9
$TEXTSIZE
 40
0.2
  9
$TRACEWID
 40
0.05
  9
$TEXTSTYLE
  7
Standard
  9
$CLAYER
  8
0
  9
$CELTYPE
  6
ByLayer
  9
$CECOLOR
 62
   256
  9
$CELTSCALE
 40
1.0
  9
$DISPSILH
 70
     0
  9
$DIMSCALE
 40
1.0
  9
$DIMASZ
 40
0.18
  9
$DIMEXO
 40
0.0625
  9
$DIMDLI
 40
0.38
  9
$DIMRND
 40
0.0
  9
$DIMDLE
 40
0.0
  9
$DIMEXE
 40
0.18
  9
$DIMTP
 40
0.0
  9
$DIMTM
 40
0.0
  9
$DIMTXT
 40
0.18
  9
$DIMCEN
 40
0.09
  9
$DIMTSZ
 40
0.0
  9
$DIMTOL
 70
     0
  9
$DIMLIM
 70
     0
  9
$DIMTIH
 70
     1
  9
$DIMTOH
 70
     1
  9
$DIMSE1
 70
     0
  9
$DIMSE2
 70
     0
  9
$DIMTAD
 70
     0
  9
$DIMZIN
 70
     0
  9
$DIMBLK
  1

  9
$DIMASO
 70
     1
  9
$DIMSHO
 70
     1
  9
$DIMPOST
  1

  9
$DIMAPOST
  1

  9
$DIMALT
 70
     0
  9
$DIMALTD
 70
     2
  9
$DIMALTF
 40
25.4
  9
$DIMLFAC
 40
1.0
  9
$DIMTOFL
 70
     0
  9
$DIMTVP
 40
0.0
  9
$DIMTIX
 70
     0
  9
$DIMSOXD
 70
     0
  9
$DIMSAH
 70
     0
  9
$DIMBLK1
  1

  9
$DIMBLK2
  1

  9
$DIMSTYLE
  2
Standard
  9
$DIMCLRD
 70
     0
  9
$DIMCLRE
 70
     0
  9
$DIMCLRT
 70
     0
  9
$DIMTFAC
 40
1.0
  9
$DIMGAP
 40
0.09
  9
$DIMJUST
 70
     0
  9
$DIMSD1
 70
     0
  9
$DIMSD2
 70
     0
  9
$DIMTOLJ
 70
     1
  9
$DIMTZIN
 70
     0
  9
$DIMALTZ
 70
     0
  9
$DIMALTTZ
 70
     0
  9
$DIMUPT
 70
     0
  9
$DIMDEC
 70
     4
  9
$DIMTDEC
 70
     4
  9
$DIMALTU
 70
     2
  9
$DIMALTTD
 70
     2
  9
$DIMTXSTY
  7
Standard
  9
$DIMAUNIT
 70
     0
  9
$DIMADEC
 70
     0
  9
$DIMALTRND
 40
0.0
  9
$DIMAZIN
 70
     0
  9
$DIMDSEP
 70
    46
  9
$DIMATFIT
 70
     3
  9
$DIMFRAC
 70
     0
  9
$DIMLDRBLK
  1

  9
$DIMLUNIT
 70
     2
  9
$DIMLWD
 70
    -2
  9
$DIMLWE
 70
    -2
  9
$DIMTMOVE
 70
     0
  9
$DIMFXL
 40
1.0
  9
$DIMFXLON
 70
     0
  9
$DIMJOGANG
 40
0.7853981633974483
  9
$DIMTFILL
 70
     0
  9
$DIMTFILLCLR
 70
     0
  9
$DIMARCSYM
 70
     0
  9
$DIMLTYPE
  6

  9
$DIMLTEX1
  6

  9
$DIMLTEX2
  6

  9
$DIMTXTDIRECTION
 70
     0
  9
$LUNITS
 70
     2
  9
$LUPREC
 70
     4
  9
$SKETCHINC
 40
0.1
  9
$FILLETRAD
 40
0.5
  9
$AUNITS
 70
     0
  9
$AUPREC
 70
     0
  9
$MENU
  1
.
  9
$ELEVATION
 40
0.0
  9
$PELEVATION
 40
0.0
  9
$THICKNESS
 40
0.0
  9
$LIMCHECK
 70
     0
  9
$CHAMFERA
 40
0.5
  9
$CHAMFERB
 40
0.5
  9
$CHAMFERC
 40
1.0
  9
$CHAMFERD
 40
0.0
  9
$SKPOLY
 70
     0
  9
$TDCREATE
 40
2457917.623206007
  9
$TDUCREATE
 40
2457917.248206018
  9
$TDUPDATE
 40
2457917.623206007
  9
$TDUUPDATE
 40
2457917.248206018
  9
$TDINDWG
 40
0.0000000116
  9
$TDUSRTIMER
 40
0.0000000116
  9
$USRTIMER
 70
     1
  9
$ANGBASE
 50
0.0
  9
$ANGDIR
 70
     0
  9
$PDMODE
 70
     0
  9
$PDSIZE
 40
0.0
  9
$PLINEWID
 40
0.0
  9
$SPLFRAME
 70
     0
  9
$SPLINETYPE
 70
     6
  9
$SPLINESEGS
 70
     8
  9
$HANDSEED
  5
FB
  9
$SURFTAB1
 70
     6
  9
$SURFTAB2
 70
     6
  9
$SURFTYPE
 70
     6
  9
$SURFU
 70
     6
  9
$SURFV
 70
     6
  9
$UCSBASE
  2

  9
$UCSNAME
  2

  9
$UCSORG
 10
0.0
 20
0.0
 30
0.0
  9
$UCSXDIR
 10
1.0
 20
0.0
 30
0.0
  9
$UCSYDIR
 10
0.0
 20
1.0
 30
0.0
  9
$UCSORTHOREF
  2

  9
$UCSORTHOVIEW
 70
     0
  9
$UCSORGTOP
 10
0.0
 20
0.0
 30
0.0
  9
$UCSORGBOTTOM
 10
0.0
 20
0.0
 30
0.0
  9
$UCSORGLEFT
 10
0.0
 20
0.0
 30
0.0
  9
$UCSORGRIGHT
 10
0.0
 20
0.0
 30
0.0
  9
$UCSORGFRONT
 10
0.0
 20
0.0
 30
0.0
  9
$UCSORGBACK
 10
0.0
 20
0.0
 30
0.0
  9
$PUCSBASE
  2

  9
$PUCSNAME
  2

  9
$PUCSORG
 10
0.0
 20
0.0
 30
0.0
  9
$PUCSXDIR
 10
1.0
 20
0.0
 30
0.0
  9
$PUCSYDIR
 10
0.0
 20
1.0
 30
0.0
  9
$PUCSORTHOREF
  2

  9
$PUCSORTHOVIEW
 70
     0
  9
$PUCSORGTOP
 10
0.0
 20
0.0
 30
0.0
  9
$PUCSORGBOTTOM
 10
0.0
 20
0.0
 30
0.0
  9
$PUCSORGLEFT
 10
0.0
 20
0.0
 30
0.0
  9
$PUCSORGRIGHT
 10
0.0
 20
0.0
 30
0.0
  9
$PUCSORGFRONT
 10
0.0
 20
0.0
 30
0.0
  9
$PUCSORGBACK
 10
0.0
 20
0.0
 30
0.0
  9
$USERI1
 70
     0
  9
$USERI2
 70
     0
  9
$USERI3
 70
     0
  9
$USERI4
 70
     0
  9
$USERI5
 70
     0
  9
$USERR1
 40
0.0
  9
$USERR2
 40
0.0
  9
$USERR3
 40
0.0
  9
$USERR4
 40
0.0
  9
$USERR5
 40
0.0
  9
$WORLDVIEW
 70
     1
  9
$SHADEDGE
 70
     3
  9
$SHADEDIF
 70
    70
  9
$TILEMODE
 70
     1
  9
$MAXACTVP
 70
    64
  9
$PINSBASE
 10
0.0
 20
0.0
 30
0.0
  9
$PLIMCHECK
 70
     0
  9
$PEXTMIN
 10
1.000000000000000E+20
 20
1.000000000000000E+20
 30
1.000000000000000E+20
  9
$PEXTMAX
 10
-1.000000000000000E+20
 20
-1.000000000000000E+20
 30
-1.000000000000000E+20
  9
$PLIMMIN
 10
0.0
 20
0.0
  9
$PLIMMAX
 10
12.0
 20
9.0
  9
$UNITMODE
 70
     0
  9
$VISRETAIN
 70
     1
  9
$PLINEGEN
 70
     0
  9
$PSLTSCALE
 70
     1
  9
$TREEDEPTH
 70
  3020
  9
$CMLSTYLE
  2
Standard
  9
$CMLJUST
 70
     0
  9
$CMLSCALE
 40
1.0
  9
$PROXYGRAPHICS
 70
     1
  9
$MEASUREMENT
 70
     0
  9
$CELWEIGHT
370
    -1
  9
$ENDCAPS
280
     0
  9
$JOINSTYLE
280
     0
  9
$LWDISPLAY
290
     1
  9
$INSUNITS
 70
     1
  9
$HYPERLINKBASE
  1

  9
$STYLESHEET
  1

  9
$XEDIT
290
     1
  9
$CEPSNTYPE
380
     0
  9
$PSTYLEMODE
290
     1
  9
$FINGERPRINTGUID
  2
{62179C6E-9432-24A3-13F0-DE2EF792606A}
  9
$VERSIONGUID
  2
{FAEB1C32-E019-11D5-929B-00C0DF256EC4}
  9
$EXTNAMES
290
     1
  9
$PSVPSCALE
 40
0.0
  9
$OLESTARTUP
290
     0
  9
$SORTENTS
280
   127
  9
$INDEXCTL
280
     0
  9
$HIDETEXT
280
     1
  9
$XCLIPFRAME
280
     2
  9
$HALOGAP
280
     0
  9
$OBSCOLOR
 70
   257
  9
$OBSLTYPE
280
     0
  9
$INTERSECTIONDISPLAY
280
     0
  9
$INTERSECTIONCOLOR
 70
   257
  9
$DIMASSOC
280
     2
  9
$PROJECTNAME
  1

  9
$CAMERADISPLAY
290
     0
  9
$LENSLENGTH
 40
50.0
  9
$CAMERAHEIGHT
 40
0.0
  9
$STEPSPERSEC
 40
2.0
  9
$STEPSIZE
 40
6.0
  9
$3DDWFPREC
 40
2.0
  9
$PSOLWIDTH
 40
0.25
  9
$PSOLHEIGHT
 40
4.0
  9
$LOFTANG1
 40
1.570796326794897
  9
$LOFTANG2
 40
1.570796326794897
  9
$LOFTMAG1
 40
0.0
  9
$LOFTMAG2
 40
0.0
  9
$LOFTPARAM
 70
     7
  9
$LOFTNORMALS
280
     1
  9
$LATITUDE
 40
37.795
  9
$LONGITUDE
 40
-122.394
  9
$NORTHDIRECTION
 40
0.0
  9
$TIMEZONE
 70
 -8000
  9
$LIGHTGLYPHDISPLAY
280
     1
  9
$TILEMODELIGHTSYNCH
280
     1
  9
$CMATERIAL
347
3C
  9
$SOLIDHIST
280
     1
  9
$SHOWHIST
280
     1
  9
$DWFFRAME
280
     2
  9
$DGNFRAME
280
     2
  9
$REALWORLDSCALE
290
     1
  9
$INTERFERECOLOR
 62
   256
  9
$CSHADOW
280
     0
  9
$SHADOWPLANELOCATION
 40
0.0
  0
ENDSEC
  0
SECTION
  2
CLASSES
  0
CLASS
  1
ACDBDICTIONARYWDFLT
  2
AcDbDictionaryWithDefault
  3
ObjectDBX Classes
 90
        0
 91
        4
280
     0
281
     0
  0
CLASS
  1
VISUALSTYLE
  2
AcDbVisualStyle
  3
ObjectDBX Classes
 90
     4095
 91
        4
280
     0
281
     0
  0
CLASS
  1
MATERIAL
  2
AcDbMaterial
  3
ObjectDBX Classes
 90
     1153
 91
        4
280
     0
281
     0
  0
CLASS
  1
SUN
  2
AcDbSun
  3
SCENEOE
 90
     1024
 91
        4
280
     0
281
     0
  0
ENDSEC
  0
SECTION
  2
TABLES
  0
TABLE
  2
VPORT
  5
8
330
0
100
AcDbSymbolTable
 70
     1
  0
VPORT
  5
29
330
8
100
AcDbSymbolTableRecord
100
AcDbViewportTableRecord
  2
*Active
 70
     0
 10
0.0
 20
0.0
 11
1.0
 21
1.0
 12
0.0
 22
0.0
 13
0.0
 23
0.0
 14
0.5
 24
0.5
 15
0.5
 25
0.5
 16
0.0
 26
0.0
 36
1.0
 17
91.00082462281999
 27
-128.4993055234307
 37
0.0
 40
256.9986110468615
 41
0.7081814508812795
 42
50.0
 43
0.0
 44
0.0
 50
0.0
 51
0.0
 71
     0
 72
   100
 73
     1
 74
     3
 75
     0
 76
     0
 77
     0
 78
     0
281
     0
 65
     1
110
0.0
120
0.0
130
0.0
111
1.0
121
0.0
131
0.0
112
0.0
122
1.0
132
0.0
 79
     0
146
0.0
 60
     3
 61
     5
292
     1
282
     1
141
0.0
142
0.0
 63
   250
361
3F
  0
ENDTAB
  0
TABLE
  2
LTYPE
  5
5
330
0
100
AcDbSymbolTable
 70
     1
  0
LTYPE
  5
14
330
5
100
AcDbSymbolTableRecord
100
AcDbLinetypeTableRecord
  2
ByBlock
 70
     0
  3

 72
    65
 73
     0
 40
0.0
  0
LTYPE
  5
15
330
5
100
AcDbSymbolTableRecord
100
AcDbLinetypeTableRecord
  2
ByLayer
 70
     0
  3

 72
    65
 73
     0
 40
0.0
  0
LTYPE
  5
16
330
5
100
AcDbSymbolTableRecord
100
AcDbLinetypeTableRecord
  2
Continuous
 70
     0
  3
Solid line
 72
    65
 73
     0
 40
0.0
  0
ENDTAB
  0
TABLE
  2
LAYER
  5
2
330
0
100
AcDbSymbolTable
 70
     2
  0
LAYER
  5
10
330
2
100
AcDbSymbolTableRecord
100
AcDbLayerTableRecord
  2
0
 70
     0
 62
     7
  6
Continuous
370
    -3
390
F
347
3E
  0
LAYER
  5
40
330
2
100
AcDbSymbolTableRecord
100
AcDbLayerTableRecord
  2
_U+30EC_U+30A4_U+30E4_U+30FC 1
 70
     0
 62
     7
  6
Continuous
370
    -3
390
F
347
3E
  0
ENDTAB
  0
TABLE
  2
STYLE
  5
3
330
0
100
AcDbSymbolTable
 70
     1
  0
STYLE
  5
11
330
3
100
AcDbSymbolTableRecord
100
AcDbTextStyleTableRecord
  2
Standard
 70
     0
 40
0.0
 41
1.0
 50
0.0
 71
     0
 42
0.2
  3
txt
  4

  0
ENDTAB
  0
TABLE
  2
VIEW
  5
6
330
0
100
AcDbSymbolTable
 70
     0
  0
ENDTAB
  0
TABLE
  2
UCS
  5
7
330
0
100
AcDbSymbolTable
 70
     0
  0
ENDTAB
  0
TABLE
  2
APPID
  5
9
330
0
100
AcDbSymbolTable
 70
     1
  0
APPID
  5
12
330
9
100
AcDbSymbolTableRecord
100
AcDbRegAppTableRecord
  2
ACAD
 70
     0
  0
ENDTAB
  0
TABLE
  2
DIMSTYLE
  5
A
330
0
100
AcDbSymbolTable
 70
     1
100
AcDbDimStyleTable
  0
DIMSTYLE
105
27
330
A
100
AcDbSymbolTableRecord
100
AcDbDimStyleTableRecord
  2
Standard
 70
     0
178
     0
340
11
  0
ENDTAB
  0
TABLE
  2
BLOCK_RECORD
  5
1
330
0
100
AcDbSymbolTable
 70
     8
  0
BLOCK_RECORD
  5
1F
330
1
100
AcDbSymbolTableRecord
100
AcDbBlockTableRecord
  2
*Model_Space
340
22
 70
     0
280
     1
281
     0
  0
BLOCK_RECORD
  5
1B
330
1
100
AcDbSymbolTableRecord
100
AcDbBlockTableRecord
  2
*Paper_Space
340
1E
 70
     0
280
     1
281
     0
  0
BLOCK_RECORD
  5
23
330
1
100
AcDbSymbolTableRecord
100
AcDbBlockTableRecord
  2
*Paper_Space0
340
26
 70
     0
280
     1
281
     0
  0
BLOCK_RECORD
  5
50
330
1
100
AcDbSymbolTableRecord
100
AcDbBlockTableRecord
  2
block 2
340
0
102
{BLKREFS
331
51
102
}
 70
     0
280
     1
281
     0
  0
BLOCK_RECORD
  5
72
330
1
100
AcDbSymbolTableRecord
100
AcDbBlockTableRecord
  2
block 3
340
0
102
{BLKREFS
331
73
102
}
 70
     0
280
     1
281
     0
  0
BLOCK_RECORD
  5
78
330
1
100
AcDbSymbolTableRecord
100
AcDbBlockTableRecord
  2
block 4
340
0
102
{BLKREFS
331
79
102
}
 70
     0
280
     1
281
     0
  0
BLOCK_RECORD
  5
88
330
1
100
AcDbSymbolTableRecord
100
AcDbBlockTableRecord
  2
block 5
340
0
102
{BLKREFS
331
89
102
}
 70
     0
280
     1
281
     0
  0
BLOCK_RECORD
  5
90
330
1
100
AcDbSymbolTableRecord
100
AcDbBlockTableRecord
  2
block 6
340
0
102
{BLKREFS
331
91
102
}
 70
     0
280
     1
281
     0
  0
BLOCK_RECORD
  5
AE
330
1
100
AcDbSymbolTableRecord
100
AcDbBlockTableRecord
  2
block 7
340
0
102
{BLKREFS
331
AF
102
}
 70
     0
280
     1
281
     0
  0
BLOCK_RECORD
  5
C4
330
1
100
AcDbSymbolTableRecord
100
AcDbBlockTableRecord
  2
block 8
340
0
102
{BLKREFS
331
C5
102
}
 70
     0
280
     1
281
     0
  0
ENDTAB
  0
ENDSEC
  0
SECTION
  2
BLOCKS
  0
BLOCK
  5
20
330
1F
100
AcDbEntity
  8
0
100
AcDbBlockBegin
  2
*Model_Space
 70
     0
 10
0.0
 20
0.0
 30
0.0
  3
*Model_Space
  1

  0
ENDBLK
  5
21
330
1F
100
AcDbEntity
  8
0
100
AcDbBlockEnd
  0
BLOCK
  5
1C
330
1B
100
AcDbEntity
 67
     1
  8
0
100
AcDbBlockBegin
  2
*Paper_Space
 70
     0
 10
0.0
 20
0.0
 30
0.0
  3
*Paper_Space
  1

  0
ENDBLK
  5
1D
330
1B
100
AcDbEntity
 67
     1
  8
0
100
AcDbBlockEnd
  0
BLOCK
  5
24
330
23
100
AcDbEntity
  8
0
100
AcDbBlockBegin
  2
*Paper_Space0
 70
     0
 10
0.0
 20
0.0
 30
0.0
  3
*Paper_Space0
  1

  0
ENDBLK
  5
25
330
23
100
AcDbEntity
  8
0
100
AcDbBlockEnd
  0
BLOCK
  5
52
330
50
100
AcDbEntity
  8
0
100
AcDbBlockBegin
  2
block 2
 70
     0
 10
0.0
 20
0.0
 30
0.0
  3
block 2
  1

  0
SPLINE
  5
54
330
50
100
AcDbEntity
  8
_U+30EC_U+30A4_U+30E4_U+30FC 1
370
     0
100
AcDbSpline
210
0.0
220
0.0
230
1.0
 70
    11
 71
     3
 72
    26
 73
    22
 74
     0
 42
0.0000000001
 43
0.0000000001
 12
1.0
 22
0.0
 32
0.0
 13
1.0
 23
0.0
 33
0.0
 40
0.0
 40
0.0
 40
0.0
 40
0.0
 40
1.0
 40
1.0
 40
1.0
 40
2.0
 40
2.0
 40
2.0
 40
3.0
 40
3.0
 40
3.0
 40
4.0
 40
4.0
 40
4.0
 40
5.0
 40
5.0
 40
5.0
 40
6.0
 40
6.0
 40
6.0
 40
7.0
 40
7.0
 40
7.0
 40
7.0
 10
118.6342746014178
 20
-142.078149378543
 30
0.0
 10
118.6342746014178
 20
-142.078149378543
 30
0.0
 10
117.5301214983952
 20
-142.078149378543
 30
0.0
 10
117.5301214983952
 20
-142.078149378543
 30
0.0
 10
117.5301214983952
 20
-142.078149378543
 30
0.0
 10
117.5301214983952
 20
-142.430582646684
 30
0.0
 10
117.5301214983952
 20
-142.430582646684
 30
0.0
 10
117.5301214983952
 20
-142.430582646684
 30
0.0
 10
117.3819823925295
 20
-142.430582646684
 30
0.0
 10
117.3819823925295
 20
-142.430582646684
 30
0.0
 10
117.3671684819429
 20
-142.0757378117033
 30
0.0
 10
117.2042154654906
 20
-142.0261284367157
 30
0.0
 10
117.0898382953803
 20
-141.9944335582514
 30
0.0
 10
117.0898382953803
 20
-141.9944335582514
 30
0.0
 10
117.0898382953803
 20
-141.8383707327696
 30
0.0
 10
117.0898382953803
 20
-141.8383707327696
 30
0.0
 10
117.0898382953803
 20
-141.8383707327696
 30
0.0
 10
118.6342746014178
 20
-141.8383707327696
 30
0.0
 10
118.6342746014178
 20
-141.8383707327696
 30
0.0
 10
118.6342746014178
 20
-141.8383707327696
 30
0.0
 10
118.6342746014178
 20
-142.078149378543
 30
0.0
 10
118.6342746014178
 20
-142.078149378543
 30
0.0
  0
HATCH
  5
55
330
50
100
AcDbEntity
  8
_U+30EC_U+30A4_U+30E4_U+30FC 1
 62
     7
420
 16777215
100
AcDbHatch
 10
0.0
 20
0.0
 30
0.0
210
0.0
220
0.0
230
1.0
  2
SOLID
 70
     1
 71
     0
 91
        1
 92
        1
 93
        1
 72
     4
 94
        3
 73
     0
 74
     1
 95
       26
 96
       22
 40
0.0
 40
0.0
 40
0.0
 40
0.0
 40
1.0
 40
1.0
 40
1.0
 40
2.0
 40
2.0
 40
2.0
 40
3.0
 40
3.0
 40
3.0
 40
4.0
 40
4.0
 40
4.0
 40
5.0
 40
5.0
 40
5.0
 40
6.0
 40
6.0
 40
6.0
 40
7.0
 40
7.0
 40
7.0
 40
7.0
 10
118.6342746014178
 20
-142.078149378543
 10
118.6342746014178
 20
-142.078149378543
 10
117.5301214983952
 20
-142.078149378543
 10
117.5301214983952
 20
-142.078149378543
 10
117.5301214983952
 20
-142.078149378543
 10
117.5301214983952
 20
-142.430582646684
 10
117.5301214983952
 20
-142.430582646684
 10
117.5301214983952
 20
-142.430582646684
 10
117.3819823925295
 20
-142.430582646684
 10
117.3819823925295
 20
-142.430582646684
 10
117.3671684819429
 20
-142.0757378117033
 10
117.2042154654906
 20
-142.0261284367157
 10
117.0898382953803
 20
-141.9944335582514
 10
117.0898382953803
 20
-141.9944335582514
 10
117.0898382953803
 20
-141.8383707327696
 10
117.0898382953803
 20
-141.8383707327696
 10
117.0898382953803
 20
-141.8383707327696
 10
118.6342746014178
 20
-141.8383707327696
 10
118.6342746014178
 20
-141.8383707327696
 10
118.6342746014178
 20
-141.8383707327696
 10
118.6342746014178
 20
-142.078149378543
 10
118.6342746014178
 20
-142.078149378543
 97
        0
 97
        0
 75
     2
 76
     1
 98
        0
  0
POLYLINE
  5
56
330
50
100
AcDbEntity
  8
_U+30EC_U+30A4_U+30E4_U+30FC 1
370
     0
100
AcDb2dPolyline
 66
     1
 10
0.0
 20
0.0
 30
0.0
  0
VERTEX
  5
57
330
56
100
AcDbEntity
  8
_U+30EC_U+30A4_U+30E4_U+30FC 1
370
     0
100
AcDbVertex
100
AcDb2dVertex
 10
118.6342746014178
 20
-141.2385796087876
 30
0.0
  0
VERTEX
  5
58
330
56
100
AcDbEntity
  8
_U+30EC_U+30A4_U+30E4_U+30FC 1
370
     0
100
AcDbVertex
100
AcDb2dVertex
 10
118.3824381214461
 20
-141.2385796087876
 30
0.0
  0
VERTEX
  5
59
330
56
100
AcDbEntity
  8
_U+30EC_U+30A4_U+30E4_U+30FC 1
370
     0
100
AcDbVertex
100
AcDb2dVertex
 10
118.3824381214461
 20
-140.9695176513896
 30
0.0
  0
VERTEX
  5
5A
330
56
100
AcDbEntity
  8
_U+30EC_U+30A4_U+30E4_U+30FC 1
370
     0
100
AcDbVertex
100
AcDb2dVertex
 10
118.6342746014178
 20
-140.9695176513896
 30
0.0
  0
VERTEX
  5
5B
330
56
100
AcDbEntity
  8
_U+30EC_U+30A4_U+30E4_U+30FC 1
370
     0
100
AcDbVertex
100
AcDb2dVertex
 10
118.6342746014178
 20
-141.2385796087876
 30
0.0
  0
SEQEND
  5
5C
330
56
100
AcDbEntity
  8
_U+30EC_U+30A4_U+30E4_U+30FC 1
370
     0
  0
HATCH
  5
5D
330
50
100
AcDbEntity
  8
_U+30EC_U+30A4_U+30E4_U+30FC 1
 62
     7
420
 16777215
100
AcDbHatch
 10
0.0
 20
0.0
 30
0.0
210
0.0
220
0.0
230
1.0
  2
SOLID
 70
     1
 71
     0
 91
        1
 92
        1
 93
        4
 72
     1
 10
118.6342746014178
 20
-141.2385796087876
 11
118.3824381214461
 21
-141.2385796087876
 72
     1
 10
118.3824381214461
 20
-141.2385796087876
 11
118.3824381214461
 21
-140.9695176513896
 72
     1
 10
118.3824381214461
 20
-140.9695176513896
 11
118.6342746014178
 21
-140.9695176513896
 72
     1
 10
118.6342746014178
 20
-140.9695176513896
 11
118.6342746014178
 21
-141.2385796087876
 97
        0
 75
     2
 76
     1
 98
        0
  0
SPLINE
  5
5E
330
50
100
AcDbEntity
  8
_U+30EC_U+30A4_U+30E4_U+30FC 1
370
     0
100
AcDbSpline
210
0.0
220
0.0
230
1.0
 70
    11
 71
     3
 72
    53
 73
    49
 74
     0
 42
0.0000000001
 43
0.0000000001
 12
1.0
 22
0.0
 32
0.0
 13
1.0
 23
0.0
 33
0.0
 40
0.0
 40
0.0
 40
0.0
 40
0.0
 40
1.0
 40
1.0
 40
1.0
 40
2.0
 40
2.0
 40
2.0
 40
3.0
 40
3.0
 40
3.0
 40
4.0
 40
4.0
 40
4.0
 40
5.0
 40
5.0
 40
5.0
 40
6.0
 40
6.0
 40
6.0
 40
7.0
 40
7.0
 40
7.0
 40
8.0
 40
8.0
 40
8.0
 40
9.0
 40
9.0
 40
9.0
 40
10.0
 40
10.0
 40
10.0
 40
11.0
 40
11.0
 40
11.0
 40
12.0
 40
12.0
 40
12.0
 40
13.0
 40
13.0
 40
13.0
 40
14.0
 40
14.0
 40
14.0
 40
15.0
 40
15.0
 40
15.0
 40
16.0
 40
16.0
 40
16.0
 40
16.0
 10
118.684917505051
 20
-140.2026393963729
 30
0.0
 10
118.684917505051
 20
-140.2863552166645
 30
0.0
 10
118.6680365371733
 20
-140.3945312149014
 30
0.0
 10
118.6046467802447
 20
-140.5033962322353
 30
0.0
 10
118.4947482342652
 20
-140.6887423693417
 30
0.0
 10
118.3634900962772
 20
-140.7111354899958
 30
0.0
 10
118.2556586075889
 20
-140.7314615533588
 30
0.0
 10
118.2556586075889
 20
-140.7314615533588
 30
0.0
 10
118.2556586075889
 20
-140.4940944744251
 30
0.0
 10
118.2556586075889
 20
-140.4940944744251
 30
0.0
 10
118.4544406170878
 20
-140.4355278511758
 30
0.0
 10
118.4840684382609
 20
-140.299791089057
 30
0.0
 10
118.4840684382609
 20
-140.2002278295333
 30
0.0
 10
118.4840684382609
 20
-140.051055195022
 30
0.0
 10
118.3845051787372
 20
-139.8881021785697
 30
0.0
 10
118.1519612334829
 20
-139.8881021785697
 30
0.0
 10
117.8959906389288
 20
-139.8881021785697
 30
0.0
 10
117.8260552005782
 20
-140.0803385066466
 30
0.0
 10
117.8260552005782
 20
-140.2091850777949
 30
0.0
 10
117.8260552005782
 20
-140.2432915230989
 30
0.0
 10
117.8260552005782
 20
-140.3945312149014
 30
0.0
 10
117.9552462812751
 20
-140.4896158502943
 30
0.0
 10
117.9552462812751
 20
-140.4896158502943
 30
0.0
 10
117.9362982561062
 20
-140.6773735542404
 30
0.0
 10
117.9362982561062
 20
-140.6773735542404
 30
0.0
 10
117.9362982561062
 20
-140.6773735542404
 30
0.0
 10
117.0898382953803
 20
-140.548526983092
 30
0.0
 10
117.0898382953803
 20
-140.548526983092
 30
0.0
 10
117.0898382953803
 20
-140.548526983092
 30
0.0
 10
117.0898382953803
 20
-139.7165364234042
 30
0.0
 10
117.0898382953803
 20
-139.7165364234042
 30
0.0
 10
117.0898382953803
 20
-139.7165364234042
 30
0.0
 10
117.2844861902969
 20
-139.7165364234042
 30
0.0
 10
117.2844861902969
 20
-139.7165364234042
 30
0.0
 10
117.2844861902969
 20
-139.7165364234042
 30
0.0
 10
117.2844861902969
 20
-140.3742051515384
 30
0.0
 10
117.2844861902969
 20
-140.3742051515384
 30
0.0
 10
117.2844861902969
 20
-140.3742051515384
 30
0.0
 10
117.7075439158856
 20
-140.4444850994375
 30
0.0
 10
117.7075439158856
 20
-140.4444850994375
 30
0.0
 10
117.6737819801302
 20
-140.3790282852177
 30
0.0
 10
117.6334743629528
 20
-140.2908338407954
 30
0.0
 10
117.6334743629528
 20
-140.1640543269382
 30
0.0
 10
117.6334743629528
 20
-139.892925312249
 30
0.0
 10
117.8198540287048
 20
-139.6397107940831
 30
0.0
 10
118.133013208314
 20
-139.6397107940831
 30
0.0
 10
118.4503065025055
 20
-139.6397107940831
 30
0.0
 10
118.684917505051
 20
-139.879144930308
 30
0.0
 10
118.684917505051
 20
-140.2026393963729
 30
0.0
  0
HATCH
  5
5F
330
50
100
AcDbEntity
  8
_U+30EC_U+30A4_U+30E4_U+30FC 1
 62
     7
420
 16777215
100
AcDbHatch
 10
0.0
 20
0.0
 30
0.0
210
0.0
220
0.0
230
1.0
  2
SOLID
 70
     1
 71
     0
 91
        1
 92
        1
 93
        1
 72
     4
 94
        3
 73
     0
 74
     1
 95
       53
 96
       49
 40
0.0
 40
0.0
 40
0.0
 40
0.0
 40
1.0
 40
1.0
 40
1.0
 40
2.0
 40
2.0
 40
2.0
 40
3.0
 40
3.0
 40
3.0
 40
4.0
 40
4.0
 40
4.0
 40
5.0
 40
5.0
 40
5.0
 40
6.0
 40
6.0
 40
6.0
 40
7.0
 40
7.0
 40
7.0
 40
8.0
 40
8.0
 40
8.0
 40
9.0
 40
9.0
 40
9.0
 40
10.0
 40
10.0
 40
10.0
 40
11.0
 40
11.0
 40
11.0
 40
12.0
 40
12.0
 40
12.0
 40
13.0
 40
13.0
 40
13.0
 40
14.0
 40
14.0
 40
14.0
 40
15.0
 40
15.0
 40
15.0
 40
16.0
 40
16.0
 40
16.0
 40
16.0
 10
118.684917505051
 20
-140.2026393963729
 10
118.684917505051
 20
-140.2863552166645
 10
118.6680365371733
 20
-140.3945312149014
 10
118.6046467802447
 20
-140.5033962322353
 10
118.4947482342652
 20
-140.6887423693417
 10
118.3634900962772
 20
-140.7111354899958
 10
118.2556586075889
 20
-140.7314615533588
 10
118.2556586075889
 20
-140.7314615533588
 10
118.2556586075889
 20
-140.4940944744251
 10
118.2556586075889
 20
-140.4940944744251
 10
118.4544406170878
 20
-140.4355278511758
 10
118.4840684382609
 20
-140.299791089057
 10
118.4840684382609
 20
-140.2002278295333
 10
118.4840684382609
 20
-140.051055195022
 10
118.3845051787372
 20
-139.8881021785697
 10
118.1519612334829
 20
-139.8881021785697
 10
117.8959906389288
 20
-139.8881021785697
 10
117.8260552005782
 20
-140.0803385066466
 10
117.8260552005782
 20
-140.2091850777949
 10
117.8260552005782
 20
-140.2432915230989
 10
117.8260552005782
 20
-140.3945312149014
 10
117.9552462812751
 20
-140.4896158502943
 10
117.9552462812751
 20
-140.4896158502943
 10
117.9362982561062
 20
-140.6773735542404
 10
117.9362982561062
 20
-140.6773735542404
 10
117.9362982561062
 20
-140.6773735542404
 10
117.0898382953803
 20
-140.548526983092
 10
117.0898382953803
 20
-140.548526983092
 10
117.0898382953803
 20
-140.548526983092
 10
117.0898382953803
 20
-139.7165364234042
 10
117.0898382953803
 20
-139.7165364234042
 10
117.0898382953803
 20
-139.7165364234042
 10
117.2844861902969
 20
-139.7165364234042
 10
117.2844861902969
 20
-139.7165364234042
 10
117.2844861902969
 20
-139.7165364234042
 10
117.2844861902969
 20
-140.3742051515384
 10
117.2844861902969
 20
-140.3742051515384
 10
117.2844861902969
 20
-140.3742051515384
 10
117.7075439158856
 20
-140.4444850994375
 10
117.7075439158856
 20
-140.4444850994375
 10
117.6737819801302
 20
-140.3790282852177
 10
117.6334743629528
 20
-140.2908338407954
 10
117.6334743629528
 20
-140.1640543269382
 10
117.6334743629528
 20
-139.892925312249
 10
117.8198540287048
 20
-139.6397107940831
 10
118.133013208314
 20
-139.6397107940831
 10
118.4503065025055
 20
-139.6397107940831
 10
118.684917505051
 20
-139.879144930308
 10
118.684917505051
 20
-140.2026393963729
 97
        0
 97
        0
 75
     2
 76
     1
 98
        0
  0
ENDBLK
  5
53
330
50
100
AcDbEntity
  8
0
100
AcDbBlockEnd
  0
BLOCK
  5
74
330
72
100
AcDbEntity
  8
0
100
AcDbBlockBegin
  2
block 3
 70
     0
 10
0.0
 20
0.0
 30
0.0
  3
block 3
  1

  0
SPLINE
  5
76
330
72
100
AcDbEntity
  8
_U+30EC_U+30A4_U+30E4_U+30FC 1
370
     0
100
AcDbSpline
210
0.0
220
0.0
230
1.0
 70
    11
 71
     3
 72
    26
 73
    22
 74
     0
 42
0.0000000001
 43
0.0000000001
 12
1.0
 22
0.0
 32
0.0
 13
1.0
 23
0.0
 33
0.0
 40
0.0
 40
0.0
 40
0.0
 40
0.0
 40
1.0
 40
1.0
 40
1.0
 40
2.0
 40
2.0
 40
2.0
 40
3.0
 40
3.0
 40
3.0
 40
4.0
 40
4.0
 40
4.0
 40
5.0
 40
5.0
 40
5.0
 40
6.0
 40
6.0
 40
6.0
 40
7.0
 40
7.0
 40
7.0
 40
7.0
 10
118.6342746014178
 20
-126.8067301115275
 30
0.0
 10
118.6342746014178
 20
-126.8067301115275
 30
0.0
 10
117.5301214983952
 20
-126.8067301115275
 30
0.0
 10
117.5301214983952
 20
-126.8067301115275
 30
0.0
 10
117.5301214983952
 20
-126.8067301115275
 30
0.0
 10
117.5301214983952
 20
-127.1591633796685
 30
0.0
 10
117.5301214983952
 20
-127.1591633796685
 30
0.0
 10
117.5301214983952
 20
-127.1591633796685
 30
0.0
 10
117.3819823925295
 20
-127.1591633796685
 30
0.0
 10
117.3819823925295
 20
-127.1591633796685
 30
0.0
 10
117.3671684819429
 20
-126.8043185446878
 30
0.0
 10
117.2042154654906
 20
-126.7547091697002
 30
0.0
 10
117.0898382953803
 20
-126.7230142912359
 30
0.0
 10
117.0898382953803
 20
-126.7230142912359
 30
0.0
 10
117.0898382953803
 20
-126.5669514657541
 30
0.0
 10
117.0898382953803
 20
-126.5669514657541
 30
0.0
 10
117.0898382953803
 20
-126.5669514657541
 30
0.0
 10
118.6342746014178
 20
-126.5669514657541
 30
0.0
 10
118.6342746014178
 20
-126.5669514657541
 30
0.0
 10
118.6342746014178
 20
-126.5669514657541
 30
0.0
 10
118.6342746014178
 20
-126.8067301115275
 30
0.0
 10
118.6342746014178
 20
-126.8067301115275
 30
0.0
  0
HATCH
  5
77
330
72
100
AcDbEntity
  8
_U+30EC_U+30A4_U+30E4_U+30FC 1
 62
     7
420
 16777215
100
AcDbHatch
 10
0.0
 20
0.0
 30
0.0
210
0.0
220
0.0
230
1.0
  2
SOLID
 70
     1
 71
     0
 91
        1
 92
        1
 93
        1
 72
     4
 94
        3
 73
     0
 74
     1
 95
       26
 96
       22
 40
0.0
 40
0.0
 40
0.0
 40
0.0
 40
1.0
 40
1.0
 40
1.0
 40
2.0
 40
2.0
 40
2.0
 40
3.0
 40
3.0
 40
3.0
 40
4.0
 40
4.0
 40
4.0
 40
5.0
 40
5.0
 40
5.0
 40
6.0
 40
6.0
 40
6.0
 40
7.0
 40
7.0
 40
7.0
 40
7.0
 10
118.6342746014178
 20
-126.8067301115275
 10
118.6342746014178
 20
-126.8067301115275
 10
117.5301214983952
 20
-126.8067301115275
 10
117.5301214983952
 20
-126.8067301115275
 10
117.5301214983952
 20
-126.8067301115275
 10
117.5301214983952
 20
-127.1591633796685
 10
117.5301214983952
 20
-127.1591633796685
 10
117.5301214983952
 20
-127.1591633796685
 10
117.3819823925295
 20
-127.1591633796685
 10
117.3819823925295
 20
-127.1591633796685
 10
117.3671684819429
 20
-126.8043185446878
 10
117.2042154654906
 20
-126.7547091697002
 10
117.0898382953803
 20
-126.7230142912359
 10
117.0898382953803
 20
-126.7230142912359
 10
117.0898382953803
 20
-126.5669514657541
 10
117.0898382953803
 20
-126.5669514657541
 10
117.0898382953803
 20
-126.5669514657541
 10
118.6342746014178
 20
-126.5669514657541
 10
118.6342746014178
 20
-126.5669514657541
 10
118.6342746014178
 20
-126.5669514657541
 10
118.6342746014178
 20
-126.8067301115275
 10
118.6342746014178
 20
-126.8067301115275
 97
        0
 97
        0
 75
     2
 76
     1
 98
        0
  0
ENDBLK
  5
75
330
72
100
AcDbEntity
  8
0
100
AcDbBlockEnd
  0
BLOCK
  5
7A
330
78
100
AcDbEntity
  8
0
100
AcDbBlockBegin
  2
block 4
 70
     0
 10
0.0
 20
0.0
 30
0.0
  3
block 4
  1

  0
SPLINE
  5
7C
330
78
100
AcDbEntity
  8
_U+30EC_U+30A4_U+30E4_U+30FC 1
370
     0
100
AcDbSpline
210
0.0
220
0.0
230
1.0
 70
    11
 71
     3
 72
    44
 73
    40
 74
     0
 42
0.0000000001
 43
0.0000000001
 12
1.0
 22
0.0
 32
0.0
 13
1.0
 23
0.0
 33
0.0
 40
0.0
 40
0.0
 40
0.0
 40
0.0
 40
1.0
 40
1.0
 40
1.0
 40
2.0
 40
2.0
 40
2.0
 40
3.0
 40
3.0
 40
3.0
 40
4.0
 40
4.0
 40
4.0
 40
5.0
 40
5.0
 40
5.0
 40
6.0
 40
6.0
 40
6.0
 40
7.0
 40
7.0
 40
7.0
 40
8.0
 40
8.0
 40
8.0
 40
9.0
 40
9.0
 40
9.0
 40
10.0
 40
10.0
 40
10.0
 40
11.0
 40
11.0
 40
11.0
 40
12.0
 40
12.0
 40
12.0
 40
13.0
 40
13.0
 40
13.0
 40
13.0
 10
118.0523979739591
 20
-113.9554904229
 30
0.0
 10
118.2112168758292
 20
-114.1883788777029
 30
0.0
 10
118.285286428762
 20
-114.2879421372266
 30
0.0
 10
118.4289469104969
 20
-114.3396185695054
 30
0.0
 10
118.4289469104969
 20
-114.3396185695054
 30
0.0
 10
118.4289469104969
 20
-113.5079725193661
 30
0.0
 10
118.4289469104969
 20
-113.5079725193661
 30
0.0
 10
118.4289469104969
 20
-113.5079725193661
 30
0.0
 10
118.6342746014178
 20
-113.5079725193661
 30
0.0
 10
118.6342746014178
 20
-113.5079725193661
 30
0.0
 10
118.6342746014178
 20
-113.5079725193661
 30
0.0
 10
118.6342746014178
 20
-114.6066134696122
 30
0.0
 10
118.6342746014178
 20
-114.6066134696122
 30
0.0
 10
118.2766736900489
 20
-114.5725070243083
 30
0.0
 10
118.1984700225337
 20
-114.5025715859577
 30
0.0
 10
117.9001247535111
 20
-114.0912271850189
 30
0.0
 10
117.7013427440122
 20
-113.81768660349
 30
0.0
 10
117.6334743629528
 20
-113.7474066555909
 30
0.0
 10
117.4960150530913
 20
-113.7474066555909
 30
0.0
 10
117.3775037683987
 20
-113.7474066555909
 30
0.0
 10
117.2465901399592
 20
-113.824232284912
 30
0.0
 10
117.2465901399592
 20
-114.0347276190608
 30
0.0
 10
117.2465901399592
 20
-114.3127468247204
 30
0.0
 10
117.4770670279224
 20
-114.3217040729821
 30
0.0
 10
117.5935112553238
 20
-114.3261826971129
 30
0.0
 10
117.5935112553238
 20
-114.3261826971129
 30
0.0
 10
117.5935112553238
 20
-114.5659613428863
 30
0.0
 10
117.5935112553238
 20
-114.5659613428863
 30
0.0
 10
117.4663872319181
 20
-114.5566595850761
 30
0.0
 10
117.3544216286475
 20
-114.5456352795233
 30
0.0
 10
117.2359103439549
 20
-114.4595078923921
 30
0.0
 10
117.0750243847937
 20
-114.3420301363451
 30
0.0
 10
117.0412624490383
 20
-114.1432481268461
 30
0.0
 10
117.0412624490383
 20
-114.0188801798286
 30
0.0
 10
117.0412624490383
 20
-113.7226019680971
 30
0.0
 10
117.2252305479506
 20
-113.5010823283956
 30
0.0
 10
117.4980821103824
 20
-113.5010823283956
 30
0.0
 10
117.726836450603
 20
-113.5010823283956
 30
0.0
 10
117.8260552005782
 20
-113.6254502754131
 30
0.0
 10
118.0523979739591
 20
-113.9554904229
 30
0.0
  0
HATCH
  5
7D
330
78
100
AcDbEntity
  8
_U+30EC_U+30A4_U+30E4_U+30FC 1
 62
     7
420
 16777215
100
AcDbHatch
 10
0.0
 20
0.0
 30
0.0
210
0.0
220
0.0
230
1.0
  2
SOLID
 70
     1
 71
     0
 91
        1
 92
        1
 93
        1
 72
     4
 94
        3
 73
     0
 74
     1
 95
       44
 96
       40
 40
0.0
 40
0.0
 40
0.0
 40
0.0
 40
1.0
 40
1.0
 40
1.0
 40
2.0
 40
2.0
 40
2.0
 40
3.0
 40
3.0
 40
3.0
 40
4.0
 40
4.0
 40
4.0
 40
5.0
 40
5.0
 40
5.0
 40
6.0
 40
6.0
 40
6.0
 40
7.0
 40
7.0
 40
7.0
 40
8.0
 40
8.0
 40
8.0
 40
9.0
 40
9.0
 40
9.0
 40
10.0
 40
10.0
 40
10.0
 40
11.0
 40
11.0
 40
11.0
 40
12.0
 40
12.0
 40
12.0
 40
13.0
 40
13.0
 40
13.0
 40
13.0
 10
118.0523979739591
 20
-113.9554904229
 10
118.2112168758292
 20
-114.1883788777029
 10
118.285286428762
 20
-114.2879421372266
 10
118.4289469104969
 20
-114.3396185695054
 10
118.4289469104969
 20
-114.3396185695054
 10
118.4289469104969
 20
-113.5079725193661
 10
118.4289469104969
 20
-113.5079725193661
 10
118.4289469104969
 20
-113.5079725193661
 10
118.6342746014178
 20
-113.5079725193661
 10
118.6342746014178
 20
-113.5079725193661
 10
118.6342746014178
 20
-113.5079725193661
 10
118.6342746014178
 20
-114.6066134696122
 10
118.6342746014178
 20
-114.6066134696122
 10
118.2766736900489
 20
-114.5725070243083
 10
118.1984700225337
 20
-114.5025715859577
 10
117.9001247535111
 20
-114.0912271850189
 10
117.7013427440122
 20
-113.81768660349
 10
117.6334743629528
 20
-113.7474066555909
 10
117.4960150530913
 20
-113.7474066555909
 10
117.3775037683987
 20
-113.7474066555909
 10
117.2465901399592
 20
-113.824232284912
 10
117.2465901399592
 20
-114.0347276190608
 10
117.2465901399592
 20
-114.3127468247204
 10
117.4770670279224
 20
-114.3217040729821
 10
117.5935112553238
 20
-114.3261826971129
 10
117.5935112553238
 20
-114.3261826971129
 10
117.5935112553238
 20
-114.5659613428863
 10
117.5935112553238
 20
-114.5659613428863
 10
117.4663872319181
 20
-114.5566595850761
 10
117.3544216286475
 20
-114.5456352795233
 10
117.2359103439549
 20
-114.4595078923921
 10
117.0750243847937
 20
-114.3420301363451
 10
117.0412624490383
 20
-114.1432481268461
 10
117.0412624490383
 20
-114.0188801798286
 10
117.0412624490383
 20
-113.7226019680971
 10
117.2252305479506
 20
-113.5010823283956
 10
117.4980821103824
 20
-113.5010823283956
 10
117.726836450603
 20
-113.5010823283956
 10
117.8260552005782
 20
-113.6254502754131
 10
118.0523979739591
 20
-113.9554904229
 97
        0
 97
        0
 75
     2
 76
     1
 98
        0
  0
SPLINE
  5
7E
330
78
100
AcDbEntity
  8
_U+30EC_U+30A4_U+30E4_U+30FC 1
370
     0
100
AcDbSpline
210
0.0
220
0.0
230
1.0
 70
    11
 71
     3
 72
    53
 73
    49
 74
     0
 42
0.0000000001
 43
0.0000000001
 12
1.0
 22
0.0
 32
0.0
 13
1.0
 23
0.0
 33
0.0
 40
0.0
 40
0.0
 40
0.0
 40
0.0
 40
1.0
 40
1.0
 40
1.0
 40
2.0
 40
2.0
 40
2.0
 40
3.0
 40
3.0
 40
3.0
 40
4.0
 40
4.0
 40
4.0
 40
5.0
 40
5.0
 40
5.0
 40
6.0
 40
6.0
 40
6.0
 40
7.0
 40
7.0
 40
7.0
 40
8.0
 40
8.0
 40
8.0
 40
9.0
 40
9.0
 40
9.0
 40
10.0
 40
10.0
 40
10.0
 40
11.0
 40
11.0
 40
11.0
 40
12.0
 40
12.0
 40
12.0
 40
13.0
 40
13.0
 40
13.0
 40
14.0
 40
14.0
 40
14.0
 40
15.0
 40
15.0
 40
15.0
 40
16.0
 40
16.0
 40
16.0
 40
16.0
 10
118.684917505051
 20
-112.817575384122
 30
0.0
 10
118.684917505051
 20
-112.900946694865
 30
0.0
 10
118.6680365371733
 20
-113.0098117121989
 30
0.0
 10
118.6046467802447
 20
-113.1179877104358
 30
0.0
 10
118.4947482342652
 20
-113.3036783570907
 30
0.0
 10
118.3634900962772
 20
-113.3260714777449
 30
0.0
 10
118.2556586075889
 20
-113.3463975411078
 30
0.0
 10
118.2556586075889
 20
-113.3463975411078
 30
0.0
 10
118.2556586075889
 20
-113.1090304621741
 30
0.0
 10
118.2556586075889
 20
-113.1090304621741
 30
0.0
 10
118.4544406170878
 20
-113.0504638389249
 30
0.0
 10
118.4840684382609
 20
-112.914727076806
 30
0.0
 10
118.4840684382609
 20
-112.8151638172823
 30
0.0
 10
118.4840684382609
 20
-112.665991182771
 30
0.0
 10
118.3845051787372
 20
-112.5033826758672
 30
0.0
 10
118.1519612334829
 20
-112.5033826758672
 30
0.0
 10
117.8959906389288
 20
-112.5033826758672
 30
0.0
 10
117.8260552005782
 20
-112.6952744943956
 30
0.0
 10
117.8260552005782
 20
-112.824121065544
 30
0.0
 10
117.8260552005782
 20
-112.858227510848
 30
0.0
 10
117.8260552005782
 20
-113.0098117121989
 30
0.0
 10
117.9552462812751
 20
-113.1045518380433
 30
0.0
 10
117.9552462812751
 20
-113.1045518380433
 30
0.0
 10
117.9362982561062
 20
-113.2923095419894
 30
0.0
 10
117.9362982561062
 20
-113.2923095419894
 30
0.0
 10
117.9362982561062
 20
-113.2923095419894
 30
0.0
 10
117.0898382953803
 20
-113.1634629708411
 30
0.0
 10
117.0898382953803
 20
-113.1634629708411
 30
0.0
 10
117.0898382953803
 20
-113.1634629708411
 30
0.0
 10
117.0898382953803
 20
-112.3314724111532
 30
0.0
 10
117.0898382953803
 20
-112.3314724111532
 30
0.0
 10
117.0898382953803
 20
-112.3314724111532
 30
0.0
 10
117.2844861902969
 20
-112.3314724111532
 30
0.0
 10
117.2844861902969
 20
-112.3314724111532
 30
0.0
 10
117.2844861902969
 20
-112.3314724111532
 30
0.0
 10
117.2844861902969
 20
-112.9891411392874
 30
0.0
 10
117.2844861902969
 20
-112.9891411392874
 30
0.0
 10
117.2844861902969
 20
-112.9891411392874
 30
0.0
 10
117.7075439158856
 20
-113.0594210871865
 30
0.0
 10
117.7075439158856
 20
-113.0594210871865
 30
0.0
 10
117.6737819801302
 20
-112.9939642729668
 30
0.0
 10
117.6334743629528
 20
-112.9057698285444
 30
0.0
 10
117.6334743629528
 20
-112.7789903146872
 30
0.0
 10
117.6334743629528
 20
-112.507861299998
 30
0.0
 10
117.8198540287048
 20
-112.2546467818322
 30
0.0
 10
118.133013208314
 20
-112.2546467818322
 30
0.0
 10
118.4503065025055
 20
-112.2546467818322
 30
0.0
 10
118.684917505051
 20
-112.494080918057
 30
0.0
 10
118.684917505051
 20
-112.817575384122
 30
0.0
  0
HATCH
  5
7F
330
78
100
AcDbEntity
  8
_U+30EC_U+30A4_U+30E4_U+30FC 1
 62
     7
420
 16777215
100
AcDbHatch
 10
0.0
 20
0.0
 30
0.0
210
0.0
220
0.0
230
1.0
  2
SOLID
 70
     1
 71
     0
 91
        1
 92
        1
 93
        1
 72
     4
 94
        3
 73
     0
 74
     1
 95
       53
 96
       49
 40
0.0
 40
0.0
 40
0.0
 40
0.0
 40
1.0
 40
1.0
 40
1.0
 40
2.0
 40
2.0
 40
2.0
 40
3.0
 40
3.0
 40
3.0
 40
4.0
 40
4.0
 40
4.0
 40
5.0
 40
5.0
 40
5.0
 40
6.0
 40
6.0
 40
6.0
 40
7.0
 40
7.0
 40
7.0
 40
8.0
 40
8.0
 40
8.0
 40
9.0
 40
9.0
 40
9.0
 40
10.0
 40
10.0
 40
10.0
 40
11.0
 40
11.0
 40
11.0
 40
12.0
 40
12.0
 40
12.0
 40
13.0
 40
13.0
 40
13.0
 40
14.0
 40
14.0
 40
14.0
 40
15.0
 40
15.0
 40
15.0
 40
16.0
 40
16.0
 40
16.0
 40
16.0
 10
118.684917505051
 20
-112.817575384122
 10
118.684917505051
 20
-112.900946694865
 10
118.6680365371733
 20
-113.0098117121989
 10
118.6046467802447
 20
-113.1179877104358
 10
118.4947482342652
 20
-113.3036783570907
 10
118.3634900962772
 20
-113.3260714777449
 10
118.2556586075889
 20
-113.3463975411078
 10
118.2556586075889
 20
-113.3463975411078
 10
118.2556586075889
 20
-113.1090304621741
 10
118.2556586075889
 20
-113.1090304621741
 10
118.4544406170878
 20
-113.0504638389249
 10
118.4840684382609
 20
-112.914727076806
 10
118.4840684382609
 20
-112.8151638172823
 10
118.4840684382609
 20
-112.665991182771
 10
118.3845051787372
 20
-112.5033826758672
 10
118.1519612334829
 20
-112.5033826758672
 10
117.8959906389288
 20
-112.5033826758672
 10
117.8260552005782
 20
-112.6952744943956
 10
117.8260552005782
 20
-112.824121065544
 10
117.8260552005782
 20
-112.858227510848
 10
117.8260552005782
 20
-113.0098117121989
 10
117.9552462812751
 20
-113.1045518380433
 10
117.9552462812751
 20
-113.1045518380433
 10
117.9362982561062
 20
-113.2923095419894
 10
117.9362982561062
 20
-113.2923095419894
 10
117.9362982561062
 20
-113.2923095419894
 10
117.0898382953803
 20
-113.1634629708411
 10
117.0898382953803
 20
-113.1634629708411
 10
117.0898382953803
 20
-113.1634629708411
 10
117.0898382953803
 20
-112.3314724111532
 10
117.0898382953803
 20
-112.3314724111532
 10
117.0898382953803
 20
-112.3314724111532
 10
117.2844861902969
 20
-112.3314724111532
 10
117.2844861902969
 20
-112.3314724111532
 10
117.2844861902969
 20
-112.3314724111532
 10
117.2844861902969
 20
-112.9891411392874
 10
117.2844861902969
 20
-112.9891411392874
 10
117.2844861902969
 20
-112.9891411392874
 10
117.7075439158856
 20
-113.0594210871865
 10
117.7075439158856
 20
-113.0594210871865
 10
117.6737819801302
 20
-112.9939642729668
 10
117.6334743629528
 20
-112.9057698285444
 10
117.6334743629528
 20
-112.7789903146872
 10
117.6334743629528
 20
-112.507861299998
 10
117.8198540287048
 20
-112.2546467818322
 10
118.133013208314
 20
-112.2546467818322
 10
118.4503065025055
 20
-112.2546467818322
 10
118.684917505051
 20
-112.494080918057
 10
118.684917505051
 20
-112.817575384122
 97
        0
 97
        0
 75
     2
 76
     1
 98
        0
  0
ENDBLK
  5
7B
330
78
100
AcDbEntity
  8
0
100
AcDbBlockEnd
  0
BLOCK
  5
8A
330
88
100
AcDbEntity
  8
0
100
AcDbBlockBegin
  2
block 5
 70
     0
 10
0.0
 20
0.0
 30
0.0
  3
block 5
  1

  0
SPLINE
  5
8C
330
88
100
AcDbEntity
  8
_U+30EC_U+30A4_U+30E4_U+30FC 1
370
     0
100
AcDbSpline
210
0.0
220
0.0
230
1.0
 70
    11
 71
     3
 72
    26
 73
    22
 74
     0
 42
0.0000000001
 43
0.0000000001
 12
1.0
 22
0.0
 32
0.0
 13
1.0
 23
0.0
 33
0.0
 40
0.0
 40
0.0
 40
0.0
 40
0.0
 40
1.0
 40
1.0
 40
1.0
 40
2.0
 40
2.0
 40
2.0
 40
3.0
 40
3.0
 40
3.0
 40
4.0
 40
4.0
 40
4.0
 40
5.0
 40
5.0
 40
5.0
 40
6.0
 40
6.0
 40
6.0
 40
7.0
 40
7.0
 40
7.0
 40
7.0
 10
114.7588866900603
 20
-134.4348605349677
 30
0.0
 10
114.7588866900603
 20
-134.4348605349677
 30
0.0
 10
113.6547335870377
 20
-134.4348605349677
 30
0.0
 10
113.6547335870377
 20
-134.4348605349677
 30
0.0
 10
113.6547335870377
 20
-134.4348605349677
 30
0.0
 10
113.6547335870377
 20
-134.7872938031087
 30
0.0
 10
113.6547335870377
 20
-134.7872938031087
 30
0.0
 10
113.6547335870377
 20
-134.7872938031087
 30
0.0
 10
113.506594481172
 20
-134.7872938031087
 30
0.0
 10
113.506594481172
 20
-134.7872938031087
 30
0.0
 10
113.4917805705854
 20
-134.432448968128
 30
0.0
 10
113.3288275541331
 20
-134.3828395931404
 30
0.0
 10
113.2144503840228
 20
-134.3511447146761
 30
0.0
 10
113.2144503840228
 20
-134.3511447146761
 30
0.0
 10
113.2144503840228
 20
-134.1950818891943
 30
0.0
 10
113.2144503840228
 20
-134.1950818891943
 30
0.0
 10
113.2144503840228
 20
-134.1950818891943
 30
0.0
 10
114.7588866900603
 20
-134.1950818891943
 30
0.0
 10
114.7588866900603
 20
-134.1950818891943
 30
0.0
 10
114.7588866900603
 20
-134.1950818891943
 30
0.0
 10
114.7588866900603
 20
-134.4348605349677
 30
0.0
 10
114.7588866900603
 20
-134.4348605349677
 30
0.0
  0
HATCH
  5
8D
330
88
100
AcDbEntity
  8
_U+30EC_U+30A4_U+30E4_U+30FC 1
 62
     7
420
 16777215
100
AcDbHatch
 10
0.0
 20
0.0
 30
0.0
210
0.0
220
0.0
230
1.0
  2
SOLID
 70
     1
 71
     0
 91
        1
 92
        1
 93
        1
 72
     4
 94
        3
 73
     0
 74
     1
 95
       26
 96
       22
 40
0.0
 40
0.0
 40
0.0
 40
0.0
 40
1.0
 40
1.0
 40
1.0
 40
2.0
 40
2.0
 40
2.0
 40
3.0
 40
3.0
 40
3.0
 40
4.0
 40
4.0
 40
4.0
 40
5.0
 40
5.0
 40
5.0
 40
6.0
 40
6.0
 40
6.0
 40
7.0
 40
7.0
 40
7.0
 40
7.0
 10
114.7588866900603
 20
-134.4348605349677
 10
114.7588866900603
 20
-134.4348605349677
 10
113.6547335870377
 20
-134.4348605349677
 10
113.6547335870377
 20
-134.4348605349677
 10
113.6547335870377
 20
-134.4348605349677
 10
113.6547335870377
 20
-134.7872938031087
 10
113.6547335870377
 20
-134.7872938031087
 10
113.6547335870377
 20
-134.7872938031087
 10
113.506594481172
 20
-134.7872938031087
 10
113.506594481172
 20
-134.7872938031087
 10
113.4917805705854
 20
-134.432448968128
 10
113.3288275541331
 20
-134.3828395931404
 10
113.2144503840228
 20
-134.3511447146761
 10
113.2144503840228
 20
-134.3511447146761
 10
113.2144503840228
 20
-134.1950818891943
 10
113.2144503840228
 20
-134.1950818891943
 10
113.2144503840228
 20
-134.1950818891943
 10
114.7588866900603
 20
-134.1950818891943
 10
114.7588866900603
 20
-134.1950818891943
 10
114.7588866900603
 20
-134.1950818891943
 10
114.7588866900603
 20
-134.4348605349677
 10
114.7588866900603
 20
-134.4348605349677
 97
        0
 97
        0
 75
     2
 76
     1
 98
        0
  0
SPLINE
  5
8E
330
88
100
AcDbEntity
  8
_U+30EC_U+30A4_U+30E4_U+30FC 1
370
     0
100
AcDbSpline
210
0.0
220
0.0
230
1.0
 70
    11
 71
     3
 72
    62
 73
    58
 74
     0
 42
0.0000000001
 43
0.0000000001
 12
1.0
 22
0.0
 32
0.0
 13
1.0
 23
0.0
 33
0.0
 40
0.0
 40
0.0
 40
0.0
 40
0.0
 40
1.0
 40
1.0
 40
1.0
 40
2.0
 40
2.0
 40
2.0
 40
3.0
 40
3.0
 40
3.0
 40
4.0
 40
4.0
 40
4.0
 40
5.0
 40
5.0
 40
5.0
 40
6.0
 40
6.0
 40
6.0
 40
7.0
 40
7.0
 40
7.0
 40
8.0
 40
8.0
 40
8.0
 40
9.0
 40
9.0
 40
9.0
 40
10.0
 40
10.0
 40
10.0
 40
11.0
 40
11.0
 40
11.0
 40
12.0
 40
12.0
 40
12.0
 40
13.0
 40
13.0
 40
13.0
 40
14.0
 40
14.0
 40
14.0
 40
15.0
 40
15.0
 40
15.0
 40
16.0
 40
16.0
 40
16.0
 40
17.0
 40
17.0
 40
17.0
 40
18.0
 40
18.0
 40
18.0
 40
19.0
 40
19.0
 40
19.0
 40
19.0
 10
114.8095295936935
 20
-133.1339924797373
 30
0.0
 10
114.8095295936935
 20
-133.2356227965522
 30
0.0
 10
114.7885145112334
 20
-133.4685112513551
 30
0.0
 10
114.6024793550299
 20
-133.6018364466343
 30
0.0
 10
114.4901692422108
 20
-133.681073642795
 30
0.0
 10
114.3909504922356
 20
-133.6855522669258
 30
0.0
 10
114.3062011432985
 20
-133.6900308910567
 30
0.0
 10
114.3062011432985
 20
-133.6900308910567
 30
0.0
 10
114.3062011432985
 20
-133.4550753789626
 30
0.0
 10
114.3062011432985
 20
-133.4550753789626
 30
0.0
 10
114.3802706962313
 20
-133.4526638121229
 30
0.0
 10
114.6148816987768
 20
-133.4412949970216
 30
0.0
 10
114.6148816987768
 20
-133.1384711038682
 30
0.0
 10
114.6148816987768
 20
-132.991365526648
 30
0.0
 10
114.5452907699748
 20
-132.8287570197442
 30
0.0
 10
114.3168809393027
 20
-132.8287570197442
 30
0.0
 10
114.2004367119013
 20
-132.8287570197442
 30
0.0
 10
114.1518608655593
 20
-132.8694091464702
 30
0.0
 10
114.120165987095
 20
-132.9031710822256
 30
0.0
 10
114.0460964341621
 20
-132.9824082783863
 30
0.0
 10
114.0333495808667
 20
-133.1067762254039
 30
0.0
 10
114.0333495808667
 20
-133.1656873582016
 30
0.0
 10
114.0333495808667
 20
-133.1860134215646
 30
0.0
 10
114.0354166381578
 20
-133.2242539814509
 30
0.0
 10
114.0395507527401
 20
-133.253881802624
 30
0.0
 10
114.0395507527401
 20
-133.253881802624
 30
0.0
 10
113.8449028578235
 20
-133.253881802624
 30
0.0
 10
113.8449028578235
 20
-133.253881802624
 30
0.0
 10
113.8514485392455
 20
-133.2128851663496
 30
0.0
 10
113.8535155965366
 20
-133.1677544154928
 30
0.0
 10
113.8535155965366
 20
-133.1612087340708
 30
0.0
 10
113.8535155965366
 20
-133.0909287861717
 30
0.0
 10
113.8321560045281
 20
-132.8783663947318
 30
0.0
 10
113.5954779446914
 20
-132.8783663947318
 30
0.0
 10
113.4177110176525
 20
-132.8783663947318
 30
0.0
 10
113.3625894898885
 20
-133.0185817809815
 30
0.0
 10
113.3625894898885
 20
-133.1360595370285
 30
0.0
 10
113.3625894898885
 20
-133.4189018763675
 30
0.0
 10
113.5954779446914
 20
-133.4278591246292
 30
0.0
 10
113.6671359307846
 20
-133.43233774876
 30
0.0
 10
113.6671359307846
 20
-133.43233774876
 30
0.0
 10
113.6671359307846
 20
-133.6493787643307
 30
0.0
 10
113.6671359307846
 20
-133.6493787643307
 30
0.0
 10
113.5424234742186
 20
-133.6404215160691
 30
0.0
 10
113.1658745376808
 20
-133.6107936948959
 30
0.0
 10
113.1658745376808
 20
-133.122623664636
 30
0.0
 10
113.1658745376808
 20
-132.8828450188626
 30
0.0
 10
113.2929985610865
 20
-132.625151876566
 30
0.0
 10
113.5889322632694
 20
-132.625151876566
 30
0.0
 10
113.7753119290215
 20
-132.625151876566
 30
0.0
 10
113.8576497111189
 20
-132.7271267029293
 30
0.0
 10
113.9189724107564
 20
-132.833235643875
 30
0.0
 10
113.9465331746384
 20
-132.7677788296553
 30
0.0
 10
114.0268038994447
 20
-132.5731309347387
 30
0.0
 10
114.3041340860073
 20
-132.5731309347387
 30
0.0
 10
114.6424424626588
 20
-132.5731309347387
 30
0.0
 10
114.8095295936935
 20
-132.8377142680059
 30
0.0
 10
114.8095295936935
 20
-133.1339924797373
 30
0.0
  0
HATCH
  5
8F
330
88
100
AcDbEntity
  8
_U+30EC_U+30A4_U+30E4_U+30FC 1
 62
     7
420
 16777215
100
AcDbHatch
 10
0.0
 20
0.0
 30
0.0
210
0.0
220
0.0
230
1.0
  2
SOLID
 70
     1
 71
     0
 91
        1
 92
        1
 93
        1
 72
     4
 94
        3
 73
     0
 74
     1
 95
       62
 96
       58
 40
0.0
 40
0.0
 40
0.0
 40
0.0
 40
1.0
 40
1.0
 40
1.0
 40
2.0
 40
2.0
 40
2.0
 40
3.0
 40
3.0
 40
3.0
 40
4.0
 40
4.0
 40
4.0
 40
5.0
 40
5.0
 40
5.0
 40
6.0
 40
6.0
 40
6.0
 40
7.0
 40
7.0
 40
7.0
 40
8.0
 40
8.0
 40
8.0
 40
9.0
 40
9.0
 40
9.0
 40
10.0
 40
10.0
 40
10.0
 40
11.0
 40
11.0
 40
11.0
 40
12.0
 40
12.0
 40
12.0
 40
13.0
 40
13.0
 40
13.0
 40
14.0
 40
14.0
 40
14.0
 40
15.0
 40
15.0
 40
15.0
 40
16.0
 40
16.0
 40
16.0
 40
17.0
 40
17.0
 40
17.0
 40
18.0
 40
18.0
 40
18.0
 40
19.0
 40
19.0
 40
19.0
 40
19.0
 10
114.8095295936935
 20
-133.1339924797373
 10
114.8095295936935
 20
-133.2356227965522
 10
114.7885145112334
 20
-133.4685112513551
 10
114.6024793550299
 20
-133.6018364466343
 10
114.4901692422108
 20
-133.681073642795
 10
114.3909504922356
 20
-133.6855522669258
 10
114.3062011432985
 20
-133.6900308910567
 10
114.3062011432985
 20
-133.6900308910567
 10
114.3062011432985
 20
-133.4550753789626
 10
114.3062011432985
 20
-133.4550753789626
 10
114.3802706962313
 20
-133.4526638121229
 10
114.6148816987768
 20
-133.4412949970216
 10
114.6148816987768
 20
-133.1384711038682
 10
114.6148816987768
 20
-132.991365526648
 10
114.5452907699748
 20
-132.8287570197442
 10
114.3168809393027
 20
-132.8287570197442
 10
114.2004367119013
 20
-132.8287570197442
 10
114.1518608655593
 20
-132.8694091464702
 10
114.120165987095
 20
-132.9031710822256
 10
114.0460964341621
 20
-132.9824082783863
 10
114.0333495808667
 20
-133.1067762254039
 10
114.0333495808667
 20
-133.1656873582016
 10
114.0333495808667
 20
-133.1860134215646
 10
114.0354166381578
 20
-133.2242539814509
 10
114.0395507527401
 20
-133.253881802624
 10
114.0395507527401
 20
-133.253881802624
 10
113.8449028578235
 20
-133.253881802624
 10
113.8449028578235
 20
-133.253881802624
 10
113.8514485392455
 20
-133.2128851663496
 10
113.8535155965366
 20
-133.1677544154928
 10
113.8535155965366
 20
-133.1612087340708
 10
113.8535155965366
 20
-133.0909287861717
 10
113.8321560045281
 20
-132.8783663947318
 10
113.5954779446914
 20
-132.8783663947318
 10
113.4177110176525
 20
-132.8783663947318
 10
113.3625894898885
 20
-133.0185817809815
 10
113.3625894898885
 20
-133.1360595370285
 10
113.3625894898885
 20
-133.4189018763675
 10
113.5954779446914
 20
-133.4278591246292
 10
113.6671359307846
 20
-133.43233774876
 10
113.6671359307846
 20
-133.43233774876
 10
113.6671359307846
 20
-133.6493787643307
 10
113.6671359307846
 20
-133.6493787643307
 10
113.5424234742186
 20
-133.6404215160691
 10
113.1658745376808
 20
-133.6107936948959
 10
113.1658745376808
 20
-133.122623664636
 10
113.1658745376808
 20
-132.8828450188626
 10
113.2929985610865
 20
-132.625151876566
 10
113.5889322632694
 20
-132.625151876566
 10
113.7753119290215
 20
-132.625151876566
 10
113.8576497111189
 20
-132.7271267029293
 10
113.9189724107564
 20
-132.833235643875
 10
113.9465331746384
 20
-132.7677788296553
 10
114.0268038994447
 20
-132.5731309347387
 10
114.3041340860073
 20
-132.5731309347387
 10
114.6424424626588
 20
-132.5731309347387
 10
114.8095295936935
 20
-132.8377142680059
 10
114.8095295936935
 20
-133.1339924797373
 97
        0
 97
        0
 75
     2
 76
     1
 98
        0
  0
ENDBLK
  5
8B
330
88
100
AcDbEntity
  8
0
100
AcDbBlockEnd
  0
BLOCK
  5
92
330
90
100
AcDbEntity
  8
0
100
AcDbBlockBegin
  2
block 6
 70
     0
 10
0.0
 20
0.0
 30
0.0
  3
block 6
  1

  0
SPLINE
  5
94
330
90
100
AcDbEntity
  8
_U+30EC_U+30A4_U+30E4_U+30FC 1
370
     0
100
AcDbSpline
210
0.0
220
0.0
230
1.0
 70
    11
 71
     3
 72
    26
 73
    22
 74
     0
 42
0.0000000001
 43
0.0000000001
 12
1.0
 22
0.0
 32
0.0
 13
1.0
 23
0.0
 33
0.0
 40
0.0
 40
0.0
 40
0.0
 40
0.0
 40
1.0
 40
1.0
 40
1.0
 40
2.0
 40
2.0
 40
2.0
 40
3.0
 40
3.0
 40
3.0
 40
4.0
 40
4.0
 40
4.0
 40
5.0
 40
5.0
 40
5.0
 40
6.0
 40
6.0
 40
6.0
 40
7.0
 40
7.0
 40
7.0
 40
7.0
 10
66.54684243127996
 20
-141.9885768959265
 30
0.0
 10
66.54684243127996
 20
-141.9885768959265
 30
0.0
 10
67.32767332301184
 20
-141.2075737494203
 30
0.0
 10
67.32767332301184
 20
-141.2075737494203
 30
0.0
 10
67.32767332301184
 20
-141.2075737494203
 30
0.0
 10
67.09426810388617
 20
-140.9743407850689
 30
0.0
 10
67.09426810388617
 20
-140.9743407850689
 30
0.0
 10
67.09426810388617
 20
-140.9743407850689
 30
0.0
 10
67.19899900663775
 20
-140.8696098823173
 30
0.0
 10
67.19899900663775
 20
-140.8696098823173
 30
0.0
 10
67.44428980518754
 20
-141.0938855984071
 30
0.0
 10
67.59225665627902
 20
-141.0118923258582
 30
0.0
 10
67.69423148264242
 20
-140.9519476644148
 30
0.0
 10
67.69423148264242
 20
-140.9519476644148
 30
0.0
 10
67.79741209242565
 20
-141.0549560194238
 30
0.0
 10
67.79741209242565
 20
-141.0549560194238
 30
0.0
 10
67.79741209242565
 20
-141.0549560194238
 30
0.0
 10
66.70531682360145
 20
-142.147051288248
 30
0.0
 10
66.70531682360145
 20
-142.147051288248
 30
0.0
 10
66.70531682360145
 20
-142.147051288248
 30
0.0
 10
66.54684243127996
 20
-141.9885768959265
 30
0.0
 10
66.54684243127996
 20
-141.9885768959265
 30
0.0
  0
HATCH
  5
95
330
90
100
AcDbEntity
  8
_U+30EC_U+30A4_U+30E4_U+30FC 1
 62
     7
420
 16777215
100
AcDbHatch
 10
0.0
 20
0.0
 30
0.0
210
0.0
220
0.0
230
1.0
  2
SOLID
 70
     1
 71
     0
 91
        1
 92
        1
 93
        1
 72
     4
 94
        3
 73
     0
 74
     1
 95
       26
 96
       22
 40
0.0
 40
0.0
 40
0.0
 40
0.0
 40
1.0
 40
1.0
 40
1.0
 40
2.0
 40
2.0
 40
2.0
 40
3.0
 40
3.0
 40
3.0
 40
4.0
 40
4.0
 40
4.0
 40
5.0
 40
5.0
 40
5.0
 40
6.0
 40
6.0
 40
6.0
 40
7.0
 40
7.0
 40
7.0
 40
7.0
 10
66.54684243127996
 20
-141.9885768959265
 10
66.54684243127996
 20
-141.9885768959265
 10
67.32767332301184
 20
-141.2075737494203
 10
67.32767332301184
 20
-141.2075737494203
 10
67.32767332301184
 20
-141.2075737494203
 10
67.09426810388617
 20
-140.9743407850689
 10
67.09426810388617
 20
-140.9743407850689
 10
67.09426810388617
 20
-140.9743407850689
 10
67.19899900663775
 20
-140.8696098823173
 10
67.19899900663775
 20
-140.8696098823173
 10
67.44428980518754
 20
-141.0938855984071
 10
67.59225665627902
 20
-141.0118923258582
 10
67.69423148264242
 20
-140.9519476644148
 10
67.69423148264242
 20
-140.9519476644148
 10
67.79741209242565
 20
-141.0549560194238
 10
67.79741209242565
 20
-141.0549560194238
 10
67.79741209242565
 20
-141.0549560194238
 10
66.70531682360145
 20
-142.147051288248
 10
66.70531682360145
 20
-142.147051288248
 10
66.70531682360145
 20
-142.147051288248
 10
66.54684243127996
 20
-141.9885768959265
 10
66.54684243127996
 20
-141.9885768959265
 97
        0
 97
        0
 75
     2
 76
     1
 98
        0
  0
SPLINE
  5
96
330
90
100
AcDbEntity
  8
_U+30EC_U+30A4_U+30E4_U+30FC 1
370
     0
100
AcDbSpline
210
0.0
220
0.0
230
1.0
 70
    11
 71
     3
 72
    29
 73
    25
 74
     0
 42
0.0000000001
 43
0.0000000001
 12
1.0
 22
0.0
 32
0.0
 13
1.0
 23
0.0
 33
0.0
 40
0.0
 40
0.0
 40
0.0
 40
0.0
 40
1.0
 40
1.0
 40
1.0
 40
2.0
 40
2.0
 40
2.0
 40
3.0
 40
3.0
 40
3.0
 40
4.0
 40
4.0
 40
4.0
 40
5.0
 40
5.0
 40
5.0
 40
6.0
 40
6.0
 40
6.0
 40
7.0
 40
7.0
 40
7.0
 40
8.0
 40
8.0
 40
8.0
 40
8.0
 10
67.82032197740256
 20
-143.0107367264001
 30
0.0
 10
67.59570175176427
 20
-143.0823947124933
 30
0.0
 10
67.45979273487117
 20
-142.9731851856109
 30
0.0
 10
67.37745495277369
 20
-142.8908474035134
 30
0.0
 10
67.26376680176045
 20
-142.7771592525002
 30
0.0
 10
67.19641518502381
 20
-142.6441785667695
 30
0.0
 10
67.25791013943552
 20
-142.4481526336588
 30
0.0
 10
67.32216117023543
 20
-142.236968280413
 30
0.0
 10
67.47581242887757
 20
-142.0564452769859
 30
0.0
 10
67.59105087285919
 20
-141.94103457823
 30
0.0
 10
67.69285344444832
 20
-141.8394042614152
 30
0.0
 10
67.88319497000838
 20
-141.6733506590261
 30
0.0
 10
68.09851343783649
 20
-141.6075493352578
 30
0.0
 10
68.31831052979543
 20
-141.5403699732955
 30
0.0
 10
68.44853513913787
 20
-141.6375216659795
 30
0.0
 10
68.53965791472272
 20
-141.7284721867901
 30
0.0
 10
68.65196802754187
 20
-141.8407822996093
 30
0.0
 10
68.72224797544096
 20
-141.9737629853399
 30
0.0
 10
68.66092527580352
 20
-142.1701334279991
 30
0.0
 10
68.59512395203525
 20
-142.3761501380171
 30
0.0
 10
68.45008543210623
 20
-142.554606084153
 30
0.0
 10
68.32726777805708
 20
-142.6772514834279
 30
0.0
 10
68.20617267175054
 20
-142.7985188445087
 30
0.0
 10
68.02806123516312
 20
-142.9459689312774
 30
0.0
 10
67.82032197740256
 20
-143.0107367264001
 30
0.0
  0
SPLINE
  5
97
330
90
100
AcDbEntity
  8
_U+30EC_U+30A4_U+30E4_U+30FC 1
370
     0
100
AcDbSpline
210
0.0
220
0.0
230
1.0
 70
    11
 71
     3
 72
    17
 73
    13
 74
     0
 42
0.0000000001
 43
0.0000000001
 12
1.0
 22
0.0
 32
0.0
 13
1.0
 23
0.0
 33
0.0
 40
0.0
 40
0.0
 40
0.0
 40
0.0
 40
1.0
 40
1.0
 40
1.0
 40
2.0
 40
2.0
 40
2.0
 40
3.0
 40
3.0
 40
3.0
 40
4.0
 40
4.0
 40
4.0
 40
4.0
 10
68.40357664305536
 20
-141.864897968006
 30
0.0
 10
68.2270154994363
 20
-141.6881645696127
 30
0.0
 10
67.99361028031063
 20
-141.8559407197444
 30
0.0
 10
67.74969751995494
 20
-142.0998534801001
 30
0.0
 10
67.52387151089681
 20
-142.3255072343839
 30
0.0
 10
67.33111841849708
 20
-142.5690754851911
 30
0.0
 10
67.51508651740943
 20
-142.7530435841034
 30
0.0
 10
67.69026962283438
 20
-142.9283989443026
 30
0.0
 10
67.92333033241154
 20
-142.7640678896562
 30
0.0
 10
68.16862113096133
 20
-142.5187770911064
 30
0.0
 10
68.39479164956798
 20
-142.2924343177255
 30
0.0
 10
68.58599444899934
 20
-142.0471435191757
 30
0.0
 10
68.40357664305536
 20
-141.864897968006
 30
0.0
  0
HATCH
  5
98
330
90
100
AcDbEntity
  8
_U+30EC_U+30A4_U+30E4_U+30FC 1
 62
     7
420
 16777215
100
AcDbHatch
 10
0.0
 20
0.0
 30
0.0
210
0.0
220
0.0
230
1.0
  2
SOLID
 70
     1
 71
     0
 91
        2
 92
        1
 93
        1
 72
     4
 94
        3
 73
     0
 74
     1
 95
       29
 96
       25
 40
0.0
 40
0.0
 40
0.0
 40
0.0
 40
1.0
 40
1.0
 40
1.0
 40
2.0
 40
2.0
 40
2.0
 40
3.0
 40
3.0
 40
3.0
 40
4.0
 40
4.0
 40
4.0
 40
5.0
 40
5.0
 40
5.0
 40
6.0
 40
6.0
 40
6.0
 40
7.0
 40
7.0
 40
7.0
 40
8.0
 40
8.0
 40
8.0
 40
8.0
 10
67.82032197740256
 20
-143.0107367264001
 10
67.59570175176427
 20
-143.0823947124933
 10
67.45979273487117
 20
-142.9731851856109
 10
67.37745495277369
 20
-142.8908474035134
 10
67.26376680176045
 20
-142.7771592525002
 10
67.19641518502381
 20
-142.6441785667695
 10
67.25791013943552
 20
-142.4481526336588
 10
67.32216117023543
 20
-142.236968280413
 10
67.47581242887757
 20
-142.0564452769859
 10
67.59105087285919
 20
-141.94103457823
 10
67.69285344444832
 20
-141.8394042614152
 10
67.88319497000838
 20
-141.6733506590261
 10
68.09851343783649
 20
-141.6075493352578
 10
68.31831052979543
 20
-141.5403699732955
 10
68.44853513913787
 20
-141.6375216659795
 10
68.53965791472272
 20
-141.7284721867901
 10
68.65196802754187
 20
-141.8407822996093
 10
68.72224797544096
 20
-141.9737629853399
 10
68.66092527580352
 20
-142.1701334279991
 10
68.59512395203525
 20
-142.3761501380171
 10
68.45008543210623
 20
-142.554606084153
 10
68.32726777805708
 20
-142.6772514834279
 10
68.20617267175054
 20
-142.7985188445087
 10
68.02806123516312
 20
-142.9459689312774
 10
67.82032197740256
 20
-143.0107367264001
 97
        0
 97
        0
 92
        1
 93
        1
 72
     4
 94
        3
 73
     0
 74
     1
 95
       17
 96
       13
 40
0.0
 40
0.0
 40
0.0
 40
0.0
 40
1.0
 40
1.0
 40
1.0
 40
2.0
 40
2.0
 40
2.0
 40
3.0
 40
3.0
 40
3.0
 40
4.0
 40
4.0
 40
4.0
 40
4.0
 10
68.40357664305536
 20
-141.864897968006
 10
68.2270154994363
 20
-141.6881645696127
 10
67.99361028031063
 20
-141.8559407197444
 10
67.74969751995494
 20
-142.0998534801001
 10
67.52387151089681
 20
-142.3255072343839
 10
67.33111841849708
 20
-142.5690754851911
 10
67.51508651740943
 20
-142.7530435841034
 10
67.69026962283438
 20
-142.9283989443026
 10
67.92333033241154
 20
-142.7640678896562
 10
68.16862113096133
 20
-142.5187770911064
 10
68.39479164956798
 20
-142.2924343177255
 10
68.58599444899934
 20
-142.0471435191757
 10
68.40357664305536
 20
-141.864897968006
 97
        0
 97
        0
 75
     2
 76
     1
 98
        0
  0
ENDBLK
  5
93
330
90
100
AcDbEntity
  8
0
100
AcDbBlockEnd
  0
BLOCK
  5
B0
330
AE
100
AcDbEntity
  8
0
100
AcDbBlockBegin
  2
block 7
 70
     0
 10
0.0
 20
0.0
 30
0.0
  3
block 7
  1

  0
SPLINE
  5
B2
330
AE
100
AcDbEntity
  8
_U+30EC_U+30A4_U+30E4_U+30FC 1
370
     0
100
AcDbSpline
210
0.0
220
0.0
230
1.0
 70
    11
 71
     3
 72
    26
 73
    22
 74
     0
 42
0.0000000001
 43
0.0000000001
 12
1.0
 22
0.0
 32
0.0
 13
1.0
 23
0.0
 33
0.0
 40
0.0
 40
0.0
 40
0.0
 40
0.0
 40
1.0
 40
1.0
 40
1.0
 40
2.0
 40
2.0
 40
2.0
 40
3.0
 40
3.0
 40
3.0
 40
4.0
 40
4.0
 40
4.0
 40
5.0
 40
5.0
 40
5.0
 40
6.0
 40
6.0
 40
6.0
 40
7.0
 40
7.0
 40
7.0
 40
7.0
 10
83.57078177164203
 20
-149.0710041945031
 30
0.0
 10
83.57078177164203
 20
-149.0710041945031
 30
0.0
 10
83.57078177164203
 20
-147.9668510914805
 30
0.0
 10
83.57078177164203
 20
-147.9668510914805
 30
0.0
 10
83.57078177164203
 20
-147.9668510914805
 30
0.0
 10
83.24074162415509
 20
-147.9668510914805
 30
0.0
 10
83.24074162415509
 20
-147.9668510914805
 30
0.0
 10
83.24074162415509
 20
-147.9668510914805
 30
0.0
 10
83.24074162415509
 20
-147.8187119856148
 30
0.0
 10
83.24074162415509
 20
-147.8187119856148
 30
0.0
 10
83.57284882893318
 20
-147.8038980750282
 30
0.0
 10
83.61935761798405
 20
-147.6409450585759
 30
0.0
 10
83.6489854391572
 20
-147.5265678884656
 30
0.0
 10
83.6489854391572
 20
-147.5265678884656
 30
0.0
 10
83.7950574877318
 20
-147.5265678884656
 30
0.0
 10
83.7950574877318
 20
-147.5265678884656
 30
0.0
 10
83.7950574877318
 20
-147.5265678884656
 30
0.0
 10
83.7950574877318
 20
-149.0710041945031
 30
0.0
 10
83.7950574877318
 20
-149.0710041945031
 30
0.0
 10
83.7950574877318
 20
-149.0710041945031
 30
0.0
 10
83.57078177164203
 20
-149.0710041945031
 30
0.0
 10
83.57078177164203
 20
-149.0710041945031
 30
0.0
  0
HATCH
  5
B3
330
AE
100
AcDbEntity
  8
_U+30EC_U+30A4_U+30E4_U+30FC 1
 62
     7
420
 16777215
100
AcDbHatch
 10
0.0
 20
0.0
 30
0.0
210
0.0
220
0.0
230
1.0
  2
SOLID
 70
     1
 71
     0
 91
        1
 92
        1
 93
        1
 72
     4
 94
        3
 73
     0
 74
     1
 95
       26
 96
       22
 40
0.0
 40
0.0
 40
0.0
 40
0.0
 40
1.0
 40
1.0
 40
1.0
 40
2.0
 40
2.0
 40
2.0
 40
3.0
 40
3.0
 40
3.0
 40
4.0
 40
4.0
 40
4.0
 40
5.0
 40
5.0
 40
5.0
 40
6.0
 40
6.0
 40
6.0
 40
7.0
 40
7.0
 40
7.0
 40
7.0
 10
83.57078177164203
 20
-149.0710041945031
 10
83.57078177164203
 20
-149.0710041945031
 10
83.57078177164203
 20
-147.9668510914805
 10
83.57078177164203
 20
-147.9668510914805
 10
83.57078177164203
 20
-147.9668510914805
 10
83.24074162415509
 20
-147.9668510914805
 10
83.24074162415509
 20
-147.9668510914805
 10
83.24074162415509
 20
-147.9668510914805
 10
83.24074162415509
 20
-147.8187119856148
 10
83.24074162415509
 20
-147.8187119856148
 10
83.57284882893318
 20
-147.8038980750282
 10
83.61935761798405
 20
-147.6409450585759
 10
83.6489854391572
 20
-147.5265678884656
 10
83.6489854391572
 20
-147.5265678884656
 10
83.7950574877318
 20
-147.5265678884656
 10
83.7950574877318
 20
-147.5265678884656
 10
83.7950574877318
 20
-147.5265678884656
 10
83.7950574877318
 20
-149.0710041945031
 10
83.7950574877318
 20
-149.0710041945031
 10
83.7950574877318
 20
-149.0710041945031
 10
83.57078177164203
 20
-149.0710041945031
 10
83.57078177164203
 20
-149.0710041945031
 97
        0
 97
        0
 75
     2
 76
     1
 98
        0
  0
SPLINE
  5
B4
330
AE
100
AcDbEntity
  8
_U+30EC_U+30A4_U+30E4_U+30FC 1
370
     0
100
AcDbSpline
210
0.0
220
0.0
230
1.0
 70
    11
 71
     3
 72
    29
 73
    25
 74
     0
 42
0.0000000001
 43
0.0000000001
 12
1.0
 22
0.0
 32
0.0
 13
1.0
 23
0.0
 33
0.0
 40
0.0
 40
0.0
 40
0.0
 40
0.0
 40
1.0
 40
1.0
 40
1.0
 40
2.0
 40
2.0
 40
2.0
 40
3.0
 40
3.0
 40
3.0
 40
4.0
 40
4.0
 40
4.0
 40
5.0
 40
5.0
 40
5.0
 40
6.0
 40
6.0
 40
6.0
 40
7.0
 40
7.0
 40
7.0
 40
8.0
 40
8.0
 40
8.0
 40
8.0
 10
84.7962022357454
 20
-149.1216470981363
 30
0.0
 10
84.52972409996133
 20
-149.1216470981363
 30
0.0
 10
84.27582056269841
 20
-148.9841877882748
 30
0.0
 10
84.27582056269841
 20
-148.635199615619
 30
0.0
 10
84.27582056269841
 20
-148.3792290210649
 30
0.0
 10
84.41758624191644
 20
-148.284144385672
 30
0.0
 10
84.52335067331362
 20
-148.2228216860346
 30
0.0
 10
84.3984659619733
 20
-148.1635660436883
 30
0.0
 10
84.32232935174929
 20
-148.049188873578
 30
0.0
 10
84.32232935174929
 20
-147.8883029144168
 30
0.0
 10
84.32232935174929
 20
-147.6133842946939
 30
0.0
 10
84.52128361602246
 20
-147.4779920421236
 30
0.0
 10
84.7962022357454
 20
-147.4779920421236
 30
0.0
 10
85.07973359418146
 20
-147.4779920421236
 30
0.0
 10
85.2700751197415
 20
-147.621997033407
 30
0.0
 10
85.2700751197415
 20
-147.8883029144168
 30
0.0
 10
85.2700751197415
 20
-148.049188873578
 30
0.0
 10
85.19187145222634
 20
-148.1635660436883
 30
0.0
 10
85.06698674088604
 20
-148.2228216860346
 30
0.0
 10
85.15587020440547
 20
-148.2734645896678
 30
0.0
 10
85.31451685150124
 20
-148.3685492250607
 30
0.0
 10
85.31451685150124
 20
-148.6310655010367
 30
0.0
 10
85.31451685150124
 20
-149.0055473802833
 30
0.0
 10
85.03529186242173
 20
-149.1216470981363
 30
0.0
 10
84.7962022357454
 20
-149.1216470981363
 30
0.0
  0
SPLINE
  5
B5
330
AE
100
AcDbEntity
  8
_U+30EC_U+30A4_U+30E4_U+30FC 1
370
     0
100
AcDbSpline
210
0.0
220
0.0
230
1.0
 70
    11
 71
     3
 72
    17
 73
    13
 74
     0
 42
0.0000000001
 43
0.0000000001
 12
1.0
 22
0.0
 32
0.0
 13
1.0
 23
0.0
 33
0.0
 40
0.0
 40
0.0
 40
0.0
 40
0.0
 40
1.0
 40
1.0
 40
1.0
 40
2.0
 40
2.0
 40
2.0
 40
3.0
 40
3.0
 40
3.0
 40
4.0
 40
4.0
 40
4.0
 40
4.0
 10
84.7962022357454
 20
-148.3306531747229
 30
0.0
 10
84.65236949923622
 20
-148.3306531747229
 30
0.0
 10
84.50009627878818
 20
-148.4174695809512
 30
0.0
 10
84.50009627878818
 20
-148.6203857050324
 30
0.0
 10
84.50009627878818
 20
-148.8257133959533
 30
0.0
 10
84.62704804741963
 20
-148.9269992032197
 30
0.0
 10
84.7962022357454
 20
-148.9269992032197
 30
0.0
 10
84.98240964672316
 20
-148.9269992032197
 30
0.0
 10
85.09248044747689
 20
-148.8043538039448
 30
0.0
 10
85.09248044747689
 20
-148.6265868769059
 30
0.0
 10
85.09248044747689
 20
-148.4047227276558
 30
0.0
 10
84.92952743102457
 20
-148.3306531747229
 30
0.0
 10
84.7962022357454
 20
-148.3306531747229
 30
0.0
  0
SPLINE
  5
B6
330
AE
100
AcDbEntity
  8
_U+30EC_U+30A4_U+30E4_U+30FC 1
370
     0
100
AcDbSpline
210
0.0
220
0.0
230
1.0
 70
    11
 71
     3
 72
    17
 73
    13
 74
     0
 42
0.0000000001
 43
0.0000000001
 12
1.0
 22
0.0
 32
0.0
 13
1.0
 23
0.0
 33
0.0
 40
0.0
 40
0.0
 40
0.0
 40
0.0
 40
1.0
 40
1.0
 40
1.0
 40
2.0
 40
2.0
 40
2.0
 40
3.0
 40
3.0
 40
3.0
 40
4.0
 40
4.0
 40
4.0
 40
4.0
 10
84.7962022357454
 20
-147.670572879749
 30
0.0
 10
84.63118216200193
 20
-147.670572879749
 30
0.0
 10
84.54660506783905
 20
-147.7656575151419
 30
0.0
 10
84.54660506783905
 20
-147.9010497677122
 30
0.0
 10
84.54660506783905
 20
-148.0236951669871
 30
0.0
 10
84.61860756348077
 20
-148.1422064516797
 30
0.0
 10
84.7962022357454
 20
-148.1422064516797
 30
0.0
 10
84.97396916278429
 20
-148.1422064516797
 30
0.0
 10
85.04579940365174
 20
-148.0236951669871
 30
0.0
 10
85.04579940365174
 20
-147.9010497677122
 30
0.0
 10
85.04579940365174
 20
-147.7656575151419
 30
0.0
 10
84.95915525219772
 20
-147.670572879749
 30
0.0
 10
84.7962022357454
 20
-147.670572879749
 30
0.0
  0
HATCH
  5
B7
330
AE
100
AcDbEntity
  8
_U+30EC_U+30A4_U+30E4_U+30FC 1
 62
     7
420
 16777215
100
AcDbHatch
 10
0.0
 20
0.0
 30
0.0
210
0.0
220
0.0
230
1.0
  2
SOLID
 70
     1
 71
     0
 91
        3
 92
        1
 93
        1
 72
     4
 94
        3
 73
     0
 74
     1
 95
       29
 96
       25
 40
0.0
 40
0.0
 40
0.0
 40
0.0
 40
1.0
 40
1.0
 40
1.0
 40
2.0
 40
2.0
 40
2.0
 40
3.0
 40
3.0
 40
3.0
 40
4.0
 40
4.0
 40
4.0
 40
5.0
 40
5.0
 40
5.0
 40
6.0
 40
6.0
 40
6.0
 40
7.0
 40
7.0
 40
7.0
 40
8.0
 40
8.0
 40
8.0
 40
8.0
 10
84.7962022357454
 20
-149.1216470981363
 10
84.52972409996133
 20
-149.1216470981363
 10
84.27582056269841
 20
-148.9841877882748
 10
84.27582056269841
 20
-148.635199615619
 10
84.27582056269841
 20
-148.3792290210649
 10
84.41758624191644
 20
-148.284144385672
 10
84.52335067331362
 20
-148.2228216860346
 10
84.3984659619733
 20
-148.1635660436883
 10
84.32232935174929
 20
-148.049188873578
 10
84.32232935174929
 20
-147.8883029144168
 10
84.32232935174929
 20
-147.6133842946939
 10
84.52128361602246
 20
-147.4779920421236
 10
84.7962022357454
 20
-147.4779920421236
 10
85.07973359418146
 20
-147.4779920421236
 10
85.2700751197415
 20
-147.621997033407
 10
85.2700751197415
 20
-147.8883029144168
 10
85.2700751197415
 20
-148.049188873578
 10
85.19187145222634
 20
-148.1635660436883
 10
85.06698674088604
 20
-148.2228216860346
 10
85.15587020440547
 20
-148.2734645896678
 10
85.31451685150124
 20
-148.3685492250607
 10
85.31451685150124
 20
-148.6310655010367
 10
85.31451685150124
 20
-149.0055473802833
 10
85.03529186242173
 20
-149.1216470981363
 10
84.7962022357454
 20
-149.1216470981363
 97
        0
 97
        0
 92
        1
 93
        1
 72
     4
 94
        3
 73
     0
 74
     1
 95
       17
 96
       13
 40
0.0
 40
0.0
 40
0.0
 40
0.0
 40
1.0
 40
1.0
 40
1.0
 40
2.0
 40
2.0
 40
2.0
 40
3.0
 40
3.0
 40
3.0
 40
4.0
 40
4.0
 40
4.0
 40
4.0
 10
84.7962022357454
 20
-148.3306531747229
 10
84.65236949923622
 20
-148.3306531747229
 10
84.50009627878818
 20
-148.4174695809512
 10
84.50009627878818
 20
-148.6203857050324
 10
84.50009627878818
 20
-148.8257133959533
 10
84.62704804741963
 20
-148.9269992032197
 10
84.7962022357454
 20
-148.9269992032197
 10
84.98240964672316
 20
-148.9269992032197
 10
85.09248044747689
 20
-148.8043538039448
 10
85.09248044747689
 20
-148.6265868769059
 10
85.09248044747689
 20
-148.4047227276558
 10
84.92952743102457
 20
-148.3306531747229
 10
84.7962022357454
 20
-148.3306531747229
 97
        0
 97
        0
 92
        1
 93
        1
 72
     4
 94
        3
 73
     0
 74
     1
 95
       17
 96
       13
 40
0.0
 40
0.0
 40
0.0
 40
0.0
 40
1.0
 40
1.0
 40
1.0
 40
2.0
 40
2.0
 40
2.0
 40
3.0
 40
3.0
 40
3.0
 40
4.0
 40
4.0
 40
4.0
 40
4.0
 10
84.7962022357454
 20
-147.670572879749
 10
84.63118216200193
 20
-147.670572879749
 10
84.54660506783905
 20
-147.7656575151419
 10
84.54660506783905
 20
-147.9010497677122
 10
84.54660506783905
 20
-148.0236951669871
 10
84.61860756348077
 20
-148.1422064516797
 10
84.7962022357454
 20
-148.1422064516797
 10
84.97396916278429
 20
-148.1422064516797
 10
85.04579940365174
 20
-148.0236951669871
 10
85.04579940365174
 20
-147.9010497677122
 10
85.04579940365174
 20
-147.7656575151419
 10
84.95915525219772
 20
-147.670572879749
 10
84.7962022357454
 20
-147.670572879749
 97
        0
 97
        0
 75
     2
 76
     1
 98
        0
  0
ENDBLK
  5
B1
330
AE
100
AcDbEntity
  8
0
100
AcDbBlockEnd
  0
BLOCK
  5
C6
330
C4
100
AcDbEntity
  8
0
100
AcDbBlockBegin
  2
block 8
 70
     0
 10
0.0
 20
0.0
 30
0.0
  3
block 8
  1

  0
SPLINE
  5
C8
330
C4
100
AcDbEntity
  8
_U+30EC_U+30A4_U+30E4_U+30FC 1
370
     0
100
AcDbSpline
210
0.0
220
0.0
230
1.0
 70
    11
 71
     3
 72
    26
 73
    22
 74
     0
 42
0.0000000001
 43
0.0000000001
 12
1.0
 22
0.0
 32
0.0
 13
1.0
 23
0.0
 33
0.0
 40
0.0
 40
0.0
 40
0.0
 40
0.0
 40
1.0
 40
1.0
 40
1.0
 40
2.0
 40
2.0
 40
2.0
 40
3.0
 40
3.0
 40
3.0
 40
4.0
 40
4.0
 40
4.0
 40
5.0
 40
5.0
 40
5.0
 40
6.0
 40
6.0
 40
6.0
 40
7.0
 40
7.0
 40
7.0
 40
7.0
 10
93.14676918244248
 20
-153.3043375267781
 30
0.0
 10
93.14676918244248
 20
-153.3043375267781
 30
0.0
 10
93.14676918244248
 20
-152.2001844237555
 30
0.0
 10
93.14676918244248
 20
-152.2001844237555
 30
0.0
 10
93.14676918244248
 20
-152.2001844237555
 30
0.0
 10
92.81672903495554
 20
-152.2001844237555
 30
0.0
 10
92.81672903495554
 20
-152.2001844237555
 30
0.0
 10
92.81672903495554
 20
-152.2001844237555
 30
0.0
 10
92.81672903495554
 20
-152.0520453178898
 30
0.0
 10
92.81672903495554
 20
-152.0520453178898
 30
0.0
 10
93.14883623973363
 20
-152.0372314073032
 30
0.0
 10
93.1953450287845
 20
-151.8742783908509
 30
0.0
 10
93.22497284995765
 20
-151.7599012207406
 30
0.0
 10
93.22497284995765
 20
-151.7599012207406
 30
0.0
 10
93.37104489853225
 20
-151.7599012207406
 30
0.0
 10
93.37104489853225
 20
-151.7599012207406
 30
0.0
 10
93.37104489853225
 20
-151.7599012207406
 30
0.0
 10
93.37104489853225
 20
-153.3043375267781
 30
0.0
 10
93.37104489853225
 20
-153.3043375267781
 30
0.0
 10
93.37104489853225
 20
-153.3043375267781
 30
0.0
 10
93.14676918244248
 20
-153.3043375267781
 30
0.0
 10
93.14676918244248
 20
-153.3043375267781
 30
0.0
  0
HATCH
  5
C9
330
C4
100
AcDbEntity
  8
_U+30EC_U+30A4_U+30E4_U+30FC 1
 62
     7
420
 16777215
100
AcDbHatch
 10
0.0
 20
0.0
 30
0.0
210
0.0
220
0.0
230
1.0
  2
SOLID
 70
     1
 71
     0
 91
        1
 92
        1
 93
        1
 72
     4
 94
        3
 73
     0
 74
     1
 95
       26
 96
       22
 40
0.0
 40
0.0
 40
0.0
 40
0.0
 40
1.0
 40
1.0
 40
1.0
 40
2.0
 40
2.0
 40
2.0
 40
3.0
 40
3.0
 40
3.0
 40
4.0
 40
4.0
 40
4.0
 40
5.0
 40
5.0
 40
5.0
 40
6.0
 40
6.0
 40
6.0
 40
7.0
 40
7.0
 40
7.0
 40
7.0
 10
93.14676918244248
 20
-153.3043375267781
 10
93.14676918244248
 20
-153.3043375267781
 10
93.14676918244248
 20
-152.2001844237555
 10
93.14676918244248
 20
-152.2001844237555
 10
93.14676918244248
 20
-152.2001844237555
 10
92.81672903495554
 20
-152.2001844237555
 10
92.81672903495554
 20
-152.2001844237555
 10
92.81672903495554
 20
-152.2001844237555
 10
92.81672903495554
 20
-152.0520453178898
 10
92.81672903495554
 20
-152.0520453178898
 10
93.14883623973363
 20
-152.0372314073032
 10
93.1953450287845
 20
-151.8742783908509
 10
93.22497284995765
 20
-151.7599012207406
 10
93.22497284995765
 20
-151.7599012207406
 10
93.37104489853225
 20
-151.7599012207406
 10
93.37104489853225
 20
-151.7599012207406
 10
93.37104489853225
 20
-151.7599012207406
 10
93.37104489853225
 20
-153.3043375267781
 10
93.37104489853225
 20
-153.3043375267781
 10
93.37104489853225
 20
-153.3043375267781
 10
93.14676918244248
 20
-153.3043375267781
 10
93.14676918244248
 20
-153.3043375267781
 97
        0
 97
        0
 75
     2
 76
     1
 98
        0
  0
POLYLINE
  5
CA
330
C4
100
AcDbEntity
  8
_U+30EC_U+30A4_U+30E4_U+30FC 1
370
     0
100
AcDb2dPolyline
 66
     1
 10
0.0
 20
0.0
 30
0.0
  0
VERTEX
  5
CB
330
CA
100
AcDbEntity
  8
_U+30EC_U+30A4_U+30E4_U+30FC 1
370
     0
100
AcDbVertex
100
AcDb2dVertex
 10
93.93225095307945
 20
-153.3043375267781
 30
0.0
  0
VERTEX
  5
CC
330
CA
100
AcDbEntity
  8
_U+30EC_U+30A4_U+30E4_U+30FC 1
370
     0
100
AcDbVertex
100
AcDb2dVertex
 10
93.93225095307945
 20
-153.0525010468063
 30
0.0
  0
VERTEX
  5
CD
330
CA
100
AcDbEntity
  8
_U+30EC_U+30A4_U+30E4_U+30FC 1
370
     0
100
AcDbVertex
100
AcDb2dVertex
 10
94.1840874330512
 20
-153.0525010468063
 30
0.0
  0
VERTEX
  5
CE
330
CA
100
AcDbEntity
  8
_U+30EC_U+30A4_U+30E4_U+30FC 1
370
     0
100
AcDbVertex
100
AcDb2dVertex
 10
94.1840874330512
 20
-153.3043375267781
 30
0.0
  0
VERTEX
  5
CF
330
CA
100
AcDbEntity
  8
_U+30EC_U+30A4_U+30E4_U+30FC 1
370
     0
100
AcDbVertex
100
AcDb2dVertex
 10
93.93225095307945
 20
-153.3043375267781
 30
0.0
  0
SEQEND
  5
D0
330
CA
100
AcDbEntity
  8
_U+30EC_U+30A4_U+30E4_U+30FC 1
370
     0
  0
HATCH
  5
D1
330
C4
100
AcDbEntity
  8
_U+30EC_U+30A4_U+30E4_U+30FC 1
 62
     7
420
 16777215
100
AcDbHatch
 10
0.0
 20
0.0
 30
0.0
210
0.0
220
0.0
230
1.0
  2
SOLID
 70
     1
 71
     0
 91
        1
 92
        1
 93
        4
 72
     1
 10
93.93225095307945
 20
-153.3043375267781
 11
93.93225095307945
 21
-153.0525010468063
 72
     1
 10
93.93225095307945
 20
-153.0525010468063
 11
94.1840874330512
 21
-153.0525010468063
 72
     1
 10
94.1840874330512
 20
-153.0525010468063
 11
94.1840874330512
 21
-153.3043375267781
 72
     1
 10
94.1840874330512
 20
-153.3043375267781
 11
93.93225095307945
 21
-153.3043375267781
 97
        0
 75
     2
 76
     1
 98
        0
  0
SPLINE
  5
D2
330
C4
100
AcDbEntity
  8
_U+30EC_U+30A4_U+30E4_U+30FC 1
370
     0
100
AcDbSpline
210
0.0
220
0.0
230
1.0
 70
    11
 71
     3
 72
    53
 73
    49
 74
     0
 42
0.0000000001
 43
0.0000000001
 12
1.0
 22
0.0
 32
0.0
 13
1.0
 23
0.0
 33
0.0
 40
0.0
 40
0.0
 40
0.0
 40
0.0
 40
1.0
 40
1.0
 40
1.0
 40
2.0
 40
2.0
 40
2.0
 40
3.0
 40
3.0
 40
3.0
 40
4.0
 40
4.0
 40
4.0
 40
5.0
 40
5.0
 40
5.0
 40
6.0
 40
6.0
 40
6.0
 40
7.0
 40
7.0
 40
7.0
 40
8.0
 40
8.0
 40
8.0
 40
9.0
 40
9.0
 40
9.0
 40
10.0
 40
10.0
 40
10.0
 40
11.0
 40
11.0
 40
11.0
 40
12.0
 40
12.0
 40
12.0
 40
13.0
 40
13.0
 40
13.0
 40
14.0
 40
14.0
 40
14.0
 40
15.0
 40
15.0
 40
15.0
 40
16.0
 40
16.0
 40
16.0
 40
16.0
 10
94.90135631308021
 20
-153.3549804304113
 30
0.0
 10
94.82315264556505
 20
-153.3549804304113
 30
0.0
 10
94.72152232875018
 20
-153.3380994625335
 30
0.0
 10
94.6198920119353
 20
-153.2747097056049
 30
0.0
 10
94.44660370902724
 20
-153.1648111596255
 30
0.0
 10
94.42524411701869
 20
-153.0335530216375
 30
0.0
 10
94.40629609184982
 20
-152.9257215329491
 30
0.0
 10
94.40629609184982
 20
-152.9257215329491
 30
0.0
 10
94.62850475064843
 20
-152.9257215329491
 30
0.0
 10
94.62850475064843
 20
-152.9257215329491
 30
0.0
 10
94.6832817688639
 20
-153.1245035424481
 30
0.0
 10
94.81040579226962
 20
-153.1541313636212
 30
0.0
 10
94.90342337037137
 20
-153.1541313636212
 30
0.0
 10
95.04294973752398
 20
-153.1541313636212
 30
0.0
 10
95.19522295797204
 20
-153.0545681040975
 30
0.0
 10
95.19522295797204
 20
-152.8220241588431
 30
0.0
 10
95.19522295797204
 20
-152.566053564289
 30
0.0
 10
95.01538897364199
 20
-152.4961181259385
 30
0.0
 10
94.89481063165825
 20
-152.4961181259385
 30
0.0
 10
94.86311575319395
 20
-152.4961181259385
 30
0.0
 10
94.72152232875018
 20
-152.4961181259385
 30
0.0
 10
94.63263886523073
 20
-152.6253092066353
 30
0.0
 10
94.63263886523073
 20
-152.6253092066353
 30
0.0
 10
94.45693899548299
 20
-152.6063611814665
 30
0.0
 10
94.45693899548299
 20
-152.6063611814665
 30
0.0
 10
94.45693899548299
 20
-152.6063611814665
 30
0.0
 10
94.57751733746673
 20
-151.7599012207406
 30
0.0
 10
94.57751733746673
 20
-151.7599012207406
 30
0.0
 10
94.57751733746673
 20
-151.7599012207406
 30
0.0
 10
95.3561089171332
 20
-151.7599012207406
 30
0.0
 10
95.3561089171332
 20
-151.7599012207406
 30
0.0
 10
95.3561089171332
 20
-151.7599012207406
 30
0.0
 10
95.3561089171332
 20
-151.9545491156572
 30
0.0
 10
95.3561089171332
 20
-151.9545491156572
 30
0.0
 10
95.3561089171332
 20
-151.9545491156572
 30
0.0
 10
94.74047035391905
 20
-151.9545491156572
 30
0.0
 10
94.74047035391905
 20
-151.9545491156572
 30
0.0
 10
94.74047035391905
 20
-151.9545491156572
 30
0.0
 10
94.67501353969931
 20
-152.3776068412459
 30
0.0
 10
94.67501353969931
 20
-152.3776068412459
 30
0.0
 10
94.73633623933675
 20
-152.3438449054904
 30
0.0
 10
94.81867402143422
 20
-152.303537288313
 30
0.0
 10
94.93718530612682
 20
-152.303537288313
 30
0.0
 10
95.19108884338974
 20
-152.303537288313
 30
0.0
 10
95.42811141277492
 20
-152.489916954065
 30
0.0
 10
95.42811141277492
 20
-152.8030761336742
 30
0.0
 10
95.42811141277492
 20
-153.1203694278657
 30
0.0
 10
95.20383569668516
 20
-153.3549804304113
 30
0.0
 10
94.90135631308021
 20
-153.3549804304113
 30
0.0
  0
HATCH
  5
D3
330
C4
100
AcDbEntity
  8
_U+30EC_U+30A4_U+30E4_U+30FC 1
 62
     7
420
 16777215
100
AcDbHatch
 10
0.0
 20
0.0
 30
0.0
210
0.0
220
0.0
230
1.0
  2
SOLID
 70
     1
 71
     0
 91
        1
 92
        1
 93
        1
 72
     4
 94
        3
 73
     0
 74
     1
 95
       53
 96
       49
 40
0.0
 40
0.0
 40
0.0
 40
0.0
 40
1.0
 40
1.0
 40
1.0
 40
2.0
 40
2.0
 40
2.0
 40
3.0
 40
3.0
 40
3.0
 40
4.0
 40
4.0
 40
4.0
 40
5.0
 40
5.0
 40
5.0
 40
6.0
 40
6.0
 40
6.0
 40
7.0
 40
7.0
 40
7.0
 40
8.0
 40
8.0
 40
8.0
 40
9.0
 40
9.0
 40
9.0
 40
10.0
 40
10.0
 40
10.0
 40
11.0
 40
11.0
 40
11.0
 40
12.0
 40
12.0
 40
12.0
 40
13.0
 40
13.0
 40
13.0
 40
14.0
 40
14.0
 40
14.0
 40
15.0
 40
15.0
 40
15.0
 40
16.0
 40
16.0
 40
16.0
 40
16.0
 10
94.90135631308021
 20
-153.3549804304113
 10
94.82315264556505
 20
-153.3549804304113
 10
94.72152232875018
 20
-153.3380994625335
 10
94.6198920119353
 20
-153.2747097056049
 10
94.44660370902724
 20
-153.1648111596255
 10
94.42524411701869
 20
-153.0335530216375
 10
94.40629609184982
 20
-152.9257215329491
 10
94.40629609184982
 20
-152.9257215329491
 10
94.62850475064843
 20
-152.9257215329491
 10
94.62850475064843
 20
-152.9257215329491
 10
94.6832817688639
 20
-153.1245035424481
 10
94.81040579226962
 20
-153.1541313636212
 10
94.90342337037137
 20
-153.1541313636212
 10
95.04294973752398
 20
-153.1541313636212
 10
95.19522295797204
 20
-153.0545681040975
 10
95.19522295797204
 20
-152.8220241588431
 10
95.19522295797204
 20
-152.566053564289
 10
95.01538897364199
 20
-152.4961181259385
 10
94.89481063165825
 20
-152.4961181259385
 10
94.86311575319395
 20
-152.4961181259385
 10
94.72152232875018
 20
-152.4961181259385
 10
94.63263886523073
 20
-152.6253092066353
 10
94.63263886523073
 20
-152.6253092066353
 10
94.45693899548299
 20
-152.6063611814665
 10
94.45693899548299
 20
-152.6063611814665
 10
94.45693899548299
 20
-152.6063611814665
 10
94.57751733746673
 20
-151.7599012207406
 10
94.57751733746673
 20
-151.7599012207406
 10
94.57751733746673
 20
-151.7599012207406
 10
95.3561089171332
 20
-151.7599012207406
 10
95.3561089171332
 20
-151.7599012207406
 10
95.3561089171332
 20
-151.7599012207406
 10
95.3561089171332
 20
-151.9545491156572
 10
95.3561089171332
 20
-151.9545491156572
 10
95.3561089171332
 20
-151.9545491156572
 10
94.74047035391905
 20
-151.9545491156572
 10
94.74047035391905
 20
-151.9545491156572
 10
94.74047035391905
 20
-151.9545491156572
 10
94.67501353969931
 20
-152.3776068412459
 10
94.67501353969931
 20
-152.3776068412459
 10
94.73633623933675
 20
-152.3438449054904
 10
94.81867402143422
 20
-152.303537288313
 10
94.93718530612682
 20
-152.303537288313
 10
95.19108884338974
 20
-152.303537288313
 10
95.42811141277492
 20
-152.489916954065
 10
95.42811141277492
 20
-152.8030761336742
 10
95.42811141277492
 20
-153.1203694278657
 10
95.20383569668516
 20
-153.3549804304113
 10
94.90135631308021
 20
-153.3549804304113
 97
        0
 97
        0
 75
     2
 76
     1
 98
        0
  0
ENDBLK
  5
C7
330
C4
100
AcDbEntity
  8
0
100
AcDbBlockEnd
  0
ENDSEC
  0
SECTION
  2
ENTITIES
  0
SPLINE
  5
41
330
1F
100
AcDbEntity
  8
_U+30EC_U+30A4_U+30E4_U+30FC 1
 62
     7
420
 16777215
370
     9
100
AcDbSpline
210
0.0
220
0.0
230
1.0
 70
    11
 71
     3
 72
    17
 73
    13
 74
     0
 42
0.0000000001
 43
0.0000000001
 12
1.0
 22
0.0
 32
0.0
 13
1.0
 23
0.0
 33
0.0
 40
0.0
 40
0.0
 40
0.0
 40
0.0
 40
1.0
 40
1.0
 40
1.0
 40
2.0
 40
2.0
 40
2.0
 40
3.0
 40
3.0
 40
3.0
 40
4.0
 40
4.0
 40
4.0
 40
4.0
 10
115.4547798322809
 20
-127.3245202459466
 30
0.0
 10
115.4547798322809
 20
-127.2694163570717
 30
0.0
 10
115.4100123334231
 20
-127.224613579305
 30
0.0
 10
115.3548731681631
 20
-127.224613579305
 30
0.0
 10
115.2997721933975
 20
-127.224613579305
 30
0.0
 10
115.2549694156308
 20
-127.2694163570717
 30
0.0
 10
115.2549694156308
 20
-127.3245202459466
 30
0.0
 10
115.2549694156308
 20
-127.3796594125997
 30
0.0
 10
115.2997721933975
 20
-127.4244269125882
 30
0.0
 10
115.3548731681631
 20
-127.4244269125882
 30
0.0
 10
115.4100123334231
 20
-127.4244269125882
 30
0.0
 10
115.4547798322809
 20
-127.3796594125997
 30
0.0
 10
115.4547798322809
 20
-127.3245202459466
 30
0.0
  0
SPLINE
  5
42
330
1F
100
AcDbEntity
  8
_U+30EC_U+30A4_U+30E4_U+30FC 1
 62
     7
420
 16777215
370
     9
100
AcDbSpline
210
0.0
220
0.0
230
1.0
 70
    11
 71
     3
 72
    17
 73
    13
 74
     0
 42
0.0000000001
 43
0.0000000001
 12
1.0
 22
0.0
 32
0.0
 13
1.0
 23
0.0
 33
0.0
 40
0.0
 40
0.0
 40
0.0
 40
0.0
 40
1.0
 40
1.0
 40
1.0
 40
2.0
 40
2.0
 40
2.0
 40
3.0
 40
3.0
 40
3.0
 40
4.0
 40
4.0
 40
4.0
 40
4.0
 10
115.4547798322809
 20
-140.2532966316034
 30
0.0
 10
115.4547798322809
 20
-140.1981574649503
 30
0.0
 10
115.4100123334231
 20
-140.1533899649617
 30
0.0
 10
115.3548731681631
 20
-140.1533899649617
 30
0.0
 10
115.2997721933975
 20
-140.1533899649617
 30
0.0
 10
115.2549694156308
 20
-140.1981574649503
 30
0.0
 10
115.2549694156308
 20
-140.2532966316034
 30
0.0
 10
115.2549694156308
 20
-140.3084005204783
 30
0.0
 10
115.2997721933975
 20
-140.353203298245
 30
0.0
 10
115.3548731681631
 20
-140.353203298245
 30
0.0
 10
115.4100123334231
 20
-140.353203298245
 30
0.0
 10
115.4547798322809
 20
-140.3084005204783
 30
0.0
 10
115.4547798322809
 20
-140.2532966316034
 30
0.0
  0
SPLINE
  5
43
330
1F
100
AcDbEntity
  8
_U+30EC_U+30A4_U+30E4_U+30FC 1
 62
     7
420
 16777215
370
     9
100
AcDbSpline
210
0.0
220
0.0
230
1.0
 70
    11
 71
     3
 72
    17
 73
    13
 74
     0
 42
0.0000000001
 43
0.0000000001
 12
1.0
 22
0.0
 32
0.0
 13
1.0
 23
0.0
 33
0.0
 40
0.0
 40
0.0
 40
0.0
 40
0.0
 40
1.0
 40
1.0
 40
1.0
 40
2.0
 40
2.0
 40
2.0
 40
3.0
 40
3.0
 40
3.0
 40
4.0
 40
4.0
 40
4.0
 40
4.0
 10
115.4547798322809
 20
-141.8531791312031
 30
0.0
 10
115.4547798322809
 20
-141.7980752423282
 30
0.0
 10
115.4100123334231
 20
-141.7532724645615
 30
0.0
 10
115.3548731681631
 20
-141.7532724645615
 30
0.0
 10
115.2997721933975
 20
-141.7532724645615
 30
0.0
 10
115.2549694156308
 20
-141.7980752423282
 30
0.0
 10
115.2549694156308
 20
-141.8531791312031
 30
0.0
 10
115.2549694156308
 20
-141.9089885756335
 30
0.0
 10
115.2997721933975
 20
-141.9537913534003
 30
0.0
 10
115.3548731681631
 20
-141.9537913534003
 30
0.0
 10
115.4100123334231
 20
-141.9537913534003
 30
0.0
 10
115.4547798322809
 20
-141.9089885756335
 30
0.0
 10
115.4547798322809
 20
-141.8531791312031
 30
0.0
  0
POLYLINE
  5
44
330
1F
100
AcDbEntity
  8
_U+30EC_U+30A4_U+30E4_U+30FC 1
 62
     7
420
 16777215
370
     9
100
AcDb2dPolyline
 66
     1
 10
0.0
 20
0.0
 30
0.0
  0
VERTEX
  5
45
330
44
100
AcDbEntity
  8
_U+30EC_U+30A4_U+30E4_U+30FC 1
 62
     7
420
 16777215
370
     9
100
AcDbVertex
100
AcDb2dVertex
 10
115.3548731681631
 20
-141.8531791312031
 30
0.0
  0
VERTEX
  5
46
330
44
100
AcDbEntity
  8
_U+30EC_U+30A4_U+30E4_U+30FC 1
 62
     7
420
 16777215
370
     9
100
AcDbVertex
100
AcDb2dVertex
 10
115.3548731681631
 20
-140.353203298245
 30
0.0
  0
SEQEND
  5
47
330
44
100
AcDbEntity
  8
_U+30EC_U+30A4_U+30E4_U+30FC 1
 62
     7
420
 16777215
370
     9
  0
POLYLINE
  5
48
330
1F
100
AcDbEntity
  8
_U+30EC_U+30A4_U+30E4_U+30FC 1
 62
     7
420
 16777215
370
     9
100
AcDb2dPolyline
 66
     1
 10
0.0
 20
0.0
 30
0.0
  0
VERTEX
  5
49
330
48
100
AcDbEntity
  8
_U+30EC_U+30A4_U+30E4_U+30FC 1
 62
     7
420
 16777215
370
     9
100
AcDbVertex
100
AcDb2dVertex
 10
103.8951342938587
 20
-141.8531791312031
 30
0.0
  0
VERTEX
  5
4A
330
48
100
AcDbEntity
  8
_U+30EC_U+30A4_U+30E4_U+30FC 1
 62
     7
420
 16777215
370
     9
100
AcDbVertex
100
AcDb2dVertex
 10
116.3553509204166
 20
-141.8531791312031
 30
0.0
  0
SEQEND
  5
4B
330
48
100
AcDbEntity
  8
_U+30EC_U+30A4_U+30E4_U+30FC 1
 62
     7
420
 16777215
370
     9
  0
POLYLINE
  5
4C
330
1F
100
AcDbEntity
  8
_U+30EC_U+30A4_U+30E4_U+30FC 1
 62
     7
420
 16777215
370
     9
100
AcDb2dPolyline
 66
     1
 10
0.0
 20
0.0
 30
0.0
  0
VERTEX
  5
4D
330
4C
100
AcDbEntity
  8
_U+30EC_U+30A4_U+30E4_U+30FC 1
 62
     7
420
 16777215
370
     9
100
AcDbVertex
100
AcDb2dVertex
 10
103.8951342938587
 20
-140.2532966316034
 30
0.0
  0
VERTEX
  5
4E
330
4C
100
AcDbEntity
  8
_U+30EC_U+30A4_U+30E4_U+30FC 1
 62
     7
420
 16777215
370
     9
100
AcDbVertex
100
AcDb2dVertex
 10
116.3553509204166
 20
-140.2532966316034
 30
0.0
  0
SEQEND
  5
4F
330
4C
100
AcDbEntity
  8
_U+30EC_U+30A4_U+30E4_U+30FC 1
 62
     7
420
 16777215
370
     9
  0
INSERT
  5
51
330
1F
100
AcDbEntity
  8
_U+30EC_U+30A4_U+30E4_U+30FC 1
100
AcDbBlockReference
  2
block 2
 10
0.0
 20
0.0
 30
0.0
  0
SPLINE
  5
60
330
1F
100
AcDbEntity
  8
_U+30EC_U+30A4_U+30E4_U+30FC 1
 62
     7
420
 16777215
370
     9
100
AcDbSpline
210
0.0
220
0.0
230
1.0
 70
    11
 71
     3
 72
    17
 73
    13
 74
     0
 42
0.0000000001
 43
0.0000000001
 12
1.0
 22
0.0
 32
0.0
 13
1.0
 23
0.0
 33
0.0
 40
0.0
 40
0.0
 40
0.0
 40
0.0
 40
1.0
 40
1.0
 40
1.0
 40
2.0
 40
2.0
 40
2.0
 40
3.0
 40
3.0
 40
3.0
 40
4.0
 40
4.0
 40
4.0
 40
4.0
 10
115.4547798322809
 20
-126.18282552401
 30
0.0
 10
115.4547798322809
 20
-126.1276863573569
 30
0.0
 10
115.4100123334231
 20
-126.0829188573683
 30
0.0
 10
115.3548731681631
 20
-126.0829188573683
 30
0.0
 10
115.2997721933975
 20
-126.0829188573683
 30
0.0
 10
115.2549694156308
 20
-126.1276863573569
 30
0.0
 10
115.2549694156308
 20
-126.18282552401
 30
0.0
 10
115.2549694156308
 20
-126.2379294128849
 30
0.0
 10
115.2997721933975
 20
-126.2827321906516
 30
0.0
 10
115.3548731681631
 20
-126.2827321906516
 30
0.0
 10
115.4100123334231
 20
-126.2827321906516
 30
0.0
 10
115.4547798322809
 20
-126.2379294128849
 30
0.0
 10
115.4547798322809
 20
-126.18282552401
 30
0.0
  0
POLYLINE
  5
61
330
1F
100
AcDbEntity
  8
_U+30EC_U+30A4_U+30E4_U+30FC 1
 62
     7
420
 16777215
370
     9
100
AcDb2dPolyline
 66
     1
 10
0.0
 20
0.0
 30
0.0
  0
VERTEX
  5
62
330
61
100
AcDbEntity
  8
_U+30EC_U+30A4_U+30E4_U+30FC 1
 62
     7
420
 16777215
370
     9
100
AcDbVertex
100
AcDb2dVertex
 10
115.3548731681631
 20
-127.2535766348531
 30
0.0
  0
VERTEX
  5
63
330
61
100
AcDbEntity
  8
_U+30EC_U+30A4_U+30E4_U+30FC 1
 62
     7
420
 16777215
370
     9
100
AcDbVertex
100
AcDb2dVertex
 10
115.3548731681631
 20
-126.2530988573257
 30
0.0
  0
SEQEND
  5
64
330
61
100
AcDbEntity
  8
_U+30EC_U+30A4_U+30E4_U+30FC 1
 62
     7
420
 16777215
370
     9
  0
POLYLINE
  5
65
330
1F
100
AcDbEntity
  8
_U+30EC_U+30A4_U+30E4_U+30FC 1
 62
     7
420
 16777215
370
     9
100
AcDb2dPolyline
 66
     1
 10
0.0
 20
0.0
 30
0.0
  0
VERTEX
  5
66
330
65
100
AcDbEntity
  8
_U+30EC_U+30A4_U+30E4_U+30FC 1
 62
     7
420
 16777215
370
     9
100
AcDbVertex
100
AcDb2dVertex
 10
115.3548731681631
 20
-126.2530988573257
 30
0.0
  0
VERTEX
  5
67
330
65
100
AcDbEntity
  8
_U+30EC_U+30A4_U+30E4_U+30FC 1
 62
     7
420
 16777215
370
     9
100
AcDbVertex
100
AcDb2dVertex
 10
115.3548731681631
 20
-101.2534310857978
 30
0.0
  0
SEQEND
  5
68
330
65
100
AcDbEntity
  8
_U+30EC_U+30A4_U+30E4_U+30FC 1
 62
     7
420
 16777215
370
     9
  0
POLYLINE
  5
69
330
1F
100
AcDbEntity
  8
_U+30EC_U+30A4_U+30E4_U+30FC 1
 62
     7
420
 16777215
370
     9
100
AcDb2dPolyline
 66
     1
 10
0.0
 20
0.0
 30
0.0
  0
VERTEX
  5
6A
330
69
100
AcDbEntity
  8
_U+30EC_U+30A4_U+30E4_U+30FC 1
 62
     7
420
 16777215
370
     9
100
AcDbVertex
100
AcDb2dVertex
 10
113.8948670942999
 20
-126.18282552401
 30
0.0
  0
VERTEX
  5
6B
330
69
100
AcDbEntity
  8
_U+30EC_U+30A4_U+30E4_U+30FC 1
 62
     7
420
 16777215
370
     9
100
AcDbVertex
100
AcDb2dVertex
 10
116.3553509204166
 20
-126.18282552401
 30
0.0
  0
SEQEND
  5
6C
330
69
100
AcDbEntity
  8
_U+30EC_U+30A4_U+30E4_U+30FC 1
 62
     7
420
 16777215
370
     9
  0
SPLINE
  5
6D
330
1F
100
AcDbEntity
  8
_U+30EC_U+30A4_U+30E4_U+30FC 1
 62
     7
420
 16777215
370
     9
100
AcDbSpline
210
0.0
220
0.0
230
1.0
 70
    11
 71
     3
 72
    17
 73
    13
 74
     0
 42
0.0000000001
 43
0.0000000001
 12
1.0
 22
0.0
 32
0.0
 13
1.0
 23
0.0
 33
0.0
 40
0.0
 40
0.0
 40
0.0
 40
0.0
 40
1.0
 40
1.0
 40
1.0
 40
2.0
 40
2.0
 40
2.0
 40
3.0
 40
3.0
 40
3.0
 40
4.0
 40
4.0
 40
4.0
 40
4.0
 10
115.4547798322809
 20
-101.2534310857978
 30
0.0
 10
115.4547798322809
 20
-101.198291919145
 30
0.0
 10
115.4100123334231
 20
-101.1535244191562
 30
0.0
 10
115.3548731681631
 20
-101.1535244191562
 30
0.0
 10
115.2997721933975
 20
-101.1535244191562
 30
0.0
 10
115.2549694156308
 20
-101.198291919145
 30
0.0
 10
115.2549694156308
 20
-101.2534310857978
 30
0.0
 10
115.2549694156308
 20
-101.308534974673
 30
0.0
 10
115.2997721933975
 20
-101.3533377524394
 30
0.0
 10
115.3548731681631
 20
-101.3533377524394
 30
0.0
 10
115.4100123334231
 20
-101.3533377524394
 30
0.0
 10
115.4547798322809
 20
-101.308534974673
 30
0.0
 10
115.4547798322809
 20
-101.2534310857978
 30
0.0
  0
POLYLINE
  5
6E
330
1F
100
AcDbEntity
  8
_U+30EC_U+30A4_U+30E4_U+30FC 1
 62
     7
420
 16777215
370
     9
100
AcDb2dPolyline
 66
     1
 10
0.0
 20
0.0
 30
0.0
  0
VERTEX
  5
6F
330
6E
100
AcDbEntity
  8
_U+30EC_U+30A4_U+30E4_U+30FC 1
 62
     7
420
 16777215
370
     9
100
AcDbVertex
100
AcDb2dVertex
 10
103.8951342938587
 20
-101.2534310857978
 30
0.0
  0
VERTEX
  5
70
330
6E
100
AcDbEntity
  8
_U+30EC_U+30A4_U+30E4_U+30FC 1
 62
     7
420
 16777215
370
     9
100
AcDbVertex
100
AcDb2dVertex
 10
116.3553509204166
 20
-101.2534310857978
 30
0.0
  0
SEQEND
  5
71
330
6E
100
AcDbEntity
  8
_U+30EC_U+30A4_U+30E4_U+30FC 1
 62
     7
420
 16777215
370
     9
  0
INSERT
  5
73
330
1F
100
AcDbEntity
  8
_U+30EC_U+30A4_U+30E4_U+30FC 1
100
AcDbBlockReference
  2
block 3
 10
0.0
 20
0.0
 30
0.0
  0
INSERT
  5
79
330
1F
100
AcDbEntity
  8
_U+30EC_U+30A4_U+30E4_U+30FC 1
100
AcDbBlockReference
  2
block 4
 10
0.0
 20
0.0
 30
0.0
  0
POLYLINE
  5
80
330
1F
100
AcDbEntity
  8
_U+30EC_U+30A4_U+30E4_U+30FC 1
 62
     7
420
 16777215
370
     9
100
AcDb2dPolyline
 66
     1
 10
0.0
 20
0.0
 30
0.0
  0
VERTEX
  5
81
330
80
100
AcDbEntity
  8
_U+30EC_U+30A4_U+30E4_U+30FC 1
 62
     7
420
 16777215
370
     9
100
AcDbVertex
100
AcDb2dVertex
 10
115.3548731681631
 20
-140.2532966316034
 30
0.0
  0
VERTEX
  5
82
330
80
100
AcDbEntity
  8
_U+30EC_U+30A4_U+30E4_U+30FC 1
 62
     7
420
 16777215
370
     9
100
AcDbVertex
100
AcDb2dVertex
 10
115.3548731681631
 20
-127.2535766348531
 30
0.0
  0
SEQEND
  5
83
330
80
100
AcDbEntity
  8
_U+30EC_U+30A4_U+30E4_U+30FC 1
 62
     7
420
 16777215
370
     9
  0
POLYLINE
  5
84
330
1F
100
AcDbEntity
  8
_U+30EC_U+30A4_U+30E4_U+30FC 1
 62
     7
420
 16777215
370
     9
100
AcDb2dPolyline
 66
     1
 10
0.0
 20
0.0
 30
0.0
  0
VERTEX
  5
85
330
84
100
AcDbEntity
  8
_U+30EC_U+30A4_U+30E4_U+30FC 1
 62
     7
420
 16777215
370
     9
100
AcDbVertex
100
AcDb2dVertex
 10
113.8948670942999
 20
-127.3245202459466
 30
0.0
  0
VERTEX
  5
86
330
84
100
AcDbEntity
  8
_U+30EC_U+30A4_U+30E4_U+30FC 1
 62
     7
420
 16777215
370
     9
100
AcDbVertex
100
AcDb2dVertex
 10
116.3553509204166
 20
-127.3245202459466
 30
0.0
  0
SEQEND
  5
87
330
84
100
AcDbEntity
  8
_U+30EC_U+30A4_U+30E4_U+30FC 1
 62
     7
420
 16777215
370
     9
  0
INSERT
  5
89
330
1F
100
AcDbEntity
  8
_U+30EC_U+30A4_U+30E4_U+30FC 1
100
AcDbBlockReference
  2
block 5
 10
0.0
 20
0.0
 30
0.0
  0
INSERT
  5
91
330
1F
100
AcDbEntity
  8
_U+30EC_U+30A4_U+30E4_U+30FC 1
100
AcDbBlockReference
  2
block 6
 10
0.0
 20
0.0
 30
0.0
  0
SPLINE
  5
99
330
1F
100
AcDbEntity
  8
_U+30EC_U+30A4_U+30E4_U+30FC 1
 62
     7
420
 16777215
370
     9
100
AcDbSpline
210
0.0
220
0.0
230
1.0
 70
    11
 71
     3
 72
    17
 73
    13
 74
     0
 42
0.0000000001
 43
0.0000000001
 12
1.0
 22
0.0
 32
0.0
 13
1.0
 23
0.0
 33
0.0
 40
0.0
 40
0.0
 40
0.0
 40
0.0
 40
1.0
 40
1.0
 40
1.0
 40
2.0
 40
2.0
 40
2.0
 40
3.0
 40
3.0
 40
3.0
 40
4.0
 40
4.0
 40
4.0
 40
4.0
 10
75.31011613423442
 20
-149.7155727403491
 30
0.0
 10
75.31011613423442
 20
-149.6604688514736
 30
0.0
 10
75.26534863537654
 20
-149.6156660737075
 30
0.0
 10
75.2102094701166
 20
-149.6156660737075
 30
0.0
 10
75.15510558263352
 20
-149.6156660737075
 30
0.0
 10
75.11030280599876
 20
-149.6604688514736
 30
0.0
 10
75.11030280599876
 20
-149.7155727403491
 30
0.0
 10
75.11030280599876
 20
-149.7707119070016
 30
0.0
 10
75.15510558263352
 20
-149.8154794069908
 30
0.0
 10
75.2102094701166
 20
-149.8154794069908
 30
0.0
 10
75.26534863537654
 20
-149.8154794069908
 30
0.0
 10
75.31011613423442
 20
-149.7707119070016
 30
0.0
 10
75.31011613423442
 20
-149.7155727403491
 30
0.0
  0
SPLINE
  5
9A
330
1F
100
AcDbEntity
  8
_U+30EC_U+30A4_U+30E4_U+30FC 1
 62
     7
420
 16777215
370
     9
100
AcDbSpline
210
0.0
220
0.0
230
1.0
 70
    11
 71
     3
 72
    17
 73
    13
 74
     0
 42
0.0000000001
 43
0.0000000001
 12
1.0
 22
0.0
 32
0.0
 13
1.0
 23
0.0
 33
0.0
 40
0.0
 40
0.0
 40
0.0
 40
0.0
 40
1.0
 40
1.0
 40
1.0
 40
2.0
 40
2.0
 40
2.0
 40
3.0
 40
3.0
 40
3.0
 40
4.0
 40
4.0
 40
4.0
 40
4.0
 10
94.91239164293846
 20
-149.7155727403491
 30
0.0
 10
94.91239164293846
 20
-149.6604688514736
 30
0.0
 10
94.86758886517174
 20
-149.6156660737075
 30
0.0
 10
94.81248258113204
 20
-149.6156660737075
 30
0.0
 10
94.7573434158721
 20
-149.6156660737075
 30
0.0
 10
94.71257591701422
 20
-149.6604688514736
 30
0.0
 10
94.71257591701422
 20
-149.7155727403491
 30
0.0
 10
94.71257591701422
 20
-149.7707119070016
 30
0.0
 10
94.7573434158721
 20
-149.8154794069908
 30
0.0
 10
94.81248258113204
 20
-149.8154794069908
 30
0.0
 10
94.86758886517174
 20
-149.8154794069908
 30
0.0
 10
94.91239164293846
 20
-149.7707119070016
 30
0.0
 10
94.91239164293846
 20
-149.7155727403491
 30
0.0
  0
SPLINE
  5
9B
330
1F
100
AcDbEntity
  8
_U+30EC_U+30A4_U+30E4_U+30FC 1
 62
     7
420
 16777215
370
     9
100
AcDbSpline
210
0.0
220
0.0
230
1.0
 70
    11
 71
     3
 72
    17
 73
    13
 74
     0
 42
0.0000000001
 43
0.0000000001
 12
1.0
 22
0.0
 32
0.0
 13
1.0
 23
0.0
 33
0.0
 40
0.0
 40
0.0
 40
0.0
 40
0.0
 40
1.0
 40
1.0
 40
1.0
 40
2.0
 40
2.0
 40
2.0
 40
3.0
 40
3.0
 40
3.0
 40
4.0
 40
4.0
 40
4.0
 40
4.0
 10
93.41308608775772
 20
-149.7155727403491
 30
0.0
 10
93.41308608775772
 20
-149.6604688514736
 30
0.0
 10
93.368283309991
 20
-149.6156660737075
 30
0.0
 10
93.3124715082894
 20
-149.6156660737075
 30
0.0
 10
93.25736762080633
 20
-149.6156660737075
 30
0.0
 10
93.21256484417158
 20
-149.6604688514736
 30
0.0
 10
93.21256484417158
 20
-149.7155727403491
 30
0.0
 10
93.21256484417158
 20
-149.7707119070016
 30
0.0
 10
93.25736762080633
 20
-149.8154794069908
 30
0.0
 10
93.3124715082894
 20
-149.8154794069908
 30
0.0
 10
93.368283309991
 20
-149.8154794069908
 30
0.0
 10
93.41308608775772
 20
-149.7707119070016
 30
0.0
 10
93.41308608775772
 20
-149.7155727403491
 30
0.0
  0
POLYLINE
  5
9C
330
1F
100
AcDbEntity
  8
_U+30EC_U+30A4_U+30E4_U+30FC 1
 62
     7
420
 16777215
370
     9
100
AcDb2dPolyline
 66
     1
 10
0.0
 20
0.0
 30
0.0
  0
VERTEX
  5
9D
330
9C
100
AcDbEntity
  8
_U+30EC_U+30A4_U+30E4_U+30FC 1
 62
     7
420
 16777215
370
     9
100
AcDbVertex
100
AcDb2dVertex
 10
75.2102094701166
 20
-149.7155727403491
 30
0.0
  0
VERTEX
  5
9E
330
9C
100
AcDbEntity
  8
_U+30EC_U+30A4_U+30E4_U+30FC 1
 62
     7
420
 16777215
370
     9
100
AcDbVertex
100
AcDb2dVertex
 10
93.21256484417158
 20
-149.7155727403491
 30
0.0
  0
SEQEND
  5
9F
330
9C
100
AcDbEntity
  8
_U+30EC_U+30A4_U+30E4_U+30FC 1
 62
     7
420
 16777215
370
     9
  0
POLYLINE
  5
A0
330
1F
100
AcDbEntity
  8
_U+30EC_U+30A4_U+30E4_U+30FC 1
 62
     7
420
 16777215
370
     9
100
AcDb2dPolyline
 66
     1
 10
0.0
 20
0.0
 30
0.0
  0
VERTEX
  5
A1
330
A0
100
AcDbEntity
  8
_U+30EC_U+30A4_U+30E4_U+30FC 1
 62
     7
420
 16777215
370
     9
100
AcDbVertex
100
AcDb2dVertex
 10
75.2102094701166
 20
-148.2555666296029
 30
0.0
  0
VERTEX
  5
A2
330
A0
100
AcDbEntity
  8
_U+30EC_U+30A4_U+30E4_U+30FC 1
 62
     7
420
 16777215
370
     9
100
AcDbVertex
100
AcDb2dVertex
 10
75.2102094701166
 20
-150.715344962321
 30
0.0
  0
SEQEND
  5
A3
330
A0
100
AcDbEntity
  8
_U+30EC_U+30A4_U+30E4_U+30FC 1
 62
     7
420
 16777215
370
     9
  0
SPLINE
  5
A4
330
1F
100
AcDbEntity
  8
_U+30EC_U+30A4_U+30E4_U+30FC 1
 62
     7
420
 16777215
370
     9
100
AcDbSpline
210
0.0
220
0.0
230
1.0
 70
    11
 71
     3
 72
    17
 73
    13
 74
     0
 42
0.0000000001
 43
0.0000000001
 12
1.0
 22
0.0
 32
0.0
 13
1.0
 23
0.0
 33
0.0
 40
0.0
 40
0.0
 40
0.0
 40
0.0
 40
1.0
 40
1.0
 40
1.0
 40
2.0
 40
2.0
 40
2.0
 40
3.0
 40
3.0
 40
3.0
 40
4.0
 40
4.0
 40
4.0
 40
4.0
 10
70.43462153639643
 20
-146.6466882966716
 30
0.0
 10
70.47392097983827
 20
-146.6074241300146
 30
0.0
 10
70.47392097983827
 20
-146.5447002411415
 30
0.0
 10
70.43462153639643
 20
-146.5054360744845
 30
0.0
 10
70.39606292626904
 20
-146.4661719078281
 30
0.0
 10
70.3326687612197
 20
-146.4661719078281
 30
0.0
 10
70.29336931777786
 20
-146.5054360744845
 30
0.0
 10
70.2541051521129
 20
-146.5447002411415
 30
0.0
 10
70.2541051521129
 20
-146.6080944077925
 30
0.0
 10
70.29336931777786
 20
-146.6466882966716
 30
0.0
 10
70.33196320568213
 20
-146.6859524633286
 30
0.0
 10
70.39535737073147
 20
-146.6859524633286
 30
0.0
 10
70.43462153639643
 20
-146.6466882966716
 30
0.0
  0
POLYLINE
  5
A5
330
1F
100
AcDbEntity
  8
_U+30EC_U+30A4_U+30E4_U+30FC 1
 62
     7
420
 16777215
370
     9
100
AcDb2dPolyline
 66
     1
 10
0.0
 20
0.0
 30
0.0
  0
VERTEX
  5
A6
330
A5
100
AcDbEntity
  8
_U+30EC_U+30A4_U+30E4_U+30FC 1
 62
     7
420
 16777215
370
     9
100
AcDbVertex
100
AcDb2dVertex
 10
71.39650540074562
 20
-145.5435874636142
 30
0.0
  0
VERTEX
  5
A7
330
A5
100
AcDbEntity
  8
_U+30EC_U+30A4_U+30E4_U+30FC 1
 62
     7
420
 16777215
370
     9
100
AcDbVertex
100
AcDb2dVertex
 10
69.6567112784648
 20
-147.2833463520682
 30
0.0
  0
SEQEND
  5
A8
330
A5
100
AcDbEntity
  8
_U+30EC_U+30A4_U+30E4_U+30FC 1
 62
     7
420
 16777215
370
     9
  0
SPLINE
  5
A9
330
1F
100
AcDbEntity
  8
_U+30EC_U+30A4_U+30E4_U+30FC 1
 62
     7
420
 16777215
370
     9
100
AcDbSpline
210
0.0
220
0.0
230
1.0
 70
    11
 71
     3
 72
    17
 73
    13
 74
     0
 42
0.0000000001
 43
0.0000000001
 12
1.0
 22
0.0
 32
0.0
 13
1.0
 23
0.0
 33
0.0
 40
0.0
 40
0.0
 40
0.0
 40
0.0
 40
1.0
 40
1.0
 40
1.0
 40
2.0
 40
2.0
 40
2.0
 40
3.0
 40
3.0
 40
3.0
 40
4.0
 40
4.0
 40
4.0
 40
4.0
 10
63.37356282765016
 20
-139.6021746873218
 30
0.0
 10
63.41282699331511
 20
-139.5628752428872
 30
0.0
 10
63.41282699331511
 20
-139.5001866317917
 30
0.0
 10
63.37426838318772
 20
-139.4609224651347
 30
0.0
 10
63.33496893974588
 20
-139.4216230207002
 30
0.0
 10
63.27157477469654
 20
-139.4216230207002
 30
0.0
 10
63.23231060903158
 20
-139.4609224651347
 30
0.0
 10
63.1937167211273
 20
-139.5001866317917
 30
0.0
 10
63.1937167211273
 20
-139.5635807984428
 30
0.0
 10
63.23231060903158
 20
-139.6021746873218
 30
0.0
 10
63.27157477469654
 20
-139.6414388539788
 30
0.0
 10
63.33496893974588
 20
-139.6414388539788
 30
0.0
 10
63.37356282765016
 20
-139.6021746873218
 30
0.0
  0
POLYLINE
  5
AA
330
1F
100
AcDbEntity
  8
_U+30EC_U+30A4_U+30E4_U+30FC 1
 62
     7
420
 16777215
370
     9
100
AcDb2dPolyline
 66
     1
 10
0.0
 20
0.0
 30
0.0
  0
VERTEX
  5
AB
330
AA
100
AcDbEntity
  8
_U+30EC_U+30A4_U+30E4_U+30FC 1
 62
     7
420
 16777215
370
     9
100
AcDbVertex
100
AcDb2dVertex
 10
64.33576419199125
 20
-138.4990385764863
 30
0.0
  0
VERTEX
  5
AC
330
AA
100
AcDbEntity
  8
_U+30EC_U+30A4_U+30E4_U+30FC 1
 62
     7
420
 16777215
370
     9
100
AcDbVertex
100
AcDb2dVertex
 10
62.59635812525608
 20
-140.2387974649402
 30
0.0
  0
SEQEND
  5
AD
330
AA
100
AcDbEntity
  8
_U+30EC_U+30A4_U+30E4_U+30FC 1
 62
     7
420
 16777215
370
     9
  0
INSERT
  5
AF
330
1F
100
AcDbEntity
  8
_U+30EC_U+30A4_U+30E4_U+30FC 1
100
AcDbBlockReference
  2
block 7
 10
0.0
 20
0.0
 30
0.0
  0
POLYLINE
  5
B8
330
1F
100
AcDbEntity
  8
_U+30EC_U+30A4_U+30E4_U+30FC 1
 62
     7
420
 16777215
370
     9
100
AcDb2dPolyline
 66
     1
 10
0.0
 20
0.0
 30
0.0
  0
VERTEX
  5
B9
330
B8
100
AcDbEntity
  8
_U+30EC_U+30A4_U+30E4_U+30FC 1
 62
     7
420
 16777215
370
     9
100
AcDbVertex
100
AcDb2dVertex
 10
93.3124715082894
 20
-149.7155727403491
 30
0.0
  0
VERTEX
  5
BA
330
B8
100
AcDbEntity
  8
_U+30EC_U+30A4_U+30E4_U+30FC 1
 62
     7
420
 16777215
370
     9
100
AcDbVertex
100
AcDb2dVertex
 10
94.81248258113204
 20
-149.7155727403491
 30
0.0
  0
SEQEND
  5
BB
330
B8
100
AcDbEntity
  8
_U+30EC_U+30A4_U+30E4_U+30FC 1
 62
     7
420
 16777215
370
     9
  0
POLYLINE
  5
BC
330
1F
100
AcDbEntity
  8
_U+30EC_U+30A4_U+30E4_U+30FC 1
 62
     7
420
 16777215
370
     9
100
AcDb2dPolyline
 66
     1
 10
0.0
 20
0.0
 30
0.0
  0
VERTEX
  5
BD
330
BC
100
AcDbEntity
  8
_U+30EC_U+30A4_U+30E4_U+30FC 1
 62
     7
420
 16777215
370
     9
100
AcDbVertex
100
AcDb2dVertex
 10
93.3124715082894
 20
-148.2555666296029
 30
0.0
  0
VERTEX
  5
BE
330
BC
100
AcDbEntity
  8
_U+30EC_U+30A4_U+30E4_U+30FC 1
 62
     7
420
 16777215
370
     9
100
AcDbVertex
100
AcDb2dVertex
 10
93.3124715082894
 20
-150.715344962321
 30
0.0
  0
SEQEND
  5
BF
330
BC
100
AcDbEntity
  8
_U+30EC_U+30A4_U+30E4_U+30FC 1
 62
     7
420
 16777215
370
     9
  0
POLYLINE
  5
C0
330
1F
100
AcDbEntity
  8
_U+30EC_U+30A4_U+30E4_U+30FC 1
 62
     7
420
 16777215
370
     9
100
AcDb2dPolyline
 66
     1
 10
0.0
 20
0.0
 30
0.0
  0
VERTEX
  5
C1
330
C0
100
AcDbEntity
  8
_U+30EC_U+30A4_U+30E4_U+30FC 1
 62
     7
420
 16777215
370
     9
100
AcDbVertex
100
AcDb2dVertex
 10
94.81248258113204
 20
-148.2555666296029
 30
0.0
  0
VERTEX
  5
C2
330
C0
100
AcDbEntity
  8
_U+30EC_U+30A4_U+30E4_U+30FC 1
 62
     7
420
 16777215
370
     9
100
AcDbVertex
100
AcDb2dVertex
 10
94.81248258113204
 20
-150.715344962321
 30
0.0
  0
SEQEND
  5
C3
330
C0
100
AcDbEntity
  8
_U+30EC_U+30A4_U+30E4_U+30FC 1
 62
     7
420
 16777215
370
     9
  0
INSERT
  5
C5
330
1F
100
AcDbEntity
  8
_U+30EC_U+30A4_U+30E4_U+30FC 1
100
AcDbBlockReference
  2
block 8
 10
0.0
 20
0.0
 30
0.0
  0
POLYLINE
  5
D4
330
1F
100
AcDbEntity
  8
_U+30EC_U+30A4_U+30E4_U+30FC 1
 62
     7
420
 16777215
370
     9
100
AcDb2dPolyline
 66
     1
 10
0.0
 20
0.0
 30
0.0
  0
VERTEX
  5
D5
330
D4
100
AcDbEntity
  8
_U+30EC_U+30A4_U+30E4_U+30FC 1
 62
     7
420
 16777215
370
     9
100
AcDbVertex
100
AcDb2dVertex
 10
63.33048866208241
 20
-139.5008569095691
 30
0.0
  0
VERTEX
  5
D6
330
D4
100
AcDbEntity
  8
_U+30EC_U+30A4_U+30E4_U+30FC 1
 62
     7
420
 16777215
370
     9
100
AcDbVertex
100
AcDb2dVertex
 10
70.4029420927602
 20
-146.5715819078013
 30
0.0
  0
SEQEND
  5
D7
330
D4
100
AcDbEntity
  8
_U+30EC_U+30A4_U+30E4_U+30FC 1
 62
     7
420
 16777215
370
     9
  0
POLYLINE
  5
D8
330
1F
100
AcDbEntity
  8
_U+30EC_U+30A4_U+30E4_U+30FC 1
 62
     7
420
 16777215
370
    25
100
AcDb2dPolyline
 66
     1
 10
0.0
 20
0.0
 30
0.0
  0
VERTEX
  5
D9
330
D8
100
AcDbEntity
  8
_U+30EC_U+30A4_U+30E4_U+30FC 1
 62
     7
420
 16777215
370
    25
100
AcDbVertex
100
AcDb2dVertex
 10
109.0455486069052
 20
-126.3054863573124
 30
0.0
  0
VERTEX
  5
DA
330
D8
100
AcDbEntity
  8
_U+30EC_U+30A4_U+30E4_U+30FC 1
 62
     7
420
 16777215
370
    25
100
AcDbVertex
100
AcDb2dVertex
 10
83.93733174746916
 20
-126.314411635088
 30
0.0
  0
VERTEX
  5
DB
330
D8
100
AcDbEntity
  8
_U+30EC_U+30A4_U+30E4_U+30FC 1
 62
     7
420
 16777215
370
    25
100
AcDbVertex
100
AcDb2dVertex
 10
83.9283711921422
 20
-101.1883083080361
 30
0.0
  0
VERTEX
  5
DC
330
D8
100
AcDbEntity
  8
_U+30EC_U+30A4_U+30E4_U+30FC 1
 62
     7
420
 16777215
370
    25
100
AcDbVertex
100
AcDb2dVertex
 10
82.92828149543439
 20
-101.1883083080361
 30
0.0
  0
VERTEX
  5
DD
330
D8
100
AcDbEntity
  8
_U+30EC_U+30A4_U+30E4_U+30FC 1
 62
     7
420
 16777215
370
    25
100
AcDbVertex
100
AcDb2dVertex
 10
82.92828149543439
 20
-102.6922705298825
 30
0.0
  0
VERTEX
  5
DE
330
D8
100
AcDbEntity
  8
_U+30EC_U+30A4_U+30E4_U+30FC 1
 62
     7
420
 16777215
370
    25
100
AcDbVertex
100
AcDb2dVertex
 10
82.92828149543439
 20
-102.6919177521047
 30
0.0
  0
VERTEX
  5
DF
330
D8
100
AcDbEntity
  8
_U+30EC_U+30A4_U+30E4_U+30FC 1
 62
     7
420
 16777215
370
    25
100
AcDbVertex
100
AcDb2dVertex
 10
82.92828149543439
 20
-107.625303306427
 30
0.0
  0
VERTEX
  5
E0
330
D8
100
AcDbEntity
  8
_U+30EC_U+30A4_U+30E4_U+30FC 1
 62
     7
420
 16777215
370
    25
100
AcDbVertex
100
AcDb2dVertex
 10
82.92828149543439
 20
-107.625303306427
 30
0.0
  0
VERTEX
  5
E1
330
D8
100
AcDbEntity
  8
_U+30EC_U+30A4_U+30E4_U+30FC 1
 62
     7
420
 16777215
370
    25
100
AcDbVertex
100
AcDb2dVertex
 10
82.92828149543439
 20
-126.6162130239014
 30
0.0
  0
VERTEX
  5
E2
330
D8
100
AcDbEntity
  8
_U+30EC_U+30A4_U+30E4_U+30FC 1
 62
     7
420
 16777215
370
    25
100
AcDbVertex
100
AcDb2dVertex
 10
72.22331065742983
 20
-137.3194555212258
 30
0.0
  0
VERTEX
  5
E3
330
D8
100
AcDbEntity
  8
_U+30EC_U+30A4_U+30E4_U+30FC 1
 62
     7
420
 16777215
370
    25
100
AcDbVertex
100
AcDb2dVertex
 10
69.37734656336977
 20
-134.4741263552703
 30
0.0
  0
VERTEX
  5
E4
330
D8
100
AcDbEntity
  8
_U+30EC_U+30A4_U+30E4_U+30FC 1
 62
     7
420
 16777215
370
    25
100
AcDbVertex
100
AcDb2dVertex
 10
69.37734656336977
 20
-117.6681105261387
 30
0.0
  0
VERTEX
  5
E5
330
D8
100
AcDbEntity
  8
_U+30EC_U+30A4_U+30E4_U+30FC 1
 62
     7
420
 16777215
370
    25
100
AcDbVertex
100
AcDb2dVertex
 10
69.92648043824909
 20
-117.0510669151818
 30
0.0
  0
VERTEX
  5
E6
330
D8
100
AcDbEntity
  8
_U+30EC_U+30A4_U+30E4_U+30FC 1
 62
     7
420
 16777215
370
    25
100
AcDbVertex
100
AcDb2dVertex
 10
69.92648043824909
 20
-115.5896849711027
 30
0.0
  0
VERTEX
  5
E7
330
D8
100
AcDbEntity
  8
_U+30EC_U+30A4_U+30E4_U+30FC 1
 62
     7
420
 16777215
370
    25
100
AcDbVertex
100
AcDb2dVertex
 10
68.37789186664575
 20
-117.0214688596335
 30
0.0
  0
VERTEX
  5
E8
330
D8
100
AcDbEntity
  8
_U+30EC_U+30A4_U+30E4_U+30FC 1
 62
     7
420
 16777215
370
    25
100
AcDbVertex
100
AcDb2dVertex
 10
68.37789186664575
 20
-135.0215669106894
 30
0.0
  0
VERTEX
  5
E9
330
D8
100
AcDbEntity
  8
_U+30EC_U+30A4_U+30E4_U+30FC 1
 62
     7
420
 16777215
370
    25
100
AcDbVertex
100
AcDb2dVertex
 10
75.2102094701166
 20
-141.8531791312031
 30
0.0
  0
VERTEX
  5
EA
330
D8
100
AcDbEntity
  8
_U+30EC_U+30A4_U+30E4_U+30FC 1
 62
     7
420
 16777215
370
    25
100
AcDbVertex
100
AcDb2dVertex
 10
93.21256484417158
 20
-141.8531791312031
 30
0.0
  0
VERTEX
  5
EB
330
D8
100
AcDbEntity
  8
_U+30EC_U+30A4_U+30E4_U+30FC 1
 62
     7
420
 16777215
370
    25
100
AcDbVertex
100
AcDb2dVertex
 10
94.64434869653262
 20
-140.304943298257
 30
0.0
  0
VERTEX
  5
EC
330
D8
100
AcDbEntity
  8
_U+30EC_U+30A4_U+30E4_U+30FC 1
 62
     7
420
 16777215
370
    25
100
AcDbVertex
100
AcDb2dVertex
 10
93.18363706713181
 20
-140.304943298257
 30
0.0
  0
VERTEX
  5
ED
330
D8
100
AcDbEntity
  8
_U+30EC_U+30A4_U+30E4_U+30FC 1
 62
     7
420
 16777215
370
    25
100
AcDbVertex
100
AcDb2dVertex
 10
92.56627597177089
 20
-140.8534069092312
 30
0.0
  0
VERTEX
  5
EE
330
D8
100
AcDbEntity
  8
_U+30EC_U+30A4_U+30E4_U+30FC 1
 62
     7
420
 16777215
370
    25
100
AcDbVertex
100
AcDb2dVertex
 10
75.75800278947455
 20
-140.8534069092312
 30
0.0
  0
VERTEX
  5
EF
330
D8
100
AcDbEntity
  8
_U+30EC_U+30A4_U+30E4_U+30FC 1
 62
     7
420
 16777215
370
    25
100
AcDbVertex
100
AcDb2dVertex
 10
72.9302420282834
 20
-138.0263869099379
 30
0.0
  0
VERTEX
  5
F0
330
D8
100
AcDbEntity
  8
_U+30EC_U+30A4_U+30E4_U+30FC 1
 62
     7
420
 16777215
370
    25
100
AcDbVertex
100
AcDb2dVertex
 10
83.65345147693377
 20
-127.3052233015071
 30
0.0
  0
VERTEX
  5
F1
330
D8
100
AcDbEntity
  8
_U+30EC_U+30A4_U+30E4_U+30FC 1
 62
     7
420
 16777215
370
    25
100
AcDbVertex
100
AcDb2dVertex
 10
100.1089468904524
 20
-127.3052233015071
 30
0.0
  0
VERTEX
  5
F2
330
D8
100
AcDbEntity
  8
_U+30EC_U+30A4_U+30E4_U+30FC 1
 62
     7
420
 16777215
370
    25
100
AcDbVertex
100
AcDb2dVertex
 10
100.1089468904524
 20
-127.3052233015071
 30
0.0
  0
VERTEX
  5
F3
330
D8
100
AcDbEntity
  8
_U+30EC_U+30A4_U+30E4_U+30FC 1
 62
     7
420
 16777215
370
    25
100
AcDbVertex
100
AcDb2dVertex
 10
105.0423323201468
 20
-127.3052233015071
 30
0.0
  0
VERTEX
  5
F4
330
D8
100
AcDbEntity
  8
_U+30EC_U+30A4_U+30E4_U+30FC 1
 62
     7
420
 16777215
370
    25
100
AcDbVertex
100
AcDb2dVertex
 10
105.0416620423862
 20
-127.3052233015071
 30
0.0
  0
VERTEX
  5
F5
330
D8
100
AcDbEntity
  8
_U+30EC_U+30A4_U+30E4_U+30FC 1
 62
     7
420
 16777215
370
    25
100
AcDbVertex
100
AcDb2dVertex
 10
109.0455486069052
 20
-127.3052233015071
 30
0.0
  0
VERTEX
  5
F6
330
D8
100
AcDbEntity
  8
_U+30EC_U+30A4_U+30E4_U+30FC 1
 62
     7
420
 16777215
370
    25
100
AcDbVertex
100
AcDb2dVertex
 10
109.0455486069052
 20
-126.3054863573124
 30
0.0
  0
SEQEND
  5
F7
330
D8
100
AcDbEntity
  8
_U+30EC_U+30A4_U+30E4_U+30FC 1
 62
     7
420
 16777215
370
    25
  0
HATCH
  5
F8
330
1F
100
AcDbEntity
  8
_U+30EC_U+30A4_U+30E4_U+30FC 1
 62
   253
420
 10855845
100
AcDbHatch
 10
0.0
 20
0.0
 30
0.0
210
0.0
220
0.0
230
1.0
  2
SOLID
 70
     1
 71
     0
 91
        1
 92
        1
 93
       27
 72
     1
 10
109.0455486069052
 20
-126.3054863573124
 11
83.93733174746916
 21
-126.314411635088
 72
     1
 10
83.93733174746916
 20
-126.314411635088
 11
83.9283711921422
 21
-101.1883083080361
 72
     1
 10
83.9283711921422
 20
-101.1883083080361
 11
82.92828149543439
 21
-101.1883083080361
 72
     1
 10
82.92828149543439
 20
-101.1883083080361
 11
82.92828149543439
 21
-102.6922705298825
 72
     1
 10
82.92828149543439
 20
-102.6922705298825
 11
82.92828149543439
 21
-102.6919177521047
 72
     1
 10
82.92828149543439
 20
-102.6919177521047
 11
82.92828149543439
 21
-107.625303306427
 72
     1
 10
82.92828149543439
 20
-107.625303306427
 11
82.92828149543439
 21
-126.6162130239014
 72
     1
 10
82.92828149543439
 20
-126.6162130239014
 11
72.22331065742983
 21
-137.3194555212258
 72
     1
 10
72.22331065742983
 20
-137.3194555212258
 11
69.37734656336977
 21
-134.4741263552703
 72
     1
 10
69.37734656336977
 20
-134.4741263552703
 11
69.37734656336977
 21
-117.6681105261387
 72
     1
 10
69.37734656336977
 20
-117.6681105261387
 11
69.92648043824909
 21
-117.0510669151818
 72
     1
 10
69.92648043824909
 20
-117.0510669151818
 11
69.92648043824909
 21
-115.5896849711027
 72
     1
 10
69.92648043824909
 20
-115.5896849711027
 11
68.37789186664575
 21
-117.0214688596335
 72
     1
 10
68.37789186664575
 20
-117.0214688596335
 11
68.37789186664575
 21
-135.0215669106894
 72
     1
 10
68.37789186664575
 20
-135.0215669106894
 11
75.2102094701166
 21
-141.8531791312031
 72
     1
 10
75.2102094701166
 20
-141.8531791312031
 11
93.21256484417158
 21
-141.8531791312031
 72
     1
 10
93.21256484417158
 20
-141.8531791312031
 11
94.64434869653262
 21
-140.304943298257
 72
     1
 10
94.64434869653262
 20
-140.304943298257
 11
93.18363706713181
 21
-140.304943298257
 72
     1
 10
93.18363706713181
 20
-140.304943298257
 11
92.56627597177089
 21
-140.8534069092312
 72
     1
 10
92.56627597177089
 20
-140.8534069092312
 11
75.75800278947455
 21
-140.8534069092312
 72
     1
 10
75.75800278947455
 20
-140.8534069092312
 11
72.9302420282834
 21
-138.0263869099379
 72
     1
 10
72.9302420282834
 20
-138.0263869099379
 11
83.65345147693377
 21
-127.3052233015071
 72
     1
 10
83.65345147693377
 20
-127.3052233015071
 11
100.1089468904524
 21
-127.3052233015071
 72
     1
 10
100.1089468904524
 20
-127.3052233015071
 11
105.0423323201468
 21
-127.3052233015071
 72
     1
 10
105.0423323201468
 20
-127.3052233015071
 11
105.0416620423862
 21
-127.3052233015071
 72
     1
 10
105.0416620423862
 20
-127.3052233015071
 11
109.0455486069052
 21
-127.3052233015071
 72
     1
 10
109.0455486069052
 20
-127.3052233015071
 11
109.0455486069052
 21
-126.3054863573124
 97
        0
 75
     2
 76
     1
 98
        0
  0
ENDSEC
  0
SECTION
  2
OBJECTS
  0
DICTIONARY
  5
C
330
0
100
AcDbDictionary
281
     1
  3
ACAD_GROUP
350
D
  3
ACAD_LAYOUT
350
1A
  3
ACAD_MATERIAL
350
3B
  3
ACAD_MLEADERSTYLE
350
FA
  3
ACAD_MLINESTYLE
350
17
  3
ACAD_PLOTSETTINGS
350
19
  3
ACAD_PLOTSTYLENAME
350
E
  3
ACAD_TABLESTYLE
350
F9
  3
ACAD_VISUALSTYLE
350
2A
  0
SUN
  5
3F
330
29
100
AcDbSun
 90
        1
290
     0
 63
     7
421
 16777215
 40
1.0
291
     1
 91
  2455826
 92
 54000000
292
     0
 70
     2
 71
   256
280
     1
  0
DICTIONARY
  5
D
102
{ACAD_REACTORS
330
C
102
}
330
C
100
AcDbDictionary
281
     1
  0
DICTIONARY
  5
1A
102
{ACAD_REACTORS
330
C
102
}
330
C
100
AcDbDictionary
281
     1
  3
Layout1
350
1E
  3
Layout2
350
26
  3
Model
350
22
  0
DICTIONARY
  5
3B
102
{ACAD_REACTORS
330
C
102
}
330
C
100
AcDbDictionary
281
     1
  3
ByBlock
350
3D
  3
ByLayer
350
3C
  3
Global
350
3E
  0
DICTIONARY
  5
FA
102
{ACAD_REACTORS
330
C
102
}
330
C
100
AcDbDictionary
281
     1
  0
DICTIONARY
  5
17
102
{ACAD_REACTORS
330
C
102
}
330
C
100
AcDbDictionary
281
     1
  3
Standard
350
18
  0
DICTIONARY
  5
19
102
{ACAD_REACTORS
330
C
102
}
330
C
100
AcDbDictionary
281
     1
  0
ACDBDICTIONARYWDFLT
  5
E
102
{ACAD_REACTORS
330
C
102
}
330
C
100
AcDbDictionary
281
     1
  3
Normal
350
F
100
AcDbDictionaryWithDefault
340
F
  0
DICTIONARY
  5
F9
102
{ACAD_REACTORS
330
C
102
}
330
C
100
AcDbDictionary
281
     1
  0
DICTIONARY
  5
2A
102
{ACAD_REACTORS
330
C
102
}
330
C
100
AcDbDictionary
281
     1
  3
2dWireframe
350
2F
  3
3D Hidden
350
31
  3
3dWireframe
350
30
  3
Basic
350
32
  3
Brighten
350
36
  3
ColorChange
350
3A
  3
Conceptual
350
34
  3
Dim
350
35
  3
Facepattern
350
39
  3
Flat
350
2B
  3
FlatWithEdges
350
2C
  3
Gouraud
350
2D
  3
GouraudWithEdges
350
2E
  3
Linepattern
350
38
  3
Realistic
350
33
  3
Thicken
350
37
  0
LAYOUT
  5
1E
102
{ACAD_REACTORS
330
1A
102
}
330
1A
100
AcDbPlotSettings
  1

  2
none_device
  4

  6

 40
0.0
 41
0.0
 42
0.0
 43
0.0
 44
0.0
 45
0.0
 46
0.0
 47
0.0
 48
0.0
 49
0.0
140
0.0
141
0.0
142
1.0
143
1.0
 70
   688
 72
     0
 73
     0
 74
     5
  7

 75
    16
 76
     0
 77
     2
 78
   300
147
1.0
148
0.0
149
0.0
100
AcDbLayout
  1
Layout1
 70
     1
 71
     1
 10
0.0
 20
0.0
 11
12.0
 21
9.0
 12
0.0
 22
0.0
 32
0.0
 14
1.000000000000000E+20
 24
1.000000000000000E+20
 34
1.000000000000000E+20
 15
-1.000000000000000E+20
 25
-1.000000000000000E+20
 35
-1.000000000000000E+20
146
0.0
 13
0.0
 23
0.0
 33
0.0
 16
1.0
 26
0.0
 36
0.0
 17
0.0
 27
1.0
 37
0.0
 76
     0
330
1B
  0
LAYOUT
  5
26
102
{ACAD_REACTORS
330
1A
102
}
330
1A
100
AcDbPlotSettings
  1

  2
none_device
  4

  6

 40
0.0
 41
0.0
 42
0.0
 43
0.0
 44
0.0
 45
0.0
 46
0.0
 47
0.0
 48
0.0
 49
0.0
140
0.0
141
0.0
142
1.0
143
1.0
 70
   688
 72
     0
 73
     0
 74
     5
  7

 75
    16
 76
     0
 77
     2
 78
   300
147
1.0
148
0.0
149
0.0
100
AcDbLayout
  1
Layout2
 70
     1
 71
     2
 10
0.0
 20
0.0
 11
0.0
 21
0.0
 12
0.0
 22
0.0
 32
0.0
 14
0.0
 24
0.0
 34
0.0
 15
0.0
 25
0.0
 35
0.0
146
0.0
 13
0.0
 23
0.0
 33
0.0
 16
1.0
 26
0.0
 36
0.0
 17
0.0
 27
1.0
 37
0.0
 76
     0
330
23
  0
LAYOUT
  5
22
102
{ACAD_REACTORS
330
1A
102
}
330
1A
100
AcDbPlotSettings
  1

  2
none_device
  4

  6

 40
0.0
 41
0.0
 42
0.0
 43
0.0
 44
0.0
 45
0.0
 46
0.0
 47
0.0
 48
0.0
 49
0.0
140
0.0
141
0.0
142
1.0
143
1.0
 70
  1712
 72
     0
 73
     0
 74
     0
  7

 75
     0
 76
     0
 77
     2
 78
   300
147
1.0
148
0.0
149
0.0
100
AcDbLayout
  1
Model
 70
     1
 71
     0
 10
0.0
 20
0.0
 11
12.0
 21
9.0
 12
0.0
 22
0.0
 32
0.0
 14
1.000000000000000E+20
 24
1.000000000000000E+20
 34
1.000000000000000E+20
 15
-1.000000000000000E+20
 25
-1.000000000000000E+20
 35
-1.000000000000000E+20
146
0.0
 13
0.0
 23
0.0
 33
0.0
 16
1.0
 26
0.0
 36
0.0
 17
0.0
 27
1.0
 37
0.0
 76
     0
330
1F
331
29
  0
MATERIAL
  5
3D
102
{ACAD_REACTORS
330
3B
102
}
330
3B
100
AcDbMaterial
  1
ByBlock
 72
     1
 94
      127
  0
MATERIAL
  5
3C
102
{ACAD_REACTORS
330
3B
102
}
330
3B
100
AcDbMaterial
  1
ByLayer
 72
     1
 94
      127
  0
MATERIAL
  5
3E
102
{ACAD_REACTORS
330
3B
102
}
330
3B
100
AcDbMaterial
  1
Global
 72
     1
 94
      127
  0
MLINESTYLE
  5
18
102
{ACAD_REACTORS
330
17
102
}
330
17
100
AcDbMlineStyle
  2
Standard
 70
     0
  3

 62
   256
 51
90.0
 52
90.0
 71
     2
 49
0.5
 62
   256
  6
BYLAYER
 49
-0.5
 62
   256
  6
BYLAYER
  0
ACDBPLACEHOLDER
  5
F
102
{ACAD_REACTORS
330
E
102
}
330
E
  0
VISUALSTYLE
  5
2F
102
{ACAD_REACTORS
330
2A
102
}
330
2A
100
AcDbVisualStyle
  2
2dWireframe
 70
     4
177
     2
291
     0
 71
     0
176
     1
 72
     2
176
     1
 73
     0
176
     1
 90
        0
176
     1
 40
-0.6
176
     1
 41
-30.0
176
     1
 62
     5
 63
     7
421
 16777215
176
     1
 74
     1
176
     1
 91
        4
176
     1
 64
     7
176
     1
 65
   257
176
     1
 75
     1
176
     1
175
     1
176
     1
 42
1.0
176
     1
 92
        0
176
     1
 66
   257
176
     1
 43
1.0
176
     1
 76
     1
176
     1
 77
     6
176
     1
 78
     2
176
     1
 67
     7
176
     1
 79
     5
176
     1
170
     0
176
     1
171
     0
176
     1
290
     0
176
     1
 93
        1
176
     1
 44
0.0
176
     1
173
     0
176
     1
  0
VISUALSTYLE
  5
31
102
{ACAD_REACTORS
330
2A
102
}
330
2A
100
AcDbVisualStyle
  2
3D Hidden
 70
     6
177
     2
291
     0
 71
     1
176
     1
 72
     2
176
     1
 73
     2
176
     1
 90
        0
176
     1
 40
-0.6
176
     1
 41
-30.0
176
     1
 62
     5
 63
     7
421
 16777215
176
     1
 74
     2
176
     1
 91
        2
176
     1
 64
     7
176
     1
 65
   257
176
     1
 75
     2
176
     1
175
     1
176
     1
 42
40.0
176
     1
 92
        0
176
     1
 66
   257
176
     1
 43
1.0
176
     1
 76
     1
176
     1
 77
     6
176
     1
 78
     2
176
     1
 67
     7
176
     1
 79
     3
176
     1
170
     0
176
     1
171
     0
176
     1
290
     0
176
     1
 93
        1
176
     1
 44
0.0
176
     1
173
     0
176
     1
  0
VISUALSTYLE
  5
30
102
{ACAD_REACTORS
330
2A
102
}
330
2A
100
AcDbVisualStyle
  2
3dWireframe
 70
     5
177
     2
291
     0
 71
     0
176
     1
 72
     2
176
     1
 73
     0
176
     1
 90
        0
176
     1
 40
-0.6
176
     1
 41
-30.0
176
     1
 62
     5
 63
     7
421
 16777215
176
     1
 74
     1
176
     1
 91
        4
176
     1
 64
     7
176
     1
 65
   257
176
     1
 75
     1
176
     1
175
     1
176
     1
 42
1.0
176
     1
 92
        0
176
     1
 66
   257
176
     1
 43
1.0
176
     1
 76
     1
176
     1
 77
     6
176
     1
 78
     2
176
     1
 67
     7
176
     1
 79
     5
176
     1
170
     0
176
     1
171
     0
176
     1
290
     0
176
     1
 93
        1
176
     1
 44
0.0
176
     1
173
     0
176
     1
  0
VISUALSTYLE
  5
32
102
{ACAD_REACTORS
330
2A
102
}
330
2A
100
AcDbVisualStyle
  2
Basic
 70
     7
177
     2
291
     1
 71
     1
176
     1
 72
     0
176
     1
 73
     1
176
     1
 90
        0
176
     1
 40
-0.6
176
     1
 41
-30.0
176
     1
 62
     5
 63
     7
421
 16777215
176
     1
 74
     0
176
     1
 91
        4
176
     1
 64
     7
176
     1
 65
   257
176
     1
 75
     1
176
     1
175
     1
176
     1
 42
1.0
176
     1
 92
        8
176
     1
 66
     7
176
     1
 43
1.0
176
     1
 76
     1
176
     1
 77
     6
176
     1
 78
     2
176
     1
 67
     7
176
     1
 79
     5
176
     1
170
     0
176
     1
171
     0
176
     1
290
     0
176
     1
 93
        1
176
     1
 44
0.0
176
     1
173
     0
176
     1
  0
VISUALSTYLE
  5
36
102
{ACAD_REACTORS
330
2A
102
}
330
2A
100
AcDbVisualStyle
  2
Brighten
 70
    12
177
     2
291
     1
 71
     2
176
     1
 72
     2
176
     1
 73
     0
176
     1
 90
        0
176
     1
 40
-0.6
176
     1
 41
-30.0
176
     1
 62
     5
 63
     7
421
 16777215
176
     1
 74
     1
176
     1
 91
        4
176
     1
 64
     7
176
     1
 65
   257
176
     1
 75
     1
176
     1
175
     1
176
     1
 42
1.0
176
     1
 92
        8
176
     1
 66
     7
176
     1
 43
1.0
176
     1
 76
     1
176
     1
 77
     6
176
     1
 78
     2
176
     1
 67
     7
176
     1
 79
     5
176
     1
170
     0
176
     1
171
     0
176
     1
290
     0
176
     1
 93
        1
176
     1
 44
50.0
176
     1
173
     0
176
     1
  0
VISUALSTYLE
  5
3A
102
{ACAD_REACTORS
330
2A
102
}
330
2A
100
AcDbVisualStyle
  2
ColorChange
 70
    16
177
     2
291
     1
 71
     2
176
     1
 72
     2
176
     1
 73
     3
176
     1
 90
        0
176
     1
 40
-0.6
176
     1
 41
-30.0
176
     1
 62
     5
 63
     8
421
  8421504
176
     1
 74
     1
176
     1
 91
        4
176
     1
 64
     7
176
     1
 65
   257
176
     1
 75
     1
176
     1
175
     1
176
     1
 42
1.0
176
     1
 92
        8
176
     1
 66
     8
424
  8421504
176
     1
 43
1.0
176
     1
 76
     1
176
     1
 77
     6
176
     1
 78
     2
176
     1
 67
     7
176
     1
 79
     5
176
     1
170
     0
176
     1
171
     0
176
     1
290
     0
176
     1
 93
        1
176
     1
 44
0.0
176
     1
173
     0
176
     1
  0
VISUALSTYLE
  5
34
102
{ACAD_REACTORS
330
2A
102
}
330
2A
100
AcDbVisualStyle
  2
Conceptual
 70
     9
177
     2
291
     0
 71
     3
176
     1
 72
     2
176
     1
 73
     0
176
     1
 90
        0
176
     1
 40
-0.6
176
     1
 41
-30.0
176
     1
 62
     5
 63
     7
421
 16777215
176
     1
 74
     2
176
     1
 91
        2
176
     1
 64
     7
176
     1
 65
   257
176
     1
 75
     1
176
     1
175
     1
176
     1
 42
40.0
176
     1
 92
        8
176
     1
 66
     7
176
     1
 43
1.0
176
     1
 76
     1
176
     1
 77
     6
176
     1
 78
     2
176
     1
 67
     7
176
     1
 79
     3
176
     1
170
     0
176
     1
171
     0
176
     1
290
     0
176
     1
 93
        1
176
     1
 44
0.0
176
     1
173
     0
176
     1
  0
VISUALSTYLE
  5
35
102
{ACAD_REACTORS
330
2A
102
}
330
2A
100
AcDbVisualStyle
  2
Dim
 70
    11
177
     2
291
     1
 71
     2
176
     1
 72
     2
176
     1
 73
     0
176
     1
 90
        0
176
     1
 40
-0.6
176
     1
 41
-30.0
176
     1
 62
     5
 63
     7
421
 16777215
176
     1
 74
     1
176
     1
 91
        4
176
     1
 64
     7
176
     1
 65
   257
176
     1
 75
     1
176
     1
175
     1
176
     1
 42
1.0
176
     1
 92
        8
176
     1
 66
     7
176
     1
 43
1.0
176
     1
 76
     1
176
     1
 77
     6
176
     1
 78
     2
176
     1
 67
     7
176
     1
 79
     5
176
     1
170
     0
176
     1
171
     0
176
     1
290
     0
176
     1
 93
        1
176
     1
 44
-50.0
176
     1
173
     0
176
     1
  0
VISUALSTYLE
  5
39
102
{ACAD_REACTORS
330
2A
102
}
330
2A
100
AcDbVisualStyle
  2
Facepattern
 70
    15
177
     2
291
     1
 71
     2
176
     1
 72
     2
176
     1
 73
     0
176
     1
 90
        0
176
     1
 40
-0.6
176
     1
 41
-30.0
176
     1
 62
     5
 63
     7
421
 16777215
176
     1
 74
     1
176
     1
 91
        4
176
     1
 64
     7
176
     1
 65
   257
176
     1
 75
     1
176
     1
175
     1
176
     1
 42
1.0
176
     1
 92
        8
176
     1
 66
     7
176
     1
 43
1.0
176
     1
 76
     1
176
     1
 77
     6
176
     1
 78
     2
176
     1
 67
     7
176
     1
 79
     5
176
     1
170
     0
176
     1
171
     0
176
     1
290
     0
176
     1
 93
        1
176
     1
 44
0.0
176
     1
173
     0
176
     1
  0
VISUALSTYLE
  5
2B
102
{ACAD_REACTORS
330
2A
102
}
330
2A
100
AcDbVisualStyle
  2
Flat
 70
     0
177
     2
291
     1
 71
     2
176
     1
 72
     1
176
     1
 73
     1
176
     1
 90
        2
176
     1
 40
-0.6
176
     1
 41
30.0
176
     1
 62
     5
 63
     7
421
 16777215
176
     1
 74
     0
176
     1
 91
        4
176
     1
 64
     7
176
     1
 65
   257
176
     1
 75
     1
176
     1
175
     1
176
     1
 42
1.0
176
     1
 92
        8
176
     1
 66
     7
176
     1
 43
1.0
176
     1
 76
     1
176
     1
 77
     6
176
     1
 78
     2
176
     1
 67
     7
176
     1
 79
     5
176
     1
170
     0
176
     1
171
     0
176
     1
290
     0
176
     1
 93
       13
176
     1
 44
0.0
176
     1
173
     0
176
     1
  0
VISUALSTYLE
  5
2C
102
{ACAD_REACTORS
330
2A
102
}
330
2A
100
AcDbVisualStyle
  2
FlatWithEdges
 70
     1
177
     2
291
     1
 71
     2
176
     1
 72
     1
176
     1
 73
     1
176
     1
 90
        2
176
     1
 40
-0.6
176
     1
 41
30.0
176
     1
 62
     5
 63
     7
421
 16777215
176
     1
 74
     1
176
     1
 91
        4
176
     1
 64
     7
176
     1
 65
   257
176
     1
 75
     1
176
     1
175
     1
176
     1
 42
1.0
176
     1
 92
        0
176
     1
 66
   257
176
     1
 43
1.0
176
     1
 76
     1
176
     1
 77
     6
176
     1
 78
     2
176
     1
 67
     7
176
     1
 79
     5
176
     1
170
     0
176
     1
171
     0
176
     1
290
     0
176
     1
 93
       13
176
     1
 44
0.0
176
     1
173
     0
176
     1
  0
VISUALSTYLE
  5
2D
102
{ACAD_REACTORS
330
2A
102
}
330
2A
100
AcDbVisualStyle
  2
Gouraud
 70
     2
177
     2
291
     1
 71
     2
176
     1
 72
     2
176
     1
 73
     1
176
     1
 90
        2
176
     1
 40
-0.6
176
     1
 41
30.0
176
     1
 62
     5
 63
     7
421
 16777215
176
     1
 74
     0
176
     1
 91
        4
176
     1
 64
     7
176
     1
 65
   257
176
     1
 75
     1
176
     1
175
     1
176
     1
 42
1.0
176
     1
 92
        0
176
     1
 66
     7
176
     1
 43
1.0
176
     1
 76
     1
176
     1
 77
     6
176
     1
 78
     2
176
     1
 67
     7
176
     1
 79
     5
176
     1
170
     0
176
     1
171
     0
176
     1
290
     0
176
     1
 93
       13
176
     1
 44
0.0
176
     1
173
     0
176
     1
  0
VISUALSTYLE
  5
2E
102
{ACAD_REACTORS
330
2A
102
}
330
2A
100
AcDbVisualStyle
  2
GouraudWithEdges
 70
     3
177
     2
291
     1
 71
     2
176
     1
 72
     2
176
     1
 73
     1
176
     1
 90
        2
176
     1
 40
-0.6
176
     1
 41
30.0
176
     1
 62
     5
 63
     7
421
 16777215
176
     1
 74
     1
176
     1
 91
        4
176
     1
 64
     7
176
     1
 65
   257
176
     1
 75
     1
176
     1
175
     1
176
     1
 42
1.0
176
     1
 92
        0
176
     1
 66
   257
176
     1
 43
1.0
176
     1
 76
     1
176
     1
 77
     6
176
     1
 78
     2
176
     1
 67
     7
176
     1
 79
     5
176
     1
170
     0
176
     1
171
     0
176
     1
290
     0
176
     1
 93
       13
176
     1
 44
0.0
176
     1
173
     0
176
     1
  0
VISUALSTYLE
  5
38
102
{ACAD_REACTORS
330
2A
102
}
330
2A
100
AcDbVisualStyle
  2
Linepattern
 70
    14
177
     2
291
     1
 71
     2
176
     1
 72
     2
176
     1
 73
     0
176
     1
 90
        0
176
     1
 40
-0.6
176
     1
 41
-30.0
176
     1
 62
     5
 63
     7
421
 16777215
176
     1
 74
     1
176
     1
 91
        4
176
     1
 64
     7
176
     1
 65
   257
176
     1
 75
     7
176
     1
175
     7
176
     1
 42
1.0
176
     1
 92
        8
176
     1
 66
     7
176
     1
 43
1.0
176
     1
 76
     1
176
     1
 77
     6
176
     1
 78
     2
176
     1
 67
     7
176
     1
 79
     5
176
     1
170
     0
176
     1
171
     0
176
     1
290
     0
176
     1
 93
        1
176
     1
 44
0.0
176
     1
173
     0
176
     1
  0
VISUALSTYLE
  5
33
102
{ACAD_REACTORS
330
2A
102
}
330
2A
100
AcDbVisualStyle
  2
Realistic
 70
     8
177
     2
291
     0
 71
     2
176
     1
 72
     2
176
     1
 73
     0
176
     1
 90
        0
176
     1
 40
-0.6
176
     1
 41
-30.0
176
     1
 62
     5
 63
     7
421
 16777215
176
     1
 74
     1
176
     1
 91
        0
176
     1
 64
     7
176
     1
 65
   257
176
     1
 75
     1
176
     1
175
     1
176
     1
 42
1.0
176
     1
 92
        8
176
     1
 66
     8
424
  7895160
176
     1
 43
1.0
176
     1
 76
     1
176
     1
 77
     6
176
     1
 78
     2
176
     1
 67
     7
176
     1
 79
     5
176
     1
170
     0
176
     1
171
     0
176
     1
290
     0
176
     1
 93
       13
176
     1
 44
0.0
176
     1
173
     0
176
     1
  0
VISUALSTYLE
  5
37
102
{ACAD_REACTORS
330
2A
102
}
330
2A
100
AcDbVisualStyle
  2
Thicken
 70
    13
177
     2
291
     1
 71
     2
176
     1
 72
     2
176
     1
 73
     0
176
     1
 90
        0
176
     1
 40
-0.6
176
     1
 41
-30.0
176
     1
 62
     5
 63
     7
421
 16777215
176
     1
 74
     1
176
     1
 91
        4
176
     1
 64
     7
176
     1
 65
   257
176
     1
 75
     1
176
     1
175
     1
176
     1
 42
1.0
176
     1
 92
       12
176
     1
 66
     7
176
     1
 43
1.0
176
     1
 76
     1
176
     1
 77
     6
176
     1
 78
     2
176
     1
 67
     7
176
     1
 79
     5
176
     1
170
     0
176
     1
171
     0
176
     1
290
     0
176
     1
 93
        1
176
     1
 44
0.0
176
     1
173
     0
176
     1
  0
ENDSEC
  0
EOF
