  0
SECTION
  2
HEADER
  9
$ACADVER
  1
AC1024
  9
$ACADMAINTVER
 70
     6
  9
$DWGCODEPAGE
  3
UNDEFINED
  9
$INSBASE
 10
0.0
 20
0.0
 30
0.0
  9
$EXTMIN
 10
1.000000000000000E+20
 20
1.000000000000000E+20
 30
1.000000000000000E+20
  9
$EXTMAX
 10
-1.000000000000000E+20
 20
-1.000000000000000E+20
 30
-1.000000000000000E+20
  9
$LIMMIN
 10
0.0
 20
0.0
  9
$LIMMAX
 10
12.0
 20
9.0
  9
$ORTHOMODE
 70
     0
  9
$REGENMODE
 70
     1
  9
$FILLMODE
 70
     1
  9
$QTEXTMODE
 70
     0
  9
$MIRRTEXT
 70
     1
  9
$LTSCALE
 40
1.0
  9
$ATTMODE
 70
     1
  9
$TEXTSIZE
 40
0.2
  9
$TRACEWID
 40
0.05
  9
$TEXTSTYLE
  7
Standard
  9
$CLAYER
  8
0
  9
$CELTYPE
  6
ByLayer
  9
$CECOLOR
 62
   256
  9
$CELTSCALE
 40
1.0
  9
$DISPSILH
 70
     0
  9
$DIMSCALE
 40
1.0
  9
$DIMASZ
 40
0.18
  9
$DIMEXO
 40
0.0625
  9
$DIMDLI
 40
0.38
  9
$DIMRND
 40
0.0
  9
$DIMDLE
 40
0.0
  9
$DIMEXE
 40
0.18
  9
$DIMTP
 40
0.0
  9
$DIMTM
 40
0.0
  9
$DIMTXT
 40
0.18
  9
$DIMCEN
 40
0.09
  9
$DIMTSZ
 40
0.0
  9
$DIMTOL
 70
     0
  9
$DIMLIM
 70
     0
  9
$DIMTIH
 70
     1
  9
$DIMTOH
 70
     1
  9
$DIMSE1
 70
     0
  9
$DIMSE2
 70
     0
  9
$DIMTAD
 70
     0
  9
$DIMZIN
 70
     0
  9
$DIMBLK
  1

  9
$DIMASO
 70
     1
  9
$DIMSHO
 70
     1
  9
$DIMPOST
  1

  9
$DIMAPOST
  1

  9
$DIMALT
 70
     0
  9
$DIMALTD
 70
     2
  9
$DIMALTF
 40
25.4
  9
$DIMLFAC
 40
1.0
  9
$DIMTOFL
 70
     0
  9
$DIMTVP
 40
0.0
  9
$DIMTIX
 70
     0
  9
$DIMSOXD
 70
     0
  9
$DIMSAH
 70
     0
  9
$DIMBLK1
  1

  9
$DIMBLK2
  1

  9
$DIMSTYLE
  2
Standard
  9
$DIMCLRD
 70
     0
  9
$DIMCLRE
 70
     0
  9
$DIMCLRT
 70
     0
  9
$DIMTFAC
 40
1.0
  9
$DIMGAP
 40
0.09
  9
$DIMJUST
 70
     0
  9
$DIMSD1
 70
     0
  9
$DIMSD2
 70
     0
  9
$DIMTOLJ
 70
     1
  9
$DIMTZIN
 70
     0
  9
$DIMALTZ
 70
     0
  9
$DIMALTTZ
 70
     0
  9
$DIMUPT
 70
     0
  9
$DIMDEC
 70
     4
  9
$DIMTDEC
 70
     4
  9
$DIMALTU
 70
     2
  9
$DIMALTTD
 70
     2
  9
$DIMTXSTY
  7
Standard
  9
$DIMAUNIT
 70
     0
  9
$DIMADEC
 70
     0
  9
$DIMALTRND
 40
0.0
  9
$DIMAZIN
 70
     0
  9
$DIMDSEP
 70
    46
  9
$DIMATFIT
 70
     3
  9
$DIMFRAC
 70
     0
  9
$DIMLDRBLK
  1

  9
$DIMLUNIT
 70
     2
  9
$DIMLWD
 70
    -2
  9
$DIMLWE
 70
    -2
  9
$DIMTMOVE
 70
     0
  9
$DIMFXL
 40
1.0
  9
$DIMFXLON
 70
     0
  9
$DIMJOGANG
 40
0.7853981633974483
  9
$DIMTFILL
 70
     0
  9
$DIMTFILLCLR
 70
     0
  9
$DIMARCSYM
 70
     0
  9
$DIMLTYPE
  6

  9
$DIMLTEX1
  6

  9
$DIMLTEX2
  6

  9
$DIMTXTDIRECTION
 70
     0
  9
$LUNITS
 70
     2
  9
$LUPREC
 70
     4
  9
$SKETCHINC
 40
0.1
  9
$FILLETRAD
 40
0.5
  9
$AUNITS
 70
     0
  9
$AUPREC
 70
     0
  9
$MENU
  1
.
  9
$ELEVATION
 40
0.0
  9
$PELEVATION
 40
0.0
  9
$THICKNESS
 40
0.0
  9
$LIMCHECK
 70
     0
  9
$CHAMFERA
 40
0.5
  9
$CHAMFERB
 40
0.5
  9
$CHAMFERC
 40
1.0
  9
$CHAMFERD
 40
0.0
  9
$SKPOLY
 70
     0
  9
$TDCREATE
 40
2457917.623194444
  9
$TDUCREATE
 40
2457917.248194444
  9
$TDUPDATE
 40
2457917.623194444
  9
$TDUUPDATE
 40
2457917.248194444
  9
$TDINDWG
 40
0.0000000116
  9
$TDUSRTIMER
 40
0.0000000116
  9
$USRTIMER
 70
     1
  9
$ANGBASE
 50
0.0
  9
$ANGDIR
 70
     0
  9
$PDMODE
 70
     0
  9
$PDSIZE
 40
0.0
  9
$PLINEWID
 40
0.0
  9
$SPLFRAME
 70
     0
  9
$SPLINETYPE
 70
     6
  9
$SPLINESEGS
 70
     8
  9
$HANDSEED
  5
FA
  9
$SURFTAB1
 70
     6
  9
$SURFTAB2
 70
     6
  9
$SURFTYPE
 70
     6
  9
$SURFU
 70
     6
  9
$SURFV
 70
     6
  9
$UCSBASE
  2

  9
$UCSNAME
  2

  9
$UCSORG
 10
0.0
 20
0.0
 30
0.0
  9
$UCSXDIR
 10
1.0
 20
0.0
 30
0.0
  9
$UCSYDIR
 10
0.0
 20
1.0
 30
0.0
  9
$UCSORTHOREF
  2

  9
$UCSORTHOVIEW
 70
     0
  9
$UCSORGTOP
 10
0.0
 20
0.0
 30
0.0
  9
$UCSORGBOTTOM
 10
0.0
 20
0.0
 30
0.0
  9
$UCSORGLEFT
 10
0.0
 20
0.0
 30
0.0
  9
$UCSORGRIGHT
 10
0.0
 20
0.0
 30
0.0
  9
$UCSORGFRONT
 10
0.0
 20
0.0
 30
0.0
  9
$UCSORGBACK
 10
0.0
 20
0.0
 30
0.0
  9
$PUCSBASE
  2

  9
$PUCSNAME
  2

  9
$PUCSORG
 10
0.0
 20
0.0
 30
0.0
  9
$PUCSXDIR
 10
1.0
 20
0.0
 30
0.0
  9
$PUCSYDIR
 10
0.0
 20
1.0
 30
0.0
  9
$PUCSORTHOREF
  2

  9
$PUCSORTHOVIEW
 70
     0
  9
$PUCSORGTOP
 10
0.0
 20
0.0
 30
0.0
  9
$PUCSORGBOTTOM
 10
0.0
 20
0.0
 30
0.0
  9
$PUCSORGLEFT
 10
0.0
 20
0.0
 30
0.0
  9
$PUCSORGRIGHT
 10
0.0
 20
0.0
 30
0.0
  9
$PUCSORGFRONT
 10
0.0
 20
0.0
 30
0.0
  9
$PUCSORGBACK
 10
0.0
 20
0.0
 30
0.0
  9
$USERI1
 70
     0
  9
$USERI2
 70
     0
  9
$USERI3
 70
     0
  9
$USERI4
 70
     0
  9
$USERI5
 70
     0
  9
$USERR1
 40
0.0
  9
$USERR2
 40
0.0
  9
$USERR3
 40
0.0
  9
$USERR4
 40
0.0
  9
$USERR5
 40
0.0
  9
$WORLDVIEW
 70
     1
  9
$SHADEDGE
 70
     3
  9
$SHADEDIF
 70
    70
  9
$TILEMODE
 70
     1
  9
$MAXACTVP
 70
    64
  9
$PINSBASE
 10
0.0
 20
0.0
 30
0.0
  9
$PLIMCHECK
 70
     0
  9
$PEXTMIN
 10
1.000000000000000E+20
 20
1.000000000000000E+20
 30
1.000000000000000E+20
  9
$PEXTMAX
 10
-1.000000000000000E+20
 20
-1.000000000000000E+20
 30
-1.000000000000000E+20
  9
$PLIMMIN
 10
0.0
 20
0.0
  9
$PLIMMAX
 10
12.0
 20
9.0
  9
$UNITMODE
 70
     0
  9
$VISRETAIN
 70
     1
  9
$PLINEGEN
 70
     0
  9
$PSLTSCALE
 70
     1
  9
$TREEDEPTH
 70
  3020
  9
$CMLSTYLE
  2
Standard
  9
$CMLJUST
 70
     0
  9
$CMLSCALE
 40
1.0
  9
$PROXYGRAPHICS
 70
     1
  9
$MEASUREMENT
 70
     0
  9
$CELWEIGHT
370
    -1
  9
$ENDCAPS
280
     0
  9
$JOINSTYLE
280
     0
  9
$LWDISPLAY
290
     1
  9
$INSUNITS
 70
     1
  9
$HYPERLINKBASE
  1

  9
$STYLESHEET
  1

  9
$XEDIT
290
     1
  9
$CEPSNTYPE
380
     0
  9
$PSTYLEMODE
290
     1
  9
$FINGERPRINTGUID
  2
{4A0F73F6-D944-C5B7-F02E-2D50C0C153BD}
  9
$VERSIONGUID
  2
{FAEB1C32-E019-11D5-929B-00C0DF256EC4}
  9
$EXTNAMES
290
     1
  9
$PSVPSCALE
 40
0.0
  9
$OLESTARTUP
290
     0
  9
$SORTENTS
280
   127
  9
$INDEXCTL
280
     0
  9
$HIDETEXT
280
     1
  9
$XCLIPFRAME
280
     2
  9
$HALOGAP
280
     0
  9
$OBSCOLOR
 70
   257
  9
$OBSLTYPE
280
     0
  9
$INTERSECTIONDISPLAY
280
     0
  9
$INTERSECTIONCOLOR
 70
   257
  9
$DIMASSOC
280
     2
  9
$PROJECTNAME
  1

  9
$CAMERADISPLAY
290
     0
  9
$LENSLENGTH
 40
50.0
  9
$CAMERAHEIGHT
 40
0.0
  9
$STEPSPERSEC
 40
2.0
  9
$STEPSIZE
 40
6.0
  9
$3DDWFPREC
 40
2.0
  9
$PSOLWIDTH
 40
0.25
  9
$PSOLHEIGHT
 40
4.0
  9
$LOFTANG1
 40
1.570796326794897
  9
$LOFTANG2
 40
1.570796326794897
  9
$LOFTMAG1
 40
0.0
  9
$LOFTMAG2
 40
0.0
  9
$LOFTPARAM
 70
     7
  9
$LOFTNORMALS
280
     1
  9
$LATITUDE
 40
37.795
  9
$LONGITUDE
 40
-122.394
  9
$NORTHDIRECTION
 40
0.0
  9
$TIMEZONE
 70
 -8000
  9
$LIGHTGLYPHDISPLAY
280
     1
  9
$TILEMODELIGHTSYNCH
280
     1
  9
$CMATERIAL
347
3C
  9
$SOLIDHIST
280
     1
  9
$SHOWHIST
280
     1
  9
$DWFFRAME
280
     2
  9
$DGNFRAME
280
     2
  9
$REALWORLDSCALE
290
     1
  9
$INTERFERECOLOR
 62
   256
  9
$CSHADOW
280
     0
  9
$SHADOWPLANELOCATION
 40
0.0
  0
ENDSEC
  0
SECTION
  2
CLASSES
  0
CLASS
  1
ACDBDICTIONARYWDFLT
  2
AcDbDictionaryWithDefault
  3
ObjectDBX Classes
 90
        0
 91
        4
280
     0
281
     0
  0
CLASS
  1
VISUALSTYLE
  2
AcDbVisualStyle
  3
ObjectDBX Classes
 90
     4095
 91
        4
280
     0
281
     0
  0
CLASS
  1
MATERIAL
  2
AcDbMaterial
  3
ObjectDBX Classes
 90
     1153
 91
        4
280
     0
281
     0
  0
CLASS
  1
SUN
  2
AcDbSun
  3
SCENEOE
 90
     1024
 91
        4
280
     0
281
     0
  0
ENDSEC
  0
SECTION
  2
TABLES
  0
TABLE
  2
VPORT
  5
8
330
0
100
AcDbSymbolTable
 70
     1
  0
VPORT
  5
29
330
8
100
AcDbSymbolTableRecord
100
AcDbViewportTableRecord
  2
*Active
 70
     0
 10
0.0
 20
0.0
 11
1.0
 21
1.0
 12
0.0
 22
0.0
 13
0.0
 23
0.0
 14
0.5
 24
0.5
 15
0.5
 25
0.5
 16
0.0
 26
0.0
 36
1.0
 17
91.00082462281999
 27
-128.4993055234307
 37
0.0
 40
256.9986110468615
 41
0.7081814508812795
 42
50.0
 43
0.0
 44
0.0
 50
0.0
 51
0.0
 71
     0
 72
   100
 73
     1
 74
     3
 75
     0
 76
     0
 77
     0
 78
     0
281
     0
 65
     1
110
0.0
120
0.0
130
0.0
111
1.0
121
0.0
131
0.0
112
0.0
122
1.0
132
0.0
 79
     0
146
0.0
 60
     3
 61
     5
292
     1
282
     1
141
0.0
142
0.0
 63
   250
361
3F
  0
ENDTAB
  0
TABLE
  2
LTYPE
  5
5
330
0
100
AcDbSymbolTable
 70
     1
  0
LTYPE
  5
14
330
5
100
AcDbSymbolTableRecord
100
AcDbLinetypeTableRecord
  2
ByBlock
 70
     0
  3

 72
    65
 73
     0
 40
0.0
  0
LTYPE
  5
15
330
5
100
AcDbSymbolTableRecord
100
AcDbLinetypeTableRecord
  2
ByLayer
 70
     0
  3

 72
    65
 73
     0
 40
0.0
  0
LTYPE
  5
16
330
5
100
AcDbSymbolTableRecord
100
AcDbLinetypeTableRecord
  2
Continuous
 70
     0
  3
Solid line
 72
    65
 73
     0
 40
0.0
  0
ENDTAB
  0
TABLE
  2
LAYER
  5
2
330
0
100
AcDbSymbolTable
 70
     2
  0
LAYER
  5
10
330
2
100
AcDbSymbolTableRecord
100
AcDbLayerTableRecord
  2
0
 70
     0
 62
     7
  6
Continuous
370
    -3
390
F
347
3E
  0
LAYER
  5
40
330
2
100
AcDbSymbolTableRecord
100
AcDbLayerTableRecord
  2
_U+30EC_U+30A4_U+30E4_U+30FC 1
 70
     0
 62
     7
  6
Continuous
370
    -3
390
F
347
3E
  0
ENDTAB
  0
TABLE
  2
STYLE
  5
3
330
0
100
AcDbSymbolTable
 70
     1
  0
STYLE
  5
11
330
3
100
AcDbSymbolTableRecord
100
AcDbTextStyleTableRecord
  2
Standard
 70
     0
 40
0.0
 41
1.0
 50
0.0
 71
     0
 42
0.2
  3
txt
  4

  0
ENDTAB
  0
TABLE
  2
VIEW
  5
6
330
0
100
AcDbSymbolTable
 70
     0
  0
ENDTAB
  0
TABLE
  2
UCS
  5
7
330
0
100
AcDbSymbolTable
 70
     0
  0
ENDTAB
  0
TABLE
  2
APPID
  5
9
330
0
100
AcDbSymbolTable
 70
     1
  0
APPID
  5
12
330
9
100
AcDbSymbolTableRecord
100
AcDbRegAppTableRecord
  2
ACAD
 70
     0
  0
ENDTAB
  0
TABLE
  2
DIMSTYLE
  5
A
330
0
100
AcDbSymbolTable
 70
     1
100
AcDbDimStyleTable
  0
DIMSTYLE
105
27
330
A
100
AcDbSymbolTableRecord
100
AcDbDimStyleTableRecord
  2
Standard
 70
     0
178
     0
340
11
  0
ENDTAB
  0
TABLE
  2
BLOCK_RECORD
  5
1
330
0
100
AcDbSymbolTable
 70
     8
  0
BLOCK_RECORD
  5
1F
330
1
100
AcDbSymbolTableRecord
100
AcDbBlockTableRecord
  2
*Model_Space
340
22
 70
     0
280
     1
281
     0
  0
BLOCK_RECORD
  5
1B
330
1
100
AcDbSymbolTableRecord
100
AcDbBlockTableRecord
  2
*Paper_Space
340
1E
 70
     0
280
     1
281
     0
  0
BLOCK_RECORD
  5
23
330
1
100
AcDbSymbolTableRecord
100
AcDbBlockTableRecord
  2
*Paper_Space0
340
26
 70
     0
280
     1
281
     0
  0
BLOCK_RECORD
  5
50
330
1
100
AcDbSymbolTableRecord
100
AcDbBlockTableRecord
  2
block 2
340
0
102
{BLKREFS
331
51
102
}
 70
     0
280
     1
281
     0
  0
BLOCK_RECORD
  5
72
330
1
100
AcDbSymbolTableRecord
100
AcDbBlockTableRecord
  2
block 3
340
0
102
{BLKREFS
331
73
102
}
 70
     0
280
     1
281
     0
  0
BLOCK_RECORD
  5
78
330
1
100
AcDbSymbolTableRecord
100
AcDbBlockTableRecord
  2
block 4
340
0
102
{BLKREFS
331
79
102
}
 70
     0
280
     1
281
     0
  0
BLOCK_RECORD
  5
88
330
1
100
AcDbSymbolTableRecord
100
AcDbBlockTableRecord
  2
block 5
340
0
102
{BLKREFS
331
89
102
}
 70
     0
280
     1
281
     0
  0
BLOCK_RECORD
  5
91
330
1
100
AcDbSymbolTableRecord
100
AcDbBlockTableRecord
  2
block 6
340
0
102
{BLKREFS
331
92
102
}
 70
     0
280
     1
281
     0
  0
BLOCK_RECORD
  5
AF
330
1
100
AcDbSymbolTableRecord
100
AcDbBlockTableRecord
  2
block 7
340
0
102
{BLKREFS
331
B0
102
}
 70
     0
280
     1
281
     0
  0
BLOCK_RECORD
  5
C3
330
1
100
AcDbSymbolTableRecord
100
AcDbBlockTableRecord
  2
block 8
340
0
102
{BLKREFS
331
C4
102
}
 70
     0
280
     1
281
     0
  0
ENDTAB
  0
ENDSEC
  0
SECTION
  2
BLOCKS
  0
BLOCK
  5
20
330
1F
100
AcDbEntity
  8
0
100
AcDbBlockBegin
  2
*Model_Space
 70
     0
 10
0.0
 20
0.0
 30
0.0
  3
*Model_Space
  1

  0
ENDBLK
  5
21
330
1F
100
AcDbEntity
  8
0
100
AcDbBlockEnd
  0
BLOCK
  5
1C
330
1B
100
AcDbEntity
 67
     1
  8
0
100
AcDbBlockBegin
  2
*Paper_Space
 70
     0
 10
0.0
 20
0.0
 30
0.0
  3
*Paper_Space
  1

  0
ENDBLK
  5
1D
330
1B
100
AcDbEntity
 67
     1
  8
0
100
AcDbBlockEnd
  0
BLOCK
  5
24
330
23
100
AcDbEntity
  8
0
100
AcDbBlockBegin
  2
*Paper_Space0
 70
     0
 10
0.0
 20
0.0
 30
0.0
  3
*Paper_Space0
  1

  0
ENDBLK
  5
25
330
23
100
AcDbEntity
  8
0
100
AcDbBlockEnd
  0
BLOCK
  5
52
330
50
100
AcDbEntity
  8
0
100
AcDbBlockBegin
  2
block 2
 70
     0
 10
0.0
 20
0.0
 30
0.0
  3
block 2
  1

  0
SPLINE
  5
54
330
50
100
AcDbEntity
  8
_U+30EC_U+30A4_U+30E4_U+30FC 1
370
     0
100
AcDbSpline
210
0.0
220
0.0
230
1.0
 70
    11
 71
     3
 72
    26
 73
    22
 74
     0
 42
0.0000000001
 43
0.0000000001
 12
1.0
 22
0.0
 32
0.0
 13
1.0
 23
0.0
 33
0.0
 40
0.0
 40
0.0
 40
0.0
 40
0.0
 40
1.0
 40
1.0
 40
1.0
 40
2.0
 40
2.0
 40
2.0
 40
3.0
 40
3.0
 40
3.0
 40
4.0
 40
4.0
 40
4.0
 40
5.0
 40
5.0
 40
5.0
 40
6.0
 40
6.0
 40
6.0
 40
7.0
 40
7.0
 40
7.0
 40
7.0
 10
116.9379095844808
 20
-140.63775495616
 30
0.0
 10
116.9379095844808
 20
-140.63775495616
 30
0.0
 10
115.8337564814582
 20
-140.63775495616
 30
0.0
 10
115.8337564814582
 20
-140.63775495616
 30
0.0
 10
115.8337564814582
 20
-140.63775495616
 30
0.0
 10
115.8337564814582
 20
-140.9901882243011
 30
0.0
 10
115.8337564814582
 20
-140.9901882243011
 30
0.0
 10
115.8337564814582
 20
-140.9901882243011
 30
0.0
 10
115.6856173755925
 20
-140.9901882243011
 30
0.0
 10
115.6856173755925
 20
-140.9901882243011
 30
0.0
 10
115.6708034650059
 20
-140.6353433893203
 30
0.0
 10
115.5078504485536
 20
-140.5857340143327
 30
0.0
 10
115.3934732784433
 20
-140.5540391358684
 30
0.0
 10
115.3934732784433
 20
-140.5540391358684
 30
0.0
 10
115.3934732784433
 20
-140.3979763103866
 30
0.0
 10
115.3934732784433
 20
-140.3979763103866
 30
0.0
 10
115.3934732784433
 20
-140.3979763103866
 30
0.0
 10
116.9379095844808
 20
-140.3979763103866
 30
0.0
 10
116.9379095844808
 20
-140.3979763103866
 30
0.0
 10
116.9379095844808
 20
-140.3979763103866
 30
0.0
 10
116.9379095844808
 20
-140.63775495616
 30
0.0
 10
116.9379095844808
 20
-140.63775495616
 30
0.0
  0
HATCH
  5
55
330
50
100
AcDbEntity
  8
_U+30EC_U+30A4_U+30E4_U+30FC 1
 62
     7
420
 16777215
100
AcDbHatch
 10
0.0
 20
0.0
 30
0.0
210
0.0
220
0.0
230
1.0
  2
SOLID
 70
     1
 71
     0
 91
        1
 92
        1
 93
        1
 72
     4
 94
        3
 73
     0
 74
     1
 95
       26
 96
       22
 40
0.0
 40
0.0
 40
0.0
 40
0.0
 40
1.0
 40
1.0
 40
1.0
 40
2.0
 40
2.0
 40
2.0
 40
3.0
 40
3.0
 40
3.0
 40
4.0
 40
4.0
 40
4.0
 40
5.0
 40
5.0
 40
5.0
 40
6.0
 40
6.0
 40
6.0
 40
7.0
 40
7.0
 40
7.0
 40
7.0
 10
116.9379095844808
 20
-140.63775495616
 10
116.9379095844808
 20
-140.63775495616
 10
115.8337564814582
 20
-140.63775495616
 10
115.8337564814582
 20
-140.63775495616
 10
115.8337564814582
 20
-140.63775495616
 10
115.8337564814582
 20
-140.9901882243011
 10
115.8337564814582
 20
-140.9901882243011
 10
115.8337564814582
 20
-140.9901882243011
 10
115.6856173755925
 20
-140.9901882243011
 10
115.6856173755925
 20
-140.9901882243011
 10
115.6708034650059
 20
-140.6353433893203
 10
115.5078504485536
 20
-140.5857340143327
 10
115.3934732784433
 20
-140.5540391358684
 10
115.3934732784433
 20
-140.5540391358684
 10
115.3934732784433
 20
-140.3979763103866
 10
115.3934732784433
 20
-140.3979763103866
 10
115.3934732784433
 20
-140.3979763103866
 10
116.9379095844808
 20
-140.3979763103866
 10
116.9379095844808
 20
-140.3979763103866
 10
116.9379095844808
 20
-140.3979763103866
 10
116.9379095844808
 20
-140.63775495616
 10
116.9379095844808
 20
-140.63775495616
 97
        0
 97
        0
 75
     2
 76
     1
 98
        0
  0
POLYLINE
  5
56
330
50
100
AcDbEntity
  8
_U+30EC_U+30A4_U+30E4_U+30FC 1
370
     0
100
AcDb2dPolyline
 66
     1
 10
0.0
 20
0.0
 30
0.0
  0
VERTEX
  5
57
330
56
100
AcDbEntity
  8
_U+30EC_U+30A4_U+30E4_U+30FC 1
370
     0
100
AcDbVertex
100
AcDb2dVertex
 10
116.9379095844808
 20
-139.7981851864046
 30
0.0
  0
VERTEX
  5
58
330
56
100
AcDbEntity
  8
_U+30EC_U+30A4_U+30E4_U+30FC 1
370
     0
100
AcDbVertex
100
AcDb2dVertex
 10
116.686073104509
 20
-139.7981851864046
 30
0.0
  0
VERTEX
  5
59
330
56
100
AcDbEntity
  8
_U+30EC_U+30A4_U+30E4_U+30FC 1
370
     0
100
AcDbVertex
100
AcDb2dVertex
 10
116.686073104509
 20
-139.5291232290066
 30
0.0
  0
VERTEX
  5
5A
330
56
100
AcDbEntity
  8
_U+30EC_U+30A4_U+30E4_U+30FC 1
370
     0
100
AcDbVertex
100
AcDb2dVertex
 10
116.9379095844808
 20
-139.5291232290066
 30
0.0
  0
VERTEX
  5
5B
330
56
100
AcDbEntity
  8
_U+30EC_U+30A4_U+30E4_U+30FC 1
370
     0
100
AcDbVertex
100
AcDb2dVertex
 10
116.9379095844808
 20
-139.7981851864046
 30
0.0
  0
SEQEND
  5
5C
330
56
100
AcDbEntity
  8
_U+30EC_U+30A4_U+30E4_U+30FC 1
370
     0
  0
HATCH
  5
5D
330
50
100
AcDbEntity
  8
_U+30EC_U+30A4_U+30E4_U+30FC 1
 62
     7
420
 16777215
100
AcDbHatch
 10
0.0
 20
0.0
 30
0.0
210
0.0
220
0.0
230
1.0
  2
SOLID
 70
     1
 71
     0
 91
        1
 92
        1
 93
        4
 72
     1
 10
116.9379095844808
 20
-139.7981851864046
 11
116.686073104509
 21
-139.7981851864046
 72
     1
 10
116.686073104509
 20
-139.7981851864046
 11
116.686073104509
 21
-139.5291232290066
 72
     1
 10
116.686073104509
 20
-139.5291232290066
 11
116.9379095844808
 21
-139.5291232290066
 72
     1
 10
116.9379095844808
 20
-139.5291232290066
 11
116.9379095844808
 21
-139.7981851864046
 97
        0
 75
     2
 76
     1
 98
        0
  0
SPLINE
  5
5E
330
50
100
AcDbEntity
  8
_U+30EC_U+30A4_U+30E4_U+30FC 1
370
     0
100
AcDbSpline
210
0.0
220
0.0
230
1.0
 70
    11
 71
     3
 72
    53
 73
    49
 74
     0
 42
0.0000000001
 43
0.0000000001
 12
1.0
 22
0.0
 32
0.0
 13
1.0
 23
0.0
 33
0.0
 40
0.0
 40
0.0
 40
0.0
 40
0.0
 40
1.0
 40
1.0
 40
1.0
 40
2.0
 40
2.0
 40
2.0
 40
3.0
 40
3.0
 40
3.0
 40
4.0
 40
4.0
 40
4.0
 40
5.0
 40
5.0
 40
5.0
 40
6.0
 40
6.0
 40
6.0
 40
7.0
 40
7.0
 40
7.0
 40
8.0
 40
8.0
 40
8.0
 40
9.0
 40
9.0
 40
9.0
 40
10.0
 40
10.0
 40
10.0
 40
11.0
 40
11.0
 40
11.0
 40
12.0
 40
12.0
 40
12.0
 40
13.0
 40
13.0
 40
13.0
 40
14.0
 40
14.0
 40
14.0
 40
15.0
 40
15.0
 40
15.0
 40
16.0
 40
16.0
 40
16.0
 40
16.0
 10
116.988552488114
 20
-138.76224497399
 30
0.0
 10
116.988552488114
 20
-138.8459607942816
 30
0.0
 10
116.9716715202363
 20
-138.9541367925184
 30
0.0
 10
116.9082817633077
 20
-139.0630018098523
 30
0.0
 10
116.7983832173282
 20
-139.2483479469587
 30
0.0
 10
116.6671250793402
 20
-139.2707410676129
 30
0.0
 10
116.5592935906518
 20
-139.2910671309758
 30
0.0
 10
116.5592935906518
 20
-139.2910671309758
 30
0.0
 10
116.5592935906518
 20
-139.0537000520421
 30
0.0
 10
116.5592935906518
 20
-139.0537000520421
 30
0.0
 10
116.7580756001508
 20
-138.9951334287929
 30
0.0
 10
116.7877034213239
 20
-138.8593966666741
 30
0.0
 10
116.7877034213239
 20
-138.7598334071503
 30
0.0
 10
116.7877034213239
 20
-138.610660772639
 30
0.0
 10
116.6881401618002
 20
-138.4477077561867
 30
0.0
 10
116.4555962165458
 20
-138.4477077561867
 30
0.0
 10
116.1996256219918
 20
-138.4477077561867
 30
0.0
 10
116.1296901836412
 20
-138.6399440842636
 30
0.0
 10
116.1296901836412
 20
-138.768790655412
 30
0.0
 10
116.1296901836412
 20
-138.8028971007159
 30
0.0
 10
116.1296901836412
 20
-138.9541367925184
 30
0.0
 10
116.2588812643381
 20
-139.0492214279113
 30
0.0
 10
116.2588812643381
 20
-139.0492214279113
 30
0.0
 10
116.2399332391692
 20
-139.2369791318574
 30
0.0
 10
116.2399332391692
 20
-139.2369791318574
 30
0.0
 10
116.2399332391692
 20
-139.2369791318574
 30
0.0
 10
115.3934732784433
 20
-139.1081325607091
 30
0.0
 10
115.3934732784433
 20
-139.1081325607091
 30
0.0
 10
115.3934732784433
 20
-139.1081325607091
 30
0.0
 10
115.3934732784433
 20
-138.2761420010212
 30
0.0
 10
115.3934732784433
 20
-138.2761420010212
 30
0.0
 10
115.3934732784433
 20
-138.2761420010212
 30
0.0
 10
115.5881211733599
 20
-138.2761420010212
 30
0.0
 10
115.5881211733599
 20
-138.2761420010212
 30
0.0
 10
115.5881211733599
 20
-138.2761420010212
 30
0.0
 10
115.5881211733599
 20
-138.9338107291555
 30
0.0
 10
115.5881211733599
 20
-138.9338107291555
 30
0.0
 10
115.5881211733599
 20
-138.9338107291555
 30
0.0
 10
116.0111788989486
 20
-139.0040906770545
 30
0.0
 10
116.0111788989486
 20
-139.0040906770545
 30
0.0
 10
115.9774169631931
 20
-138.9386338628348
 30
0.0
 10
115.9371093460157
 20
-138.8504394184124
 30
0.0
 10
115.9371093460157
 20
-138.7236599045552
 30
0.0
 10
115.9371093460157
 20
-138.452530889866
 30
0.0
 10
116.1234890117677
 20
-138.1993163717002
 30
0.0
 10
116.436648191377
 20
-138.1993163717002
 30
0.0
 10
116.7539414855685
 20
-138.1993163717002
 30
0.0
 10
116.988552488114
 20
-138.4387505079251
 30
0.0
 10
116.988552488114
 20
-138.76224497399
 30
0.0
  0
HATCH
  5
5F
330
50
100
AcDbEntity
  8
_U+30EC_U+30A4_U+30E4_U+30FC 1
 62
     7
420
 16777215
100
AcDbHatch
 10
0.0
 20
0.0
 30
0.0
210
0.0
220
0.0
230
1.0
  2
SOLID
 70
     1
 71
     0
 91
        1
 92
        1
 93
        1
 72
     4
 94
        3
 73
     0
 74
     1
 95
       53
 96
       49
 40
0.0
 40
0.0
 40
0.0
 40
0.0
 40
1.0
 40
1.0
 40
1.0
 40
2.0
 40
2.0
 40
2.0
 40
3.0
 40
3.0
 40
3.0
 40
4.0
 40
4.0
 40
4.0
 40
5.0
 40
5.0
 40
5.0
 40
6.0
 40
6.0
 40
6.0
 40
7.0
 40
7.0
 40
7.0
 40
8.0
 40
8.0
 40
8.0
 40
9.0
 40
9.0
 40
9.0
 40
10.0
 40
10.0
 40
10.0
 40
11.0
 40
11.0
 40
11.0
 40
12.0
 40
12.0
 40
12.0
 40
13.0
 40
13.0
 40
13.0
 40
14.0
 40
14.0
 40
14.0
 40
15.0
 40
15.0
 40
15.0
 40
16.0
 40
16.0
 40
16.0
 40
16.0
 10
116.988552488114
 20
-138.76224497399
 10
116.988552488114
 20
-138.8459607942816
 10
116.9716715202363
 20
-138.9541367925184
 10
116.9082817633077
 20
-139.0630018098523
 10
116.7983832173282
 20
-139.2483479469587
 10
116.6671250793402
 20
-139.2707410676129
 10
116.5592935906518
 20
-139.2910671309758
 10
116.5592935906518
 20
-139.2910671309758
 10
116.5592935906518
 20
-139.0537000520421
 10
116.5592935906518
 20
-139.0537000520421
 10
116.7580756001508
 20
-138.9951334287929
 10
116.7877034213239
 20
-138.8593966666741
 10
116.7877034213239
 20
-138.7598334071503
 10
116.7877034213239
 20
-138.610660772639
 10
116.6881401618002
 20
-138.4477077561867
 10
116.4555962165458
 20
-138.4477077561867
 10
116.1996256219918
 20
-138.4477077561867
 10
116.1296901836412
 20
-138.6399440842636
 10
116.1296901836412
 20
-138.768790655412
 10
116.1296901836412
 20
-138.8028971007159
 10
116.1296901836412
 20
-138.9541367925184
 10
116.2588812643381
 20
-139.0492214279113
 10
116.2588812643381
 20
-139.0492214279113
 10
116.2399332391692
 20
-139.2369791318574
 10
116.2399332391692
 20
-139.2369791318574
 10
116.2399332391692
 20
-139.2369791318574
 10
115.3934732784433
 20
-139.1081325607091
 10
115.3934732784433
 20
-139.1081325607091
 10
115.3934732784433
 20
-139.1081325607091
 10
115.3934732784433
 20
-138.2761420010212
 10
115.3934732784433
 20
-138.2761420010212
 10
115.3934732784433
 20
-138.2761420010212
 10
115.5881211733599
 20
-138.2761420010212
 10
115.5881211733599
 20
-138.2761420010212
 10
115.5881211733599
 20
-138.2761420010212
 10
115.5881211733599
 20
-138.9338107291555
 10
115.5881211733599
 20
-138.9338107291555
 10
115.5881211733599
 20
-138.9338107291555
 10
116.0111788989486
 20
-139.0040906770545
 10
116.0111788989486
 20
-139.0040906770545
 10
115.9774169631931
 20
-138.9386338628348
 10
115.9371093460157
 20
-138.8504394184124
 10
115.9371093460157
 20
-138.7236599045552
 10
115.9371093460157
 20
-138.452530889866
 10
116.1234890117677
 20
-138.1993163717002
 10
116.436648191377
 20
-138.1993163717002
 10
116.7539414855685
 20
-138.1993163717002
 10
116.988552488114
 20
-138.4387505079251
 10
116.988552488114
 20
-138.76224497399
 97
        0
 97
        0
 75
     2
 76
     1
 98
        0
  0
ENDBLK
  5
53
330
50
100
AcDbEntity
  8
0
100
AcDbBlockEnd
  0
BLOCK
  5
74
330
72
100
AcDbEntity
  8
0
100
AcDbBlockBegin
  2
block 3
 70
     0
 10
0.0
 20
0.0
 30
0.0
  3
block 3
  1

  0
SPLINE
  5
76
330
72
100
AcDbEntity
  8
_U+30EC_U+30A4_U+30E4_U+30FC 1
370
     0
100
AcDbSpline
210
0.0
220
0.0
230
1.0
 70
    11
 71
     3
 72
    26
 73
    22
 74
     0
 42
0.0000000001
 43
0.0000000001
 12
1.0
 22
0.0
 32
0.0
 13
1.0
 23
0.0
 33
0.0
 40
0.0
 40
0.0
 40
0.0
 40
0.0
 40
1.0
 40
1.0
 40
1.0
 40
2.0
 40
2.0
 40
2.0
 40
3.0
 40
3.0
 40
3.0
 40
4.0
 40
4.0
 40
4.0
 40
5.0
 40
5.0
 40
5.0
 40
6.0
 40
6.0
 40
6.0
 40
7.0
 40
7.0
 40
7.0
 40
7.0
 10
116.9379095844808
 20
-128.3663248377001
 30
0.0
 10
116.9379095844808
 20
-128.3663248377001
 30
0.0
 10
115.8337564814582
 20
-128.3663248377001
 30
0.0
 10
115.8337564814582
 20
-128.3663248377001
 30
0.0
 10
115.8337564814582
 20
-128.3663248377001
 30
0.0
 10
115.8337564814582
 20
-128.7187581058411
 30
0.0
 10
115.8337564814582
 20
-128.7187581058411
 30
0.0
 10
115.8337564814582
 20
-128.7187581058411
 30
0.0
 10
115.6856173755925
 20
-128.7187581058411
 30
0.0
 10
115.6856173755925
 20
-128.7187581058411
 30
0.0
 10
115.6708034650059
 20
-128.3639132708604
 30
0.0
 10
115.5078504485536
 20
-128.3143038958728
 30
0.0
 10
115.3934732784433
 20
-128.2826090174085
 30
0.0
 10
115.3934732784433
 20
-128.2826090174085
 30
0.0
 10
115.3934732784433
 20
-128.1265461919267
 30
0.0
 10
115.3934732784433
 20
-128.1265461919267
 30
0.0
 10
115.3934732784433
 20
-128.1265461919267
 30
0.0
 10
116.9379095844808
 20
-128.1265461919267
 30
0.0
 10
116.9379095844808
 20
-128.1265461919267
 30
0.0
 10
116.9379095844808
 20
-128.1265461919267
 30
0.0
 10
116.9379095844808
 20
-128.3663248377001
 30
0.0
 10
116.9379095844808
 20
-128.3663248377001
 30
0.0
  0
HATCH
  5
77
330
72
100
AcDbEntity
  8
_U+30EC_U+30A4_U+30E4_U+30FC 1
 62
     7
420
 16777215
100
AcDbHatch
 10
0.0
 20
0.0
 30
0.0
210
0.0
220
0.0
230
1.0
  2
SOLID
 70
     1
 71
     0
 91
        1
 92
        1
 93
        1
 72
     4
 94
        3
 73
     0
 74
     1
 95
       26
 96
       22
 40
0.0
 40
0.0
 40
0.0
 40
0.0
 40
1.0
 40
1.0
 40
1.0
 40
2.0
 40
2.0
 40
2.0
 40
3.0
 40
3.0
 40
3.0
 40
4.0
 40
4.0
 40
4.0
 40
5.0
 40
5.0
 40
5.0
 40
6.0
 40
6.0
 40
6.0
 40
7.0
 40
7.0
 40
7.0
 40
7.0
 10
116.9379095844808
 20
-128.3663248377001
 10
116.9379095844808
 20
-128.3663248377001
 10
115.8337564814582
 20
-128.3663248377001
 10
115.8337564814582
 20
-128.3663248377001
 10
115.8337564814582
 20
-128.3663248377001
 10
115.8337564814582
 20
-128.7187581058411
 10
115.8337564814582
 20
-128.7187581058411
 10
115.8337564814582
 20
-128.7187581058411
 10
115.6856173755925
 20
-128.7187581058411
 10
115.6856173755925
 20
-128.7187581058411
 10
115.6708034650059
 20
-128.3639132708604
 10
115.5078504485536
 20
-128.3143038958728
 10
115.3934732784433
 20
-128.2826090174085
 10
115.3934732784433
 20
-128.2826090174085
 10
115.3934732784433
 20
-128.1265461919267
 10
115.3934732784433
 20
-128.1265461919267
 10
115.3934732784433
 20
-128.1265461919267
 10
116.9379095844808
 20
-128.1265461919267
 10
116.9379095844808
 20
-128.1265461919267
 10
116.9379095844808
 20
-128.1265461919267
 10
116.9379095844808
 20
-128.3663248377001
 10
116.9379095844808
 20
-128.3663248377001
 97
        0
 97
        0
 75
     2
 76
     1
 98
        0
  0
ENDBLK
  5
75
330
72
100
AcDbEntity
  8
0
100
AcDbBlockEnd
  0
BLOCK
  5
7A
330
78
100
AcDbEntity
  8
0
100
AcDbBlockBegin
  2
block 4
 70
     0
 10
0.0
 20
0.0
 30
0.0
  3
block 4
  1

  0
SPLINE
  5
7C
330
78
100
AcDbEntity
  8
_U+30EC_U+30A4_U+30E4_U+30FC 1
370
     0
100
AcDbSpline
210
0.0
220
0.0
230
1.0
 70
    11
 71
     3
 72
    44
 73
    40
 74
     0
 42
0.0000000001
 43
0.0000000001
 12
1.0
 22
0.0
 32
0.0
 13
1.0
 23
0.0
 33
0.0
 40
0.0
 40
0.0
 40
0.0
 40
0.0
 40
1.0
 40
1.0
 40
1.0
 40
2.0
 40
2.0
 40
2.0
 40
3.0
 40
3.0
 40
3.0
 40
4.0
 40
4.0
 40
4.0
 40
5.0
 40
5.0
 40
5.0
 40
6.0
 40
6.0
 40
6.0
 40
7.0
 40
7.0
 40
7.0
 40
8.0
 40
8.0
 40
8.0
 40
9.0
 40
9.0
 40
9.0
 40
10.0
 40
10.0
 40
10.0
 40
11.0
 40
11.0
 40
11.0
 40
12.0
 40
12.0
 40
12.0
 40
13.0
 40
13.0
 40
13.0
 40
13.0
 10
116.3560329570221
 20
-115.5150851490726
 30
0.0
 10
116.5148518588921
 20
-115.7479736038755
 30
0.0
 10
116.588921411825
 20
-115.8475368633992
 30
0.0
 10
116.7325818935599
 20
-115.899213295678
 30
0.0
 10
116.7325818935599
 20
-115.899213295678
 30
0.0
 10
116.7325818935599
 20
-115.0675672455387
 30
0.0
 10
116.7325818935599
 20
-115.0675672455387
 30
0.0
 10
116.7325818935599
 20
-115.0675672455387
 30
0.0
 10
116.9379095844808
 20
-115.0675672455387
 30
0.0
 10
116.9379095844808
 20
-115.0675672455387
 30
0.0
 10
116.9379095844808
 20
-115.0675672455387
 30
0.0
 10
116.9379095844808
 20
-116.1662081957848
 30
0.0
 10
116.9379095844808
 20
-116.1662081957848
 30
0.0
 10
116.5803086731119
 20
-116.1321017504809
 30
0.0
 10
116.5021050055967
 20
-116.0621663121303
 30
0.0
 10
116.2037597365741
 20
-115.6508219111915
 30
0.0
 10
116.0049777270751
 20
-115.3772813296626
 30
0.0
 10
115.9371093460157
 20
-115.3070013817635
 30
0.0
 10
115.7996500361543
 20
-115.3070013817635
 30
0.0
 10
115.6811387514617
 20
-115.3070013817635
 30
0.0
 10
115.5502251230222
 20
-115.3838270110846
 30
0.0
 10
115.5502251230222
 20
-115.5943223452334
 30
0.0
 10
115.5502251230222
 20
-115.872341550893
 30
0.0
 10
115.7807020109854
 20
-115.8812987991547
 30
0.0
 10
115.8971462383868
 20
-115.8857774232855
 30
0.0
 10
115.8971462383868
 20
-115.8857774232855
 30
0.0
 10
115.8971462383868
 20
-116.1255560690589
 30
0.0
 10
115.8971462383868
 20
-116.1255560690589
 30
0.0
 10
115.7700222149811
 20
-116.1162543112487
 30
0.0
 10
115.6580566117105
 20
-116.1052300056959
 30
0.0
 10
115.5395453270179
 20
-116.0191026185647
 30
0.0
 10
115.3786593678567
 20
-115.9016248625177
 30
0.0
 10
115.3448974321013
 20
-115.7028428530187
 30
0.0
 10
115.3448974321013
 20
-115.5784749060012
 30
0.0
 10
115.3448974321013
 20
-115.2821966942697
 30
0.0
 10
115.5288655310136
 20
-115.0606770545682
 30
0.0
 10
115.8017170934454
 20
-115.0606770545682
 30
0.0
 10
116.030471433666
 20
-115.0606770545682
 30
0.0
 10
116.1296901836412
 20
-115.1850450015857
 30
0.0
 10
116.3560329570221
 20
-115.5150851490726
 30
0.0
  0
HATCH
  5
7D
330
78
100
AcDbEntity
  8
_U+30EC_U+30A4_U+30E4_U+30FC 1
 62
     7
420
 16777215
100
AcDbHatch
 10
0.0
 20
0.0
 30
0.0
210
0.0
220
0.0
230
1.0
  2
SOLID
 70
     1
 71
     0
 91
        1
 92
        1
 93
        1
 72
     4
 94
        3
 73
     0
 74
     1
 95
       44
 96
       40
 40
0.0
 40
0.0
 40
0.0
 40
0.0
 40
1.0
 40
1.0
 40
1.0
 40
2.0
 40
2.0
 40
2.0
 40
3.0
 40
3.0
 40
3.0
 40
4.0
 40
4.0
 40
4.0
 40
5.0
 40
5.0
 40
5.0
 40
6.0
 40
6.0
 40
6.0
 40
7.0
 40
7.0
 40
7.0
 40
8.0
 40
8.0
 40
8.0
 40
9.0
 40
9.0
 40
9.0
 40
10.0
 40
10.0
 40
10.0
 40
11.0
 40
11.0
 40
11.0
 40
12.0
 40
12.0
 40
12.0
 40
13.0
 40
13.0
 40
13.0
 40
13.0
 10
116.3560329570221
 20
-115.5150851490726
 10
116.5148518588921
 20
-115.7479736038755
 10
116.588921411825
 20
-115.8475368633992
 10
116.7325818935599
 20
-115.899213295678
 10
116.7325818935599
 20
-115.899213295678
 10
116.7325818935599
 20
-115.0675672455387
 10
116.7325818935599
 20
-115.0675672455387
 10
116.7325818935599
 20
-115.0675672455387
 10
116.9379095844808
 20
-115.0675672455387
 10
116.9379095844808
 20
-115.0675672455387
 10
116.9379095844808
 20
-115.0675672455387
 10
116.9379095844808
 20
-116.1662081957848
 10
116.9379095844808
 20
-116.1662081957848
 10
116.5803086731119
 20
-116.1321017504809
 10
116.5021050055967
 20
-116.0621663121303
 10
116.2037597365741
 20
-115.6508219111915
 10
116.0049777270751
 20
-115.3772813296626
 10
115.9371093460157
 20
-115.3070013817635
 10
115.7996500361543
 20
-115.3070013817635
 10
115.6811387514617
 20
-115.3070013817635
 10
115.5502251230222
 20
-115.3838270110846
 10
115.5502251230222
 20
-115.5943223452334
 10
115.5502251230222
 20
-115.872341550893
 10
115.7807020109854
 20
-115.8812987991547
 10
115.8971462383868
 20
-115.8857774232855
 10
115.8971462383868
 20
-115.8857774232855
 10
115.8971462383868
 20
-116.1255560690589
 10
115.8971462383868
 20
-116.1255560690589
 10
115.7700222149811
 20
-116.1162543112487
 10
115.6580566117105
 20
-116.1052300056959
 10
115.5395453270179
 20
-116.0191026185647
 10
115.3786593678567
 20
-115.9016248625177
 10
115.3448974321013
 20
-115.7028428530187
 10
115.3448974321013
 20
-115.5784749060012
 10
115.3448974321013
 20
-115.2821966942697
 10
115.5288655310136
 20
-115.0606770545682
 10
115.8017170934454
 20
-115.0606770545682
 10
116.030471433666
 20
-115.0606770545682
 10
116.1296901836412
 20
-115.1850450015857
 10
116.3560329570221
 20
-115.5150851490726
 97
        0
 97
        0
 75
     2
 76
     1
 98
        0
  0
SPLINE
  5
7E
330
78
100
AcDbEntity
  8
_U+30EC_U+30A4_U+30E4_U+30FC 1
370
     0
100
AcDbSpline
210
0.0
220
0.0
230
1.0
 70
    11
 71
     3
 72
    53
 73
    49
 74
     0
 42
0.0000000001
 43
0.0000000001
 12
1.0
 22
0.0
 32
0.0
 13
1.0
 23
0.0
 33
0.0
 40
0.0
 40
0.0
 40
0.0
 40
0.0
 40
1.0
 40
1.0
 40
1.0
 40
2.0
 40
2.0
 40
2.0
 40
3.0
 40
3.0
 40
3.0
 40
4.0
 40
4.0
 40
4.0
 40
5.0
 40
5.0
 40
5.0
 40
6.0
 40
6.0
 40
6.0
 40
7.0
 40
7.0
 40
7.0
 40
8.0
 40
8.0
 40
8.0
 40
9.0
 40
9.0
 40
9.0
 40
10.0
 40
10.0
 40
10.0
 40
11.0
 40
11.0
 40
11.0
 40
12.0
 40
12.0
 40
12.0
 40
13.0
 40
13.0
 40
13.0
 40
14.0
 40
14.0
 40
14.0
 40
15.0
 40
15.0
 40
15.0
 40
16.0
 40
16.0
 40
16.0
 40
16.0
 10
116.988552488114
 20
-114.3771701102946
 30
0.0
 10
116.988552488114
 20
-114.4605414210376
 30
0.0
 10
116.9716715202363
 20
-114.5694064383715
 30
0.0
 10
116.9082817633077
 20
-114.6775824366084
 30
0.0
 10
116.7983832173282
 20
-114.8632730832634
 30
0.0
 10
116.6671250793402
 20
-114.8856662039175
 30
0.0
 10
116.5592935906518
 20
-114.9059922672805
 30
0.0
 10
116.5592935906518
 20
-114.9059922672805
 30
0.0
 10
116.5592935906518
 20
-114.6686251883467
 30
0.0
 10
116.5592935906518
 20
-114.6686251883467
 30
0.0
 10
116.7580756001508
 20
-114.6100585650975
 30
0.0
 10
116.7877034213239
 20
-114.4743218029787
 30
0.0
 10
116.7877034213239
 20
-114.3747585434549
 30
0.0
 10
116.7877034213239
 20
-114.2255859089436
 30
0.0
 10
116.6881401618002
 20
-114.0629774020398
 30
0.0
 10
116.4555962165458
 20
-114.0629774020398
 30
0.0
 10
116.1996256219918
 20
-114.0629774020398
 30
0.0
 10
116.1296901836412
 20
-114.2548692205682
 30
0.0
 10
116.1296901836412
 20
-114.3837157917166
 30
0.0
 10
116.1296901836412
 20
-114.4178222370205
 30
0.0
 10
116.1296901836412
 20
-114.5694064383715
 30
0.0
 10
116.2588812643381
 20
-114.6641465642159
 30
0.0
 10
116.2588812643381
 20
-114.6641465642159
 30
0.0
 10
116.2399332391692
 20
-114.851904268162
 30
0.0
 10
116.2399332391692
 20
-114.851904268162
 30
0.0
 10
116.2399332391692
 20
-114.851904268162
 30
0.0
 10
115.3934732784433
 20
-114.7230576970137
 30
0.0
 10
115.3934732784433
 20
-114.7230576970137
 30
0.0
 10
115.3934732784433
 20
-114.7230576970137
 30
0.0
 10
115.3934732784433
 20
-113.8910671373258
 30
0.0
 10
115.3934732784433
 20
-113.8910671373258
 30
0.0
 10
115.3934732784433
 20
-113.8910671373258
 30
0.0
 10
115.5881211733599
 20
-113.8910671373258
 30
0.0
 10
115.5881211733599
 20
-113.8910671373258
 30
0.0
 10
115.5881211733599
 20
-113.8910671373258
 30
0.0
 10
115.5881211733599
 20
-114.54873586546
 30
0.0
 10
115.5881211733599
 20
-114.54873586546
 30
0.0
 10
115.5881211733599
 20
-114.54873586546
 30
0.0
 10
116.0111788989486
 20
-114.6190158133591
 30
0.0
 10
116.0111788989486
 20
-114.6190158133591
 30
0.0
 10
115.9774169631931
 20
-114.5535589991394
 30
0.0
 10
115.9371093460157
 20
-114.465364554717
 30
0.0
 10
115.9371093460157
 20
-114.3385850408598
 30
0.0
 10
115.9371093460157
 20
-114.0674560261706
 30
0.0
 10
116.1234890117677
 20
-113.8142415080048
 30
0.0
 10
116.436648191377
 20
-113.8142415080048
 30
0.0
 10
116.7539414855685
 20
-113.8142415080048
 30
0.0
 10
116.988552488114
 20
-114.0536756442296
 30
0.0
 10
116.988552488114
 20
-114.3771701102946
 30
0.0
  0
HATCH
  5
7F
330
78
100
AcDbEntity
  8
_U+30EC_U+30A4_U+30E4_U+30FC 1
 62
     7
420
 16777215
100
AcDbHatch
 10
0.0
 20
0.0
 30
0.0
210
0.0
220
0.0
230
1.0
  2
SOLID
 70
     1
 71
     0
 91
        1
 92
        1
 93
        1
 72
     4
 94
        3
 73
     0
 74
     1
 95
       53
 96
       49
 40
0.0
 40
0.0
 40
0.0
 40
0.0
 40
1.0
 40
1.0
 40
1.0
 40
2.0
 40
2.0
 40
2.0
 40
3.0
 40
3.0
 40
3.0
 40
4.0
 40
4.0
 40
4.0
 40
5.0
 40
5.0
 40
5.0
 40
6.0
 40
6.0
 40
6.0
 40
7.0
 40
7.0
 40
7.0
 40
8.0
 40
8.0
 40
8.0
 40
9.0
 40
9.0
 40
9.0
 40
10.0
 40
10.0
 40
10.0
 40
11.0
 40
11.0
 40
11.0
 40
12.0
 40
12.0
 40
12.0
 40
13.0
 40
13.0
 40
13.0
 40
14.0
 40
14.0
 40
14.0
 40
15.0
 40
15.0
 40
15.0
 40
16.0
 40
16.0
 40
16.0
 40
16.0
 10
116.988552488114
 20
-114.3771701102946
 10
116.988552488114
 20
-114.4605414210376
 10
116.9716715202363
 20
-114.5694064383715
 10
116.9082817633077
 20
-114.6775824366084
 10
116.7983832173282
 20
-114.8632730832634
 10
116.6671250793402
 20
-114.8856662039175
 10
116.5592935906518
 20
-114.9059922672805
 10
116.5592935906518
 20
-114.9059922672805
 10
116.5592935906518
 20
-114.6686251883467
 10
116.5592935906518
 20
-114.6686251883467
 10
116.7580756001508
 20
-114.6100585650975
 10
116.7877034213239
 20
-114.4743218029787
 10
116.7877034213239
 20
-114.3747585434549
 10
116.7877034213239
 20
-114.2255859089436
 10
116.6881401618002
 20
-114.0629774020398
 10
116.4555962165458
 20
-114.0629774020398
 10
116.1996256219918
 20
-114.0629774020398
 10
116.1296901836412
 20
-114.2548692205682
 10
116.1296901836412
 20
-114.3837157917166
 10
116.1296901836412
 20
-114.4178222370205
 10
116.1296901836412
 20
-114.5694064383715
 10
116.2588812643381
 20
-114.6641465642159
 10
116.2588812643381
 20
-114.6641465642159
 10
116.2399332391692
 20
-114.851904268162
 10
116.2399332391692
 20
-114.851904268162
 10
116.2399332391692
 20
-114.851904268162
 10
115.3934732784433
 20
-114.7230576970137
 10
115.3934732784433
 20
-114.7230576970137
 10
115.3934732784433
 20
-114.7230576970137
 10
115.3934732784433
 20
-113.8910671373258
 10
115.3934732784433
 20
-113.8910671373258
 10
115.3934732784433
 20
-113.8910671373258
 10
115.5881211733599
 20
-113.8910671373258
 10
115.5881211733599
 20
-113.8910671373258
 10
115.5881211733599
 20
-113.8910671373258
 10
115.5881211733599
 20
-114.54873586546
 10
115.5881211733599
 20
-114.54873586546
 10
115.5881211733599
 20
-114.54873586546
 10
116.0111788989486
 20
-114.6190158133591
 10
116.0111788989486
 20
-114.6190158133591
 10
115.9774169631931
 20
-114.5535589991394
 10
115.9371093460157
 20
-114.465364554717
 10
115.9371093460157
 20
-114.3385850408598
 10
115.9371093460157
 20
-114.0674560261706
 10
116.1234890117677
 20
-113.8142415080048
 10
116.436648191377
 20
-113.8142415080048
 10
116.7539414855685
 20
-113.8142415080048
 10
116.988552488114
 20
-114.0536756442296
 10
116.988552488114
 20
-114.3771701102946
 97
        0
 97
        0
 75
     2
 76
     1
 98
        0
  0
ENDBLK
  5
7B
330
78
100
AcDbEntity
  8
0
100
AcDbBlockEnd
  0
BLOCK
  5
8A
330
88
100
AcDbEntity
  8
0
100
AcDbBlockBegin
  2
block 5
 70
     0
 10
0.0
 20
0.0
 30
0.0
  3
block 5
  1

  0
SPLINE
  5
8C
330
88
100
AcDbEntity
  8
_U+30EC_U+30A4_U+30E4_U+30FC 1
370
     0
100
AcDbSpline
210
0.0
220
0.0
230
1.0
 70
    11
 71
     3
 72
    26
 73
    22
 74
     0
 42
0.0000000001
 43
0.0000000001
 12
1.0
 22
0.0
 32
0.0
 13
1.0
 23
0.0
 33
0.0
 40
0.0
 40
0.0
 40
0.0
 40
0.0
 40
1.0
 40
1.0
 40
1.0
 40
2.0
 40
2.0
 40
2.0
 40
3.0
 40
3.0
 40
3.0
 40
4.0
 40
4.0
 40
4.0
 40
5.0
 40
5.0
 40
5.0
 40
6.0
 40
6.0
 40
6.0
 40
7.0
 40
7.0
 40
7.0
 40
7.0
 10
113.0573540298954
 20
-134.4944606868625
 30
0.0
 10
113.0573540298954
 20
-134.4944606868625
 30
0.0
 10
111.9532009268728
 20
-134.4944606868625
 30
0.0
 10
111.9532009268728
 20
-134.4944606868625
 30
0.0
 10
111.9532009268728
 20
-134.4944606868625
 30
0.0
 10
111.9532009268728
 20
-134.8468939550036
 30
0.0
 10
111.9532009268728
 20
-134.8468939550036
 30
0.0
 10
111.9532009268728
 20
-134.8468939550036
 30
0.0
 10
111.8050618210071
 20
-134.8468939550036
 30
0.0
 10
111.8050618210071
 20
-134.8468939550036
 30
0.0
 10
111.7902479104205
 20
-134.4920491200228
 30
0.0
 10
111.6272948939682
 20
-134.4424397450352
 30
0.0
 10
111.5129177238579
 20
-134.4107448665709
 30
0.0
 10
111.5129177238579
 20
-134.4107448665709
 30
0.0
 10
111.5129177238579
 20
-134.2546820410891
 30
0.0
 10
111.5129177238579
 20
-134.2546820410891
 30
0.0
 10
111.5129177238579
 20
-134.2546820410891
 30
0.0
 10
113.0573540298954
 20
-134.2546820410891
 30
0.0
 10
113.0573540298954
 20
-134.2546820410891
 30
0.0
 10
113.0573540298954
 20
-134.2546820410891
 30
0.0
 10
113.0573540298954
 20
-134.4944606868625
 30
0.0
 10
113.0573540298954
 20
-134.4944606868625
 30
0.0
  0
HATCH
  5
8D
330
88
100
AcDbEntity
  8
_U+30EC_U+30A4_U+30E4_U+30FC 1
 62
     7
420
 16777215
100
AcDbHatch
 10
0.0
 20
0.0
 30
0.0
210
0.0
220
0.0
230
1.0
  2
SOLID
 70
     1
 71
     0
 91
        1
 92
        1
 93
        1
 72
     4
 94
        3
 73
     0
 74
     1
 95
       26
 96
       22
 40
0.0
 40
0.0
 40
0.0
 40
0.0
 40
1.0
 40
1.0
 40
1.0
 40
2.0
 40
2.0
 40
2.0
 40
3.0
 40
3.0
 40
3.0
 40
4.0
 40
4.0
 40
4.0
 40
5.0
 40
5.0
 40
5.0
 40
6.0
 40
6.0
 40
6.0
 40
7.0
 40
7.0
 40
7.0
 40
7.0
 10
113.0573540298954
 20
-134.4944606868625
 10
113.0573540298954
 20
-134.4944606868625
 10
111.9532009268728
 20
-134.4944606868625
 10
111.9532009268728
 20
-134.4944606868625
 10
111.9532009268728
 20
-134.4944606868625
 10
111.9532009268728
 20
-134.8468939550036
 10
111.9532009268728
 20
-134.8468939550036
 10
111.9532009268728
 20
-134.8468939550036
 10
111.8050618210071
 20
-134.8468939550036
 10
111.8050618210071
 20
-134.8468939550036
 10
111.7902479104205
 20
-134.4920491200228
 10
111.6272948939682
 20
-134.4424397450352
 10
111.5129177238579
 20
-134.4107448665709
 10
111.5129177238579
 20
-134.4107448665709
 10
111.5129177238579
 20
-134.2546820410891
 10
111.5129177238579
 20
-134.2546820410891
 10
111.5129177238579
 20
-134.2546820410891
 10
113.0573540298954
 20
-134.2546820410891
 10
113.0573540298954
 20
-134.2546820410891
 10
113.0573540298954
 20
-134.2546820410891
 10
113.0573540298954
 20
-134.4944606868625
 10
113.0573540298954
 20
-134.4944606868625
 97
        0
 97
        0
 75
     2
 76
     1
 98
        0
  0
SPLINE
  5
8E
330
88
100
AcDbEntity
  8
_U+30EC_U+30A4_U+30E4_U+30FC 1
370
     0
100
AcDbSpline
210
0.0
220
0.0
230
1.0
 70
    11
 71
     3
 72
    29
 73
    25
 74
     0
 42
0.0000000001
 43
0.0000000001
 12
1.0
 22
0.0
 32
0.0
 13
1.0
 23
0.0
 33
0.0
 40
0.0
 40
0.0
 40
0.0
 40
0.0
 40
1.0
 40
1.0
 40
1.0
 40
2.0
 40
2.0
 40
2.0
 40
3.0
 40
3.0
 40
3.0
 40
4.0
 40
4.0
 40
4.0
 40
5.0
 40
5.0
 40
5.0
 40
6.0
 40
6.0
 40
6.0
 40
7.0
 40
7.0
 40
7.0
 40
8.0
 40
8.0
 40
8.0
 40
8.0
 10
112.8795871028565
 20
-132.7595106004907
 30
0.0
 10
113.0890489083597
 20
-132.874576789698
 30
0.0
 10
113.1079969335286
 20
-133.060267436353
 30
0.0
 10
113.1079969335286
 20
-133.1846353833705
 30
0.0
 10
113.1079969335286
 20
-133.356201138536
 30
0.0
 10
113.0614881444777
 20
-133.5077853398869
 30
0.0
 10
112.8795871028565
 20
-133.6094156567018
 30
0.0
 10
112.6849392079399
 20
-133.7203477313269
 30
0.0
 10
112.4479166385547
 20
-133.7406737946898
 30
0.0
 10
112.2853081316509
 20
-133.7406737946898
 30
0.0
 10
112.1413031403675
 20
-133.7406737946898
 30
0.0
 10
111.8894666603957
 20
-133.722414788618
 30
0.0
 10
111.6906846508968
 20
-133.6094156567018
 30
0.0
 10
111.4877685268156
 20
-133.4943494674945
 30
0.0
 10
111.4643418775159
 20
-133.3224392027805
 30
0.0
 10
111.4643418775159
 20
-133.1846353833705
 30
0.0
 10
111.4643418775159
 20
-133.0147921759477
 30
0.0
 10
111.5087836092756
 20
-132.8611409173056
 30
0.0
 10
111.6906846508968
 20
-132.7595106004907
 30
0.0
 10
111.8832654885222
 20
-132.6530571499965
 30
0.0
 10
112.1116753191943
 20
-132.6282524625027
 30
0.0
 10
112.2853081316509
 20
-132.6282524625027
 30
0.0
 10
112.4565293772678
 20
-132.6282524625027
 30
0.0
 10
112.687006265231
 20
-132.6509900927053
 30
0.0
 10
112.8795871028565
 20
-132.7595106004907
 30
0.0
  0
SPLINE
  5
8F
330
88
100
AcDbEntity
  8
_U+30EC_U+30A4_U+30E4_U+30FC 1
370
     0
100
AcDbSpline
210
0.0
220
0.0
230
1.0
 70
    11
 71
     3
 72
    17
 73
    13
 74
     0
 42
0.0000000001
 43
0.0000000001
 12
1.0
 22
0.0
 32
0.0
 13
1.0
 23
0.0
 33
0.0
 40
0.0
 40
0.0
 40
0.0
 40
0.0
 40
1.0
 40
1.0
 40
1.0
 40
2.0
 40
2.0
 40
2.0
 40
3.0
 40
3.0
 40
3.0
 40
4.0
 40
4.0
 40
4.0
 40
4.0
 10
111.6569227151413
 20
-133.1846353833705
 30
0.0
 10
111.6569227151413
 20
-133.4512857739288
 30
0.0
 10
111.9404540735774
 20
-133.5008951489164
 30
0.0
 10
112.2853081316509
 20
-133.5008951489164
 30
0.0
 10
112.6046684831336
 20
-133.5008951489164
 30
0.0
 10
112.9133490386119
 20
-133.4626545890302
 30
0.0
 10
112.9133490386119
 20
-133.1846353833705
 30
0.0
 10
112.9133490386119
 20
-132.9200520501033
 30
0.0
 10
112.6322292470156
 20
-132.8680311082761
 30
0.0
 10
112.2853081316509
 20
-132.8680311082761
 30
0.0
 10
111.9656032706197
 20
-132.8680311082761
 30
0.0
 10
111.6569227151413
 20
-132.908683235002
 30
0.0
 10
111.6569227151413
 20
-133.1846353833705
 30
0.0
  0
HATCH
  5
90
330
88
100
AcDbEntity
  8
_U+30EC_U+30A4_U+30E4_U+30FC 1
 62
     7
420
 16777215
100
AcDbHatch
 10
0.0
 20
0.0
 30
0.0
210
0.0
220
0.0
230
1.0
  2
SOLID
 70
     1
 71
     0
 91
        2
 92
        1
 93
        1
 72
     4
 94
        3
 73
     0
 74
     1
 95
       29
 96
       25
 40
0.0
 40
0.0
 40
0.0
 40
0.0
 40
1.0
 40
1.0
 40
1.0
 40
2.0
 40
2.0
 40
2.0
 40
3.0
 40
3.0
 40
3.0
 40
4.0
 40
4.0
 40
4.0
 40
5.0
 40
5.0
 40
5.0
 40
6.0
 40
6.0
 40
6.0
 40
7.0
 40
7.0
 40
7.0
 40
8.0
 40
8.0
 40
8.0
 40
8.0
 10
112.8795871028565
 20
-132.7595106004907
 10
113.0890489083597
 20
-132.874576789698
 10
113.1079969335286
 20
-133.060267436353
 10
113.1079969335286
 20
-133.1846353833705
 10
113.1079969335286
 20
-133.356201138536
 10
113.0614881444777
 20
-133.5077853398869
 10
112.8795871028565
 20
-133.6094156567018
 10
112.6849392079399
 20
-133.7203477313269
 10
112.4479166385547
 20
-133.7406737946898
 10
112.2853081316509
 20
-133.7406737946898
 10
112.1413031403675
 20
-133.7406737946898
 10
111.8894666603957
 20
-133.722414788618
 10
111.6906846508968
 20
-133.6094156567018
 10
111.4877685268156
 20
-133.4943494674945
 10
111.4643418775159
 20
-133.3224392027805
 10
111.4643418775159
 20
-133.1846353833705
 10
111.4643418775159
 20
-133.0147921759477
 10
111.5087836092756
 20
-132.8611409173056
 10
111.6906846508968
 20
-132.7595106004907
 10
111.8832654885222
 20
-132.6530571499965
 10
112.1116753191943
 20
-132.6282524625027
 10
112.2853081316509
 20
-132.6282524625027
 10
112.4565293772678
 20
-132.6282524625027
 10
112.687006265231
 20
-132.6509900927053
 10
112.8795871028565
 20
-132.7595106004907
 97
        0
 97
        0
 92
        1
 93
        1
 72
     4
 94
        3
 73
     0
 74
     1
 95
       17
 96
       13
 40
0.0
 40
0.0
 40
0.0
 40
0.0
 40
1.0
 40
1.0
 40
1.0
 40
2.0
 40
2.0
 40
2.0
 40
3.0
 40
3.0
 40
3.0
 40
4.0
 40
4.0
 40
4.0
 40
4.0
 10
111.6569227151413
 20
-133.1846353833705
 10
111.6569227151413
 20
-133.4512857739288
 10
111.9404540735774
 20
-133.5008951489164
 10
112.2853081316509
 20
-133.5008951489164
 10
112.6046684831336
 20
-133.5008951489164
 10
112.9133490386119
 20
-133.4626545890302
 10
112.9133490386119
 20
-133.1846353833705
 10
112.9133490386119
 20
-132.9200520501033
 10
112.6322292470156
 20
-132.8680311082761
 10
112.2853081316509
 20
-132.8680311082761
 10
111.9656032706197
 20
-132.8680311082761
 10
111.6569227151413
 20
-132.908683235002
 10
111.6569227151413
 20
-133.1846353833705
 97
        0
 97
        0
 75
     2
 76
     1
 98
        0
  0
ENDBLK
  5
8B
330
88
100
AcDbEntity
  8
0
100
AcDbBlockEnd
  0
BLOCK
  5
93
330
91
100
AcDbEntity
  8
0
100
AcDbBlockBegin
  2
block 6
 70
     0
 10
0.0
 20
0.0
 30
0.0
  3
block 6
  1

  0
SPLINE
  5
95
330
91
100
AcDbEntity
  8
_U+30EC_U+30A4_U+30E4_U+30FC 1
370
     0
100
AcDbSpline
210
0.0
220
0.0
230
1.0
 70
    11
 71
     3
 72
    26
 73
    22
 74
     0
 42
0.0000000001
 43
0.0000000001
 12
1.0
 22
0.0
 32
0.0
 13
1.0
 23
0.0
 33
0.0
 40
0.0
 40
0.0
 40
0.0
 40
0.0
 40
1.0
 40
1.0
 40
1.0
 40
2.0
 40
2.0
 40
2.0
 40
3.0
 40
3.0
 40
3.0
 40
4.0
 40
4.0
 40
4.0
 40
5.0
 40
5.0
 40
5.0
 40
6.0
 40
6.0
 40
6.0
 40
7.0
 40
7.0
 40
7.0
 40
7.0
 10
67.84598793876768
 20
-140.5481824735435
 30
0.0
 10
67.84598793876768
 20
-140.5481824735435
 30
0.0
 10
68.62681883049954
 20
-139.7671793270374
 30
0.0
 10
68.62681883049954
 20
-139.7671793270374
 30
0.0
 10
68.62681883049954
 20
-139.7671793270374
 30
0.0
 10
68.39341361137387
 20
-139.533946362686
 30
0.0
 10
68.39341361137387
 20
-139.533946362686
 30
0.0
 10
68.39341361137387
 20
-139.533946362686
 30
0.0
 10
68.49814451412547
 20
-139.4292154599344
 30
0.0
 10
68.49814451412547
 20
-139.4292154599344
 30
0.0
 10
68.74343531267526
 20
-139.6534911760241
 30
0.0
 10
68.89140216376674
 20
-139.5714979034752
 30
0.0
 10
68.99337699013013
 20
-139.5115532420319
 30
0.0
 10
68.99337699013013
 20
-139.5115532420319
 30
0.0
 10
69.09655759991337
 20
-139.6145615970408
 30
0.0
 10
69.09655759991337
 20
-139.6145615970408
 30
0.0
 10
69.09655759991337
 20
-139.6145615970408
 30
0.0
 10
68.00446233108917
 20
-140.706656865865
 30
0.0
 10
68.00446233108917
 20
-140.706656865865
 30
0.0
 10
68.00446233108917
 20
-140.706656865865
 30
0.0
 10
67.84598793876768
 20
-140.5481824735435
 30
0.0
 10
67.84598793876768
 20
-140.5481824735435
 30
0.0
  0
HATCH
  5
96
330
91
100
AcDbEntity
  8
_U+30EC_U+30A4_U+30E4_U+30FC 1
 62
     7
420
 16777215
100
AcDbHatch
 10
0.0
 20
0.0
 30
0.0
210
0.0
220
0.0
230
1.0
  2
SOLID
 70
     1
 71
     0
 91
        1
 92
        1
 93
        1
 72
     4
 94
        3
 73
     0
 74
     1
 95
       26
 96
       22
 40
0.0
 40
0.0
 40
0.0
 40
0.0
 40
1.0
 40
1.0
 40
1.0
 40
2.0
 40
2.0
 40
2.0
 40
3.0
 40
3.0
 40
3.0
 40
4.0
 40
4.0
 40
4.0
 40
5.0
 40
5.0
 40
5.0
 40
6.0
 40
6.0
 40
6.0
 40
7.0
 40
7.0
 40
7.0
 40
7.0
 10
67.84598793876768
 20
-140.5481824735435
 10
67.84598793876768
 20
-140.5481824735435
 10
68.62681883049954
 20
-139.7671793270374
 10
68.62681883049954
 20
-139.7671793270374
 10
68.62681883049954
 20
-139.7671793270374
 10
68.39341361137387
 20
-139.533946362686
 10
68.39341361137387
 20
-139.533946362686
 10
68.39341361137387
 20
-139.533946362686
 10
68.49814451412547
 20
-139.4292154599344
 10
68.49814451412547
 20
-139.4292154599344
 10
68.74343531267526
 20
-139.6534911760241
 10
68.89140216376674
 20
-139.5714979034752
 10
68.99337699013013
 20
-139.5115532420319
 10
68.99337699013013
 20
-139.5115532420319
 10
69.09655759991337
 20
-139.6145615970408
 10
69.09655759991337
 20
-139.6145615970408
 10
69.09655759991337
 20
-139.6145615970408
 10
68.00446233108917
 20
-140.706656865865
 10
68.00446233108917
 20
-140.706656865865
 10
68.00446233108917
 20
-140.706656865865
 10
67.84598793876768
 20
-140.5481824735435
 10
67.84598793876768
 20
-140.5481824735435
 97
        0
 97
        0
 75
     2
 76
     1
 98
        0
  0
SPLINE
  5
97
330
91
100
AcDbEntity
  8
_U+30EC_U+30A4_U+30E4_U+30FC 1
370
     0
100
AcDbSpline
210
0.0
220
0.0
230
1.0
 70
    11
 71
     3
 72
    29
 73
    25
 74
     0
 42
0.0000000001
 43
0.0000000001
 12
1.0
 22
0.0
 32
0.0
 13
1.0
 23
0.0
 33
0.0
 40
0.0
 40
0.0
 40
0.0
 40
0.0
 40
1.0
 40
1.0
 40
1.0
 40
2.0
 40
2.0
 40
2.0
 40
3.0
 40
3.0
 40
3.0
 40
4.0
 40
4.0
 40
4.0
 40
5.0
 40
5.0
 40
5.0
 40
6.0
 40
6.0
 40
6.0
 40
7.0
 40
7.0
 40
7.0
 40
8.0
 40
8.0
 40
8.0
 40
8.0
 10
69.11946748489028
 20
-141.5703423040171
 30
0.0
 10
68.89484725925199
 20
-141.6420002901103
 30
0.0
 10
68.75893824235888
 20
-141.5327907632279
 30
0.0
 10
68.67660046026141
 20
-141.4504529811304
 30
0.0
 10
68.56291230924816
 20
-141.3367648301172
 30
0.0
 10
68.49556069251153
 20
-141.2037841443866
 30
0.0
 10
68.55705564692325
 20
-141.0077582112758
 30
0.0
 10
68.62130667772315
 20
-140.79657385803
 30
0.0
 10
68.7749579363653
 20
-140.6160508546029
 30
0.0
 10
68.8901963803469
 20
-140.5006401558471
 30
0.0
 10
68.99199895193603
 20
-140.3990098390322
 30
0.0
 10
69.18234047749608
 20
-140.2329562366432
 30
0.0
 10
69.3976589453242
 20
-140.1671549128749
 30
0.0
 10
69.61745603728313
 20
-140.0999755509125
 30
0.0
 10
69.74768064662558
 20
-140.1971272435966
 30
0.0
 10
69.83880342221045
 20
-140.2880777644071
 30
0.0
 10
69.95111353502959
 20
-140.4003878772263
 30
0.0
 10
70.02139348292869
 20
-140.533368562957
 30
0.0
 10
69.96007078329123
 20
-140.7297390056162
 30
0.0
 10
69.89426945952296
 20
-140.9357557156341
 30
0.0
 10
69.74923093959394
 20
-141.1142116617701
 30
0.0
 10
69.62641328554479
 20
-141.236857061045
 30
0.0
 10
69.50531817923826
 20
-141.3581244221257
 30
0.0
 10
69.32720674265084
 20
-141.5055745088945
 30
0.0
 10
69.11946748489028
 20
-141.5703423040171
 30
0.0
  0
SPLINE
  5
98
330
91
100
AcDbEntity
  8
_U+30EC_U+30A4_U+30E4_U+30FC 1
370
     0
100
AcDbSpline
210
0.0
220
0.0
230
1.0
 70
    11
 71
     3
 72
    17
 73
    13
 74
     0
 42
0.0000000001
 43
0.0000000001
 12
1.0
 22
0.0
 32
0.0
 13
1.0
 23
0.0
 33
0.0
 40
0.0
 40
0.0
 40
0.0
 40
0.0
 40
1.0
 40
1.0
 40
1.0
 40
2.0
 40
2.0
 40
2.0
 40
3.0
 40
3.0
 40
3.0
 40
4.0
 40
4.0
 40
4.0
 40
4.0
 10
69.70272215054307
 20
-140.4245035456231
 30
0.0
 10
69.52616100692401
 20
-140.2477701472297
 30
0.0
 10
69.29275578779834
 20
-140.4155462973614
 30
0.0
 10
69.04884302744266
 20
-140.6594590577171
 30
0.0
 10
68.82301701838453
 20
-140.885112812001
 30
0.0
 10
68.63026392598479
 20
-141.1286810628081
 30
0.0
 10
68.81423202489714
 20
-141.3126491617205
 30
0.0
 10
68.9894151303221
 20
-141.4880045219197
 30
0.0
 10
69.22247583989925
 20
-141.3236734672733
 30
0.0
 10
69.46776663844904
 20
-141.0783826687235
 30
0.0
 10
69.69393715705569
 20
-140.8520398953426
 30
0.0
 10
69.88513995648705
 20
-140.6067490967928
 30
0.0
 10
69.70272215054307
 20
-140.4245035456231
 30
0.0
  0
HATCH
  5
99
330
91
100
AcDbEntity
  8
_U+30EC_U+30A4_U+30E4_U+30FC 1
 62
     7
420
 16777215
100
AcDbHatch
 10
0.0
 20
0.0
 30
0.0
210
0.0
220
0.0
230
1.0
  2
SOLID
 70
     1
 71
     0
 91
        2
 92
        1
 93
        1
 72
     4
 94
        3
 73
     0
 74
     1
 95
       29
 96
       25
 40
0.0
 40
0.0
 40
0.0
 40
0.0
 40
1.0
 40
1.0
 40
1.0
 40
2.0
 40
2.0
 40
2.0
 40
3.0
 40
3.0
 40
3.0
 40
4.0
 40
4.0
 40
4.0
 40
5.0
 40
5.0
 40
5.0
 40
6.0
 40
6.0
 40
6.0
 40
7.0
 40
7.0
 40
7.0
 40
8.0
 40
8.0
 40
8.0
 40
8.0
 10
69.11946748489028
 20
-141.5703423040171
 10
68.89484725925199
 20
-141.6420002901103
 10
68.75893824235888
 20
-141.5327907632279
 10
68.67660046026141
 20
-141.4504529811304
 10
68.56291230924816
 20
-141.3367648301172
 10
68.49556069251153
 20
-141.2037841443866
 10
68.55705564692325
 20
-141.0077582112758
 10
68.62130667772315
 20
-140.79657385803
 10
68.7749579363653
 20
-140.6160508546029
 10
68.8901963803469
 20
-140.5006401558471
 10
68.99199895193603
 20
-140.3990098390322
 10
69.18234047749608
 20
-140.2329562366432
 10
69.3976589453242
 20
-140.1671549128749
 10
69.61745603728313
 20
-140.0999755509125
 10
69.74768064662558
 20
-140.1971272435966
 10
69.83880342221045
 20
-140.2880777644071
 10
69.95111353502959
 20
-140.4003878772263
 10
70.02139348292869
 20
-140.533368562957
 10
69.96007078329123
 20
-140.7297390056162
 10
69.89426945952296
 20
-140.9357557156341
 10
69.74923093959394
 20
-141.1142116617701
 10
69.62641328554479
 20
-141.236857061045
 10
69.50531817923826
 20
-141.3581244221257
 10
69.32720674265084
 20
-141.5055745088945
 10
69.11946748489028
 20
-141.5703423040171
 97
        0
 97
        0
 92
        1
 93
        1
 72
     4
 94
        3
 73
     0
 74
     1
 95
       17
 96
       13
 40
0.0
 40
0.0
 40
0.0
 40
0.0
 40
1.0
 40
1.0
 40
1.0
 40
2.0
 40
2.0
 40
2.0
 40
3.0
 40
3.0
 40
3.0
 40
4.0
 40
4.0
 40
4.0
 40
4.0
 10
69.70272215054307
 20
-140.4245035456231
 10
69.52616100692401
 20
-140.2477701472297
 10
69.29275578779834
 20
-140.4155462973614
 10
69.04884302744266
 20
-140.6594590577171
 10
68.82301701838453
 20
-140.885112812001
 10
68.63026392598479
 20
-141.1286810628081
 10
68.81423202489714
 20
-141.3126491617205
 10
68.9894151303221
 20
-141.4880045219197
 10
69.22247583989925
 20
-141.3236734672733
 10
69.46776663844904
 20
-141.0783826687235
 10
69.69393715705569
 20
-140.8520398953426
 10
69.88513995648705
 20
-140.6067490967928
 10
69.70272215054307
 20
-140.4245035456231
 97
        0
 97
        0
 75
     2
 76
     1
 98
        0
  0
ENDBLK
  5
94
330
91
100
AcDbEntity
  8
0
100
AcDbBlockEnd
  0
BLOCK
  5
B1
330
AF
100
AcDbEntity
  8
0
100
AcDbBlockBegin
  2
block 7
 70
     0
 10
0.0
 20
0.0
 30
0.0
  3
block 7
  1

  0
SPLINE
  5
B3
330
AF
100
AcDbEntity
  8
_U+30EC_U+30A4_U+30E4_U+30FC 1
370
     0
100
AcDbSpline
210
0.0
220
0.0
230
1.0
 70
    11
 71
     3
 72
    26
 73
    22
 74
     0
 42
0.0000000001
 43
0.0000000001
 12
1.0
 22
0.0
 32
0.0
 13
1.0
 23
0.0
 33
0.0
 40
0.0
 40
0.0
 40
0.0
 40
0.0
 40
1.0
 40
1.0
 40
1.0
 40
2.0
 40
2.0
 40
2.0
 40
3.0
 40
3.0
 40
3.0
 40
4.0
 40
4.0
 40
4.0
 40
5.0
 40
5.0
 40
5.0
 40
6.0
 40
6.0
 40
6.0
 40
7.0
 40
7.0
 40
7.0
 40
7.0
 10
81.87441675470501
 20
-147.6306097721201
 30
0.0
 10
81.87441675470501
 20
-147.6306097721201
 30
0.0
 10
81.87441675470501
 20
-146.5264566690976
 30
0.0
 10
81.87441675470501
 20
-146.5264566690976
 30
0.0
 10
81.87441675470501
 20
-146.5264566690976
 30
0.0
 10
81.54437660721807
 20
-146.5264566690976
 30
0.0
 10
81.54437660721807
 20
-146.5264566690976
 30
0.0
 10
81.54437660721807
 20
-146.5264566690976
 30
0.0
 10
81.54437660721807
 20
-146.3783175632318
 30
0.0
 10
81.54437660721807
 20
-146.3783175632318
 30
0.0
 10
81.87648381199617
 20
-146.3635036526452
 30
0.0
 10
81.92299260104703
 20
-146.2005506361929
 30
0.0
 10
81.95262042222018
 20
-146.0861734660826
 30
0.0
 10
81.95262042222018
 20
-146.0861734660826
 30
0.0
 10
82.09869247079477
 20
-146.0861734660826
 30
0.0
 10
82.09869247079477
 20
-146.0861734660826
 30
0.0
 10
82.09869247079477
 20
-146.0861734660826
 30
0.0
 10
82.09869247079477
 20
-147.6306097721201
 30
0.0
 10
82.09869247079477
 20
-147.6306097721201
 30
0.0
 10
82.09869247079477
 20
-147.6306097721201
 30
0.0
 10
81.87441675470501
 20
-147.6306097721201
 30
0.0
 10
81.87441675470501
 20
-147.6306097721201
 30
0.0
  0
HATCH
  5
B4
330
AF
100
AcDbEntity
  8
_U+30EC_U+30A4_U+30E4_U+30FC 1
 62
     7
420
 16777215
100
AcDbHatch
 10
0.0
 20
0.0
 30
0.0
210
0.0
220
0.0
230
1.0
  2
SOLID
 70
     1
 71
     0
 91
        1
 92
        1
 93
        1
 72
     4
 94
        3
 73
     0
 74
     1
 95
       26
 96
       22
 40
0.0
 40
0.0
 40
0.0
 40
0.0
 40
1.0
 40
1.0
 40
1.0
 40
2.0
 40
2.0
 40
2.0
 40
3.0
 40
3.0
 40
3.0
 40
4.0
 40
4.0
 40
4.0
 40
5.0
 40
5.0
 40
5.0
 40
6.0
 40
6.0
 40
6.0
 40
7.0
 40
7.0
 40
7.0
 40
7.0
 10
81.87441675470501
 20
-147.6306097721201
 10
81.87441675470501
 20
-147.6306097721201
 10
81.87441675470501
 20
-146.5264566690976
 10
81.87441675470501
 20
-146.5264566690976
 10
81.87441675470501
 20
-146.5264566690976
 10
81.54437660721807
 20
-146.5264566690976
 10
81.54437660721807
 20
-146.5264566690976
 10
81.54437660721807
 20
-146.5264566690976
 10
81.54437660721807
 20
-146.3783175632318
 10
81.54437660721807
 20
-146.3783175632318
 10
81.87648381199617
 20
-146.3635036526452
 10
81.92299260104703
 20
-146.2005506361929
 10
81.95262042222018
 20
-146.0861734660826
 10
81.95262042222018
 20
-146.0861734660826
 10
82.09869247079477
 20
-146.0861734660826
 10
82.09869247079477
 20
-146.0861734660826
 10
82.09869247079477
 20
-146.0861734660826
 10
82.09869247079477
 20
-147.6306097721201
 10
82.09869247079477
 20
-147.6306097721201
 10
82.09869247079477
 20
-147.6306097721201
 10
81.87441675470501
 20
-147.6306097721201
 10
81.87441675470501
 20
-147.6306097721201
 97
        0
 97
        0
 75
     2
 76
     1
 98
        0
  0
SPLINE
  5
B5
330
AF
100
AcDbEntity
  8
_U+30EC_U+30A4_U+30E4_U+30FC 1
370
     0
100
AcDbSpline
210
0.0
220
0.0
230
1.0
 70
    11
 71
     3
 72
    44
 73
    40
 74
     0
 42
0.0000000001
 43
0.0000000001
 12
1.0
 22
0.0
 32
0.0
 13
1.0
 23
0.0
 33
0.0
 40
0.0
 40
0.0
 40
0.0
 40
0.0
 40
1.0
 40
1.0
 40
1.0
 40
2.0
 40
2.0
 40
2.0
 40
3.0
 40
3.0
 40
3.0
 40
4.0
 40
4.0
 40
4.0
 40
5.0
 40
5.0
 40
5.0
 40
6.0
 40
6.0
 40
6.0
 40
7.0
 40
7.0
 40
7.0
 40
8.0
 40
8.0
 40
8.0
 40
9.0
 40
9.0
 40
9.0
 40
10.0
 40
10.0
 40
10.0
 40
11.0
 40
11.0
 40
11.0
 40
12.0
 40
12.0
 40
12.0
 40
13.0
 40
13.0
 40
13.0
 40
13.0
 10
83.19302705168438
 20
-147.0487331446614
 30
0.0
 10
82.97512476224233
 20
-147.2075520465314
 30
0.0
 10
82.88193492936632
 20
-147.2816215994643
 30
0.0
 10
82.8333590830243
 20
-147.4252820811992
 30
0.0
 10
82.8333590830243
 20
-147.4252820811992
 30
0.0
 10
83.6117784079165
 20
-147.4252820811992
 30
0.0
 10
83.6117784079165
 20
-147.4252820811992
 30
0.0
 10
83.6117784079165
 20
-147.4252820811992
 30
0.0
 10
83.6117784079165
 20
-147.6306097721201
 30
0.0
 10
83.6117784079165
 20
-147.6306097721201
 30
0.0
 10
83.6117784079165
 20
-147.6306097721201
 30
0.0
 10
82.58376191511795
 20
-147.6306097721201
 30
0.0
 10
82.58376191511795
 20
-147.6306097721201
 30
0.0
 10
82.61545679358225
 20
-147.2730088607512
 30
0.0
 10
82.680913607802
 20
-147.194805193236
 30
0.0
 10
83.06607528305292
 20
-146.8964599242134
 30
0.0
 10
83.322045877607
 20
-146.6976779147145
 30
0.0
 10
83.38750269182674
 20
-146.629809533655
 30
0.0
 10
83.38750269182674
 20
-146.4923502237936
 30
0.0
 10
83.38750269182674
 20
-146.373838939101
 30
0.0
 10
83.31567245095928
 20
-146.2429253106615
 30
0.0
 10
83.11895749875151
 20
-146.2429253106615
 30
0.0
 10
82.85868053484089
 20
-146.2429253106615
 30
0.0
 10
82.85024005090203
 20
-146.4734021986247
 30
0.0
 10
82.84593368154546
 20
-146.5898464260262
 30
0.0
 10
82.84593368154546
 20
-146.5898464260262
 30
0.0
 10
82.62183022022997
 20
-146.5898464260262
 30
0.0
 10
82.62183022022997
 20
-146.5898464260262
 30
0.0
 10
82.63027070416882
 20
-146.4627224026204
 30
0.0
 10
82.64077824539883
 20
-146.3507567993498
 30
0.0
 10
82.72122122497942
 20
-146.2322455146572
 30
0.0
 10
82.83111977095889
 20
-146.0713595554961
 30
0.0
 10
83.01732718193665
 20
-146.0375976197406
 30
0.0
 10
83.1337714093381
 20
-146.0375976197406
 30
0.0
 10
83.41092934112643
 20
-146.0375976197406
 30
0.0
 10
83.61815183456422
 20
-146.221565718653
 30
0.0
 10
83.61815183456422
 20
-146.4944172810847
 30
0.0
 10
83.61815183456422
 20
-146.7231716213053
 30
0.0
 10
83.50187986193703
 20
-146.8223903712805
 30
0.0
 10
83.19302705168438
 20
-147.0487331446614
 30
0.0
  0
HATCH
  5
B6
330
AF
100
AcDbEntity
  8
_U+30EC_U+30A4_U+30E4_U+30FC 1
 62
     7
420
 16777215
100
AcDbHatch
 10
0.0
 20
0.0
 30
0.0
210
0.0
220
0.0
230
1.0
  2
SOLID
 70
     1
 71
     0
 91
        1
 92
        1
 93
        1
 72
     4
 94
        3
 73
     0
 74
     1
 95
       44
 96
       40
 40
0.0
 40
0.0
 40
0.0
 40
0.0
 40
1.0
 40
1.0
 40
1.0
 40
2.0
 40
2.0
 40
2.0
 40
3.0
 40
3.0
 40
3.0
 40
4.0
 40
4.0
 40
4.0
 40
5.0
 40
5.0
 40
5.0
 40
6.0
 40
6.0
 40
6.0
 40
7.0
 40
7.0
 40
7.0
 40
8.0
 40
8.0
 40
8.0
 40
9.0
 40
9.0
 40
9.0
 40
10.0
 40
10.0
 40
10.0
 40
11.0
 40
11.0
 40
11.0
 40
12.0
 40
12.0
 40
12.0
 40
13.0
 40
13.0
 40
13.0
 40
13.0
 10
83.19302705168438
 20
-147.0487331446614
 10
82.97512476224233
 20
-147.2075520465314
 10
82.88193492936632
 20
-147.2816215994643
 10
82.8333590830243
 20
-147.4252820811992
 10
82.8333590830243
 20
-147.4252820811992
 10
83.6117784079165
 20
-147.4252820811992
 10
83.6117784079165
 20
-147.4252820811992
 10
83.6117784079165
 20
-147.4252820811992
 10
83.6117784079165
 20
-147.6306097721201
 10
83.6117784079165
 20
-147.6306097721201
 10
83.6117784079165
 20
-147.6306097721201
 10
82.58376191511795
 20
-147.6306097721201
 10
82.58376191511795
 20
-147.6306097721201
 10
82.61545679358225
 20
-147.2730088607512
 10
82.680913607802
 20
-147.194805193236
 10
83.06607528305292
 20
-146.8964599242134
 10
83.322045877607
 20
-146.6976779147145
 10
83.38750269182674
 20
-146.629809533655
 10
83.38750269182674
 20
-146.4923502237936
 10
83.38750269182674
 20
-146.373838939101
 10
83.31567245095928
 20
-146.2429253106615
 10
83.11895749875151
 20
-146.2429253106615
 10
82.85868053484089
 20
-146.2429253106615
 10
82.85024005090203
 20
-146.4734021986247
 10
82.84593368154546
 20
-146.5898464260262
 10
82.84593368154546
 20
-146.5898464260262
 10
82.62183022022997
 20
-146.5898464260262
 10
82.62183022022997
 20
-146.5898464260262
 10
82.63027070416882
 20
-146.4627224026204
 10
82.64077824539883
 20
-146.3507567993498
 10
82.72122122497942
 20
-146.2322455146572
 10
82.83111977095889
 20
-146.0713595554961
 10
83.01732718193665
 20
-146.0375976197406
 10
83.1337714093381
 20
-146.0375976197406
 10
83.41092934112643
 20
-146.0375976197406
 10
83.61815183456422
 20
-146.221565718653
 10
83.61815183456422
 20
-146.4944172810847
 10
83.61815183456422
 20
-146.7231716213053
 10
83.50187986193703
 20
-146.8223903712805
 10
83.19302705168438
 20
-147.0487331446614
 97
        0
 97
        0
 75
     2
 76
     1
 98
        0
  0
ENDBLK
  5
B2
330
AF
100
AcDbEntity
  8
0
100
AcDbBlockEnd
  0
BLOCK
  5
C5
330
C3
100
AcDbEntity
  8
0
100
AcDbBlockBegin
  2
block 8
 70
     0
 10
0.0
 20
0.0
 30
0.0
  3
block 8
  1

  0
SPLINE
  5
C7
330
C3
100
AcDbEntity
  8
_U+30EC_U+30A4_U+30E4_U+30FC 1
370
     0
100
AcDbSpline
210
0.0
220
0.0
230
1.0
 70
    11
 71
     3
 72
    26
 73
    22
 74
     0
 42
0.0000000001
 43
0.0000000001
 12
1.0
 22
0.0
 32
0.0
 13
1.0
 23
0.0
 33
0.0
 40
0.0
 40
0.0
 40
0.0
 40
0.0
 40
1.0
 40
1.0
 40
1.0
 40
2.0
 40
2.0
 40
2.0
 40
3.0
 40
3.0
 40
3.0
 40
4.0
 40
4.0
 40
4.0
 40
5.0
 40
5.0
 40
5.0
 40
6.0
 40
6.0
 40
6.0
 40
7.0
 40
7.0
 40
7.0
 40
7.0
 10
88.4504150169499
 20
-151.8639431043951
 30
0.0
 10
88.4504150169499
 20
-151.8639431043951
 30
0.0
 10
88.4504150169499
 20
-150.7597900013726
 30
0.0
 10
88.4504150169499
 20
-150.7597900013726
 30
0.0
 10
88.4504150169499
 20
-150.7597900013726
 30
0.0
 10
88.12037486946296
 20
-150.7597900013726
 30
0.0
 10
88.12037486946296
 20
-150.7597900013726
 30
0.0
 10
88.12037486946296
 20
-150.7597900013726
 30
0.0
 10
88.12037486946296
 20
-150.6116508955068
 30
0.0
 10
88.12037486946296
 20
-150.6116508955068
 30
0.0
 10
88.45248207424105
 20
-150.5968369849202
 30
0.0
 10
88.49899086329192
 20
-150.4338839684679
 30
0.0
 10
88.52861868446507
 20
-150.3195067983576
 30
0.0
 10
88.52861868446507
 20
-150.3195067983576
 30
0.0
 10
88.67469073303967
 20
-150.3195067983576
 30
0.0
 10
88.67469073303967
 20
-150.3195067983576
 30
0.0
 10
88.67469073303967
 20
-150.3195067983576
 30
0.0
 10
88.67469073303967
 20
-151.8639431043951
 30
0.0
 10
88.67469073303967
 20
-151.8639431043951
 30
0.0
 10
88.67469073303967
 20
-151.8639431043951
 30
0.0
 10
88.4504150169499
 20
-151.8639431043951
 30
0.0
 10
88.4504150169499
 20
-151.8639431043951
 30
0.0
  0
HATCH
  5
C8
330
C3
100
AcDbEntity
  8
_U+30EC_U+30A4_U+30E4_U+30FC 1
 62
     7
420
 16777215
100
AcDbHatch
 10
0.0
 20
0.0
 30
0.0
210
0.0
220
0.0
230
1.0
  2
SOLID
 70
     1
 71
     0
 91
        1
 92
        1
 93
        1
 72
     4
 94
        3
 73
     0
 74
     1
 95
       26
 96
       22
 40
0.0
 40
0.0
 40
0.0
 40
0.0
 40
1.0
 40
1.0
 40
1.0
 40
2.0
 40
2.0
 40
2.0
 40
3.0
 40
3.0
 40
3.0
 40
4.0
 40
4.0
 40
4.0
 40
5.0
 40
5.0
 40
5.0
 40
6.0
 40
6.0
 40
6.0
 40
7.0
 40
7.0
 40
7.0
 40
7.0
 10
88.4504150169499
 20
-151.8639431043951
 10
88.4504150169499
 20
-151.8639431043951
 10
88.4504150169499
 20
-150.7597900013726
 10
88.4504150169499
 20
-150.7597900013726
 10
88.4504150169499
 20
-150.7597900013726
 10
88.12037486946296
 20
-150.7597900013726
 10
88.12037486946296
 20
-150.7597900013726
 10
88.12037486946296
 20
-150.7597900013726
 10
88.12037486946296
 20
-150.6116508955068
 10
88.12037486946296
 20
-150.6116508955068
 10
88.45248207424105
 20
-150.5968369849202
 10
88.49899086329192
 20
-150.4338839684679
 10
88.52861868446507
 20
-150.3195067983576
 10
88.52861868446507
 20
-150.3195067983576
 10
88.67469073303967
 20
-150.3195067983576
 10
88.67469073303967
 20
-150.3195067983576
 10
88.67469073303967
 20
-150.3195067983576
 10
88.67469073303967
 20
-151.8639431043951
 10
88.67469073303967
 20
-151.8639431043951
 10
88.67469073303967
 20
-151.8639431043951
 10
88.4504150169499
 20
-151.8639431043951
 10
88.4504150169499
 20
-151.8639431043951
 97
        0
 97
        0
 75
     2
 76
     1
 98
        0
  0
POLYLINE
  5
C9
330
C3
100
AcDbEntity
  8
_U+30EC_U+30A4_U+30E4_U+30FC 1
370
     0
100
AcDb2dPolyline
 66
     1
 10
0.0
 20
0.0
 30
0.0
  0
VERTEX
  5
CA
330
C9
100
AcDbEntity
  8
_U+30EC_U+30A4_U+30E4_U+30FC 1
370
     0
100
AcDbVertex
100
AcDb2dVertex
 10
89.23589678758687
 20
-151.8639431043951
 30
0.0
  0
VERTEX
  5
CB
330
C9
100
AcDbEntity
  8
_U+30EC_U+30A4_U+30E4_U+30FC 1
370
     0
100
AcDbVertex
100
AcDb2dVertex
 10
89.23589678758687
 20
-151.6121066244234
 30
0.0
  0
VERTEX
  5
CC
330
C9
100
AcDbEntity
  8
_U+30EC_U+30A4_U+30E4_U+30FC 1
370
     0
100
AcDbVertex
100
AcDb2dVertex
 10
89.48773326755862
 20
-151.6121066244234
 30
0.0
  0
VERTEX
  5
CD
330
C9
100
AcDbEntity
  8
_U+30EC_U+30A4_U+30E4_U+30FC 1
370
     0
100
AcDbVertex
100
AcDb2dVertex
 10
89.48773326755862
 20
-151.8639431043951
 30
0.0
  0
VERTEX
  5
CE
330
C9
100
AcDbEntity
  8
_U+30EC_U+30A4_U+30E4_U+30FC 1
370
     0
100
AcDbVertex
100
AcDb2dVertex
 10
89.23589678758687
 20
-151.8639431043951
 30
0.0
  0
SEQEND
  5
CF
330
C9
100
AcDbEntity
  8
_U+30EC_U+30A4_U+30E4_U+30FC 1
370
     0
  0
HATCH
  5
D0
330
C3
100
AcDbEntity
  8
_U+30EC_U+30A4_U+30E4_U+30FC 1
 62
     7
420
 16777215
100
AcDbHatch
 10
0.0
 20
0.0
 30
0.0
210
0.0
220
0.0
230
1.0
  2
SOLID
 70
     1
 71
     0
 91
        1
 92
        1
 93
        4
 72
     1
 10
89.23589678758687
 20
-151.8639431043951
 11
89.23589678758687
 21
-151.6121066244234
 72
     1
 10
89.23589678758687
 20
-151.6121066244234
 11
89.48773326755862
 21
-151.6121066244234
 72
     1
 10
89.48773326755862
 20
-151.6121066244234
 11
89.48773326755862
 21
-151.8639431043951
 72
     1
 10
89.48773326755862
 20
-151.8639431043951
 11
89.23589678758687
 21
-151.8639431043951
 97
        0
 75
     2
 76
     1
 98
        0
  0
SPLINE
  5
D1
330
C3
100
AcDbEntity
  8
_U+30EC_U+30A4_U+30E4_U+30FC 1
370
     0
100
AcDbSpline
210
0.0
220
0.0
230
1.0
 70
    11
 71
     3
 72
    53
 73
    49
 74
     0
 42
0.0000000001
 43
0.0000000001
 12
1.0
 22
0.0
 32
0.0
 13
1.0
 23
0.0
 33
0.0
 40
0.0
 40
0.0
 40
0.0
 40
0.0
 40
1.0
 40
1.0
 40
1.0
 40
2.0
 40
2.0
 40
2.0
 40
3.0
 40
3.0
 40
3.0
 40
4.0
 40
4.0
 40
4.0
 40
5.0
 40
5.0
 40
5.0
 40
6.0
 40
6.0
 40
6.0
 40
7.0
 40
7.0
 40
7.0
 40
8.0
 40
8.0
 40
8.0
 40
9.0
 40
9.0
 40
9.0
 40
10.0
 40
10.0
 40
10.0
 40
11.0
 40
11.0
 40
11.0
 40
12.0
 40
12.0
 40
12.0
 40
13.0
 40
13.0
 40
13.0
 40
14.0
 40
14.0
 40
14.0
 40
15.0
 40
15.0
 40
15.0
 40
16.0
 40
16.0
 40
16.0
 40
16.0
 10
90.20500214758765
 20
-151.9145860080283
 30
0.0
 10
90.12679848007247
 20
-151.9145860080283
 30
0.0
 10
90.0251681632576
 20
-151.8977050401506
 30
0.0
 10
89.92353784644273
 20
-151.834315283222
 30
0.0
 10
89.75024954353466
 20
-151.7244167372425
 30
0.0
 10
89.72888995152611
 20
-151.5931585992545
 30
0.0
 10
89.70994192635725
 20
-151.4853271105662
 30
0.0
 10
89.70994192635725
 20
-151.4853271105662
 30
0.0
 10
89.93215058515585
 20
-151.4853271105662
 30
0.0
 10
89.93215058515585
 20
-151.4853271105662
 30
0.0
 10
89.98692760337133
 20
-151.6841091200651
 30
0.0
 10
90.11405162677704
 20
-151.7137369412382
 30
0.0
 10
90.20706920487879
 20
-151.7137369412382
 30
0.0
 10
90.3465955720314
 20
-151.7137369412382
 30
0.0
 10
90.49886879247946
 20
-151.6141736817145
 30
0.0
 10
90.49886879247946
 20
-151.3816297364602
 30
0.0
 10
90.49886879247946
 20
-151.1256591419061
 30
0.0
 10
90.31903480814941
 20
-151.0557237035555
 30
0.0
 10
90.19845646616567
 20
-151.0557237035555
 30
0.0
 10
90.16676158770137
 20
-151.0557237035555
 30
0.0
 10
90.0251681632576
 20
-151.0557237035555
 30
0.0
 10
89.93628469973815
 20
-151.1849147842524
 30
0.0
 10
89.93628469973815
 20
-151.1849147842524
 30
0.0
 10
89.7605848299904
 20
-151.1659667590835
 30
0.0
 10
89.7605848299904
 20
-151.1659667590835
 30
0.0
 10
89.7605848299904
 20
-151.1659667590835
 30
0.0
 10
89.88116317197415
 20
-150.3195067983576
 30
0.0
 10
89.88116317197415
 20
-150.3195067983576
 30
0.0
 10
89.88116317197415
 20
-150.3195067983576
 30
0.0
 10
90.65975475164062
 20
-150.3195067983576
 30
0.0
 10
90.65975475164062
 20
-150.3195067983576
 30
0.0
 10
90.65975475164062
 20
-150.3195067983576
 30
0.0
 10
90.65975475164062
 20
-150.5141546932742
 30
0.0
 10
90.65975475164062
 20
-150.5141546932742
 30
0.0
 10
90.65975475164062
 20
-150.5141546932742
 30
0.0
 10
90.04411618842647
 20
-150.5141546932742
 30
0.0
 10
90.04411618842647
 20
-150.5141546932742
 30
0.0
 10
90.04411618842647
 20
-150.5141546932742
 30
0.0
 10
89.97865937420673
 20
-150.9372124188629
 30
0.0
 10
89.97865937420673
 20
-150.9372124188629
 30
0.0
 10
90.03998207384417
 20
-150.9034504831075
 30
0.0
 10
90.12231985594164
 20
-150.8631428659301
 30
0.0
 10
90.24083114063424
 20
-150.8631428659301
 30
0.0
 10
90.49473467789716
 20
-150.8631428659301
 30
0.0
 10
90.73175724728235
 20
-151.0495225316821
 30
0.0
 10
90.73175724728235
 20
-151.3626817112913
 30
0.0
 10
90.73175724728235
 20
-151.6799750054828
 30
0.0
 10
90.50748153119258
 20
-151.9145860080283
 30
0.0
 10
90.20500214758765
 20
-151.9145860080283
 30
0.0
  0
HATCH
  5
D2
330
C3
100
AcDbEntity
  8
_U+30EC_U+30A4_U+30E4_U+30FC 1
 62
     7
420
 16777215
100
AcDbHatch
 10
0.0
 20
0.0
 30
0.0
210
0.0
220
0.0
230
1.0
  2
SOLID
 70
     1
 71
     0
 91
        1
 92
        1
 93
        1
 72
     4
 94
        3
 73
     0
 74
     1
 95
       53
 96
       49
 40
0.0
 40
0.0
 40
0.0
 40
0.0
 40
1.0
 40
1.0
 40
1.0
 40
2.0
 40
2.0
 40
2.0
 40
3.0
 40
3.0
 40
3.0
 40
4.0
 40
4.0
 40
4.0
 40
5.0
 40
5.0
 40
5.0
 40
6.0
 40
6.0
 40
6.0
 40
7.0
 40
7.0
 40
7.0
 40
8.0
 40
8.0
 40
8.0
 40
9.0
 40
9.0
 40
9.0
 40
10.0
 40
10.0
 40
10.0
 40
11.0
 40
11.0
 40
11.0
 40
12.0
 40
12.0
 40
12.0
 40
13.0
 40
13.0
 40
13.0
 40
14.0
 40
14.0
 40
14.0
 40
15.0
 40
15.0
 40
15.0
 40
16.0
 40
16.0
 40
16.0
 40
16.0
 10
90.20500214758765
 20
-151.9145860080283
 10
90.12679848007247
 20
-151.9145860080283
 10
90.0251681632576
 20
-151.8977050401506
 10
89.92353784644273
 20
-151.834315283222
 10
89.75024954353466
 20
-151.7244167372425
 10
89.72888995152611
 20
-151.5931585992545
 10
89.70994192635725
 20
-151.4853271105662
 10
89.70994192635725
 20
-151.4853271105662
 10
89.93215058515585
 20
-151.4853271105662
 10
89.93215058515585
 20
-151.4853271105662
 10
89.98692760337133
 20
-151.6841091200651
 10
90.11405162677704
 20
-151.7137369412382
 10
90.20706920487879
 20
-151.7137369412382
 10
90.3465955720314
 20
-151.7137369412382
 10
90.49886879247946
 20
-151.6141736817145
 10
90.49886879247946
 20
-151.3816297364602
 10
90.49886879247946
 20
-151.1256591419061
 10
90.31903480814941
 20
-151.0557237035555
 10
90.19845646616567
 20
-151.0557237035555
 10
90.16676158770137
 20
-151.0557237035555
 10
90.0251681632576
 20
-151.0557237035555
 10
89.93628469973815
 20
-151.1849147842524
 10
89.93628469973815
 20
-151.1849147842524
 10
89.7605848299904
 20
-151.1659667590835
 10
89.7605848299904
 20
-151.1659667590835
 10
89.7605848299904
 20
-151.1659667590835
 10
89.88116317197415
 20
-150.3195067983576
 10
89.88116317197415
 20
-150.3195067983576
 10
89.88116317197415
 20
-150.3195067983576
 10
90.65975475164062
 20
-150.3195067983576
 10
90.65975475164062
 20
-150.3195067983576
 10
90.65975475164062
 20
-150.3195067983576
 10
90.65975475164062
 20
-150.5141546932742
 10
90.65975475164062
 20
-150.5141546932742
 10
90.65975475164062
 20
-150.5141546932742
 10
90.04411618842647
 20
-150.5141546932742
 10
90.04411618842647
 20
-150.5141546932742
 10
90.04411618842647
 20
-150.5141546932742
 10
89.97865937420673
 20
-150.9372124188629
 10
89.97865937420673
 20
-150.9372124188629
 10
90.03998207384417
 20
-150.9034504831075
 10
90.12231985594164
 20
-150.8631428659301
 10
90.24083114063424
 20
-150.8631428659301
 10
90.49473467789716
 20
-150.8631428659301
 10
90.73175724728235
 20
-151.0495225316821
 10
90.73175724728235
 20
-151.3626817112913
 10
90.73175724728235
 20
-151.6799750054828
 10
90.50748153119258
 20
-151.9145860080283
 10
90.20500214758765
 20
-151.9145860080283
 97
        0
 97
        0
 75
     2
 76
     1
 98
        0
  0
ENDBLK
  5
C6
330
C3
100
AcDbEntity
  8
0
100
AcDbBlockEnd
  0
ENDSEC
  0
SECTION
  2
ENTITIES
  0
SPLINE
  5
41
330
1F
100
AcDbEntity
  8
_U+30EC_U+30A4_U+30E4_U+30FC 1
 62
     7
420
 16777215
370
     9
100
AcDbSpline
210
0.0
220
0.0
230
1.0
 70
    11
 71
     3
 72
    17
 73
    13
 74
     0
 42
0.0000000001
 43
0.0000000001
 12
1.0
 22
0.0
 32
0.0
 13
1.0
 23
0.0
 33
0.0
 40
0.0
 40
0.0
 40
0.0
 40
0.0
 40
1.0
 40
1.0
 40
1.0
 40
2.0
 40
2.0
 40
2.0
 40
3.0
 40
3.0
 40
3.0
 40
4.0
 40
4.0
 40
4.0
 40
4.0
 10
113.7532620979125
 20
-128.8841155233345
 30
0.0
 10
113.7532620979125
 20
-128.8290116344596
 30
0.0
 10
113.7084593212777
 20
-128.7842088566929
 30
0.0
 10
113.6533583049198
 20
-128.7842088566929
 30
0.0
 10
113.5982162685347
 20
-128.7842088566929
 30
0.0
 10
113.5534487696768
 20
-128.8290116344596
 30
0.0
 10
113.5534487696768
 20
-128.8841155233345
 30
0.0
 10
113.5534487696768
 20
-128.9392546899876
 30
0.0
 10
113.5982162685347
 20
-128.9840221899761
 30
0.0
 10
113.6533583049198
 20
-128.9840221899761
 30
0.0
 10
113.7084593212777
 20
-128.9840221899761
 30
0.0
 10
113.7532620979125
 20
-128.9392546899876
 30
0.0
 10
113.7532620979125
 20
-128.8841155233345
 30
0.0
  0
SPLINE
  5
42
330
1F
100
AcDbEntity
  8
_U+30EC_U+30A4_U+30E4_U+30FC 1
 62
     7
420
 16777215
370
     9
100
AcDbSpline
210
0.0
220
0.0
230
1.0
 70
    11
 71
     3
 72
    17
 73
    13
 74
     0
 42
0.0000000001
 43
0.0000000001
 12
1.0
 22
0.0
 32
0.0
 13
1.0
 23
0.0
 33
0.0
 40
0.0
 40
0.0
 40
0.0
 40
0.0
 40
1.0
 40
1.0
 40
1.0
 40
2.0
 40
2.0
 40
2.0
 40
3.0
 40
3.0
 40
3.0
 40
4.0
 40
4.0
 40
4.0
 40
4.0
 10
113.7532620979125
 20
-138.8129049652966
 30
0.0
 10
113.7532620979125
 20
-138.7577657986442
 30
0.0
 10
113.7084593212777
 20
-138.7129630208775
 30
0.0
 10
113.6533583049198
 20
-138.7129630208775
 30
0.0
 10
113.5982162685347
 20
-138.7129630208775
 30
0.0
 10
113.5534487696768
 20
-138.7577657986442
 30
0.0
 10
113.5534487696768
 20
-138.8129049652966
 30
0.0
 10
113.5534487696768
 20
-138.8680088541722
 30
0.0
 10
113.5982162685347
 20
-138.9128116319383
 30
0.0
 10
113.6533583049198
 20
-138.9128116319383
 30
0.0
 10
113.7084593212777
 20
-138.9128116319383
 30
0.0
 10
113.7532620979125
 20
-138.8680088541722
 30
0.0
 10
113.7532620979125
 20
-138.8129049652966
 30
0.0
  0
SPLINE
  5
43
330
1F
100
AcDbEntity
  8
_U+30EC_U+30A4_U+30E4_U+30FC 1
 62
     7
420
 16777215
370
     9
100
AcDbSpline
210
0.0
220
0.0
230
1.0
 70
    11
 71
     3
 72
    17
 73
    13
 74
     0
 42
0.0000000001
 43
0.0000000001
 12
1.0
 22
0.0
 32
0.0
 13
1.0
 23
0.0
 33
0.0
 40
0.0
 40
0.0
 40
0.0
 40
0.0
 40
1.0
 40
1.0
 40
1.0
 40
2.0
 40
2.0
 40
2.0
 40
3.0
 40
3.0
 40
3.0
 40
4.0
 40
4.0
 40
4.0
 40
4.0
 10
113.7532620979125
 20
-140.412787464897
 30
0.0
 10
113.7532620979125
 20
-140.3576835760214
 30
0.0
 10
113.7084593212777
 20
-140.3128807982553
 30
0.0
 10
113.6533583049198
 20
-140.3128807982553
 30
0.0
 10
113.5982162685347
 20
-140.3128807982553
 30
0.0
 10
113.5534487696768
 20
-140.3576835760214
 30
0.0
 10
113.5534487696768
 20
-140.412787464897
 30
0.0
 10
113.5534487696768
 20
-140.4685969093274
 30
0.0
 10
113.5982162685347
 20
-140.5133996870942
 30
0.0
 10
113.6533583049198
 20
-140.5133996870942
 30
0.0
 10
113.7084593212777
 20
-140.5133996870942
 30
0.0
 10
113.7532620979125
 20
-140.4685969093274
 30
0.0
 10
113.7532620979125
 20
-140.412787464897
 30
0.0
  0
POLYLINE
  5
44
330
1F
100
AcDbEntity
  8
_U+30EC_U+30A4_U+30E4_U+30FC 1
 62
     7
420
 16777215
370
     9
100
AcDb2dPolyline
 66
     1
 10
0.0
 20
0.0
 30
0.0
  0
VERTEX
  5
45
330
44
100
AcDbEntity
  8
_U+30EC_U+30A4_U+30E4_U+30FC 1
 62
     7
420
 16777215
370
     9
100
AcDbVertex
100
AcDb2dVertex
 10
113.6533583049198
 20
-140.412787464897
 30
0.0
  0
VERTEX
  5
46
330
44
100
AcDbEntity
  8
_U+30EC_U+30A4_U+30E4_U+30FC 1
 62
     7
420
 16777215
370
     9
100
AcDbVertex
100
AcDb2dVertex
 10
113.6533583049198
 20
-138.9128116319383
 30
0.0
  0
SEQEND
  5
47
330
44
100
AcDbEntity
  8
_U+30EC_U+30A4_U+30E4_U+30FC 1
 62
     7
420
 16777215
370
     9
  0
POLYLINE
  5
48
330
1F
100
AcDbEntity
  8
_U+30EC_U+30A4_U+30E4_U+30FC 1
 62
     7
420
 16777215
370
     9
100
AcDb2dPolyline
 66
     1
 10
0.0
 20
0.0
 30
0.0
  0
VERTEX
  5
49
330
48
100
AcDbEntity
  8
_U+30EC_U+30A4_U+30E4_U+30FC 1
 62
     7
420
 16777215
370
     9
100
AcDbVertex
100
AcDb2dVertex
 10
102.1935812817134
 20
-140.412787464897
 30
0.0
  0
VERTEX
  5
4A
330
48
100
AcDbEntity
  8
_U+30EC_U+30A4_U+30E4_U+30FC 1
 62
     7
420
 16777215
370
     9
100
AcDbVertex
100
AcDb2dVertex
 10
114.6537979082713
 20
-140.412787464897
 30
0.0
  0
SEQEND
  5
4B
330
48
100
AcDbEntity
  8
_U+30EC_U+30A4_U+30E4_U+30FC 1
 62
     7
420
 16777215
370
     9
  0
POLYLINE
  5
4C
330
1F
100
AcDbEntity
  8
_U+30EC_U+30A4_U+30E4_U+30FC 1
 62
     7
420
 16777215
370
     9
100
AcDb2dPolyline
 66
     1
 10
0.0
 20
0.0
 30
0.0
  0
VERTEX
  5
4D
330
4C
100
AcDbEntity
  8
_U+30EC_U+30A4_U+30E4_U+30FC 1
 62
     7
420
 16777215
370
     9
100
AcDbVertex
100
AcDb2dVertex
 10
102.1935812817134
 20
-138.8129049652966
 30
0.0
  0
VERTEX
  5
4E
330
4C
100
AcDbEntity
  8
_U+30EC_U+30A4_U+30E4_U+30FC 1
 62
     7
420
 16777215
370
     9
100
AcDbVertex
100
AcDb2dVertex
 10
114.6537979082713
 20
-138.8129049652966
 30
0.0
  0
SEQEND
  5
4F
330
4C
100
AcDbEntity
  8
_U+30EC_U+30A4_U+30E4_U+30FC 1
 62
     7
420
 16777215
370
     9
  0
INSERT
  5
51
330
1F
100
AcDbEntity
  8
_U+30EC_U+30A4_U+30E4_U+30FC 1
100
AcDbBlockReference
  2
block 2
 10
0.0
 20
0.0
 30
0.0
  0
SPLINE
  5
60
330
1F
100
AcDbEntity
  8
_U+30EC_U+30A4_U+30E4_U+30FC 1
 62
     7
420
 16777215
370
     9
100
AcDbSpline
210
0.0
220
0.0
230
1.0
 70
    11
 71
     3
 72
    17
 73
    13
 74
     0
 42
0.0000000001
 43
0.0000000001
 12
1.0
 22
0.0
 32
0.0
 13
1.0
 23
0.0
 33
0.0
 40
0.0
 40
0.0
 40
0.0
 40
0.0
 40
1.0
 40
1.0
 40
1.0
 40
2.0
 40
2.0
 40
2.0
 40
3.0
 40
3.0
 40
3.0
 40
4.0
 40
4.0
 40
4.0
 40
4.0
 10
113.7532620979125
 20
-127.7424208013979
 30
0.0
 10
113.7532620979125
 20
-127.6872816347448
 30
0.0
 10
113.7084593212777
 20
-127.6425141347559
 30
0.0
 10
113.6533583049198
 20
-127.6425141347559
 30
0.0
 10
113.5982162685347
 20
-127.6425141347559
 30
0.0
 10
113.5534487696768
 20
-127.6872816347448
 30
0.0
 10
113.5534487696768
 20
-127.7424208013979
 30
0.0
 10
113.5534487696768
 20
-127.7975246902728
 30
0.0
 10
113.5982162685347
 20
-127.8423274680395
 30
0.0
 10
113.6533583049198
 20
-127.8423274680395
 30
0.0
 10
113.7084593212777
 20
-127.8423274680395
 30
0.0
 10
113.7532620979125
 20
-127.7975246902728
 30
0.0
 10
113.7532620979125
 20
-127.7424208013979
 30
0.0
  0
POLYLINE
  5
61
330
1F
100
AcDbEntity
  8
_U+30EC_U+30A4_U+30E4_U+30FC 1
 62
     7
420
 16777215
370
     9
100
AcDb2dPolyline
 66
     1
 10
0.0
 20
0.0
 30
0.0
  0
VERTEX
  5
62
330
61
100
AcDbEntity
  8
_U+30EC_U+30A4_U+30E4_U+30FC 1
 62
     7
420
 16777215
370
     9
100
AcDbVertex
100
AcDb2dVertex
 10
113.6533583049198
 20
-128.8131366344635
 30
0.0
  0
VERTEX
  5
63
330
61
100
AcDbEntity
  8
_U+30EC_U+30A4_U+30E4_U+30FC 1
 62
     7
420
 16777215
370
     9
100
AcDbVertex
100
AcDb2dVertex
 10
113.6533583049198
 20
-127.8126941347136
 30
0.0
  0
SEQEND
  5
64
330
61
100
AcDbEntity
  8
_U+30EC_U+30A4_U+30E4_U+30FC 1
 62
     7
420
 16777215
370
     9
  0
POLYLINE
  5
65
330
1F
100
AcDbEntity
  8
_U+30EC_U+30A4_U+30E4_U+30FC 1
 62
     7
420
 16777215
370
     9
100
AcDb2dPolyline
 66
     1
 10
0.0
 20
0.0
 30
0.0
  0
VERTEX
  5
66
330
65
100
AcDbEntity
  8
_U+30EC_U+30A4_U+30E4_U+30FC 1
 62
     7
420
 16777215
370
     9
100
AcDbVertex
100
AcDb2dVertex
 10
113.6533583049198
 20
-127.8126941347136
 30
0.0
  0
VERTEX
  5
67
330
65
100
AcDbEntity
  8
_U+30EC_U+30A4_U+30E4_U+30FC 1
 62
     7
420
 16777215
370
     9
100
AcDbVertex
100
AcDb2dVertex
 10
113.6533583049198
 20
-102.8132027520746
 30
0.0
  0
SEQEND
  5
68
330
65
100
AcDbEntity
  8
_U+30EC_U+30A4_U+30E4_U+30FC 1
 62
     7
420
 16777215
370
     9
  0
POLYLINE
  5
69
330
1F
100
AcDbEntity
  8
_U+30EC_U+30A4_U+30E4_U+30FC 1
 62
     7
420
 16777215
370
     9
100
AcDb2dPolyline
 66
     1
 10
0.0
 20
0.0
 30
0.0
  0
VERTEX
  5
6A
330
69
100
AcDbEntity
  8
_U+30EC_U+30A4_U+30E4_U+30FC 1
 62
     7
420
 16777215
370
     9
100
AcDbVertex
100
AcDb2dVertex
 10
112.1933140821545
 20
-127.7424208013979
 30
0.0
  0
VERTEX
  5
6B
330
69
100
AcDbEntity
  8
_U+30EC_U+30A4_U+30E4_U+30FC 1
 62
     7
420
 16777215
370
     9
100
AcDbVertex
100
AcDb2dVertex
 10
114.6537979082713
 20
-127.7424208013979
 30
0.0
  0
SEQEND
  5
6C
330
69
100
AcDbEntity
  8
_U+30EC_U+30A4_U+30E4_U+30FC 1
 62
     7
420
 16777215
370
     9
  0
SPLINE
  5
6D
330
1F
100
AcDbEntity
  8
_U+30EC_U+30A4_U+30E4_U+30FC 1
 62
     7
420
 16777215
370
     9
100
AcDbSpline
210
0.0
220
0.0
230
1.0
 70
    11
 71
     3
 72
    17
 73
    13
 74
     0
 42
0.0000000001
 43
0.0000000001
 12
1.0
 22
0.0
 32
0.0
 13
1.0
 23
0.0
 33
0.0
 40
0.0
 40
0.0
 40
0.0
 40
0.0
 40
1.0
 40
1.0
 40
1.0
 40
2.0
 40
2.0
 40
2.0
 40
3.0
 40
3.0
 40
3.0
 40
4.0
 40
4.0
 40
4.0
 40
4.0
 10
113.7532620979125
 20
-102.8132027520746
 30
0.0
 10
113.7532620979125
 20
-102.7580635854215
 30
0.0
 10
113.7084593212777
 20
-102.713296085433
 30
0.0
 10
113.6533583049198
 20
-102.713296085433
 30
0.0
 10
113.5982162685347
 20
-102.713296085433
 30
0.0
 10
113.5534487696768
 20
-102.7580635854215
 30
0.0
 10
113.5534487696768
 20
-102.8132027520746
 30
0.0
 10
113.5534487696768
 20
-102.8683066409495
 30
0.0
 10
113.5982162685347
 20
-102.9131094187162
 30
0.0
 10
113.6533583049198
 20
-102.9131094187162
 30
0.0
 10
113.7084593212777
 20
-102.9131094187162
 30
0.0
 10
113.7532620979125
 20
-102.8683066409495
 30
0.0
 10
113.7532620979125
 20
-102.8132027520746
 30
0.0
  0
POLYLINE
  5
6E
330
1F
100
AcDbEntity
  8
_U+30EC_U+30A4_U+30E4_U+30FC 1
 62
     7
420
 16777215
370
     9
100
AcDb2dPolyline
 66
     1
 10
0.0
 20
0.0
 30
0.0
  0
VERTEX
  5
6F
330
6E
100
AcDbEntity
  8
_U+30EC_U+30A4_U+30E4_U+30FC 1
 62
     7
420
 16777215
370
     9
100
AcDbVertex
100
AcDb2dVertex
 10
102.1935812817134
 20
-102.8132027520746
 30
0.0
  0
VERTEX
  5
70
330
6E
100
AcDbEntity
  8
_U+30EC_U+30A4_U+30E4_U+30FC 1
 62
     7
420
 16777215
370
     9
100
AcDbVertex
100
AcDb2dVertex
 10
114.6537979082713
 20
-102.8132027520746
 30
0.0
  0
SEQEND
  5
71
330
6E
100
AcDbEntity
  8
_U+30EC_U+30A4_U+30E4_U+30FC 1
 62
     7
420
 16777215
370
     9
  0
INSERT
  5
73
330
1F
100
AcDbEntity
  8
_U+30EC_U+30A4_U+30E4_U+30FC 1
100
AcDbBlockReference
  2
block 3
 10
0.0
 20
0.0
 30
0.0
  0
INSERT
  5
79
330
1F
100
AcDbEntity
  8
_U+30EC_U+30A4_U+30E4_U+30FC 1
100
AcDbBlockReference
  2
block 4
 10
0.0
 20
0.0
 30
0.0
  0
POLYLINE
  5
80
330
1F
100
AcDbEntity
  8
_U+30EC_U+30A4_U+30E4_U+30FC 1
 62
     7
420
 16777215
370
     9
100
AcDb2dPolyline
 66
     1
 10
0.0
 20
0.0
 30
0.0
  0
VERTEX
  5
81
330
80
100
AcDbEntity
  8
_U+30EC_U+30A4_U+30E4_U+30FC 1
 62
     7
420
 16777215
370
     9
100
AcDbVertex
100
AcDb2dVertex
 10
113.6533583049198
 20
-138.8129049652966
 30
0.0
  0
VERTEX
  5
82
330
80
100
AcDbEntity
  8
_U+30EC_U+30A4_U+30E4_U+30FC 1
 62
     7
420
 16777215
370
     9
100
AcDbVertex
100
AcDb2dVertex
 10
113.6533583049198
 20
-128.8131366344635
 30
0.0
  0
SEQEND
  5
83
330
80
100
AcDbEntity
  8
_U+30EC_U+30A4_U+30E4_U+30FC 1
 62
     7
420
 16777215
370
     9
  0
POLYLINE
  5
84
330
1F
100
AcDbEntity
  8
_U+30EC_U+30A4_U+30E4_U+30FC 1
 62
     7
420
 16777215
370
     9
100
AcDb2dPolyline
 66
     1
 10
0.0
 20
0.0
 30
0.0
  0
VERTEX
  5
85
330
84
100
AcDbEntity
  8
_U+30EC_U+30A4_U+30E4_U+30FC 1
 62
     7
420
 16777215
370
     9
100
AcDbVertex
100
AcDb2dVertex
 10
112.1933140821545
 20
-128.8841155233345
 30
0.0
  0
VERTEX
  5
86
330
84
100
AcDbEntity
  8
_U+30EC_U+30A4_U+30E4_U+30FC 1
 62
     7
420
 16777215
370
     9
100
AcDbVertex
100
AcDb2dVertex
 10
114.6537979082713
 20
-128.8841155233345
 30
0.0
  0
SEQEND
  5
87
330
84
100
AcDbEntity
  8
_U+30EC_U+30A4_U+30E4_U+30FC 1
 62
     7
420
 16777215
370
     9
  0
INSERT
  5
89
330
1F
100
AcDbEntity
  8
_U+30EC_U+30A4_U+30E4_U+30FC 1
100
AcDbBlockReference
  2
block 5
 10
0.0
 20
0.0
 30
0.0
  0
INSERT
  5
92
330
1F
100
AcDbEntity
  8
_U+30EC_U+30A4_U+30E4_U+30FC 1
100
AcDbBlockReference
  2
block 6
 10
0.0
 20
0.0
 30
0.0
  0
SPLINE
  5
9A
330
1F
100
AcDbEntity
  8
_U+30EC_U+30A4_U+30E4_U+30FC 1
 62
     7
420
 16777215
370
     9
100
AcDbSpline
210
0.0
220
0.0
230
1.0
 70
    11
 71
     3
 72
    17
 73
    13
 74
     0
 42
0.0000000001
 43
0.0000000001
 12
1.0
 22
0.0
 32
0.0
 13
1.0
 23
0.0
 33
0.0
 40
0.0
 40
0.0
 40
0.0
 40
0.0
 40
1.0
 40
1.0
 40
1.0
 40
2.0
 40
2.0
 40
2.0
 40
3.0
 40
3.0
 40
3.0
 40
4.0
 40
4.0
 40
4.0
 40
4.0
 10
76.61169164751388
 20
-148.2751810740424
 30
0.0
 10
76.61169164751388
 20
-148.2200771851674
 30
0.0
 10
76.56688886974716
 20
-148.1752744074007
 30
0.0
 10
76.5117830480218
 20
-148.1752744074007
 30
0.0
 10
76.45664388276184
 20
-148.1752744074007
 30
0.0
 10
76.41187638390396
 20
-148.2200771851674
 30
0.0
 10
76.41187638390396
 20
-148.2751810740424
 30
0.0
 10
76.41187638390396
 20
-148.3303202406954
 30
0.0
 10
76.45664388276184
 20
-148.375087740684
 30
0.0
 10
76.5117830480218
 20
-148.375087740684
 30
0.0
 10
76.56688886974716
 20
-148.375087740684
 30
0.0
 10
76.61169164751388
 20
-148.3303202406954
 30
0.0
 10
76.61169164751388
 20
-148.2751810740424
 30
0.0
  0
SPLINE
  5
9B
330
1F
100
AcDbEntity
  8
_U+30EC_U+30A4_U+30E4_U+30FC 1
 62
     7
420
 16777215
370
     9
100
AcDbSpline
210
0.0
220
0.0
230
1.0
 70
    11
 71
     3
 72
    17
 73
    13
 74
     0
 42
0.0000000001
 43
0.0000000001
 12
1.0
 22
0.0
 32
0.0
 13
1.0
 23
0.0
 33
0.0
 40
0.0
 40
0.0
 40
0.0
 40
0.0
 40
1.0
 40
1.0
 40
1.0
 40
2.0
 40
2.0
 40
2.0
 40
3.0
 40
3.0
 40
3.0
 40
4.0
 40
4.0
 40
4.0
 40
4.0
 10
90.2117313096181
 20
-148.2751810740424
 30
0.0
 10
90.2117313096181
 20
-148.2200771851674
 30
0.0
 10
90.16692853298335
 20
-148.1752744074007
 30
0.0
 10
90.11182464550028
 20
-148.1752744074007
 30
0.0
 10
90.05668548024032
 20
-148.1752744074007
 30
0.0
 10
90.01174159249804
 20
-148.2200771851674
 30
0.0
 10
90.01174159249804
 20
-148.2751810740424
 30
0.0
 10
90.01174159249804
 20
-148.3303202406954
 30
0.0
 10
90.05668548024032
 20
-148.375087740684
 30
0.0
 10
90.11182464550028
 20
-148.375087740684
 30
0.0
 10
90.16692853298335
 20
-148.375087740684
 30
0.0
 10
90.2117313096181
 20
-148.3303202406954
 30
0.0
 10
90.2117313096181
 20
-148.2751810740424
 30
0.0
  0
SPLINE
  5
9C
330
1F
100
AcDbEntity
  8
_U+30EC_U+30A4_U+30E4_U+30FC 1
 62
     7
420
 16777215
370
     9
100
AcDbSpline
210
0.0
220
0.0
230
1.0
 70
    11
 71
     3
 72
    17
 73
    13
 74
     0
 42
0.0000000001
 43
0.0000000001
 12
1.0
 22
0.0
 32
0.0
 13
1.0
 23
0.0
 33
0.0
 40
0.0
 40
0.0
 40
0.0
 40
0.0
 40
1.0
 40
1.0
 40
1.0
 40
2.0
 40
2.0
 40
2.0
 40
3.0
 40
3.0
 40
3.0
 40
4.0
 40
4.0
 40
4.0
 40
4.0
 10
88.71224940342863
 20
-148.2751810740424
 30
0.0
 10
88.71224940342863
 20
-148.2200771851674
 30
0.0
 10
88.66744662679388
 20
-148.1752744074007
 30
0.0
 10
88.61163718377324
 20
-148.1752744074007
 30
0.0
 10
88.55653329629017
 20
-148.1752744074007
 30
0.0
 10
88.5117305196554
 20
-148.2200771851674
 30
0.0
 10
88.5117305196554
 20
-148.2751810740424
 30
0.0
 10
88.5117305196554
 20
-148.3303202406954
 30
0.0
 10
88.55653329629017
 20
-148.375087740684
 30
0.0
 10
88.61163718377324
 20
-148.375087740684
 30
0.0
 10
88.66744662679388
 20
-148.375087740684
 30
0.0
 10
88.71224940342863
 20
-148.3303202406954
 30
0.0
 10
88.71224940342863
 20
-148.2751810740424
 30
0.0
  0
POLYLINE
  5
9D
330
1F
100
AcDbEntity
  8
_U+30EC_U+30A4_U+30E4_U+30FC 1
 62
     7
420
 16777215
370
     9
100
AcDb2dPolyline
 66
     1
 10
0.0
 20
0.0
 30
0.0
  0
VERTEX
  5
9E
330
9D
100
AcDbEntity
  8
_U+30EC_U+30A4_U+30E4_U+30FC 1
 62
     7
420
 16777215
370
     9
100
AcDbVertex
100
AcDb2dVertex
 10
76.5117830480218
 20
-148.2751810740424
 30
0.0
  0
VERTEX
  5
9F
330
9D
100
AcDbEntity
  8
_U+30EC_U+30A4_U+30E4_U+30FC 1
 62
     7
420
 16777215
370
     9
100
AcDbVertex
100
AcDb2dVertex
 10
88.5117305196554
 20
-148.2751810740424
 30
0.0
  0
SEQEND
  5
A0
330
9D
100
AcDbEntity
  8
_U+30EC_U+30A4_U+30E4_U+30FC 1
 62
     7
420
 16777215
370
     9
  0
POLYLINE
  5
A1
330
1F
100
AcDbEntity
  8
_U+30EC_U+30A4_U+30E4_U+30FC 1
 62
     7
420
 16777215
370
     9
100
AcDb2dPolyline
 66
     1
 10
0.0
 20
0.0
 30
0.0
  0
VERTEX
  5
A2
330
A1
100
AcDbEntity
  8
_U+30EC_U+30A4_U+30E4_U+30FC 1
 62
     7
420
 16777215
370
     9
100
AcDbVertex
100
AcDb2dVertex
 10
76.5117830480218
 20
-146.8151396855187
 30
0.0
  0
VERTEX
  5
A3
330
A1
100
AcDbEntity
  8
_U+30EC_U+30A4_U+30E4_U+30FC 1
 62
     7
420
 16777215
370
     9
100
AcDbVertex
100
AcDb2dVertex
 10
76.5117830480218
 20
-149.2749532960149
 30
0.0
  0
SEQEND
  5
A4
330
A1
100
AcDbEntity
  8
_U+30EC_U+30A4_U+30E4_U+30FC 1
 62
     7
420
 16777215
370
     9
  0
SPLINE
  5
A5
330
1F
100
AcDbEntity
  8
_U+30EC_U+30A4_U+30E4_U+30FC 1
 62
     7
420
 16777215
370
     9
100
AcDbSpline
210
0.0
220
0.0
230
1.0
 70
    11
 71
     3
 72
    17
 73
    13
 74
     0
 42
0.0000000001
 43
0.0000000001
 12
1.0
 22
0.0
 32
0.0
 13
1.0
 23
0.0
 33
0.0
 40
0.0
 40
0.0
 40
0.0
 40
0.0
 40
1.0
 40
1.0
 40
1.0
 40
2.0
 40
2.0
 40
2.0
 40
3.0
 40
3.0
 40
3.0
 40
4.0
 40
4.0
 40
4.0
 40
4.0
 10
71.73686539206231
 20
-145.2062966303648
 30
0.0
 10
71.77616664872264
 20
-145.1670324637084
 30
0.0
 10
71.77616664872264
 20
-145.1043085748348
 30
0.0
 10
71.73686539206231
 20
-145.0650444081784
 30
0.0
 10
71.69830678193492
 20
-145.0257802415213
 30
0.0
 10
71.63491261688557
 20
-145.0257802415213
 30
0.0
 10
71.59561317344374
 20
-145.0650444081784
 30
0.0
 10
71.55634900777878
 20
-145.1043085748348
 30
0.0
 10
71.55634900777878
 20
-145.1677027414858
 30
0.0
 10
71.59561317344374
 20
-145.2062966303648
 30
0.0
 10
71.63420706134801
 20
-145.2455607970218
 30
0.0
 10
71.69760122639735
 20
-145.2455607970218
 30
0.0
 10
71.73686539206231
 20
-145.2062966303648
 30
0.0
  0
POLYLINE
  5
A6
330
1F
100
AcDbEntity
  8
_U+30EC_U+30A4_U+30E4_U+30FC 1
 62
     7
420
 16777215
370
     9
100
AcDb2dPolyline
 66
     1
 10
0.0
 20
0.0
 30
0.0
  0
VERTEX
  5
A7
330
A6
100
AcDbEntity
  8
_U+30EC_U+30A4_U+30E4_U+30FC 1
 62
     7
420
 16777215
370
     9
100
AcDbVertex
100
AcDb2dVertex
 10
72.6987492564115
 20
-144.10316051953
 30
0.0
  0
VERTEX
  5
A8
330
A6
100
AcDbEntity
  8
_U+30EC_U+30A4_U+30E4_U+30FC 1
 62
     7
420
 16777215
370
     9
100
AcDbVertex
100
AcDb2dVertex
 10
70.95899041190756
 20
-145.8429546857614
 30
0.0
  0
SEQEND
  5
A9
330
A6
100
AcDbEntity
  8
_U+30EC_U+30A4_U+30E4_U+30FC 1
 62
     7
420
 16777215
370
     9
  0
SPLINE
  5
AA
330
1F
100
AcDbEntity
  8
_U+30EC_U+30A4_U+30E4_U+30FC 1
 62
     7
420
 16777215
370
     9
100
AcDbSpline
210
0.0
220
0.0
230
1.0
 70
    11
 71
     3
 72
    17
 73
    13
 74
     0
 42
0.0000000001
 43
0.0000000001
 12
1.0
 22
0.0
 32
0.0
 13
1.0
 23
0.0
 33
0.0
 40
0.0
 40
0.0
 40
0.0
 40
0.0
 40
1.0
 40
1.0
 40
1.0
 40
2.0
 40
2.0
 40
2.0
 40
3.0
 40
3.0
 40
3.0
 40
4.0
 40
4.0
 40
4.0
 40
4.0
 10
64.67718251661428
 20
-138.1617477432375
 30
0.0
 10
64.71644668227923
 20
-138.1224835765805
 30
0.0
 10
64.71644668227923
 20
-138.059794965485
 30
0.0
 10
64.67788807215183
 20
-138.020530798828
 30
0.0
 10
64.63858862871
 20
-137.9812313543934
 30
0.0
 10
64.57522974143752
 20
-137.9812313543934
 30
0.0
 10
64.53593029799569
 20
-138.020530798828
 30
0.0
 10
64.49733641009142
 20
-138.059794965485
 30
0.0
 10
64.49733641009142
 20
-138.123189132136
 30
0.0
 10
64.53593029799569
 20
-138.1617477432375
 30
0.0
 10
64.57522974143752
 20
-138.201047187672
 30
0.0
 10
64.63858862871
 20
-138.201047187672
 30
0.0
 10
64.67718251661428
 20
-138.1617477432375
 30
0.0
  0
POLYLINE
  5
AB
330
1F
100
AcDbEntity
  8
_U+30EC_U+30A4_U+30E4_U+30FC 1
 62
     7
420
 16777215
370
     9
100
AcDb2dPolyline
 66
     1
 10
0.0
 20
0.0
 30
0.0
  0
VERTEX
  5
AC
330
AB
100
AcDbEntity
  8
_U+30EC_U+30A4_U+30E4_U+30FC 1
 62
     7
420
 16777215
370
     9
100
AcDbVertex
100
AcDb2dVertex
 10
65.63906638096346
 20
-137.0586469101795
 30
0.0
  0
VERTEX
  5
AD
330
AB
100
AcDbEntity
  8
_U+30EC_U+30A4_U+30E4_U+30FC 1
 62
     7
420
 16777215
370
     9
100
AcDbVertex
100
AcDb2dVertex
 10
63.89997781422019
 20
-138.7984057986335
 30
0.0
  0
SEQEND
  5
AE
330
AB
100
AcDbEntity
  8
_U+30EC_U+30A4_U+30E4_U+30FC 1
 62
     7
420
 16777215
370
     9
  0
INSERT
  5
B0
330
1F
100
AcDbEntity
  8
_U+30EC_U+30A4_U+30E4_U+30FC 1
100
AcDbBlockReference
  2
block 7
 10
0.0
 20
0.0
 30
0.0
  0
POLYLINE
  5
B7
330
1F
100
AcDbEntity
  8
_U+30EC_U+30A4_U+30E4_U+30FC 1
 62
     7
420
 16777215
370
     9
100
AcDb2dPolyline
 66
     1
 10
0.0
 20
0.0
 30
0.0
  0
VERTEX
  5
B8
330
B7
100
AcDbEntity
  8
_U+30EC_U+30A4_U+30E4_U+30FC 1
 62
     7
420
 16777215
370
     9
100
AcDbVertex
100
AcDb2dVertex
 10
88.61163718377324
 20
-148.2751810740424
 30
0.0
  0
VERTEX
  5
B9
330
B7
100
AcDbEntity
  8
_U+30EC_U+30A4_U+30E4_U+30FC 1
 62
     7
420
 16777215
370
     9
100
AcDbVertex
100
AcDb2dVertex
 10
90.11182464550028
 20
-148.2751810740424
 30
0.0
  0
SEQEND
  5
BA
330
B7
100
AcDbEntity
  8
_U+30EC_U+30A4_U+30E4_U+30FC 1
 62
     7
420
 16777215
370
     9
  0
POLYLINE
  5
BB
330
1F
100
AcDbEntity
  8
_U+30EC_U+30A4_U+30E4_U+30FC 1
 62
     7
420
 16777215
370
     9
100
AcDb2dPolyline
 66
     1
 10
0.0
 20
0.0
 30
0.0
  0
VERTEX
  5
BC
330
BB
100
AcDbEntity
  8
_U+30EC_U+30A4_U+30E4_U+30FC 1
 62
     7
420
 16777215
370
     9
100
AcDbVertex
100
AcDb2dVertex
 10
88.61163718377324
 20
-146.8151396855187
 30
0.0
  0
VERTEX
  5
BD
330
BB
100
AcDbEntity
  8
_U+30EC_U+30A4_U+30E4_U+30FC 1
 62
     7
420
 16777215
370
     9
100
AcDbVertex
100
AcDb2dVertex
 10
88.61163718377324
 20
-149.2749532960149
 30
0.0
  0
SEQEND
  5
BE
330
BB
100
AcDbEntity
  8
_U+30EC_U+30A4_U+30E4_U+30FC 1
 62
     7
420
 16777215
370
     9
  0
POLYLINE
  5
BF
330
1F
100
AcDbEntity
  8
_U+30EC_U+30A4_U+30E4_U+30FC 1
 62
     7
420
 16777215
370
     9
100
AcDb2dPolyline
 66
     1
 10
0.0
 20
0.0
 30
0.0
  0
VERTEX
  5
C0
330
BF
100
AcDbEntity
  8
_U+30EC_U+30A4_U+30E4_U+30FC 1
 62
     7
420
 16777215
370
     9
100
AcDbVertex
100
AcDb2dVertex
 10
90.11182464550028
 20
-146.8151396855187
 30
0.0
  0
VERTEX
  5
C1
330
BF
100
AcDbEntity
  8
_U+30EC_U+30A4_U+30E4_U+30FC 1
 62
     7
420
 16777215
370
     9
100
AcDbVertex
100
AcDb2dVertex
 10
90.11182464550028
 20
-149.2749532960149
 30
0.0
  0
SEQEND
  5
C2
330
BF
100
AcDbEntity
  8
_U+30EC_U+30A4_U+30E4_U+30FC 1
 62
     7
420
 16777215
370
     9
  0
INSERT
  5
C4
330
1F
100
AcDbEntity
  8
_U+30EC_U+30A4_U+30E4_U+30FC 1
100
AcDbBlockReference
  2
block 8
 10
0.0
 20
0.0
 30
0.0
  0
POLYLINE
  5
D3
330
1F
100
AcDbEntity
  8
_U+30EC_U+30A4_U+30E4_U+30FC 1
 62
     7
420
 16777215
370
     9
100
AcDb2dPolyline
 66
     1
 10
0.0
 20
0.0
 30
0.0
  0
VERTEX
  5
D4
330
D3
100
AcDbEntity
  8
_U+30EC_U+30A4_U+30E4_U+30FC 1
 62
     7
420
 16777215
370
     9
100
AcDbVertex
100
AcDb2dVertex
 10
64.63410835104652
 20
-138.060465243263
 30
0.0
  0
VERTEX
  5
D5
330
D3
100
AcDbEntity
  8
_U+30EC_U+30A4_U+30E4_U+30FC 1
 62
     7
420
 16777215
370
     9
100
AcDbVertex
100
AcDb2dVertex
 10
71.70518594842608
 20
-145.1311902414952
 30
0.0
  0
SEQEND
  5
D6
330
D3
100
AcDbEntity
  8
_U+30EC_U+30A4_U+30E4_U+30FC 1
 62
     7
420
 16777215
370
     9
  0
POLYLINE
  5
D7
330
1F
100
AcDbEntity
  8
_U+30EC_U+30A4_U+30E4_U+30FC 1
 62
     7
420
 16777215
370
    25
100
AcDb2dPolyline
 66
     1
 10
0.0
 20
0.0
 30
0.0
  0
VERTEX
  5
D8
330
D7
100
AcDbEntity
  8
_U+30EC_U+30A4_U+30E4_U+30FC 1
 62
     7
420
 16777215
370
    25
100
AcDbVertex
100
AcDb2dVertex
 10
107.3447011502974
 20
-127.8650463569228
 30
0.0
  0
VERTEX
  5
D9
330
D7
100
AcDbEntity
  8
_U+30EC_U+30A4_U+30E4_U+30FC 1
 62
     7
420
 16777215
370
    25
100
AcDbVertex
100
AcDb2dVertex
 10
82.23718984639895
 20
-127.8740069124759
 30
0.0
  0
VERTEX
  5
DA
330
D7
100
AcDbEntity
  8
_U+30EC_U+30A4_U+30E4_U+30FC 1
 62
     7
420
 16777215
370
    25
100
AcDbVertex
100
AcDb2dVertex
 10
82.22822929107198
 20
-102.7477271965352
 30
0.0
  0
VERTEX
  5
DB
330
D7
100
AcDbEntity
  8
_U+30EC_U+30A4_U+30E4_U+30FC 1
 62
     7
420
 16777215
370
    25
100
AcDbVertex
100
AcDb2dVertex
 10
81.22845709435607
 20
-102.7477271965352
 30
0.0
  0
VERTEX
  5
DC
330
D7
100
AcDbEntity
  8
_U+30EC_U+30A4_U+30E4_U+30FC 1
 62
     7
420
 16777215
370
    25
100
AcDbVertex
100
AcDb2dVertex
 10
81.22845709435607
 20
-104.2518658072704
 30
0.0
  0
VERTEX
  5
DD
330
D7
100
AcDbEntity
  8
_U+30EC_U+30A4_U+30E4_U+30FC 1
 62
     7
420
 16777215
370
    25
100
AcDbVertex
100
AcDb2dVertex
 10
81.22845709435607
 20
-104.2515130294926
 30
0.0
  0
VERTEX
  5
DE
330
D7
100
AcDbEntity
  8
_U+30EC_U+30A4_U+30E4_U+30FC 1
 62
     7
420
 16777215
370
    25
100
AcDbVertex
100
AcDb2dVertex
 10
81.22845709435607
 20
-109.1848985838149
 30
0.0
  0
VERTEX
  5
DF
330
D7
100
AcDbEntity
  8
_U+30EC_U+30A4_U+30E4_U+30FC 1
 62
     7
420
 16777215
370
    25
100
AcDbVertex
100
AcDb2dVertex
 10
81.22845709435607
 20
-109.1848985838149
 30
0.0
  0
VERTEX
  5
E0
330
D7
100
AcDbEntity
  8
_U+30EC_U+30A4_U+30E4_U+30FC 1
 62
     7
420
 16777215
370
    25
100
AcDbVertex
100
AcDb2dVertex
 10
81.22845709435607
 20
-128.1758083012893
 30
0.0
  0
VERTEX
  5
E1
330
D7
100
AcDbEntity
  8
_U+30EC_U+30A4_U+30E4_U+30FC 1
 62
     7
420
 16777215
370
    25
100
AcDbVertex
100
AcDb2dVertex
 10
73.52523887050747
 20
-135.8790285771416
 30
0.0
  0
VERTEX
  5
E2
330
D7
100
AcDbEntity
  8
_U+30EC_U+30A4_U+30E4_U+30FC 1
 62
     7
420
 16777215
370
    25
100
AcDbVertex
100
AcDb2dVertex
 10
70.67990791902754
 20
-133.0337346889635
 30
0.0
  0
VERTEX
  5
E3
330
D7
100
AcDbEntity
  8
_U+30EC_U+30A4_U+30E4_U+30FC 1
 62
     7
420
 16777215
370
    25
100
AcDbVertex
100
AcDb2dVertex
 10
70.67990791902754
 20
-122.2276927472209
 30
0.0
  0
VERTEX
  5
E4
330
D7
100
AcDbEntity
  8
_U+30EC_U+30A4_U+30E4_U+30FC 1
 62
     7
420
 16777215
370
    25
100
AcDbVertex
100
AcDb2dVertex
 10
71.22872429391496
 20
-121.6106491362641
 30
0.0
  0
VERTEX
  5
E5
330
D7
100
AcDbEntity
  8
_U+30EC_U+30A4_U+30E4_U+30FC 1
 62
     7
420
 16777215
370
    25
100
AcDbVertex
100
AcDb2dVertex
 10
71.22872429391496
 20
-120.149267192185
 30
0.0
  0
VERTEX
  5
E6
330
D7
100
AcDbEntity
  8
_U+30EC_U+30A4_U+30E4_U+30FC 1
 62
     7
420
 16777215
370
    25
100
AcDbVertex
100
AcDb2dVertex
 10
69.68048850008041
 20
-121.5810510807157
 30
0.0
  0
VERTEX
  5
E7
330
D7
100
AcDbEntity
  8
_U+30EC_U+30A4_U+30E4_U+30FC 1
 62
     7
420
 16777215
370
    25
100
AcDbVertex
100
AcDb2dVertex
 10
69.68048850008041
 20
-133.5811752443826
 30
0.0
  0
VERTEX
  5
E8
330
D7
100
AcDbEntity
  8
_U+30EC_U+30A4_U+30E4_U+30FC 1
 62
     7
420
 16777215
370
    25
100
AcDbVertex
100
AcDb2dVertex
 10
76.5117830480218
 20
-140.412787464897
 30
0.0
  0
VERTEX
  5
E9
330
D7
100
AcDbEntity
  8
_U+30EC_U+30A4_U+30E4_U+30FC 1
 62
     7
420
 16777215
370
    25
100
AcDbVertex
100
AcDb2dVertex
 10
88.5117305196554
 20
-140.412787464897
 30
0.0
  0
VERTEX
  5
EA
330
D7
100
AcDbEntity
  8
_U+30EC_U+30A4_U+30E4_U+30FC 1
 62
     7
420
 16777215
370
    25
100
AcDbVertex
100
AcDb2dVertex
 10
89.94351664418066
 20
-138.8645516319503
 30
0.0
  0
VERTEX
  5
EB
330
D7
100
AcDbEntity
  8
_U+30EC_U+30A4_U+30E4_U+30FC 1
 62
     7
420
 16777215
370
    25
100
AcDbVertex
100
AcDb2dVertex
 10
88.48244996484686
 20
-138.8645516319503
 30
0.0
  0
VERTEX
  5
EC
330
D7
100
AcDbEntity
  8
_U+30EC_U+30A4_U+30E4_U+30FC 1
 62
     7
420
 16777215
370
    25
100
AcDbVertex
100
AcDb2dVertex
 10
87.86508886948594
 20
-139.4130152429244
 30
0.0
  0
VERTEX
  5
ED
330
D7
100
AcDbEntity
  8
_U+30EC_U+30A4_U+30E4_U+30FC 1
 62
     7
420
 16777215
370
    25
100
AcDbVertex
100
AcDb2dVertex
 10
77.0591883118341
 20
-139.4130152429244
 30
0.0
  0
VERTEX
  5
EE
330
D7
100
AcDbEntity
  8
_U+30EC_U+30A4_U+30E4_U+30FC 1
 62
     7
420
 16777215
370
    25
100
AcDbVertex
100
AcDb2dVertex
 10
74.23216838395739
 20
-136.5859952436311
 30
0.0
  0
VERTEX
  5
EF
330
D7
100
AcDbEntity
  8
_U+30EC_U+30A4_U+30E4_U+30FC 1
 62
     7
420
 16777215
370
    25
100
AcDbVertex
100
AcDb2dVertex
 10
81.95330957586356
 20
-128.8648185788947
 30
0.0
  0
VERTEX
  5
F0
330
D7
100
AcDbEntity
  8
_U+30EC_U+30A4_U+30E4_U+30FC 1
 62
     7
420
 16777215
370
    25
100
AcDbVertex
100
AcDb2dVertex
 10
98.40809943384467
 20
-128.8648185788947
 30
0.0
  0
VERTEX
  5
F1
330
D7
100
AcDbEntity
  8
_U+30EC_U+30A4_U+30E4_U+30FC 1
 62
     7
420
 16777215
370
    25
100
AcDbVertex
100
AcDb2dVertex
 10
98.40742915608399
 20
-128.8648185788947
 30
0.0
  0
VERTEX
  5
F2
330
D7
100
AcDbEntity
  8
_U+30EC_U+30A4_U+30E4_U+30FC 1
 62
     7
420
 16777215
370
    25
100
AcDbVertex
100
AcDb2dVertex
 10
103.3408145857784
 20
-128.8648185788947
 30
0.0
  0
VERTEX
  5
F3
330
D7
100
AcDbEntity
  8
_U+30EC_U+30A4_U+30E4_U+30FC 1
 62
     7
420
 16777215
370
    25
100
AcDbVertex
100
AcDb2dVertex
 10
103.3408145857784
 20
-128.8648185788947
 30
0.0
  0
VERTEX
  5
F4
330
D7
100
AcDbEntity
  8
_U+30EC_U+30A4_U+30E4_U+30FC 1
 62
     7
420
 16777215
370
    25
100
AcDbVertex
100
AcDb2dVertex
 10
107.3447011502974
 20
-128.8648185788947
 30
0.0
  0
VERTEX
  5
F5
330
D7
100
AcDbEntity
  8
_U+30EC_U+30A4_U+30E4_U+30FC 1
 62
     7
420
 16777215
370
    25
100
AcDbVertex
100
AcDb2dVertex
 10
107.3447011502974
 20
-127.8650463569228
 30
0.0
  0
SEQEND
  5
F6
330
D7
100
AcDbEntity
  8
_U+30EC_U+30A4_U+30E4_U+30FC 1
 62
     7
420
 16777215
370
    25
  0
HATCH
  5
F7
330
1F
100
AcDbEntity
  8
_U+30EC_U+30A4_U+30E4_U+30FC 1
 62
   253
420
 10855845
100
AcDbHatch
 10
0.0
 20
0.0
 30
0.0
210
0.0
220
0.0
230
1.0
  2
SOLID
 70
     1
 71
     0
 91
        1
 92
        1
 93
       27
 72
     1
 10
107.3447011502974
 20
-127.8650463569228
 11
82.23718984639895
 21
-127.8740069124759
 72
     1
 10
82.23718984639895
 20
-127.8740069124759
 11
82.22822929107198
 21
-102.7477271965352
 72
     1
 10
82.22822929107198
 20
-102.7477271965352
 11
81.22845709435607
 21
-102.7477271965352
 72
     1
 10
81.22845709435607
 20
-102.7477271965352
 11
81.22845709435607
 21
-104.2518658072704
 72
     1
 10
81.22845709435607
 20
-104.2518658072704
 11
81.22845709435607
 21
-104.2515130294926
 72
     1
 10
81.22845709435607
 20
-104.2515130294926
 11
81.22845709435607
 21
-109.1848985838149
 72
     1
 10
81.22845709435607
 20
-109.1848985838149
 11
81.22845709435607
 21
-128.1758083012893
 72
     1
 10
81.22845709435607
 20
-128.1758083012893
 11
73.52523887050747
 21
-135.8790285771416
 72
     1
 10
73.52523887050747
 20
-135.8790285771416
 11
70.67990791902754
 21
-133.0337346889635
 72
     1
 10
70.67990791902754
 20
-133.0337346889635
 11
70.67990791902754
 21
-122.2276927472209
 72
     1
 10
70.67990791902754
 20
-122.2276927472209
 11
71.22872429391496
 21
-121.6106491362641
 72
     1
 10
71.22872429391496
 20
-121.6106491362641
 11
71.22872429391496
 21
-120.149267192185
 72
     1
 10
71.22872429391496
 20
-120.149267192185
 11
69.68048850008041
 21
-121.5810510807157
 72
     1
 10
69.68048850008041
 20
-121.5810510807157
 11
69.68048850008041
 21
-133.5811752443826
 72
     1
 10
69.68048850008041
 20
-133.5811752443826
 11
76.5117830480218
 21
-140.412787464897
 72
     1
 10
76.5117830480218
 20
-140.412787464897
 11
88.5117305196554
 21
-140.412787464897
 72
     1
 10
88.5117305196554
 20
-140.412787464897
 11
89.94351664418066
 21
-138.8645516319503
 72
     1
 10
89.94351664418066
 20
-138.8645516319503
 11
88.48244996484686
 21
-138.8645516319503
 72
     1
 10
88.48244996484686
 20
-138.8645516319503
 11
87.86508886948594
 21
-139.4130152429244
 72
     1
 10
87.86508886948594
 20
-139.4130152429244
 11
77.0591883118341
 21
-139.4130152429244
 72
     1
 10
77.0591883118341
 20
-139.4130152429244
 11
74.23216838395739
 21
-136.5859952436311
 72
     1
 10
74.23216838395739
 20
-136.5859952436311
 11
81.95330957586356
 21
-128.8648185788947
 72
     1
 10
81.95330957586356
 20
-128.8648185788947
 11
98.40809943384467
 21
-128.8648185788947
 72
     1
 10
98.40809943384467
 20
-128.8648185788947
 11
98.40742915608399
 21
-128.8648185788947
 72
     1
 10
98.40742915608399
 20
-128.8648185788947
 11
103.3408145857784
 21
-128.8648185788947
 72
     1
 10
103.3408145857784
 20
-128.8648185788947
 11
107.3447011502974
 21
-128.8648185788947
 72
     1
 10
107.3447011502974
 20
-128.8648185788947
 11
107.3447011502974
 21
-127.8650463569228
 97
        0
 75
     2
 76
     1
 98
        0
  0
ENDSEC
  0
SECTION
  2
OBJECTS
  0
DICTIONARY
  5
C
330
0
100
AcDbDictionary
281
     1
  3
ACAD_GROUP
350
D
  3
ACAD_LAYOUT
350
1A
  3
ACAD_MATERIAL
350
3B
  3
ACAD_MLEADERSTYLE
350
F9
  3
ACAD_MLINESTYLE
350
17
  3
ACAD_PLOTSETTINGS
350
19
  3
ACAD_PLOTSTYLENAME
350
E
  3
ACAD_TABLESTYLE
350
F8
  3
ACAD_VISUALSTYLE
350
2A
  0
SUN
  5
3F
330
29
100
AcDbSun
 90
        1
290
     0
 63
     7
421
 16777215
 40
1.0
291
     1
 91
  2455826
 92
 54000000
292
     0
 70
     2
 71
   256
280
     1
  0
DICTIONARY
  5
D
102
{ACAD_REACTORS
330
C
102
}
330
C
100
AcDbDictionary
281
     1
  0
DICTIONARY
  5
1A
102
{ACAD_REACTORS
330
C
102
}
330
C
100
AcDbDictionary
281
     1
  3
Layout1
350
1E
  3
Layout2
350
26
  3
Model
350
22
  0
DICTIONARY
  5
3B
102
{ACAD_REACTORS
330
C
102
}
330
C
100
AcDbDictionary
281
     1
  3
ByBlock
350
3D
  3
ByLayer
350
3C
  3
Global
350
3E
  0
DICTIONARY
  5
F9
102
{ACAD_REACTORS
330
C
102
}
330
C
100
AcDbDictionary
281
     1
  0
DICTIONARY
  5
17
102
{ACAD_REACTORS
330
C
102
}
330
C
100
AcDbDictionary
281
     1
  3
Standard
350
18
  0
DICTIONARY
  5
19
102
{ACAD_REACTORS
330
C
102
}
330
C
100
AcDbDictionary
281
     1
  0
ACDBDICTIONARYWDFLT
  5
E
102
{ACAD_REACTORS
330
C
102
}
330
C
100
AcDbDictionary
281
     1
  3
Normal
350
F
100
AcDbDictionaryWithDefault
340
F
  0
DICTIONARY
  5
F8
102
{ACAD_REACTORS
330
C
102
}
330
C
100
AcDbDictionary
281
     1
  0
DICTIONARY
  5
2A
102
{ACAD_REACTORS
330
C
102
}
330
C
100
AcDbDictionary
281
     1
  3
2dWireframe
350
2F
  3
3D Hidden
350
31
  3
3dWireframe
350
30
  3
Basic
350
32
  3
Brighten
350
36
  3
ColorChange
350
3A
  3
Conceptual
350
34
  3
Dim
350
35
  3
Facepattern
350
39
  3
Flat
350
2B
  3
FlatWithEdges
350
2C
  3
Gouraud
350
2D
  3
GouraudWithEdges
350
2E
  3
Linepattern
350
38
  3
Realistic
350
33
  3
Thicken
350
37
  0
LAYOUT
  5
1E
102
{ACAD_REACTORS
330
1A
102
}
330
1A
100
AcDbPlotSettings
  1

  2
none_device
  4

  6

 40
0.0
 41
0.0
 42
0.0
 43
0.0
 44
0.0
 45
0.0
 46
0.0
 47
0.0
 48
0.0
 49
0.0
140
0.0
141
0.0
142
1.0
143
1.0
 70
   688
 72
     0
 73
     0
 74
     5
  7

 75
    16
 76
     0
 77
     2
 78
   300
147
1.0
148
0.0
149
0.0
100
AcDbLayout
  1
Layout1
 70
     1
 71
     1
 10
0.0
 20
0.0
 11
12.0
 21
9.0
 12
0.0
 22
0.0
 32
0.0
 14
1.000000000000000E+20
 24
1.000000000000000E+20
 34
1.000000000000000E+20
 15
-1.000000000000000E+20
 25
-1.000000000000000E+20
 35
-1.000000000000000E+20
146
0.0
 13
0.0
 23
0.0
 33
0.0
 16
1.0
 26
0.0
 36
0.0
 17
0.0
 27
1.0
 37
0.0
 76
     0
330
1B
  0
LAYOUT
  5
26
102
{ACAD_REACTORS
330
1A
102
}
330
1A
100
AcDbPlotSettings
  1

  2
none_device
  4

  6

 40
0.0
 41
0.0
 42
0.0
 43
0.0
 44
0.0
 45
0.0
 46
0.0
 47
0.0
 48
0.0
 49
0.0
140
0.0
141
0.0
142
1.0
143
1.0
 70
   688
 72
     0
 73
     0
 74
     5
  7

 75
    16
 76
     0
 77
     2
 78
   300
147
1.0
148
0.0
149
0.0
100
AcDbLayout
  1
Layout2
 70
     1
 71
     2
 10
0.0
 20
0.0
 11
0.0
 21
0.0
 12
0.0
 22
0.0
 32
0.0
 14
0.0
 24
0.0
 34
0.0
 15
0.0
 25
0.0
 35
0.0
146
0.0
 13
0.0
 23
0.0
 33
0.0
 16
1.0
 26
0.0
 36
0.0
 17
0.0
 27
1.0
 37
0.0
 76
     0
330
23
  0
LAYOUT
  5
22
102
{ACAD_REACTORS
330
1A
102
}
330
1A
100
AcDbPlotSettings
  1

  2
none_device
  4

  6

 40
0.0
 41
0.0
 42
0.0
 43
0.0
 44
0.0
 45
0.0
 46
0.0
 47
0.0
 48
0.0
 49
0.0
140
0.0
141
0.0
142
1.0
143
1.0
 70
  1712
 72
     0
 73
     0
 74
     0
  7

 75
     0
 76
     0
 77
     2
 78
   300
147
1.0
148
0.0
149
0.0
100
AcDbLayout
  1
Model
 70
     1
 71
     0
 10
0.0
 20
0.0
 11
12.0
 21
9.0
 12
0.0
 22
0.0
 32
0.0
 14
1.000000000000000E+20
 24
1.000000000000000E+20
 34
1.000000000000000E+20
 15
-1.000000000000000E+20
 25
-1.000000000000000E+20
 35
-1.000000000000000E+20
146
0.0
 13
0.0
 23
0.0
 33
0.0
 16
1.0
 26
0.0
 36
0.0
 17
0.0
 27
1.0
 37
0.0
 76
     0
330
1F
331
29
  0
MATERIAL
  5
3D
102
{ACAD_REACTORS
330
3B
102
}
330
3B
100
AcDbMaterial
  1
ByBlock
 72
     1
 94
      127
  0
MATERIAL
  5
3C
102
{ACAD_REACTORS
330
3B
102
}
330
3B
100
AcDbMaterial
  1
ByLayer
 72
     1
 94
      127
  0
MATERIAL
  5
3E
102
{ACAD_REACTORS
330
3B
102
}
330
3B
100
AcDbMaterial
  1
Global
 72
     1
 94
      127
  0
MLINESTYLE
  5
18
102
{ACAD_REACTORS
330
17
102
}
330
17
100
AcDbMlineStyle
  2
Standard
 70
     0
  3

 62
   256
 51
90.0
 52
90.0
 71
     2
 49
0.5
 62
   256
  6
BYLAYER
 49
-0.5
 62
   256
  6
BYLAYER
  0
ACDBPLACEHOLDER
  5
F
102
{ACAD_REACTORS
330
E
102
}
330
E
  0
VISUALSTYLE
  5
2F
102
{ACAD_REACTORS
330
2A
102
}
330
2A
100
AcDbVisualStyle
  2
2dWireframe
 70
     4
177
     2
291
     0
 71
     0
176
     1
 72
     2
176
     1
 73
     0
176
     1
 90
        0
176
     1
 40
-0.6
176
     1
 41
-30.0
176
     1
 62
     5
 63
     7
421
 16777215
176
     1
 74
     1
176
     1
 91
        4
176
     1
 64
     7
176
     1
 65
   257
176
     1
 75
     1
176
     1
175
     1
176
     1
 42
1.0
176
     1
 92
        0
176
     1
 66
   257
176
     1
 43
1.0
176
     1
 76
     1
176
     1
 77
     6
176
     1
 78
     2
176
     1
 67
     7
176
     1
 79
     5
176
     1
170
     0
176
     1
171
     0
176
     1
290
     0
176
     1
 93
        1
176
     1
 44
0.0
176
     1
173
     0
176
     1
  0
VISUALSTYLE
  5
31
102
{ACAD_REACTORS
330
2A
102
}
330
2A
100
AcDbVisualStyle
  2
3D Hidden
 70
     6
177
     2
291
     0
 71
     1
176
     1
 72
     2
176
     1
 73
     2
176
     1
 90
        0
176
     1
 40
-0.6
176
     1
 41
-30.0
176
     1
 62
     5
 63
     7
421
 16777215
176
     1
 74
     2
176
     1
 91
        2
176
     1
 64
     7
176
     1
 65
   257
176
     1
 75
     2
176
     1
175
     1
176
     1
 42
40.0
176
     1
 92
        0
176
     1
 66
   257
176
     1
 43
1.0
176
     1
 76
     1
176
     1
 77
     6
176
     1
 78
     2
176
     1
 67
     7
176
     1
 79
     3
176
     1
170
     0
176
     1
171
     0
176
     1
290
     0
176
     1
 93
        1
176
     1
 44
0.0
176
     1
173
     0
176
     1
  0
VISUALSTYLE
  5
30
102
{ACAD_REACTORS
330
2A
102
}
330
2A
100
AcDbVisualStyle
  2
3dWireframe
 70
     5
177
     2
291
     0
 71
     0
176
     1
 72
     2
176
     1
 73
     0
176
     1
 90
        0
176
     1
 40
-0.6
176
     1
 41
-30.0
176
     1
 62
     5
 63
     7
421
 16777215
176
     1
 74
     1
176
     1
 91
        4
176
     1
 64
     7
176
     1
 65
   257
176
     1
 75
     1
176
     1
175
     1
176
     1
 42
1.0
176
     1
 92
        0
176
     1
 66
   257
176
     1
 43
1.0
176
     1
 76
     1
176
     1
 77
     6
176
     1
 78
     2
176
     1
 67
     7
176
     1
 79
     5
176
     1
170
     0
176
     1
171
     0
176
     1
290
     0
176
     1
 93
        1
176
     1
 44
0.0
176
     1
173
     0
176
     1
  0
VISUALSTYLE
  5
32
102
{ACAD_REACTORS
330
2A
102
}
330
2A
100
AcDbVisualStyle
  2
Basic
 70
     7
177
     2
291
     1
 71
     1
176
     1
 72
     0
176
     1
 73
     1
176
     1
 90
        0
176
     1
 40
-0.6
176
     1
 41
-30.0
176
     1
 62
     5
 63
     7
421
 16777215
176
     1
 74
     0
176
     1
 91
        4
176
     1
 64
     7
176
     1
 65
   257
176
     1
 75
     1
176
     1
175
     1
176
     1
 42
1.0
176
     1
 92
        8
176
     1
 66
     7
176
     1
 43
1.0
176
     1
 76
     1
176
     1
 77
     6
176
     1
 78
     2
176
     1
 67
     7
176
     1
 79
     5
176
     1
170
     0
176
     1
171
     0
176
     1
290
     0
176
     1
 93
        1
176
     1
 44
0.0
176
     1
173
     0
176
     1
  0
VISUALSTYLE
  5
36
102
{ACAD_REACTORS
330
2A
102
}
330
2A
100
AcDbVisualStyle
  2
Brighten
 70
    12
177
     2
291
     1
 71
     2
176
     1
 72
     2
176
     1
 73
     0
176
     1
 90
        0
176
     1
 40
-0.6
176
     1
 41
-30.0
176
     1
 62
     5
 63
     7
421
 16777215
176
     1
 74
     1
176
     1
 91
        4
176
     1
 64
     7
176
     1
 65
   257
176
     1
 75
     1
176
     1
175
     1
176
     1
 42
1.0
176
     1
 92
        8
176
     1
 66
     7
176
     1
 43
1.0
176
     1
 76
     1
176
     1
 77
     6
176
     1
 78
     2
176
     1
 67
     7
176
     1
 79
     5
176
     1
170
     0
176
     1
171
     0
176
     1
290
     0
176
     1
 93
        1
176
     1
 44
50.0
176
     1
173
     0
176
     1
  0
VISUALSTYLE
  5
3A
102
{ACAD_REACTORS
330
2A
102
}
330
2A
100
AcDbVisualStyle
  2
ColorChange
 70
    16
177
     2
291
     1
 71
     2
176
     1
 72
     2
176
     1
 73
     3
176
     1
 90
        0
176
     1
 40
-0.6
176
     1
 41
-30.0
176
     1
 62
     5
 63
     8
421
  8421504
176
     1
 74
     1
176
     1
 91
        4
176
     1
 64
     7
176
     1
 65
   257
176
     1
 75
     1
176
     1
175
     1
176
     1
 42
1.0
176
     1
 92
        8
176
     1
 66
     8
424
  8421504
176
     1
 43
1.0
176
     1
 76
     1
176
     1
 77
     6
176
     1
 78
     2
176
     1
 67
     7
176
     1
 79
     5
176
     1
170
     0
176
     1
171
     0
176
     1
290
     0
176
     1
 93
        1
176
     1
 44
0.0
176
     1
173
     0
176
     1
  0
VISUALSTYLE
  5
34
102
{ACAD_REACTORS
330
2A
102
}
330
2A
100
AcDbVisualStyle
  2
Conceptual
 70
     9
177
     2
291
     0
 71
     3
176
     1
 72
     2
176
     1
 73
     0
176
     1
 90
        0
176
     1
 40
-0.6
176
     1
 41
-30.0
176
     1
 62
     5
 63
     7
421
 16777215
176
     1
 74
     2
176
     1
 91
        2
176
     1
 64
     7
176
     1
 65
   257
176
     1
 75
     1
176
     1
175
     1
176
     1
 42
40.0
176
     1
 92
        8
176
     1
 66
     7
176
     1
 43
1.0
176
     1
 76
     1
176
     1
 77
     6
176
     1
 78
     2
176
     1
 67
     7
176
     1
 79
     3
176
     1
170
     0
176
     1
171
     0
176
     1
290
     0
176
     1
 93
        1
176
     1
 44
0.0
176
     1
173
     0
176
     1
  0
VISUALSTYLE
  5
35
102
{ACAD_REACTORS
330
2A
102
}
330
2A
100
AcDbVisualStyle
  2
Dim
 70
    11
177
     2
291
     1
 71
     2
176
     1
 72
     2
176
     1
 73
     0
176
     1
 90
        0
176
     1
 40
-0.6
176
     1
 41
-30.0
176
     1
 62
     5
 63
     7
421
 16777215
176
     1
 74
     1
176
     1
 91
        4
176
     1
 64
     7
176
     1
 65
   257
176
     1
 75
     1
176
     1
175
     1
176
     1
 42
1.0
176
     1
 92
        8
176
     1
 66
     7
176
     1
 43
1.0
176
     1
 76
     1
176
     1
 77
     6
176
     1
 78
     2
176
     1
 67
     7
176
     1
 79
     5
176
     1
170
     0
176
     1
171
     0
176
     1
290
     0
176
     1
 93
        1
176
     1
 44
-50.0
176
     1
173
     0
176
     1
  0
VISUALSTYLE
  5
39
102
{ACAD_REACTORS
330
2A
102
}
330
2A
100
AcDbVisualStyle
  2
Facepattern
 70
    15
177
     2
291
     1
 71
     2
176
     1
 72
     2
176
     1
 73
     0
176
     1
 90
        0
176
     1
 40
-0.6
176
     1
 41
-30.0
176
     1
 62
     5
 63
     7
421
 16777215
176
     1
 74
     1
176
     1
 91
        4
176
     1
 64
     7
176
     1
 65
   257
176
     1
 75
     1
176
     1
175
     1
176
     1
 42
1.0
176
     1
 92
        8
176
     1
 66
     7
176
     1
 43
1.0
176
     1
 76
     1
176
     1
 77
     6
176
     1
 78
     2
176
     1
 67
     7
176
     1
 79
     5
176
     1
170
     0
176
     1
171
     0
176
     1
290
     0
176
     1
 93
        1
176
     1
 44
0.0
176
     1
173
     0
176
     1
  0
VISUALSTYLE
  5
2B
102
{ACAD_REACTORS
330
2A
102
}
330
2A
100
AcDbVisualStyle
  2
Flat
 70
     0
177
     2
291
     1
 71
     2
176
     1
 72
     1
176
     1
 73
     1
176
     1
 90
        2
176
     1
 40
-0.6
176
     1
 41
30.0
176
     1
 62
     5
 63
     7
421
 16777215
176
     1
 74
     0
176
     1
 91
        4
176
     1
 64
     7
176
     1
 65
   257
176
     1
 75
     1
176
     1
175
     1
176
     1
 42
1.0
176
     1
 92
        8
176
     1
 66
     7
176
     1
 43
1.0
176
     1
 76
     1
176
     1
 77
     6
176
     1
 78
     2
176
     1
 67
     7
176
     1
 79
     5
176
     1
170
     0
176
     1
171
     0
176
     1
290
     0
176
     1
 93
       13
176
     1
 44
0.0
176
     1
173
     0
176
     1
  0
VISUALSTYLE
  5
2C
102
{ACAD_REACTORS
330
2A
102
}
330
2A
100
AcDbVisualStyle
  2
FlatWithEdges
 70
     1
177
     2
291
     1
 71
     2
176
     1
 72
     1
176
     1
 73
     1
176
     1
 90
        2
176
     1
 40
-0.6
176
     1
 41
30.0
176
     1
 62
     5
 63
     7
421
 16777215
176
     1
 74
     1
176
     1
 91
        4
176
     1
 64
     7
176
     1
 65
   257
176
     1
 75
     1
176
     1
175
     1
176
     1
 42
1.0
176
     1
 92
        0
176
     1
 66
   257
176
     1
 43
1.0
176
     1
 76
     1
176
     1
 77
     6
176
     1
 78
     2
176
     1
 67
     7
176
     1
 79
     5
176
     1
170
     0
176
     1
171
     0
176
     1
290
     0
176
     1
 93
       13
176
     1
 44
0.0
176
     1
173
     0
176
     1
  0
VISUALSTYLE
  5
2D
102
{ACAD_REACTORS
330
2A
102
}
330
2A
100
AcDbVisualStyle
  2
Gouraud
 70
     2
177
     2
291
     1
 71
     2
176
     1
 72
     2
176
     1
 73
     1
176
     1
 90
        2
176
     1
 40
-0.6
176
     1
 41
30.0
176
     1
 62
     5
 63
     7
421
 16777215
176
     1
 74
     0
176
     1
 91
        4
176
     1
 64
     7
176
     1
 65
   257
176
     1
 75
     1
176
     1
175
     1
176
     1
 42
1.0
176
     1
 92
        0
176
     1
 66
     7
176
     1
 43
1.0
176
     1
 76
     1
176
     1
 77
     6
176
     1
 78
     2
176
     1
 67
     7
176
     1
 79
     5
176
     1
170
     0
176
     1
171
     0
176
     1
290
     0
176
     1
 93
       13
176
     1
 44
0.0
176
     1
173
     0
176
     1
  0
VISUALSTYLE
  5
2E
102
{ACAD_REACTORS
330
2A
102
}
330
2A
100
AcDbVisualStyle
  2
GouraudWithEdges
 70
     3
177
     2
291
     1
 71
     2
176
     1
 72
     2
176
     1
 73
     1
176
     1
 90
        2
176
     1
 40
-0.6
176
     1
 41
30.0
176
     1
 62
     5
 63
     7
421
 16777215
176
     1
 74
     1
176
     1
 91
        4
176
     1
 64
     7
176
     1
 65
   257
176
     1
 75
     1
176
     1
175
     1
176
     1
 42
1.0
176
     1
 92
        0
176
     1
 66
   257
176
     1
 43
1.0
176
     1
 76
     1
176
     1
 77
     6
176
     1
 78
     2
176
     1
 67
     7
176
     1
 79
     5
176
     1
170
     0
176
     1
171
     0
176
     1
290
     0
176
     1
 93
       13
176
     1
 44
0.0
176
     1
173
     0
176
     1
  0
VISUALSTYLE
  5
38
102
{ACAD_REACTORS
330
2A
102
}
330
2A
100
AcDbVisualStyle
  2
Linepattern
 70
    14
177
     2
291
     1
 71
     2
176
     1
 72
     2
176
     1
 73
     0
176
     1
 90
        0
176
     1
 40
-0.6
176
     1
 41
-30.0
176
     1
 62
     5
 63
     7
421
 16777215
176
     1
 74
     1
176
     1
 91
        4
176
     1
 64
     7
176
     1
 65
   257
176
     1
 75
     7
176
     1
175
     7
176
     1
 42
1.0
176
     1
 92
        8
176
     1
 66
     7
176
     1
 43
1.0
176
     1
 76
     1
176
     1
 77
     6
176
     1
 78
     2
176
     1
 67
     7
176
     1
 79
     5
176
     1
170
     0
176
     1
171
     0
176
     1
290
     0
176
     1
 93
        1
176
     1
 44
0.0
176
     1
173
     0
176
     1
  0
VISUALSTYLE
  5
33
102
{ACAD_REACTORS
330
2A
102
}
330
2A
100
AcDbVisualStyle
  2
Realistic
 70
     8
177
     2
291
     0
 71
     2
176
     1
 72
     2
176
     1
 73
     0
176
     1
 90
        0
176
     1
 40
-0.6
176
     1
 41
-30.0
176
     1
 62
     5
 63
     7
421
 16777215
176
     1
 74
     1
176
     1
 91
        0
176
     1
 64
     7
176
     1
 65
   257
176
     1
 75
     1
176
     1
175
     1
176
     1
 42
1.0
176
     1
 92
        8
176
     1
 66
     8
424
  7895160
176
     1
 43
1.0
176
     1
 76
     1
176
     1
 77
     6
176
     1
 78
     2
176
     1
 67
     7
176
     1
 79
     5
176
     1
170
     0
176
     1
171
     0
176
     1
290
     0
176
     1
 93
       13
176
     1
 44
0.0
176
     1
173
     0
176
     1
  0
VISUALSTYLE
  5
37
102
{ACAD_REACTORS
330
2A
102
}
330
2A
100
AcDbVisualStyle
  2
Thicken
 70
    13
177
     2
291
     1
 71
     2
176
     1
 72
     2
176
     1
 73
     0
176
     1
 90
        0
176
     1
 40
-0.6
176
     1
 41
-30.0
176
     1
 62
     5
 63
     7
421
 16777215
176
     1
 74
     1
176
     1
 91
        4
176
     1
 64
     7
176
     1
 65
   257
176
     1
 75
     1
176
     1
175
     1
176
     1
 42
1.0
176
     1
 92
       12
176
     1
 66
     7
176
     1
 43
1.0
176
     1
 76
     1
176
     1
 77
     6
176
     1
 78
     2
176
     1
 67
     7
176
     1
 79
     5
176
     1
170
     0
176
     1
171
     0
176
     1
290
     0
176
     1
 93
        1
176
     1
 44
0.0
176
     1
173
     0
176
     1
  0
ENDSEC
  0
EOF
