  0
SECTION
  2
HEADER
  9
$ACADVER
  1
AC1024
  9
$ACADMAINTVER
 70
     6
  9
$DWGCODEPAGE
  3
UNDEFINED
  9
$INSBASE
 10
0.0
 20
0.0
 30
0.0
  9
$EXTMIN
 10
1.000000000000000E+20
 20
1.000000000000000E+20
 30
1.000000000000000E+20
  9
$EXTMAX
 10
-1.000000000000000E+20
 20
-1.000000000000000E+20
 30
-1.000000000000000E+20
  9
$LIMMIN
 10
0.0
 20
0.0
  9
$LIMMAX
 10
12.0
 20
9.0
  9
$ORTHOMODE
 70
     0
  9
$REGENMODE
 70
     1
  9
$FILLMODE
 70
     1
  9
$QTEXTMODE
 70
     0
  9
$MIRRTEXT
 70
     1
  9
$LTSCALE
 40
1.0
  9
$ATTMODE
 70
     1
  9
$TEXTSIZE
 40
0.2
  9
$TRACEWID
 40
0.05
  9
$TEXTSTYLE
  7
Standard
  9
$CLAYER
  8
0
  9
$CELTYPE
  6
ByLayer
  9
$CECOLOR
 62
   256
  9
$CELTSCALE
 40
1.0
  9
$DISPSILH
 70
     0
  9
$DIMSCALE
 40
1.0
  9
$DIMASZ
 40
0.18
  9
$DIMEXO
 40
0.0625
  9
$DIMDLI
 40
0.38
  9
$DIMRND
 40
0.0
  9
$DIMDLE
 40
0.0
  9
$DIMEXE
 40
0.18
  9
$DIMTP
 40
0.0
  9
$DIMTM
 40
0.0
  9
$DIMTXT
 40
0.18
  9
$DIMCEN
 40
0.09
  9
$DIMTSZ
 40
0.0
  9
$DIMTOL
 70
     0
  9
$DIMLIM
 70
     0
  9
$DIMTIH
 70
     1
  9
$DIMTOH
 70
     1
  9
$DIMSE1
 70
     0
  9
$DIMSE2
 70
     0
  9
$DIMTAD
 70
     0
  9
$DIMZIN
 70
     0
  9
$DIMBLK
  1

  9
$DIMASO
 70
     1
  9
$DIMSHO
 70
     1
  9
$DIMPOST
  1

  9
$DIMAPOST
  1

  9
$DIMALT
 70
     0
  9
$DIMALTD
 70
     2
  9
$DIMALTF
 40
25.4
  9
$DIMLFAC
 40
1.0
  9
$DIMTOFL
 70
     0
  9
$DIMTVP
 40
0.0
  9
$DIMTIX
 70
     0
  9
$DIMSOXD
 70
     0
  9
$DIMSAH
 70
     0
  9
$DIMBLK1
  1

  9
$DIMBLK2
  1

  9
$DIMSTYLE
  2
Standard
  9
$DIMCLRD
 70
     0
  9
$DIMCLRE
 70
     0
  9
$DIMCLRT
 70
     0
  9
$DIMTFAC
 40
1.0
  9
$DIMGAP
 40
0.09
  9
$DIMJUST
 70
     0
  9
$DIMSD1
 70
     0
  9
$DIMSD2
 70
     0
  9
$DIMTOLJ
 70
     1
  9
$DIMTZIN
 70
     0
  9
$DIMALTZ
 70
     0
  9
$DIMALTTZ
 70
     0
  9
$DIMUPT
 70
     0
  9
$DIMDEC
 70
     4
  9
$DIMTDEC
 70
     4
  9
$DIMALTU
 70
     2
  9
$DIMALTTD
 70
     2
  9
$DIMTXSTY
  7
Standard
  9
$DIMAUNIT
 70
     0
  9
$DIMADEC
 70
     0
  9
$DIMALTRND
 40
0.0
  9
$DIMAZIN
 70
     0
  9
$DIMDSEP
 70
    46
  9
$DIMATFIT
 70
     3
  9
$DIMFRAC
 70
     0
  9
$DIMLDRBLK
  1

  9
$DIMLUNIT
 70
     2
  9
$DIMLWD
 70
    -2
  9
$DIMLWE
 70
    -2
  9
$DIMTMOVE
 70
     0
  9
$DIMFXL
 40
1.0
  9
$DIMFXLON
 70
     0
  9
$DIMJOGANG
 40
0.7853981633974483
  9
$DIMTFILL
 70
     0
  9
$DIMTFILLCLR
 70
     0
  9
$DIMARCSYM
 70
     0
  9
$DIMLTYPE
  6

  9
$DIMLTEX1
  6

  9
$DIMLTEX2
  6

  9
$DIMTXTDIRECTION
 70
     0
  9
$LUNITS
 70
     2
  9
$LUPREC
 70
     4
  9
$SKETCHINC
 40
0.1
  9
$FILLETRAD
 40
0.5
  9
$AUNITS
 70
     0
  9
$AUPREC
 70
     0
  9
$MENU
  1
.
  9
$ELEVATION
 40
0.0
  9
$PELEVATION
 40
0.0
  9
$THICKNESS
 40
0.0
  9
$LIMCHECK
 70
     0
  9
$CHAMFERA
 40
0.5
  9
$CHAMFERB
 40
0.5
  9
$CHAMFERC
 40
1.0
  9
$CHAMFERD
 40
0.0
  9
$SKPOLY
 70
     0
  9
$TDCREATE
 40
2457917.623148137
  9
$TDUCREATE
 40
2457917.248148148
  9
$TDUPDATE
 40
2457917.623148137
  9
$TDUUPDATE
 40
2457917.248148148
  9
$TDINDWG
 40
0.0000000116
  9
$TDUSRTIMER
 40
0.0000000116
  9
$USRTIMER
 70
     1
  9
$ANGBASE
 50
0.0
  9
$ANGDIR
 70
     0
  9
$PDMODE
 70
     0
  9
$PDSIZE
 40
0.0
  9
$PLINEWID
 40
0.0
  9
$SPLFRAME
 70
     0
  9
$SPLINETYPE
 70
     6
  9
$SPLINESEGS
 70
     8
  9
$HANDSEED
  5
15A
  9
$SURFTAB1
 70
     6
  9
$SURFTAB2
 70
     6
  9
$SURFTYPE
 70
     6
  9
$SURFU
 70
     6
  9
$SURFV
 70
     6
  9
$UCSBASE
  2

  9
$UCSNAME
  2

  9
$UCSORG
 10
0.0
 20
0.0
 30
0.0
  9
$UCSXDIR
 10
1.0
 20
0.0
 30
0.0
  9
$UCSYDIR
 10
0.0
 20
1.0
 30
0.0
  9
$UCSORTHOREF
  2

  9
$UCSORTHOVIEW
 70
     0
  9
$UCSORGTOP
 10
0.0
 20
0.0
 30
0.0
  9
$UCSORGBOTTOM
 10
0.0
 20
0.0
 30
0.0
  9
$UCSORGLEFT
 10
0.0
 20
0.0
 30
0.0
  9
$UCSORGRIGHT
 10
0.0
 20
0.0
 30
0.0
  9
$UCSORGFRONT
 10
0.0
 20
0.0
 30
0.0
  9
$UCSORGBACK
 10
0.0
 20
0.0
 30
0.0
  9
$PUCSBASE
  2

  9
$PUCSNAME
  2

  9
$PUCSORG
 10
0.0
 20
0.0
 30
0.0
  9
$PUCSXDIR
 10
1.0
 20
0.0
 30
0.0
  9
$PUCSYDIR
 10
0.0
 20
1.0
 30
0.0
  9
$PUCSORTHOREF
  2

  9
$PUCSORTHOVIEW
 70
     0
  9
$PUCSORGTOP
 10
0.0
 20
0.0
 30
0.0
  9
$PUCSORGBOTTOM
 10
0.0
 20
0.0
 30
0.0
  9
$PUCSORGLEFT
 10
0.0
 20
0.0
 30
0.0
  9
$PUCSORGRIGHT
 10
0.0
 20
0.0
 30
0.0
  9
$PUCSORGFRONT
 10
0.0
 20
0.0
 30
0.0
  9
$PUCSORGBACK
 10
0.0
 20
0.0
 30
0.0
  9
$USERI1
 70
     0
  9
$USERI2
 70
     0
  9
$USERI3
 70
     0
  9
$USERI4
 70
     0
  9
$USERI5
 70
     0
  9
$USERR1
 40
0.0
  9
$USERR2
 40
0.0
  9
$USERR3
 40
0.0
  9
$USERR4
 40
0.0
  9
$USERR5
 40
0.0
  9
$WORLDVIEW
 70
     1
  9
$SHADEDGE
 70
     3
  9
$SHADEDIF
 70
    70
  9
$TILEMODE
 70
     1
  9
$MAXACTVP
 70
    64
  9
$PINSBASE
 10
0.0
 20
0.0
 30
0.0
  9
$PLIMCHECK
 70
     0
  9
$PEXTMIN
 10
1.000000000000000E+20
 20
1.000000000000000E+20
 30
1.000000000000000E+20
  9
$PEXTMAX
 10
-1.000000000000000E+20
 20
-1.000000000000000E+20
 30
-1.000000000000000E+20
  9
$PLIMMIN
 10
0.0
 20
0.0
  9
$PLIMMAX
 10
12.0
 20
9.0
  9
$UNITMODE
 70
     0
  9
$VISRETAIN
 70
     1
  9
$PLINEGEN
 70
     0
  9
$PSLTSCALE
 70
     1
  9
$TREEDEPTH
 70
  3020
  9
$CMLSTYLE
  2
Standard
  9
$CMLJUST
 70
     0
  9
$CMLSCALE
 40
1.0
  9
$PROXYGRAPHICS
 70
     1
  9
$MEASUREMENT
 70
     0
  9
$CELWEIGHT
370
    -1
  9
$ENDCAPS
280
     0
  9
$JOINSTYLE
280
     0
  9
$LWDISPLAY
290
     1
  9
$INSUNITS
 70
     1
  9
$HYPERLINKBASE
  1

  9
$STYLESHEET
  1

  9
$XEDIT
290
     1
  9
$CEPSNTYPE
380
     0
  9
$PSTYLEMODE
290
     1
  9
$FINGERPRINTGUID
  2
{1B8A0D3C-F2E1-143D-9080-085EE9F8F36D}
  9
$VERSIONGUID
  2
{FAEB1C32-E019-11D5-929B-00C0DF256EC4}
  9
$EXTNAMES
290
     1
  9
$PSVPSCALE
 40
0.0
  9
$OLESTARTUP
290
     0
  9
$SORTENTS
280
   127
  9
$INDEXCTL
280
     0
  9
$HIDETEXT
280
     1
  9
$XCLIPFRAME
280
     2
  9
$HALOGAP
280
     0
  9
$OBSCOLOR
 70
   257
  9
$OBSLTYPE
280
     0
  9
$INTERSECTIONDISPLAY
280
     0
  9
$INTERSECTIONCOLOR
 70
   257
  9
$DIMASSOC
280
     2
  9
$PROJECTNAME
  1

  9
$CAMERADISPLAY
290
     0
  9
$LENSLENGTH
 40
50.0
  9
$CAMERAHEIGHT
 40
0.0
  9
$STEPSPERSEC
 40
2.0
  9
$STEPSIZE
 40
6.0
  9
$3DDWFPREC
 40
2.0
  9
$PSOLWIDTH
 40
0.25
  9
$PSOLHEIGHT
 40
4.0
  9
$LOFTANG1
 40
1.570796326794897
  9
$LOFTANG2
 40
1.570796326794897
  9
$LOFTMAG1
 40
0.0
  9
$LOFTMAG2
 40
0.0
  9
$LOFTPARAM
 70
     7
  9
$LOFTNORMALS
280
     1
  9
$LATITUDE
 40
37.795
  9
$LONGITUDE
 40
-122.394
  9
$NORTHDIRECTION
 40
0.0
  9
$TIMEZONE
 70
 -8000
  9
$LIGHTGLYPHDISPLAY
280
     1
  9
$TILEMODELIGHTSYNCH
280
     1
  9
$CMATERIAL
347
3C
  9
$SOLIDHIST
280
     1
  9
$SHOWHIST
280
     1
  9
$DWFFRAME
280
     2
  9
$DGNFRAME
280
     2
  9
$REALWORLDSCALE
290
     1
  9
$INTERFERECOLOR
 62
   256
  9
$CSHADOW
280
     0
  9
$SHADOWPLANELOCATION
 40
0.0
  0
ENDSEC
  0
SECTION
  2
CLASSES
  0
CLASS
  1
ACDBDICTIONARYWDFLT
  2
AcDbDictionaryWithDefault
  3
ObjectDBX Classes
 90
        0
 91
        4
280
     0
281
     0
  0
CLASS
  1
VISUALSTYLE
  2
AcDbVisualStyle
  3
ObjectDBX Classes
 90
     4095
 91
        4
280
     0
281
     0
  0
CLASS
  1
MATERIAL
  2
AcDbMaterial
  3
ObjectDBX Classes
 90
     1153
 91
        4
280
     0
281
     0
  0
CLASS
  1
SUN
  2
AcDbSun
  3
SCENEOE
 90
     1024
 91
        4
280
     0
281
     0
  0
ENDSEC
  0
SECTION
  2
TABLES
  0
TABLE
  2
VPORT
  5
8
330
0
100
AcDbSymbolTable
 70
     1
  0
VPORT
  5
29
330
8
100
AcDbSymbolTableRecord
100
AcDbViewportTableRecord
  2
*Active
 70
     0
 10
0.0
 20
0.0
 11
1.0
 21
1.0
 12
0.0
 22
0.0
 13
0.0
 23
0.0
 14
0.5
 24
0.5
 15
0.5
 25
0.5
 16
0.0
 26
0.0
 36
1.0
 17
91.00082462281999
 27
-128.4993055234307
 37
0.0
 40
256.9986110468615
 41
0.7081814508812795
 42
50.0
 43
0.0
 44
0.0
 50
0.0
 51
0.0
 71
     0
 72
   100
 73
     1
 74
     3
 75
     0
 76
     0
 77
     0
 78
     0
281
     0
 65
     1
110
0.0
120
0.0
130
0.0
111
1.0
121
0.0
131
0.0
112
0.0
122
1.0
132
0.0
 79
     0
146
0.0
 60
     3
 61
     5
292
     1
282
     1
141
0.0
142
0.0
 63
   250
361
3F
  0
ENDTAB
  0
TABLE
  2
LTYPE
  5
5
330
0
100
AcDbSymbolTable
 70
     1
  0
LTYPE
  5
14
330
5
100
AcDbSymbolTableRecord
100
AcDbLinetypeTableRecord
  2
ByBlock
 70
     0
  3

 72
    65
 73
     0
 40
0.0
  0
LTYPE
  5
15
330
5
100
AcDbSymbolTableRecord
100
AcDbLinetypeTableRecord
  2
ByLayer
 70
     0
  3

 72
    65
 73
     0
 40
0.0
  0
LTYPE
  5
16
330
5
100
AcDbSymbolTableRecord
100
AcDbLinetypeTableRecord
  2
Continuous
 70
     0
  3
Solid line
 72
    65
 73
     0
 40
0.0
  0
ENDTAB
  0
TABLE
  2
LAYER
  5
2
330
0
100
AcDbSymbolTable
 70
     2
  0
LAYER
  5
10
330
2
100
AcDbSymbolTableRecord
100
AcDbLayerTableRecord
  2
0
 70
     0
 62
     7
  6
Continuous
370
    -3
390
F
347
3E
  0
LAYER
  5
40
330
2
100
AcDbSymbolTableRecord
100
AcDbLayerTableRecord
  2
_U+30EC_U+30A4_U+30E4_U+30FC 1
 70
     0
 62
     7
  6
Continuous
370
    -3
390
F
347
3E
  0
ENDTAB
  0
TABLE
  2
STYLE
  5
3
330
0
100
AcDbSymbolTable
 70
     1
  0
STYLE
  5
11
330
3
100
AcDbSymbolTableRecord
100
AcDbTextStyleTableRecord
  2
Standard
 70
     0
 40
0.0
 41
1.0
 50
0.0
 71
     0
 42
0.2
  3
txt
  4

  0
ENDTAB
  0
TABLE
  2
VIEW
  5
6
330
0
100
AcDbSymbolTable
 70
     0
  0
ENDTAB
  0
TABLE
  2
UCS
  5
7
330
0
100
AcDbSymbolTable
 70
     0
  0
ENDTAB
  0
TABLE
  2
APPID
  5
9
330
0
100
AcDbSymbolTable
 70
     1
  0
APPID
  5
12
330
9
100
AcDbSymbolTableRecord
100
AcDbRegAppTableRecord
  2
ACAD
 70
     0
  0
ENDTAB
  0
TABLE
  2
DIMSTYLE
  5
A
330
0
100
AcDbSymbolTable
 70
     1
100
AcDbDimStyleTable
  0
DIMSTYLE
105
27
330
A
100
AcDbSymbolTableRecord
100
AcDbDimStyleTableRecord
  2
Standard
 70
     0
178
     0
340
11
  0
ENDTAB
  0
TABLE
  2
BLOCK_RECORD
  5
1
330
0
100
AcDbSymbolTable
 70
     8
  0
BLOCK_RECORD
  5
1F
330
1
100
AcDbSymbolTableRecord
100
AcDbBlockTableRecord
  2
*Model_Space
340
22
 70
     0
280
     1
281
     0
  0
BLOCK_RECORD
  5
1B
330
1
100
AcDbSymbolTableRecord
100
AcDbBlockTableRecord
  2
*Paper_Space
340
1E
 70
     0
280
     1
281
     0
  0
BLOCK_RECORD
  5
23
330
1
100
AcDbSymbolTableRecord
100
AcDbBlockTableRecord
  2
*Paper_Space0
340
26
 70
     0
280
     1
281
     0
  0
BLOCK_RECORD
  5
69
330
1
100
AcDbSymbolTableRecord
100
AcDbBlockTableRecord
  2
block 2
340
0
102
{BLKREFS
331
6A
102
}
 70
     0
280
     1
281
     0
  0
BLOCK_RECORD
  5
8F
330
1
100
AcDbSymbolTableRecord
100
AcDbBlockTableRecord
  2
block 3
340
0
102
{BLKREFS
331
90
102
}
 70
     0
280
     1
281
     0
  0
BLOCK_RECORD
  5
95
330
1
100
AcDbSymbolTableRecord
100
AcDbBlockTableRecord
  2
block 4
340
0
102
{BLKREFS
331
96
102
}
 70
     0
280
     1
281
     0
  0
BLOCK_RECORD
  5
A5
330
1
100
AcDbSymbolTableRecord
100
AcDbBlockTableRecord
  2
block 5
340
0
102
{BLKREFS
331
A6
102
}
 70
     0
280
     1
281
     0
  0
BLOCK_RECORD
  5
B6
330
1
100
AcDbSymbolTableRecord
100
AcDbBlockTableRecord
  2
block 6
340
0
102
{BLKREFS
331
B7
102
}
 70
     0
280
     1
281
     0
  0
BLOCK_RECORD
  5
D1
330
1
100
AcDbSymbolTableRecord
100
AcDbBlockTableRecord
  2
block 7
340
0
102
{BLKREFS
331
D2
102
}
 70
     0
280
     1
281
     0
  0
BLOCK_RECORD
  5
F8
330
1
100
AcDbSymbolTableRecord
100
AcDbBlockTableRecord
  2
block 8
340
0
102
{BLKREFS
331
F9
102
}
 70
     0
280
     1
281
     0
  0
ENDTAB
  0
ENDSEC
  0
SECTION
  2
BLOCKS
  0
BLOCK
  5
20
330
1F
100
AcDbEntity
  8
0
100
AcDbBlockBegin
  2
*Model_Space
 70
     0
 10
0.0
 20
0.0
 30
0.0
  3
*Model_Space
  1

  0
ENDBLK
  5
21
330
1F
100
AcDbEntity
  8
0
100
AcDbBlockEnd
  0
BLOCK
  5
1C
330
1B
100
AcDbEntity
 67
     1
  8
0
100
AcDbBlockBegin
  2
*Paper_Space
 70
     0
 10
0.0
 20
0.0
 30
0.0
  3
*Paper_Space
  1

  0
ENDBLK
  5
1D
330
1B
100
AcDbEntity
 67
     1
  8
0
100
AcDbBlockEnd
  0
BLOCK
  5
24
330
23
100
AcDbEntity
  8
0
100
AcDbBlockBegin
  2
*Paper_Space0
 70
     0
 10
0.0
 20
0.0
 30
0.0
  3
*Paper_Space0
  1

  0
ENDBLK
  5
25
330
23
100
AcDbEntity
  8
0
100
AcDbBlockEnd
  0
BLOCK
  5
6B
330
69
100
AcDbEntity
  8
0
100
AcDbBlockBegin
  2
block 2
 70
     0
 10
0.0
 20
0.0
 30
0.0
  3
block 2
  1

  0
SPLINE
  5
6D
330
69
100
AcDbEntity
  8
_U+30EC_U+30A4_U+30E4_U+30FC 1
370
     0
100
AcDbSpline
210
0.0
220
0.0
230
1.0
 70
    11
 71
     3
 72
    26
 73
    22
 74
     0
 42
0.0000000001
 43
0.0000000001
 12
1.0
 22
0.0
 32
0.0
 13
1.0
 23
0.0
 33
0.0
 40
0.0
 40
0.0
 40
0.0
 40
0.0
 40
1.0
 40
1.0
 40
1.0
 40
2.0
 40
2.0
 40
2.0
 40
3.0
 40
3.0
 40
3.0
 40
4.0
 40
4.0
 40
4.0
 40
5.0
 40
5.0
 40
5.0
 40
6.0
 40
6.0
 40
6.0
 40
7.0
 40
7.0
 40
7.0
 40
7.0
 10
114.2273084566862
 20
-139.8932698217975
 30
0.0
 10
114.2273084566862
 20
-139.8932698217975
 30
0.0
 10
113.1231553536637
 20
-139.8932698217975
 30
0.0
 10
113.1231553536637
 20
-139.8932698217975
 30
0.0
 10
113.1231553536637
 20
-139.8932698217975
 30
0.0
 10
113.1231553536637
 20
-140.2457030899386
 30
0.0
 10
113.1231553536637
 20
-140.2457030899386
 30
0.0
 10
113.1231553536637
 20
-140.2457030899386
 30
0.0
 10
112.9750162477979
 20
-140.2457030899386
 30
0.0
 10
112.9750162477979
 20
-140.2457030899386
 30
0.0
 10
112.9602023372113
 20
-139.8908582549578
 30
0.0
 10
112.797249320759
 20
-139.8412488799702
 30
0.0
 10
112.6828721506487
 20
-139.8095540015059
 30
0.0
 10
112.6828721506487
 20
-139.8095540015059
 30
0.0
 10
112.6828721506487
 20
-139.6534911760241
 30
0.0
 10
112.6828721506487
 20
-139.6534911760241
 30
0.0
 10
112.6828721506487
 20
-139.6534911760241
 30
0.0
 10
114.2273084566862
 20
-139.6534911760241
 30
0.0
 10
114.2273084566862
 20
-139.6534911760241
 30
0.0
 10
114.2273084566862
 20
-139.6534911760241
 30
0.0
 10
114.2273084566862
 20
-139.8932698217975
 30
0.0
 10
114.2273084566862
 20
-139.8932698217975
 30
0.0
  0
HATCH
  5
6E
330
69
100
AcDbEntity
  8
_U+30EC_U+30A4_U+30E4_U+30FC 1
 62
     7
420
 16777215
100
AcDbHatch
 10
0.0
 20
0.0
 30
0.0
210
0.0
220
0.0
230
1.0
  2
SOLID
 70
     1
 71
     0
 91
        1
 92
        1
 93
        1
 72
     4
 94
        3
 73
     0
 74
     1
 95
       26
 96
       22
 40
0.0
 40
0.0
 40
0.0
 40
0.0
 40
1.0
 40
1.0
 40
1.0
 40
2.0
 40
2.0
 40
2.0
 40
3.0
 40
3.0
 40
3.0
 40
4.0
 40
4.0
 40
4.0
 40
5.0
 40
5.0
 40
5.0
 40
6.0
 40
6.0
 40
6.0
 40
7.0
 40
7.0
 40
7.0
 40
7.0
 10
114.2273084566862
 20
-139.8932698217975
 10
114.2273084566862
 20
-139.8932698217975
 10
113.1231553536637
 20
-139.8932698217975
 10
113.1231553536637
 20
-139.8932698217975
 10
113.1231553536637
 20
-139.8932698217975
 10
113.1231553536637
 20
-140.2457030899386
 10
113.1231553536637
 20
-140.2457030899386
 10
113.1231553536637
 20
-140.2457030899386
 10
112.9750162477979
 20
-140.2457030899386
 10
112.9750162477979
 20
-140.2457030899386
 10
112.9602023372113
 20
-139.8908582549578
 10
112.797249320759
 20
-139.8412488799702
 10
112.6828721506487
 20
-139.8095540015059
 10
112.6828721506487
 20
-139.8095540015059
 10
112.6828721506487
 20
-139.6534911760241
 10
112.6828721506487
 20
-139.6534911760241
 10
112.6828721506487
 20
-139.6534911760241
 10
114.2273084566862
 20
-139.6534911760241
 10
114.2273084566862
 20
-139.6534911760241
 10
114.2273084566862
 20
-139.6534911760241
 10
114.2273084566862
 20
-139.8932698217975
 10
114.2273084566862
 20
-139.8932698217975
 97
        0
 97
        0
 75
     2
 76
     1
 98
        0
  0
POLYLINE
  5
6F
330
69
100
AcDbEntity
  8
_U+30EC_U+30A4_U+30E4_U+30FC 1
370
     0
100
AcDb2dPolyline
 66
     1
 10
0.0
 20
0.0
 30
0.0
  0
VERTEX
  5
70
330
6F
100
AcDbEntity
  8
_U+30EC_U+30A4_U+30E4_U+30FC 1
370
     0
100
AcDbVertex
100
AcDb2dVertex
 10
114.2273084566862
 20
-139.0537000520421
 30
0.0
  0
VERTEX
  5
71
330
6F
100
AcDbEntity
  8
_U+30EC_U+30A4_U+30E4_U+30FC 1
370
     0
100
AcDbVertex
100
AcDb2dVertex
 10
113.9754719767145
 20
-139.0537000520421
 30
0.0
  0
VERTEX
  5
72
330
6F
100
AcDbEntity
  8
_U+30EC_U+30A4_U+30E4_U+30FC 1
370
     0
100
AcDbVertex
100
AcDb2dVertex
 10
113.9754719767145
 20
-138.7846380946441
 30
0.0
  0
VERTEX
  5
73
330
6F
100
AcDbEntity
  8
_U+30EC_U+30A4_U+30E4_U+30FC 1
370
     0
100
AcDbVertex
100
AcDb2dVertex
 10
114.2273084566862
 20
-138.7846380946441
 30
0.0
  0
VERTEX
  5
74
330
6F
100
AcDbEntity
  8
_U+30EC_U+30A4_U+30E4_U+30FC 1
370
     0
100
AcDbVertex
100
AcDb2dVertex
 10
114.2273084566862
 20
-139.0537000520421
 30
0.0
  0
SEQEND
  5
75
330
6F
100
AcDbEntity
  8
_U+30EC_U+30A4_U+30E4_U+30FC 1
370
     0
  0
HATCH
  5
76
330
69
100
AcDbEntity
  8
_U+30EC_U+30A4_U+30E4_U+30FC 1
 62
     7
420
 16777215
100
AcDbHatch
 10
0.0
 20
0.0
 30
0.0
210
0.0
220
0.0
230
1.0
  2
SOLID
 70
     1
 71
     0
 91
        1
 92
        1
 93
        4
 72
     1
 10
114.2273084566862
 20
-139.0537000520421
 11
113.9754719767145
 21
-139.0537000520421
 72
     1
 10
113.9754719767145
 20
-139.0537000520421
 11
113.9754719767145
 21
-138.7846380946441
 72
     1
 10
113.9754719767145
 20
-138.7846380946441
 11
114.2273084566862
 21
-138.7846380946441
 72
     1
 10
114.2273084566862
 20
-138.7846380946441
 11
114.2273084566862
 21
-139.0537000520421
 97
        0
 75
     2
 76
     1
 98
        0
  0
SPLINE
  5
77
330
69
100
AcDbEntity
  8
_U+30EC_U+30A4_U+30E4_U+30FC 1
370
     0
100
AcDbSpline
210
0.0
220
0.0
230
1.0
 70
    11
 71
     3
 72
    53
 73
    49
 74
     0
 42
0.0000000001
 43
0.0000000001
 12
1.0
 22
0.0
 32
0.0
 13
1.0
 23
0.0
 33
0.0
 40
0.0
 40
0.0
 40
0.0
 40
0.0
 40
1.0
 40
1.0
 40
1.0
 40
2.0
 40
2.0
 40
2.0
 40
3.0
 40
3.0
 40
3.0
 40
4.0
 40
4.0
 40
4.0
 40
5.0
 40
5.0
 40
5.0
 40
6.0
 40
6.0
 40
6.0
 40
7.0
 40
7.0
 40
7.0
 40
8.0
 40
8.0
 40
8.0
 40
9.0
 40
9.0
 40
9.0
 40
10.0
 40
10.0
 40
10.0
 40
11.0
 40
11.0
 40
11.0
 40
12.0
 40
12.0
 40
12.0
 40
13.0
 40
13.0
 40
13.0
 40
14.0
 40
14.0
 40
14.0
 40
15.0
 40
15.0
 40
15.0
 40
16.0
 40
16.0
 40
16.0
 40
16.0
 10
114.2779513603194
 20
-138.0177598396275
 30
0.0
 10
114.2779513603194
 20
-138.1014756599191
 30
0.0
 10
114.2610703924417
 20
-138.2096516581559
 30
0.0
 10
114.1976806355131
 20
-138.3185166754898
 30
0.0
 10
114.0877820895336
 20
-138.5038628125963
 30
0.0
 10
113.9565239515456
 20
-138.5262559332504
 30
0.0
 10
113.8486924628573
 20
-138.5465819966134
 30
0.0
 10
113.8486924628573
 20
-138.5465819966134
 30
0.0
 10
113.8486924628573
 20
-138.3092149176796
 30
0.0
 10
113.8486924628573
 20
-138.3092149176796
 30
0.0
 10
114.0474744723562
 20
-138.2506482944304
 30
0.0
 10
114.0771022935293
 20
-138.1149115323116
 30
0.0
 10
114.0771022935293
 20
-138.0153482727878
 30
0.0
 10
114.0771022935293
 20
-137.8661756382765
 30
0.0
 10
113.9775390340056
 20
-137.7032226218242
 30
0.0
 10
113.7449950887513
 20
-137.7032226218242
 30
0.0
 10
113.4890244941972
 20
-137.7032226218242
 30
0.0
 10
113.4190890558466
 20
-137.8954589499012
 30
0.0
 10
113.4190890558466
 20
-138.0243055210495
 30
0.0
 10
113.4190890558466
 20
-138.0584119663534
 30
0.0
 10
113.4190890558466
 20
-138.2096516581559
 30
0.0
 10
113.5482801365435
 20
-138.3047362935488
 30
0.0
 10
113.5482801365435
 20
-138.3047362935488
 30
0.0
 10
113.5293321113746
 20
-138.4924939974949
 30
0.0
 10
113.5293321113746
 20
-138.4924939974949
 30
0.0
 10
113.5293321113746
 20
-138.4924939974949
 30
0.0
 10
112.6828721506487
 20
-138.3636474263466
 30
0.0
 10
112.6828721506487
 20
-138.3636474263466
 30
0.0
 10
112.6828721506487
 20
-138.3636474263466
 30
0.0
 10
112.6828721506487
 20
-137.5316568666588
 30
0.0
 10
112.6828721506487
 20
-137.5316568666588
 30
0.0
 10
112.6828721506487
 20
-137.5316568666588
 30
0.0
 10
112.8775200455653
 20
-137.5316568666588
 30
0.0
 10
112.8775200455653
 20
-137.5316568666588
 30
0.0
 10
112.8775200455653
 20
-137.5316568666588
 30
0.0
 10
112.8775200455653
 20
-138.189325594793
 30
0.0
 10
112.8775200455653
 20
-138.189325594793
 30
0.0
 10
112.8775200455653
 20
-138.189325594793
 30
0.0
 10
113.300577771154
 20
-138.259605542692
 30
0.0
 10
113.300577771154
 20
-138.259605542692
 30
0.0
 10
113.2668158353986
 20
-138.1941487284723
 30
0.0
 10
113.2265082182212
 20
-138.1059542840499
 30
0.0
 10
113.2265082182212
 20
-137.9791747701927
 30
0.0
 10
113.2265082182212
 20
-137.7080457555035
 30
0.0
 10
113.4128878839732
 20
-137.4548312373377
 30
0.0
 10
113.7260470635824
 20
-137.4548312373377
 30
0.0
 10
114.0433403577739
 20
-137.4548312373377
 30
0.0
 10
114.2779513603194
 20
-137.6942653735626
 30
0.0
 10
114.2779513603194
 20
-138.0177598396275
 30
0.0
  0
HATCH
  5
78
330
69
100
AcDbEntity
  8
_U+30EC_U+30A4_U+30E4_U+30FC 1
 62
     7
420
 16777215
100
AcDbHatch
 10
0.0
 20
0.0
 30
0.0
210
0.0
220
0.0
230
1.0
  2
SOLID
 70
     1
 71
     0
 91
        1
 92
        1
 93
        1
 72
     4
 94
        3
 73
     0
 74
     1
 95
       53
 96
       49
 40
0.0
 40
0.0
 40
0.0
 40
0.0
 40
1.0
 40
1.0
 40
1.0
 40
2.0
 40
2.0
 40
2.0
 40
3.0
 40
3.0
 40
3.0
 40
4.0
 40
4.0
 40
4.0
 40
5.0
 40
5.0
 40
5.0
 40
6.0
 40
6.0
 40
6.0
 40
7.0
 40
7.0
 40
7.0
 40
8.0
 40
8.0
 40
8.0
 40
9.0
 40
9.0
 40
9.0
 40
10.0
 40
10.0
 40
10.0
 40
11.0
 40
11.0
 40
11.0
 40
12.0
 40
12.0
 40
12.0
 40
13.0
 40
13.0
 40
13.0
 40
14.0
 40
14.0
 40
14.0
 40
15.0
 40
15.0
 40
15.0
 40
16.0
 40
16.0
 40
16.0
 40
16.0
 10
114.2779513603194
 20
-138.0177598396275
 10
114.2779513603194
 20
-138.1014756599191
 10
114.2610703924417
 20
-138.2096516581559
 10
114.1976806355131
 20
-138.3185166754898
 10
114.0877820895336
 20
-138.5038628125963
 10
113.9565239515456
 20
-138.5262559332504
 10
113.8486924628573
 20
-138.5465819966134
 10
113.8486924628573
 20
-138.5465819966134
 10
113.8486924628573
 20
-138.3092149176796
 10
113.8486924628573
 20
-138.3092149176796
 10
114.0474744723562
 20
-138.2506482944304
 10
114.0771022935293
 20
-138.1149115323116
 10
114.0771022935293
 20
-138.0153482727878
 10
114.0771022935293
 20
-137.8661756382765
 10
113.9775390340056
 20
-137.7032226218242
 10
113.7449950887513
 20
-137.7032226218242
 10
113.4890244941972
 20
-137.7032226218242
 10
113.4190890558466
 20
-137.8954589499012
 10
113.4190890558466
 20
-138.0243055210495
 10
113.4190890558466
 20
-138.0584119663534
 10
113.4190890558466
 20
-138.2096516581559
 10
113.5482801365435
 20
-138.3047362935488
 10
113.5482801365435
 20
-138.3047362935488
 10
113.5293321113746
 20
-138.4924939974949
 10
113.5293321113746
 20
-138.4924939974949
 10
113.5293321113746
 20
-138.4924939974949
 10
112.6828721506487
 20
-138.3636474263466
 10
112.6828721506487
 20
-138.3636474263466
 10
112.6828721506487
 20
-138.3636474263466
 10
112.6828721506487
 20
-137.5316568666588
 10
112.6828721506487
 20
-137.5316568666588
 10
112.6828721506487
 20
-137.5316568666588
 10
112.8775200455653
 20
-137.5316568666588
 10
112.8775200455653
 20
-137.5316568666588
 10
112.8775200455653
 20
-137.5316568666588
 10
112.8775200455653
 20
-138.189325594793
 10
112.8775200455653
 20
-138.189325594793
 10
112.8775200455653
 20
-138.189325594793
 10
113.300577771154
 20
-138.259605542692
 10
113.300577771154
 20
-138.259605542692
 10
113.2668158353986
 20
-138.1941487284723
 10
113.2265082182212
 20
-138.1059542840499
 10
113.2265082182212
 20
-137.9791747701927
 10
113.2265082182212
 20
-137.7080457555035
 10
113.4128878839732
 20
-137.4548312373377
 10
113.7260470635824
 20
-137.4548312373377
 10
114.0433403577739
 20
-137.4548312373377
 10
114.2779513603194
 20
-137.6942653735626
 10
114.2779513603194
 20
-138.0177598396275
 97
        0
 97
        0
 75
     2
 76
     1
 98
        0
  0
ENDBLK
  5
6C
330
69
100
AcDbEntity
  8
0
100
AcDbBlockEnd
  0
BLOCK
  5
91
330
8F
100
AcDbEntity
  8
0
100
AcDbBlockBegin
  2
block 3
 70
     0
 10
0.0
 20
0.0
 30
0.0
  3
block 3
  1

  0
SPLINE
  5
93
330
8F
100
AcDbEntity
  8
_U+30EC_U+30A4_U+30E4_U+30FC 1
370
     0
100
AcDbSpline
210
0.0
220
0.0
230
1.0
 70
    11
 71
     3
 72
    26
 73
    22
 74
     0
 42
0.0000000001
 43
0.0000000001
 12
1.0
 22
0.0
 32
0.0
 13
1.0
 23
0.0
 33
0.0
 40
0.0
 40
0.0
 40
0.0
 40
0.0
 40
1.0
 40
1.0
 40
1.0
 40
2.0
 40
2.0
 40
2.0
 40
3.0
 40
3.0
 40
3.0
 40
4.0
 40
4.0
 40
4.0
 40
5.0
 40
5.0
 40
5.0
 40
6.0
 40
6.0
 40
6.0
 40
7.0
 40
7.0
 40
7.0
 40
7.0
 10
114.2273084566862
 20
-127.6218397033376
 30
0.0
 10
114.2273084566862
 20
-127.6218397033376
 30
0.0
 10
113.1231553536637
 20
-127.6218397033376
 30
0.0
 10
113.1231553536637
 20
-127.6218397033376
 30
0.0
 10
113.1231553536637
 20
-127.6218397033376
 30
0.0
 10
113.1231553536637
 20
-127.9742729714787
 30
0.0
 10
113.1231553536637
 20
-127.9742729714787
 30
0.0
 10
113.1231553536637
 20
-127.9742729714787
 30
0.0
 10
112.9750162477979
 20
-127.9742729714787
 30
0.0
 10
112.9750162477979
 20
-127.9742729714787
 30
0.0
 10
112.9602023372113
 20
-127.6194281364979
 30
0.0
 10
112.797249320759
 20
-127.5698187615103
 30
0.0
 10
112.6828721506487
 20
-127.538123883046
 30
0.0
 10
112.6828721506487
 20
-127.538123883046
 30
0.0
 10
112.6828721506487
 20
-127.3820610575642
 30
0.0
 10
112.6828721506487
 20
-127.3820610575642
 30
0.0
 10
112.6828721506487
 20
-127.3820610575642
 30
0.0
 10
114.2273084566862
 20
-127.3820610575642
 30
0.0
 10
114.2273084566862
 20
-127.3820610575642
 30
0.0
 10
114.2273084566862
 20
-127.3820610575642
 30
0.0
 10
114.2273084566862
 20
-127.6218397033376
 30
0.0
 10
114.2273084566862
 20
-127.6218397033376
 30
0.0
  0
HATCH
  5
94
330
8F
100
AcDbEntity
  8
_U+30EC_U+30A4_U+30E4_U+30FC 1
 62
     7
420
 16777215
100
AcDbHatch
 10
0.0
 20
0.0
 30
0.0
210
0.0
220
0.0
230
1.0
  2
SOLID
 70
     1
 71
     0
 91
        1
 92
        1
 93
        1
 72
     4
 94
        3
 73
     0
 74
     1
 95
       26
 96
       22
 40
0.0
 40
0.0
 40
0.0
 40
0.0
 40
1.0
 40
1.0
 40
1.0
 40
2.0
 40
2.0
 40
2.0
 40
3.0
 40
3.0
 40
3.0
 40
4.0
 40
4.0
 40
4.0
 40
5.0
 40
5.0
 40
5.0
 40
6.0
 40
6.0
 40
6.0
 40
7.0
 40
7.0
 40
7.0
 40
7.0
 10
114.2273084566862
 20
-127.6218397033376
 10
114.2273084566862
 20
-127.6218397033376
 10
113.1231553536637
 20
-127.6218397033376
 10
113.1231553536637
 20
-127.6218397033376
 10
113.1231553536637
 20
-127.6218397033376
 10
113.1231553536637
 20
-127.9742729714787
 10
113.1231553536637
 20
-127.9742729714787
 10
113.1231553536637
 20
-127.9742729714787
 10
112.9750162477979
 20
-127.9742729714787
 10
112.9750162477979
 20
-127.9742729714787
 10
112.9602023372113
 20
-127.6194281364979
 10
112.797249320759
 20
-127.5698187615103
 10
112.6828721506487
 20
-127.538123883046
 10
112.6828721506487
 20
-127.538123883046
 10
112.6828721506487
 20
-127.3820610575642
 10
112.6828721506487
 20
-127.3820610575642
 10
112.6828721506487
 20
-127.3820610575642
 10
114.2273084566862
 20
-127.3820610575642
 10
114.2273084566862
 20
-127.3820610575642
 10
114.2273084566862
 20
-127.3820610575642
 10
114.2273084566862
 20
-127.6218397033376
 10
114.2273084566862
 20
-127.6218397033376
 97
        0
 97
        0
 75
     2
 76
     1
 98
        0
  0
ENDBLK
  5
92
330
8F
100
AcDbEntity
  8
0
100
AcDbBlockEnd
  0
BLOCK
  5
97
330
95
100
AcDbEntity
  8
0
100
AcDbBlockBegin
  2
block 4
 70
     0
 10
0.0
 20
0.0
 30
0.0
  3
block 4
  1

  0
SPLINE
  5
99
330
95
100
AcDbEntity
  8
_U+30EC_U+30A4_U+30E4_U+30FC 1
370
     0
100
AcDbSpline
210
0.0
220
0.0
230
1.0
 70
    11
 71
     3
 72
    44
 73
    40
 74
     0
 42
0.0000000001
 43
0.0000000001
 12
1.0
 22
0.0
 32
0.0
 13
1.0
 23
0.0
 33
0.0
 40
0.0
 40
0.0
 40
0.0
 40
0.0
 40
1.0
 40
1.0
 40
1.0
 40
2.0
 40
2.0
 40
2.0
 40
3.0
 40
3.0
 40
3.0
 40
4.0
 40
4.0
 40
4.0
 40
5.0
 40
5.0
 40
5.0
 40
6.0
 40
6.0
 40
6.0
 40
7.0
 40
7.0
 40
7.0
 40
8.0
 40
8.0
 40
8.0
 40
9.0
 40
9.0
 40
9.0
 40
10.0
 40
10.0
 40
10.0
 40
11.0
 40
11.0
 40
11.0
 40
12.0
 40
12.0
 40
12.0
 40
13.0
 40
13.0
 40
13.0
 40
13.0
 10
113.6454318292275
 20
-115.0985731049059
 30
0.0
 10
113.8042507310976
 20
-115.3314615597088
 30
0.0
 10
113.8783202840304
 20
-115.4310248192325
 30
0.0
 10
114.0219807657653
 20
-115.4827012515113
 30
0.0
 10
114.0219807657653
 20
-115.4827012515113
 30
0.0
 10
114.0219807657653
 20
-114.651055201372
 30
0.0
 10
114.0219807657653
 20
-114.651055201372
 30
0.0
 10
114.0219807657653
 20
-114.651055201372
 30
0.0
 10
114.2273084566862
 20
-114.651055201372
 30
0.0
 10
114.2273084566862
 20
-114.651055201372
 30
0.0
 10
114.2273084566862
 20
-114.651055201372
 30
0.0
 10
114.2273084566862
 20
-115.7496961516181
 30
0.0
 10
114.2273084566862
 20
-115.7496961516181
 30
0.0
 10
113.8697075453173
 20
-115.7155897063142
 30
0.0
 10
113.7915038778021
 20
-115.6456542679636
 30
0.0
 10
113.4931586087795
 20
-115.2343098670248
 30
0.0
 10
113.2943765992806
 20
-114.9607692854959
 30
0.0
 10
113.2265082182212
 20
-114.8904893375968
 30
0.0
 10
113.0890489083597
 20
-114.8904893375968
 30
0.0
 10
112.9705376236671
 20
-114.8904893375968
 30
0.0
 10
112.8396239952276
 20
-114.9673149669179
 30
0.0
 10
112.8396239952276
 20
-115.1778103010667
 30
0.0
 10
112.8396239952276
 20
-115.4558295067263
 30
0.0
 10
113.0701008831908
 20
-115.464786754988
 30
0.0
 10
113.1865451105923
 20
-115.4692653791188
 30
0.0
 10
113.1865451105923
 20
-115.4692653791188
 30
0.0
 10
113.1865451105923
 20
-115.7090440248922
 30
0.0
 10
113.1865451105923
 20
-115.7090440248922
 30
0.0
 10
113.0594210871865
 20
-115.699742267082
 30
0.0
 10
112.9474554839159
 20
-115.6887179615292
 30
0.0
 10
112.8289441992233
 20
-115.602590574398
 30
0.0
 10
112.6680582400622
 20
-115.485112818351
 30
0.0
 10
112.6342963043067
 20
-115.286330808852
 30
0.0
 10
112.6342963043067
 20
-115.1619628618345
 30
0.0
 10
112.6342963043067
 20
-114.865684650103
 30
0.0
 10
112.818264403219
 20
-114.6441650104015
 30
0.0
 10
113.0911159656508
 20
-114.6441650104015
 30
0.0
 10
113.3198703058714
 20
-114.6441650104015
 30
0.0
 10
113.4190890558466
 20
-114.768532957419
 30
0.0
 10
113.6454318292275
 20
-115.0985731049059
 30
0.0
  0
HATCH
  5
9A
330
95
100
AcDbEntity
  8
_U+30EC_U+30A4_U+30E4_U+30FC 1
 62
     7
420
 16777215
100
AcDbHatch
 10
0.0
 20
0.0
 30
0.0
210
0.0
220
0.0
230
1.0
  2
SOLID
 70
     1
 71
     0
 91
        1
 92
        1
 93
        1
 72
     4
 94
        3
 73
     0
 74
     1
 95
       44
 96
       40
 40
0.0
 40
0.0
 40
0.0
 40
0.0
 40
1.0
 40
1.0
 40
1.0
 40
2.0
 40
2.0
 40
2.0
 40
3.0
 40
3.0
 40
3.0
 40
4.0
 40
4.0
 40
4.0
 40
5.0
 40
5.0
 40
5.0
 40
6.0
 40
6.0
 40
6.0
 40
7.0
 40
7.0
 40
7.0
 40
8.0
 40
8.0
 40
8.0
 40
9.0
 40
9.0
 40
9.0
 40
10.0
 40
10.0
 40
10.0
 40
11.0
 40
11.0
 40
11.0
 40
12.0
 40
12.0
 40
12.0
 40
13.0
 40
13.0
 40
13.0
 40
13.0
 10
113.6454318292275
 20
-115.0985731049059
 10
113.8042507310976
 20
-115.3314615597088
 10
113.8783202840304
 20
-115.4310248192325
 10
114.0219807657653
 20
-115.4827012515113
 10
114.0219807657653
 20
-115.4827012515113
 10
114.0219807657653
 20
-114.651055201372
 10
114.0219807657653
 20
-114.651055201372
 10
114.0219807657653
 20
-114.651055201372
 10
114.2273084566862
 20
-114.651055201372
 10
114.2273084566862
 20
-114.651055201372
 10
114.2273084566862
 20
-114.651055201372
 10
114.2273084566862
 20
-115.7496961516181
 10
114.2273084566862
 20
-115.7496961516181
 10
113.8697075453173
 20
-115.7155897063142
 10
113.7915038778021
 20
-115.6456542679636
 10
113.4931586087795
 20
-115.2343098670248
 10
113.2943765992806
 20
-114.9607692854959
 10
113.2265082182212
 20
-114.8904893375968
 10
113.0890489083597
 20
-114.8904893375968
 10
112.9705376236671
 20
-114.8904893375968
 10
112.8396239952276
 20
-114.9673149669179
 10
112.8396239952276
 20
-115.1778103010667
 10
112.8396239952276
 20
-115.4558295067263
 10
113.0701008831908
 20
-115.464786754988
 10
113.1865451105923
 20
-115.4692653791188
 10
113.1865451105923
 20
-115.4692653791188
 10
113.1865451105923
 20
-115.7090440248922
 10
113.1865451105923
 20
-115.7090440248922
 10
113.0594210871865
 20
-115.699742267082
 10
112.9474554839159
 20
-115.6887179615292
 10
112.8289441992233
 20
-115.602590574398
 10
112.6680582400622
 20
-115.485112818351
 10
112.6342963043067
 20
-115.286330808852
 10
112.6342963043067
 20
-115.1619628618345
 10
112.6342963043067
 20
-114.865684650103
 10
112.818264403219
 20
-114.6441650104015
 10
113.0911159656508
 20
-114.6441650104015
 10
113.3198703058714
 20
-114.6441650104015
 10
113.4190890558466
 20
-114.768532957419
 10
113.6454318292275
 20
-115.0985731049059
 97
        0
 97
        0
 75
     2
 76
     1
 98
        0
  0
SPLINE
  5
9B
330
95
100
AcDbEntity
  8
_U+30EC_U+30A4_U+30E4_U+30FC 1
370
     0
100
AcDbSpline
210
0.0
220
0.0
230
1.0
 70
    11
 71
     3
 72
    53
 73
    49
 74
     0
 42
0.0000000001
 43
0.0000000001
 12
1.0
 22
0.0
 32
0.0
 13
1.0
 23
0.0
 33
0.0
 40
0.0
 40
0.0
 40
0.0
 40
0.0
 40
1.0
 40
1.0
 40
1.0
 40
2.0
 40
2.0
 40
2.0
 40
3.0
 40
3.0
 40
3.0
 40
4.0
 40
4.0
 40
4.0
 40
5.0
 40
5.0
 40
5.0
 40
6.0
 40
6.0
 40
6.0
 40
7.0
 40
7.0
 40
7.0
 40
8.0
 40
8.0
 40
8.0
 40
9.0
 40
9.0
 40
9.0
 40
10.0
 40
10.0
 40
10.0
 40
11.0
 40
11.0
 40
11.0
 40
12.0
 40
12.0
 40
12.0
 40
13.0
 40
13.0
 40
13.0
 40
14.0
 40
14.0
 40
14.0
 40
15.0
 40
15.0
 40
15.0
 40
16.0
 40
16.0
 40
16.0
 40
16.0
 10
114.2779513603194
 20
-113.9606580661279
 30
0.0
 10
114.2779513603194
 20
-114.0440293768709
 30
0.0
 10
114.2610703924417
 20
-114.1528943942048
 30
0.0
 10
114.1976806355131
 20
-114.2610703924417
 30
0.0
 10
114.0877820895336
 20
-114.4467610390966
 30
0.0
 10
113.9565239515456
 20
-114.4691541597508
 30
0.0
 10
113.8486924628573
 20
-114.4894802231137
 30
0.0
 10
113.8486924628573
 20
-114.4894802231137
 30
0.0
 10
113.8486924628573
 20
-114.25211314418
 30
0.0
 10
113.8486924628573
 20
-114.25211314418
 30
0.0
 10
114.0474744723562
 20
-114.1935465209308
 30
0.0
 10
114.0771022935293
 20
-114.0578097588119
 30
0.0
 10
114.0771022935293
 20
-113.9582464992882
 30
0.0
 10
114.0771022935293
 20
-113.8090738647769
 30
0.0
 10
113.9775390340056
 20
-113.6464653578731
 30
0.0
 10
113.7449950887513
 20
-113.6464653578731
 30
0.0
 10
113.4890244941972
 20
-113.6464653578731
 30
0.0
 10
113.4190890558466
 20
-113.8383571764015
 30
0.0
 10
113.4190890558466
 20
-113.9672037475499
 30
0.0
 10
113.4190890558466
 20
-114.0013101928539
 30
0.0
 10
113.4190890558466
 20
-114.1528943942048
 30
0.0
 10
113.5482801365435
 20
-114.2476345200492
 30
0.0
 10
113.5482801365435
 20
-114.2476345200492
 30
0.0
 10
113.5293321113746
 20
-114.4353922239953
 30
0.0
 10
113.5293321113746
 20
-114.4353922239953
 30
0.0
 10
113.5293321113746
 20
-114.4353922239953
 30
0.0
 10
112.6828721506487
 20
-114.306545652847
 30
0.0
 10
112.6828721506487
 20
-114.306545652847
 30
0.0
 10
112.6828721506487
 20
-114.306545652847
 30
0.0
 10
112.6828721506487
 20
-113.4745550931591
 30
0.0
 10
112.6828721506487
 20
-113.4745550931591
 30
0.0
 10
112.6828721506487
 20
-113.4745550931591
 30
0.0
 10
112.8775200455653
 20
-113.4745550931591
 30
0.0
 10
112.8775200455653
 20
-113.4745550931591
 30
0.0
 10
112.8775200455653
 20
-113.4745550931591
 30
0.0
 10
112.8775200455653
 20
-114.1322238212933
 30
0.0
 10
112.8775200455653
 20
-114.1322238212933
 30
0.0
 10
112.8775200455653
 20
-114.1322238212933
 30
0.0
 10
113.300577771154
 20
-114.2025037691924
 30
0.0
 10
113.300577771154
 20
-114.2025037691924
 30
0.0
 10
113.2668158353986
 20
-114.1370469549727
 30
0.0
 10
113.2265082182212
 20
-114.0488525105503
 30
0.0
 10
113.2265082182212
 20
-113.9220729966931
 30
0.0
 10
113.2265082182212
 20
-113.6509439820039
 30
0.0
 10
113.4128878839732
 20
-113.3977294638381
 30
0.0
 10
113.7260470635824
 20
-113.3977294638381
 30
0.0
 10
114.0433403577739
 20
-113.3977294638381
 30
0.0
 10
114.2779513603194
 20
-113.6371636000629
 30
0.0
 10
114.2779513603194
 20
-113.9606580661279
 30
0.0
  0
HATCH
  5
9C
330
95
100
AcDbEntity
  8
_U+30EC_U+30A4_U+30E4_U+30FC 1
 62
     7
420
 16777215
100
AcDbHatch
 10
0.0
 20
0.0
 30
0.0
210
0.0
220
0.0
230
1.0
  2
SOLID
 70
     1
 71
     0
 91
        1
 92
        1
 93
        1
 72
     4
 94
        3
 73
     0
 74
     1
 95
       53
 96
       49
 40
0.0
 40
0.0
 40
0.0
 40
0.0
 40
1.0
 40
1.0
 40
1.0
 40
2.0
 40
2.0
 40
2.0
 40
3.0
 40
3.0
 40
3.0
 40
4.0
 40
4.0
 40
4.0
 40
5.0
 40
5.0
 40
5.0
 40
6.0
 40
6.0
 40
6.0
 40
7.0
 40
7.0
 40
7.0
 40
8.0
 40
8.0
 40
8.0
 40
9.0
 40
9.0
 40
9.0
 40
10.0
 40
10.0
 40
10.0
 40
11.0
 40
11.0
 40
11.0
 40
12.0
 40
12.0
 40
12.0
 40
13.0
 40
13.0
 40
13.0
 40
14.0
 40
14.0
 40
14.0
 40
15.0
 40
15.0
 40
15.0
 40
16.0
 40
16.0
 40
16.0
 40
16.0
 10
114.2779513603194
 20
-113.9606580661279
 10
114.2779513603194
 20
-114.0440293768709
 10
114.2610703924417
 20
-114.1528943942048
 10
114.1976806355131
 20
-114.2610703924417
 10
114.0877820895336
 20
-114.4467610390966
 10
113.9565239515456
 20
-114.4691541597508
 10
113.8486924628573
 20
-114.4894802231137
 10
113.8486924628573
 20
-114.4894802231137
 10
113.8486924628573
 20
-114.25211314418
 10
113.8486924628573
 20
-114.25211314418
 10
114.0474744723562
 20
-114.1935465209308
 10
114.0771022935293
 20
-114.0578097588119
 10
114.0771022935293
 20
-113.9582464992882
 10
114.0771022935293
 20
-113.8090738647769
 10
113.9775390340056
 20
-113.6464653578731
 10
113.7449950887513
 20
-113.6464653578731
 10
113.4890244941972
 20
-113.6464653578731
 10
113.4190890558466
 20
-113.8383571764015
 10
113.4190890558466
 20
-113.9672037475499
 10
113.4190890558466
 20
-114.0013101928539
 10
113.4190890558466
 20
-114.1528943942048
 10
113.5482801365435
 20
-114.2476345200492
 10
113.5482801365435
 20
-114.2476345200492
 10
113.5293321113746
 20
-114.4353922239953
 10
113.5293321113746
 20
-114.4353922239953
 10
113.5293321113746
 20
-114.4353922239953
 10
112.6828721506487
 20
-114.306545652847
 10
112.6828721506487
 20
-114.306545652847
 10
112.6828721506487
 20
-114.306545652847
 10
112.6828721506487
 20
-113.4745550931591
 10
112.6828721506487
 20
-113.4745550931591
 10
112.6828721506487
 20
-113.4745550931591
 10
112.8775200455653
 20
-113.4745550931591
 10
112.8775200455653
 20
-113.4745550931591
 10
112.8775200455653
 20
-113.4745550931591
 10
112.8775200455653
 20
-114.1322238212933
 10
112.8775200455653
 20
-114.1322238212933
 10
112.8775200455653
 20
-114.1322238212933
 10
113.300577771154
 20
-114.2025037691924
 10
113.300577771154
 20
-114.2025037691924
 10
113.2668158353986
 20
-114.1370469549727
 10
113.2265082182212
 20
-114.0488525105503
 10
113.2265082182212
 20
-113.9220729966931
 10
113.2265082182212
 20
-113.6509439820039
 10
113.4128878839732
 20
-113.3977294638381
 10
113.7260470635824
 20
-113.3977294638381
 10
114.0433403577739
 20
-113.3977294638381
 10
114.2779513603194
 20
-113.6371636000629
 10
114.2779513603194
 20
-113.9606580661279
 97
        0
 97
        0
 75
     2
 76
     1
 98
        0
  0
ENDBLK
  5
98
330
95
100
AcDbEntity
  8
0
100
AcDbBlockEnd
  0
BLOCK
  5
A7
330
A5
100
AcDbEntity
  8
0
100
AcDbBlockBegin
  2
block 5
 70
     0
 10
0.0
 20
0.0
 30
0.0
  3
block 5
  1

  0
SPLINE
  5
A9
330
A5
100
AcDbEntity
  8
_U+30EC_U+30A4_U+30E4_U+30FC 1
370
     0
100
AcDbSpline
210
0.0
220
0.0
230
1.0
 70
    11
 71
     3
 72
    26
 73
    22
 74
     0
 42
0.0000000001
 43
0.0000000001
 12
1.0
 22
0.0
 32
0.0
 13
1.0
 23
0.0
 33
0.0
 40
0.0
 40
0.0
 40
0.0
 40
0.0
 40
1.0
 40
1.0
 40
1.0
 40
2.0
 40
2.0
 40
2.0
 40
3.0
 40
3.0
 40
3.0
 40
4.0
 40
4.0
 40
4.0
 40
5.0
 40
5.0
 40
5.0
 40
6.0
 40
6.0
 40
6.0
 40
7.0
 40
7.0
 40
7.0
 40
7.0
 10
110.3470974116493
 20
-133.749286533403
 30
0.0
 10
110.3470974116493
 20
-133.749286533403
 30
0.0
 10
109.2429443086268
 20
-133.749286533403
 30
0.0
 10
109.2429443086268
 20
-133.749286533403
 30
0.0
 10
109.2429443086268
 20
-133.749286533403
 30
0.0
 10
109.2429443086268
 20
-134.101719801544
 30
0.0
 10
109.2429443086268
 20
-134.101719801544
 30
0.0
 10
109.2429443086268
 20
-134.101719801544
 30
0.0
 10
109.094805202761
 20
-134.101719801544
 30
0.0
 10
109.094805202761
 20
-134.101719801544
 30
0.0
 10
109.0799912921745
 20
-133.7468749665633
 30
0.0
 10
108.9170382757221
 20
-133.6972655915757
 30
0.0
 10
108.8026611056118
 20
-133.6655707131114
 30
0.0
 10
108.8026611056118
 20
-133.6655707131114
 30
0.0
 10
108.8026611056118
 20
-133.5095078876296
 30
0.0
 10
108.8026611056118
 20
-133.5095078876296
 30
0.0
 10
108.8026611056118
 20
-133.5095078876296
 30
0.0
 10
110.3470974116493
 20
-133.5095078876296
 30
0.0
 10
110.3470974116493
 20
-133.5095078876296
 30
0.0
 10
110.3470974116493
 20
-133.5095078876296
 30
0.0
 10
110.3470974116493
 20
-133.749286533403
 30
0.0
 10
110.3470974116493
 20
-133.749286533403
 30
0.0
  0
HATCH
  5
AA
330
A5
100
AcDbEntity
  8
_U+30EC_U+30A4_U+30E4_U+30FC 1
 62
     7
420
 16777215
100
AcDbHatch
 10
0.0
 20
0.0
 30
0.0
210
0.0
220
0.0
230
1.0
  2
SOLID
 70
     1
 71
     0
 91
        1
 92
        1
 93
        1
 72
     4
 94
        3
 73
     0
 74
     1
 95
       26
 96
       22
 40
0.0
 40
0.0
 40
0.0
 40
0.0
 40
1.0
 40
1.0
 40
1.0
 40
2.0
 40
2.0
 40
2.0
 40
3.0
 40
3.0
 40
3.0
 40
4.0
 40
4.0
 40
4.0
 40
5.0
 40
5.0
 40
5.0
 40
6.0
 40
6.0
 40
6.0
 40
7.0
 40
7.0
 40
7.0
 40
7.0
 10
110.3470974116493
 20
-133.749286533403
 10
110.3470974116493
 20
-133.749286533403
 10
109.2429443086268
 20
-133.749286533403
 10
109.2429443086268
 20
-133.749286533403
 10
109.2429443086268
 20
-133.749286533403
 10
109.2429443086268
 20
-134.101719801544
 10
109.2429443086268
 20
-134.101719801544
 10
109.2429443086268
 20
-134.101719801544
 10
109.094805202761
 20
-134.101719801544
 10
109.094805202761
 20
-134.101719801544
 10
109.0799912921745
 20
-133.7468749665633
 10
108.9170382757221
 20
-133.6972655915757
 10
108.8026611056118
 20
-133.6655707131114
 10
108.8026611056118
 20
-133.6655707131114
 10
108.8026611056118
 20
-133.5095078876296
 10
108.8026611056118
 20
-133.5095078876296
 10
108.8026611056118
 20
-133.5095078876296
 10
110.3470974116493
 20
-133.5095078876296
 10
110.3470974116493
 20
-133.5095078876296
 10
110.3470974116493
 20
-133.5095078876296
 10
110.3470974116493
 20
-133.749286533403
 10
110.3470974116493
 20
-133.749286533403
 97
        0
 97
        0
 75
     2
 76
     1
 98
        0
  0
SPLINE
  5
AB
330
A5
100
AcDbEntity
  8
_U+30EC_U+30A4_U+30E4_U+30FC 1
370
     0
100
AcDbSpline
210
0.0
220
0.0
230
1.0
 70
    11
 71
     3
 72
    29
 73
    25
 74
     0
 42
0.0000000001
 43
0.0000000001
 12
1.0
 22
0.0
 32
0.0
 13
1.0
 23
0.0
 33
0.0
 40
0.0
 40
0.0
 40
0.0
 40
0.0
 40
1.0
 40
1.0
 40
1.0
 40
2.0
 40
2.0
 40
2.0
 40
3.0
 40
3.0
 40
3.0
 40
4.0
 40
4.0
 40
4.0
 40
5.0
 40
5.0
 40
5.0
 40
6.0
 40
6.0
 40
6.0
 40
7.0
 40
7.0
 40
7.0
 40
8.0
 40
8.0
 40
8.0
 40
8.0
 10
110.1693304846105
 20
-132.0143364470312
 30
0.0
 10
110.3787922901136
 20
-132.129747145787
 30
0.0
 10
110.3977403152825
 20
-132.3150932828935
 30
0.0
 10
110.3977403152825
 20
-132.439461229911
 30
0.0
 10
110.3977403152825
 20
-132.6110269850764
 30
0.0
 10
110.3512315262316
 20
-132.7626111864274
 30
0.0
 10
110.1693304846105
 20
-132.8642415032423
 30
0.0
 10
109.9746825896938
 20
-132.9751735778673
 30
0.0
 10
109.7380045298572
 20
-132.9954996412303
 30
0.0
 10
109.5750515134049
 20
-132.9954996412303
 30
0.0
 10
109.4310465221214
 20
-132.9954996412303
 30
0.0
 10
109.1792100421496
 20
-132.977585144707
 30
0.0
 10
108.9804280326507
 20
-132.8642415032423
 30
0.0
 10
108.7775119085695
 20
-132.7491753140349
 30
0.0
 10
108.7540852592698
 20
-132.577265049321
 30
0.0
 10
108.7540852592698
 20
-132.439461229911
 30
0.0
 10
108.7540852592698
 20
-132.2699625320367
 30
0.0
 10
108.7985269910295
 20
-132.115966763846
 30
0.0
 10
108.9804280326507
 20
-132.0143364470312
 30
0.0
 10
109.1730088702762
 20
-131.9082275060854
 30
0.0
 10
109.4014187009483
 20
-131.8830783090431
 30
0.0
 10
109.5750515134049
 20
-131.8830783090431
 30
0.0
 10
109.7462727590218
 20
-131.8830783090431
 30
0.0
 10
109.976749646985
 20
-131.9058159392458
 30
0.0
 10
110.1693304846105
 20
-132.0143364470312
 30
0.0
  0
SPLINE
  5
AC
330
A5
100
AcDbEntity
  8
_U+30EC_U+30A4_U+30E4_U+30FC 1
370
     0
100
AcDbSpline
210
0.0
220
0.0
230
1.0
 70
    11
 71
     3
 72
    17
 73
    13
 74
     0
 42
0.0000000001
 43
0.0000000001
 12
1.0
 22
0.0
 32
0.0
 13
1.0
 23
0.0
 33
0.0
 40
0.0
 40
0.0
 40
0.0
 40
0.0
 40
1.0
 40
1.0
 40
1.0
 40
2.0
 40
2.0
 40
2.0
 40
3.0
 40
3.0
 40
3.0
 40
4.0
 40
4.0
 40
4.0
 40
4.0
 10
108.9466660968953
 20
-132.439461229911
 30
0.0
 10
108.9466660968953
 20
-132.7061116204693
 30
0.0
 10
109.2301974553313
 20
-132.7557209954569
 30
0.0
 10
109.5750515134049
 20
-132.7557209954569
 30
0.0
 10
109.8944118648875
 20
-132.7557209954569
 30
0.0
 10
110.2030924203659
 20
-132.7174804355706
 30
0.0
 10
110.2030924203659
 20
-132.439461229911
 30
0.0
 10
110.2030924203659
 20
-132.1748778966438
 30
0.0
 10
109.9219726287695
 20
-132.1228569548165
 30
0.0
 10
109.5750515134049
 20
-132.1228569548165
 30
0.0
 10
109.2553466523737
 20
-132.1228569548165
 30
0.0
 10
108.9466660968953
 20
-132.1635090815425
 30
0.0
 10
108.9466660968953
 20
-132.439461229911
 30
0.0
  0
HATCH
  5
AD
330
A5
100
AcDbEntity
  8
_U+30EC_U+30A4_U+30E4_U+30FC 1
 62
     7
420
 16777215
100
AcDbHatch
 10
0.0
 20
0.0
 30
0.0
210
0.0
220
0.0
230
1.0
  2
SOLID
 70
     1
 71
     0
 91
        2
 92
        1
 93
        1
 72
     4
 94
        3
 73
     0
 74
     1
 95
       29
 96
       25
 40
0.0
 40
0.0
 40
0.0
 40
0.0
 40
1.0
 40
1.0
 40
1.0
 40
2.0
 40
2.0
 40
2.0
 40
3.0
 40
3.0
 40
3.0
 40
4.0
 40
4.0
 40
4.0
 40
5.0
 40
5.0
 40
5.0
 40
6.0
 40
6.0
 40
6.0
 40
7.0
 40
7.0
 40
7.0
 40
8.0
 40
8.0
 40
8.0
 40
8.0
 10
110.1693304846105
 20
-132.0143364470312
 10
110.3787922901136
 20
-132.129747145787
 10
110.3977403152825
 20
-132.3150932828935
 10
110.3977403152825
 20
-132.439461229911
 10
110.3977403152825
 20
-132.6110269850764
 10
110.3512315262316
 20
-132.7626111864274
 10
110.1693304846105
 20
-132.8642415032423
 10
109.9746825896938
 20
-132.9751735778673
 10
109.7380045298572
 20
-132.9954996412303
 10
109.5750515134049
 20
-132.9954996412303
 10
109.4310465221214
 20
-132.9954996412303
 10
109.1792100421496
 20
-132.977585144707
 10
108.9804280326507
 20
-132.8642415032423
 10
108.7775119085695
 20
-132.7491753140349
 10
108.7540852592698
 20
-132.577265049321
 10
108.7540852592698
 20
-132.439461229911
 10
108.7540852592698
 20
-132.2699625320367
 10
108.7985269910295
 20
-132.115966763846
 10
108.9804280326507
 20
-132.0143364470312
 10
109.1730088702762
 20
-131.9082275060854
 10
109.4014187009483
 20
-131.8830783090431
 10
109.5750515134049
 20
-131.8830783090431
 10
109.7462727590218
 20
-131.8830783090431
 10
109.976749646985
 20
-131.9058159392458
 10
110.1693304846105
 20
-132.0143364470312
 97
        0
 97
        0
 92
        1
 93
        1
 72
     4
 94
        3
 73
     0
 74
     1
 95
       17
 96
       13
 40
0.0
 40
0.0
 40
0.0
 40
0.0
 40
1.0
 40
1.0
 40
1.0
 40
2.0
 40
2.0
 40
2.0
 40
3.0
 40
3.0
 40
3.0
 40
4.0
 40
4.0
 40
4.0
 40
4.0
 10
108.9466660968953
 20
-132.439461229911
 10
108.9466660968953
 20
-132.7061116204693
 10
109.2301974553313
 20
-132.7557209954569
 10
109.5750515134049
 20
-132.7557209954569
 10
109.8944118648875
 20
-132.7557209954569
 10
110.2030924203659
 20
-132.7174804355706
 10
110.2030924203659
 20
-132.439461229911
 10
110.2030924203659
 20
-132.1748778966438
 10
109.9219726287695
 20
-132.1228569548165
 10
109.5750515134049
 20
-132.1228569548165
 10
109.2553466523737
 20
-132.1228569548165
 10
108.9466660968953
 20
-132.1635090815425
 10
108.9466660968953
 20
-132.439461229911
 97
        0
 97
        0
 75
     2
 76
     1
 98
        0
  0
ENDBLK
  5
A8
330
A5
100
AcDbEntity
  8
0
100
AcDbBlockEnd
  0
BLOCK
  5
B8
330
B6
100
AcDbEntity
  8
0
100
AcDbBlockBegin
  2
block 6
 70
     0
 10
0.0
 20
0.0
 30
0.0
  3
block 6
  1

  0
SPLINE
  5
BA
330
B6
100
AcDbEntity
  8
_U+30EC_U+30A4_U+30E4_U+30FC 1
370
     0
100
AcDbSpline
210
0.0
220
0.0
230
1.0
 70
    11
 71
     3
 72
    26
 73
    22
 74
     0
 42
0.0000000001
 43
0.0000000001
 12
1.0
 22
0.0
 32
0.0
 13
1.0
 23
0.0
 33
0.0
 40
0.0
 40
0.0
 40
0.0
 40
0.0
 40
1.0
 40
1.0
 40
1.0
 40
2.0
 40
2.0
 40
2.0
 40
3.0
 40
3.0
 40
3.0
 40
4.0
 40
4.0
 40
4.0
 40
5.0
 40
5.0
 40
5.0
 40
6.0
 40
6.0
 40
6.0
 40
7.0
 40
7.0
 40
7.0
 40
7.0
 10
67.66615395443763
 20
-141.7415635496341
 30
0.0
 10
67.66615395443763
 20
-141.7415635496341
 30
0.0
 10
67.49855005908023
 20
-141.5741319090509
 30
0.0
 10
67.49855005908023
 20
-141.5741319090509
 30
0.0
 10
67.73505586414262
 20
-141.3732828422609
 30
0.0
 10
68.23769529544057
 20
-141.1431504638462
 30
0.0
 10
68.88244491550509
 20
-141.0725260063985
 30
0.0
 10
68.88244491550509
 20
-141.0725260063985
 30
0.0
 10
68.29006074681638
 20
-140.4803140924841
 30
0.0
 10
68.29006074681638
 20
-140.4803140924841
 30
0.0
 10
68.29006074681638
 20
-140.4803140924841
 30
0.0
 10
68.43957789087622
 20
-140.3307969484243
 30
0.0
 10
68.43957789087622
 20
-140.3307969484243
 30
0.0
 10
68.43957789087622
 20
-140.3307969484243
 30
0.0
 10
69.19956595492233
 20
-141.0907850124704
 30
0.0
 10
69.19956595492233
 20
-141.0907850124704
 30
0.0
 10
69.19956595492233
 20
-141.0907850124704
 30
0.0
 10
69.05004881086249
 20
-141.2403021565302
 30
0.0
 10
69.05004881086249
 20
-141.2403021565302
 30
0.0
 10
68.615966779721
 20
-141.216530997682
 30
0.0
 10
68.00859644567147
 20
-141.4466633760967
 30
0.0
 10
67.66615395443763
 20
-141.7415635496341
 30
0.0
  0
HATCH
  5
BB
330
B6
100
AcDbEntity
  8
_U+30EC_U+30A4_U+30E4_U+30FC 1
 62
     7
420
 16777215
100
AcDbHatch
 10
0.0
 20
0.0
 30
0.0
210
0.0
220
0.0
230
1.0
  2
SOLID
 70
     1
 71
     0
 91
        1
 92
        1
 93
        1
 72
     4
 94
        3
 73
     0
 74
     1
 95
       26
 96
       22
 40
0.0
 40
0.0
 40
0.0
 40
0.0
 40
1.0
 40
1.0
 40
1.0
 40
2.0
 40
2.0
 40
2.0
 40
3.0
 40
3.0
 40
3.0
 40
4.0
 40
4.0
 40
4.0
 40
5.0
 40
5.0
 40
5.0
 40
6.0
 40
6.0
 40
6.0
 40
7.0
 40
7.0
 40
7.0
 40
7.0
 10
67.66615395443763
 20
-141.7415635496341
 10
67.66615395443763
 20
-141.7415635496341
 10
67.49855005908023
 20
-141.5741319090509
 10
67.49855005908023
 20
-141.5741319090509
 10
67.73505586414262
 20
-141.3732828422609
 10
68.23769529544057
 20
-141.1431504638462
 10
68.88244491550509
 20
-141.0725260063985
 10
68.88244491550509
 20
-141.0725260063985
 10
68.29006074681638
 20
-140.4803140924841
 10
68.29006074681638
 20
-140.4803140924841
 10
68.29006074681638
 20
-140.4803140924841
 10
68.43957789087622
 20
-140.3307969484243
 10
68.43957789087622
 20
-140.3307969484243
 10
68.43957789087622
 20
-140.3307969484243
 10
69.19956595492233
 20
-141.0907850124704
 10
69.19956595492233
 20
-141.0907850124704
 10
69.19956595492233
 20
-141.0907850124704
 10
69.05004881086249
 20
-141.2403021565302
 10
69.05004881086249
 20
-141.2403021565302
 10
68.615966779721
 20
-141.216530997682
 10
68.00859644567147
 20
-141.4466633760967
 10
67.66615395443763
 20
-141.7415635496341
 97
        0
 97
        0
 75
     2
 76
     1
 98
        0
  0
ENDBLK
  5
B9
330
B6
100
AcDbEntity
  8
0
100
AcDbBlockEnd
  0
BLOCK
  5
D3
330
D1
100
AcDbEntity
  8
0
100
AcDbBlockBegin
  2
block 7
 70
     0
 10
0.0
 20
0.0
 30
0.0
  3
block 7
  1

  0
SPLINE
  5
D5
330
D1
100
AcDbEntity
  8
_U+30EC_U+30A4_U+30E4_U+30FC 1
370
     0
100
AcDbSpline
210
0.0
220
0.0
230
1.0
 70
    11
 71
     3
 72
    26
 73
    22
 74
     0
 42
0.0000000001
 43
0.0000000001
 12
1.0
 22
0.0
 32
0.0
 13
1.0
 23
0.0
 33
0.0
 40
0.0
 40
0.0
 40
0.0
 40
0.0
 40
1.0
 40
1.0
 40
1.0
 40
2.0
 40
2.0
 40
2.0
 40
3.0
 40
3.0
 40
3.0
 40
4.0
 40
4.0
 40
4.0
 40
5.0
 40
5.0
 40
5.0
 40
6.0
 40
6.0
 40
6.0
 40
7.0
 40
7.0
 40
7.0
 40
7.0
 10
82.18929848205684
 20
-148.0250732051812
 30
0.0
 10
82.18929848205684
 20
-148.0250732051812
 30
0.0
 10
82.18929848205684
 20
-146.9209201021587
 30
0.0
 10
82.18929848205684
 20
-146.9209201021587
 30
0.0
 10
82.18929848205684
 20
-146.9209201021587
 30
0.0
 10
81.85925833456992
 20
-146.9209201021587
 30
0.0
 10
81.85925833456992
 20
-146.9209201021587
 30
0.0
 10
81.85925833456992
 20
-146.9209201021587
 30
0.0
 10
81.85925833456992
 20
-146.7727809962929
 30
0.0
 10
81.85925833456992
 20
-146.7727809962929
 30
0.0
 10
82.191365539348
 20
-146.7579670857064
 30
0.0
 10
82.23787432839887
 20
-146.595014069254
 30
0.0
 10
82.26750214957201
 20
-146.4806368991437
 30
0.0
 10
82.26750214957201
 20
-146.4806368991437
 30
0.0
 10
82.4135741981466
 20
-146.4806368991437
 30
0.0
 10
82.4135741981466
 20
-146.4806368991437
 30
0.0
 10
82.4135741981466
 20
-146.4806368991437
 30
0.0
 10
82.4135741981466
 20
-148.0250732051812
 30
0.0
 10
82.4135741981466
 20
-148.0250732051812
 30
0.0
 10
82.4135741981466
 20
-148.0250732051812
 30
0.0
 10
82.18929848205684
 20
-148.0250732051812
 30
0.0
 10
82.18929848205684
 20
-148.0250732051812
 30
0.0
  0
HATCH
  5
D6
330
D1
100
AcDbEntity
  8
_U+30EC_U+30A4_U+30E4_U+30FC 1
 62
     7
420
 16777215
100
AcDbHatch
 10
0.0
 20
0.0
 30
0.0
210
0.0
220
0.0
230
1.0
  2
SOLID
 70
     1
 71
     0
 91
        1
 92
        1
 93
        1
 72
     4
 94
        3
 73
     0
 74
     1
 95
       26
 96
       22
 40
0.0
 40
0.0
 40
0.0
 40
0.0
 40
1.0
 40
1.0
 40
1.0
 40
2.0
 40
2.0
 40
2.0
 40
3.0
 40
3.0
 40
3.0
 40
4.0
 40
4.0
 40
4.0
 40
5.0
 40
5.0
 40
5.0
 40
6.0
 40
6.0
 40
6.0
 40
7.0
 40
7.0
 40
7.0
 40
7.0
 10
82.18929848205684
 20
-148.0250732051812
 10
82.18929848205684
 20
-148.0250732051812
 10
82.18929848205684
 20
-146.9209201021587
 10
82.18929848205684
 20
-146.9209201021587
 10
82.18929848205684
 20
-146.9209201021587
 10
81.85925833456992
 20
-146.9209201021587
 10
81.85925833456992
 20
-146.9209201021587
 10
81.85925833456992
 20
-146.9209201021587
 10
81.85925833456992
 20
-146.7727809962929
 10
81.85925833456992
 20
-146.7727809962929
 10
82.191365539348
 20
-146.7579670857064
 10
82.23787432839887
 20
-146.595014069254
 10
82.26750214957201
 20
-146.4806368991437
 10
82.26750214957201
 20
-146.4806368991437
 10
82.4135741981466
 20
-146.4806368991437
 10
82.4135741981466
 20
-146.4806368991437
 10
82.4135741981466
 20
-146.4806368991437
 10
82.4135741981466
 20
-148.0250732051812
 10
82.4135741981466
 20
-148.0250732051812
 10
82.4135741981466
 20
-148.0250732051812
 10
82.18929848205684
 20
-148.0250732051812
 10
82.18929848205684
 20
-148.0250732051812
 97
        0
 97
        0
 75
     2
 76
     1
 98
        0
  0
POLYLINE
  5
D7
330
D1
100
AcDbEntity
  8
_U+30EC_U+30A4_U+30E4_U+30FC 1
370
     0
100
AcDb2dPolyline
 66
     1
 10
0.0
 20
0.0
 30
0.0
  0
VERTEX
  5
D8
330
D7
100
AcDbEntity
  8
_U+30EC_U+30A4_U+30E4_U+30FC 1
370
     0
100
AcDbVertex
100
AcDb2dVertex
 10
83.7468261509383
 20
-147.6781520898166
 30
0.0
  0
VERTEX
  5
D9
330
D7
100
AcDbEntity
  8
_U+30EC_U+30A4_U+30E4_U+30FC 1
370
     0
100
AcDbVertex
100
AcDb2dVertex
 10
83.7468261509383
 20
-148.0250732051812
 30
0.0
  0
VERTEX
  5
DA
330
D7
100
AcDbEntity
  8
_U+30EC_U+30A4_U+30E4_U+30FC 1
370
     0
100
AcDbVertex
100
AcDb2dVertex
 10
83.52892386149624
 20
-148.0250732051812
 30
0.0
  0
VERTEX
  5
DB
330
D7
100
AcDbEntity
  8
_U+30EC_U+30A4_U+30E4_U+30FC 1
370
     0
100
AcDbVertex
100
AcDb2dVertex
 10
83.52892386149624
 20
-147.6781520898166
 30
0.0
  0
VERTEX
  5
DC
330
D7
100
AcDbEntity
  8
_U+30EC_U+30A4_U+30E4_U+30FC 1
370
     0
100
AcDbVertex
100
AcDb2dVertex
 10
82.87314993587894
 20
-147.6781520898166
 30
0.0
  0
VERTEX
  5
DD
330
D7
100
AcDbEntity
  8
_U+30EC_U+30A4_U+30E4_U+30FC 1
370
     0
100
AcDbVertex
100
AcDb2dVertex
 10
82.87314993587894
 20
-147.4538763737268
 30
0.0
  0
VERTEX
  5
DE
330
D7
100
AcDbEntity
  8
_U+30EC_U+30A4_U+30E4_U+30FC 1
370
     0
100
AcDbVertex
100
AcDb2dVertex
 10
83.55217825602168
 20
-146.4806368991437
 30
0.0
  0
VERTEX
  5
DF
330
D7
100
AcDbEntity
  8
_U+30EC_U+30A4_U+30E4_U+30FC 1
370
     0
100
AcDbVertex
100
AcDb2dVertex
 10
83.7468261509383
 20
-146.4806368991437
 30
0.0
  0
VERTEX
  5
E0
330
D7
100
AcDbEntity
  8
_U+30EC_U+30A4_U+30E4_U+30FC 1
370
     0
100
AcDbVertex
100
AcDb2dVertex
 10
83.7468261509383
 20
-147.4793700803177
 30
0.0
  0
VERTEX
  5
E1
330
D7
100
AcDbEntity
  8
_U+30EC_U+30A4_U+30E4_U+30FC 1
370
     0
100
AcDbVertex
100
AcDb2dVertex
 10
83.95422089915034
 20
-147.4793700803177
 30
0.0
  0
VERTEX
  5
E2
330
D7
100
AcDbEntity
  8
_U+30EC_U+30A4_U+30E4_U+30FC 1
370
     0
100
AcDbVertex
100
AcDb2dVertex
 10
83.95422089915034
 20
-147.6781520898166
 30
0.0
  0
VERTEX
  5
E3
330
D7
100
AcDbEntity
  8
_U+30EC_U+30A4_U+30E4_U+30FC 1
370
     0
100
AcDbVertex
100
AcDb2dVertex
 10
83.7468261509383
 20
-147.6781520898166
 30
0.0
  0
SEQEND
  5
E4
330
D7
100
AcDbEntity
  8
_U+30EC_U+30A4_U+30E4_U+30FC 1
370
     0
  0
POLYLINE
  5
E5
330
D1
100
AcDbEntity
  8
_U+30EC_U+30A4_U+30E4_U+30FC 1
370
     0
100
AcDb2dPolyline
 66
     1
 10
0.0
 20
0.0
 30
0.0
  0
VERTEX
  5
E6
330
E5
100
AcDbEntity
  8
_U+30EC_U+30A4_U+30E4_U+30FC 1
370
     0
100
AcDbVertex
100
AcDb2dVertex
 10
83.52892386149624
 20
-146.8234238999261
 30
0.0
  0
VERTEX
  5
E7
330
E5
100
AcDbEntity
  8
_U+30EC_U+30A4_U+30E4_U+30FC 1
370
     0
100
AcDbVertex
100
AcDb2dVertex
 10
83.07210420015211
 20
-147.4793700803177
 30
0.0
  0
VERTEX
  5
E8
330
E5
100
AcDbEntity
  8
_U+30EC_U+30A4_U+30E4_U+30FC 1
370
     0
100
AcDbVertex
100
AcDb2dVertex
 10
83.52892386149624
 20
-147.4793700803177
 30
0.0
  0
VERTEX
  5
E9
330
E5
100
AcDbEntity
  8
_U+30EC_U+30A4_U+30E4_U+30FC 1
370
     0
100
AcDbVertex
100
AcDb2dVertex
 10
83.52892386149624
 20
-146.8234238999261
 30
0.0
  0
SEQEND
  5
EA
330
E5
100
AcDbEntity
  8
_U+30EC_U+30A4_U+30E4_U+30FC 1
370
     0
  0
HATCH
  5
EB
330
D1
100
AcDbEntity
  8
_U+30EC_U+30A4_U+30E4_U+30FC 1
 62
     7
420
 16777215
100
AcDbHatch
 10
0.0
 20
0.0
 30
0.0
210
0.0
220
0.0
230
1.0
  2
SOLID
 70
     1
 71
     0
 91
        2
 92
        1
 93
       11
 72
     1
 10
83.7468261509383
 20
-147.6781520898166
 11
83.7468261509383
 21
-148.0250732051812
 72
     1
 10
83.7468261509383
 20
-148.0250732051812
 11
83.52892386149624
 21
-148.0250732051812
 72
     1
 10
83.52892386149624
 20
-148.0250732051812
 11
83.52892386149624
 21
-147.6781520898166
 72
     1
 10
83.52892386149624
 20
-147.6781520898166
 11
82.87314993587894
 21
-147.6781520898166
 72
     1
 10
82.87314993587894
 20
-147.6781520898166
 11
82.87314993587894
 21
-147.4538763737268
 72
     1
 10
82.87314993587894
 20
-147.4538763737268
 11
83.55217825602168
 21
-146.4806368991437
 72
     1
 10
83.55217825602168
 20
-146.4806368991437
 11
83.7468261509383
 21
-146.4806368991437
 72
     1
 10
83.7468261509383
 20
-146.4806368991437
 11
83.7468261509383
 21
-147.4793700803177
 72
     1
 10
83.7468261509383
 20
-147.4793700803177
 11
83.95422089915034
 21
-147.4793700803177
 72
     1
 10
83.95422089915034
 20
-147.4793700803177
 11
83.95422089915034
 21
-147.6781520898166
 72
     1
 10
83.95422089915034
 20
-147.6781520898166
 11
83.7468261509383
 21
-147.6781520898166
 97
        0
 92
        1
 93
        3
 72
     1
 10
83.52892386149624
 20
-146.8234238999261
 11
83.07210420015211
 21
-147.4793700803177
 72
     1
 10
83.07210420015211
 20
-147.4793700803177
 11
83.52892386149624
 21
-147.4793700803177
 72
     1
 10
83.52892386149624
 20
-147.4793700803177
 11
83.52892386149624
 21
-146.8234238999261
 97
        0
 75
     2
 76
     1
 98
        0
  0
ENDBLK
  5
D4
330
D1
100
AcDbEntity
  8
0
100
AcDbBlockEnd
  0
BLOCK
  5
FA
330
F8
100
AcDbEntity
  8
0
100
AcDbBlockBegin
  2
block 8
 70
     0
 10
0.0
 20
0.0
 30
0.0
  3
block 8
  1

  0
SPLINE
  5
FC
330
F8
100
AcDbEntity
  8
_U+30EC_U+30A4_U+30E4_U+30FC 1
370
     0
100
AcDbSpline
210
0.0
220
0.0
230
1.0
 70
    11
 71
     3
 72
    26
 73
    22
 74
     0
 42
0.0000000001
 43
0.0000000001
 12
1.0
 22
0.0
 32
0.0
 13
1.0
 23
0.0
 33
0.0
 40
0.0
 40
0.0
 40
0.0
 40
0.0
 40
1.0
 40
1.0
 40
1.0
 40
2.0
 40
2.0
 40
2.0
 40
3.0
 40
3.0
 40
3.0
 40
4.0
 40
4.0
 40
4.0
 40
5.0
 40
5.0
 40
5.0
 40
6.0
 40
6.0
 40
6.0
 40
7.0
 40
7.0
 40
7.0
 40
7.0
 10
88.66504446568096
 20
-152.2584065374562
 30
0.0
 10
88.66504446568096
 20
-152.2584065374562
 30
0.0
 10
88.66504446568096
 20
-151.1542534344337
 30
0.0
 10
88.66504446568096
 20
-151.1542534344337
 30
0.0
 10
88.66504446568096
 20
-151.1542534344337
 30
0.0
 10
88.33500431819402
 20
-151.1542534344337
 30
0.0
 10
88.33500431819402
 20
-151.1542534344337
 30
0.0
 10
88.33500431819402
 20
-151.1542534344337
 30
0.0
 10
88.33500431819402
 20
-151.0061143285679
 30
0.0
 10
88.33500431819402
 20
-151.0061143285679
 30
0.0
 10
88.66711152297212
 20
-150.9913004179813
 30
0.0
 10
88.71362031202298
 20
-150.828347401529
 30
0.0
 10
88.74324813319613
 20
-150.7139702314187
 30
0.0
 10
88.74324813319613
 20
-150.7139702314187
 30
0.0
 10
88.88932018177073
 20
-150.7139702314187
 30
0.0
 10
88.88932018177073
 20
-150.7139702314187
 30
0.0
 10
88.88932018177073
 20
-150.7139702314187
 30
0.0
 10
88.88932018177073
 20
-152.2584065374562
 30
0.0
 10
88.88932018177073
 20
-152.2584065374562
 30
0.0
 10
88.88932018177073
 20
-152.2584065374562
 30
0.0
 10
88.66504446568096
 20
-152.2584065374562
 30
0.0
 10
88.66504446568096
 20
-152.2584065374562
 30
0.0
  0
HATCH
  5
FD
330
F8
100
AcDbEntity
  8
_U+30EC_U+30A4_U+30E4_U+30FC 1
 62
     7
420
 16777215
100
AcDbHatch
 10
0.0
 20
0.0
 30
0.0
210
0.0
220
0.0
230
1.0
  2
SOLID
 70
     1
 71
     0
 91
        1
 92
        1
 93
        1
 72
     4
 94
        3
 73
     0
 74
     1
 95
       26
 96
       22
 40
0.0
 40
0.0
 40
0.0
 40
0.0
 40
1.0
 40
1.0
 40
1.0
 40
2.0
 40
2.0
 40
2.0
 40
3.0
 40
3.0
 40
3.0
 40
4.0
 40
4.0
 40
4.0
 40
5.0
 40
5.0
 40
5.0
 40
6.0
 40
6.0
 40
6.0
 40
7.0
 40
7.0
 40
7.0
 40
7.0
 10
88.66504446568096
 20
-152.2584065374562
 10
88.66504446568096
 20
-152.2584065374562
 10
88.66504446568096
 20
-151.1542534344337
 10
88.66504446568096
 20
-151.1542534344337
 10
88.66504446568096
 20
-151.1542534344337
 10
88.33500431819402
 20
-151.1542534344337
 10
88.33500431819402
 20
-151.1542534344337
 10
88.33500431819402
 20
-151.1542534344337
 10
88.33500431819402
 20
-151.0061143285679
 10
88.33500431819402
 20
-151.0061143285679
 10
88.66711152297212
 20
-150.9913004179813
 10
88.71362031202298
 20
-150.828347401529
 10
88.74324813319613
 20
-150.7139702314187
 10
88.74324813319613
 20
-150.7139702314187
 10
88.88932018177073
 20
-150.7139702314187
 10
88.88932018177073
 20
-150.7139702314187
 10
88.88932018177073
 20
-150.7139702314187
 10
88.88932018177073
 20
-152.2584065374562
 10
88.88932018177073
 20
-152.2584065374562
 10
88.88932018177073
 20
-152.2584065374562
 10
88.66504446568096
 20
-152.2584065374562
 10
88.66504446568096
 20
-152.2584065374562
 97
        0
 97
        0
 75
     2
 76
     1
 98
        0
  0
POLYLINE
  5
FE
330
F8
100
AcDbEntity
  8
_U+30EC_U+30A4_U+30E4_U+30FC 1
370
     0
100
AcDb2dPolyline
 66
     1
 10
0.0
 20
0.0
 30
0.0
  0
VERTEX
  5
FF
330
FE
100
AcDbEntity
  8
_U+30EC_U+30A4_U+30E4_U+30FC 1
370
     0
100
AcDbVertex
100
AcDb2dVertex
 10
89.45052623631793
 20
-152.2584065374562
 30
0.0
  0
VERTEX
  5
100
330
FE
100
AcDbEntity
  8
_U+30EC_U+30A4_U+30E4_U+30FC 1
370
     0
100
AcDbVertex
100
AcDb2dVertex
 10
89.45052623631793
 20
-152.0065700574845
 30
0.0
  0
VERTEX
  5
101
330
FE
100
AcDbEntity
  8
_U+30EC_U+30A4_U+30E4_U+30FC 1
370
     0
100
AcDbVertex
100
AcDb2dVertex
 10
89.70236271628968
 20
-152.0065700574845
 30
0.0
  0
VERTEX
  5
102
330
FE
100
AcDbEntity
  8
_U+30EC_U+30A4_U+30E4_U+30FC 1
370
     0
100
AcDbVertex
100
AcDb2dVertex
 10
89.70236271628968
 20
-152.2584065374562
 30
0.0
  0
VERTEX
  5
103
330
FE
100
AcDbEntity
  8
_U+30EC_U+30A4_U+30E4_U+30FC 1
370
     0
100
AcDbVertex
100
AcDb2dVertex
 10
89.45052623631793
 20
-152.2584065374562
 30
0.0
  0
SEQEND
  5
104
330
FE
100
AcDbEntity
  8
_U+30EC_U+30A4_U+30E4_U+30FC 1
370
     0
  0
HATCH
  5
105
330
F8
100
AcDbEntity
  8
_U+30EC_U+30A4_U+30E4_U+30FC 1
 62
     7
420
 16777215
100
AcDbHatch
 10
0.0
 20
0.0
 30
0.0
210
0.0
220
0.0
230
1.0
  2
SOLID
 70
     1
 71
     0
 91
        1
 92
        1
 93
        4
 72
     1
 10
89.45052623631793
 20
-152.2584065374562
 11
89.45052623631793
 21
-152.0065700574845
 72
     1
 10
89.45052623631793
 20
-152.0065700574845
 11
89.70236271628968
 21
-152.0065700574845
 72
     1
 10
89.70236271628968
 20
-152.0065700574845
 11
89.70236271628968
 21
-152.2584065374562
 72
     1
 10
89.70236271628968
 20
-152.2584065374562
 11
89.45052623631793
 21
-152.2584065374562
 97
        0
 75
     2
 76
     1
 98
        0
  0
SPLINE
  5
106
330
F8
100
AcDbEntity
  8
_U+30EC_U+30A4_U+30E4_U+30FC 1
370
     0
100
AcDbSpline
210
0.0
220
0.0
230
1.0
 70
    11
 71
     3
 72
    53
 73
    49
 74
     0
 42
0.0000000001
 43
0.0000000001
 12
1.0
 22
0.0
 32
0.0
 13
1.0
 23
0.0
 33
0.0
 40
0.0
 40
0.0
 40
0.0
 40
0.0
 40
1.0
 40
1.0
 40
1.0
 40
2.0
 40
2.0
 40
2.0
 40
3.0
 40
3.0
 40
3.0
 40
4.0
 40
4.0
 40
4.0
 40
5.0
 40
5.0
 40
5.0
 40
6.0
 40
6.0
 40
6.0
 40
7.0
 40
7.0
 40
7.0
 40
8.0
 40
8.0
 40
8.0
 40
9.0
 40
9.0
 40
9.0
 40
10.0
 40
10.0
 40
10.0
 40
11.0
 40
11.0
 40
11.0
 40
12.0
 40
12.0
 40
12.0
 40
13.0
 40
13.0
 40
13.0
 40
14.0
 40
14.0
 40
14.0
 40
15.0
 40
15.0
 40
15.0
 40
16.0
 40
16.0
 40
16.0
 40
16.0
 10
90.41963159631871
 20
-152.3090494410894
 30
0.0
 10
90.34142792880354
 20
-152.3090494410894
 30
0.0
 10
90.23979761198866
 20
-152.2921684732117
 30
0.0
 10
90.1381672951738
 20
-152.2287787162831
 30
0.0
 10
89.96487899226572
 20
-152.1188801703036
 30
0.0
 10
89.94351940025717
 20
-151.9876220323156
 30
0.0
 10
89.9245713750883
 20
-151.8797905436273
 30
0.0
 10
89.9245713750883
 20
-151.8797905436273
 30
0.0
 10
90.14678003388693
 20
-151.8797905436273
 30
0.0
 10
90.14678003388693
 20
-151.8797905436273
 30
0.0
 10
90.20155705210239
 20
-152.0785725531262
 30
0.0
 10
90.32868107550811
 20
-152.1082003742993
 30
0.0
 10
90.42169865360985
 20
-152.1082003742993
 30
0.0
 10
90.56122502076248
 20
-152.1082003742993
 30
0.0
 10
90.71349824121052
 20
-152.0086371147756
 30
0.0
 10
90.71349824121052
 20
-151.7760931695213
 30
0.0
 10
90.71349824121052
 20
-151.5201225749672
 30
0.0
 10
90.53366425688047
 20
-151.4501871366166
 30
0.0
 10
90.41308591489673
 20
-151.4501871366166
 30
0.0
 10
90.38139103643243
 20
-151.4501871366166
 30
0.0
 10
90.23979761198866
 20
-151.4501871366166
 30
0.0
 10
90.15091414846923
 20
-151.5793782173135
 30
0.0
 10
90.15091414846923
 20
-151.5793782173135
 30
0.0
 10
89.97521427872148
 20
-151.5604301921446
 30
0.0
 10
89.97521427872148
 20
-151.5604301921446
 30
0.0
 10
89.97521427872148
 20
-151.5604301921446
 30
0.0
 10
90.09579262070523
 20
-150.7139702314187
 30
0.0
 10
90.09579262070523
 20
-150.7139702314187
 30
0.0
 10
90.09579262070523
 20
-150.7139702314187
 30
0.0
 10
90.87438420037168
 20
-150.7139702314187
 30
0.0
 10
90.87438420037168
 20
-150.7139702314187
 30
0.0
 10
90.87438420037168
 20
-150.7139702314187
 30
0.0
 10
90.87438420037168
 20
-150.9086181263353
 30
0.0
 10
90.87438420037168
 20
-150.9086181263353
 30
0.0
 10
90.87438420037168
 20
-150.9086181263353
 30
0.0
 10
90.25874563715755
 20
-150.9086181263353
 30
0.0
 10
90.25874563715755
 20
-150.9086181263353
 30
0.0
 10
90.25874563715755
 20
-150.9086181263353
 30
0.0
 10
90.19328882293779
 20
-151.331675851924
 30
0.0
 10
90.19328882293779
 20
-151.331675851924
 30
0.0
 10
90.25461152257525
 20
-151.2979139161686
 30
0.0
 10
90.33694930467271
 20
-151.2576062989912
 30
0.0
 10
90.4554605893653
 20
-151.2576062989912
 30
0.0
 10
90.70936412662822
 20
-151.2576062989912
 30
0.0
 10
90.9463866960134
 20
-151.4439859647432
 30
0.0
 10
90.9463866960134
 20
-151.7571451443524
 30
0.0
 10
90.9463866960134
 20
-152.0744384385439
 30
0.0
 10
90.72211097992364
 20
-152.3090494410894
 30
0.0
 10
90.41963159631871
 20
-152.3090494410894
 30
0.0
  0
HATCH
  5
107
330
F8
100
AcDbEntity
  8
_U+30EC_U+30A4_U+30E4_U+30FC 1
 62
     7
420
 16777215
100
AcDbHatch
 10
0.0
 20
0.0
 30
0.0
210
0.0
220
0.0
230
1.0
  2
SOLID
 70
     1
 71
     0
 91
        1
 92
        1
 93
        1
 72
     4
 94
        3
 73
     0
 74
     1
 95
       53
 96
       49
 40
0.0
 40
0.0
 40
0.0
 40
0.0
 40
1.0
 40
1.0
 40
1.0
 40
2.0
 40
2.0
 40
2.0
 40
3.0
 40
3.0
 40
3.0
 40
4.0
 40
4.0
 40
4.0
 40
5.0
 40
5.0
 40
5.0
 40
6.0
 40
6.0
 40
6.0
 40
7.0
 40
7.0
 40
7.0
 40
8.0
 40
8.0
 40
8.0
 40
9.0
 40
9.0
 40
9.0
 40
10.0
 40
10.0
 40
10.0
 40
11.0
 40
11.0
 40
11.0
 40
12.0
 40
12.0
 40
12.0
 40
13.0
 40
13.0
 40
13.0
 40
14.0
 40
14.0
 40
14.0
 40
15.0
 40
15.0
 40
15.0
 40
16.0
 40
16.0
 40
16.0
 40
16.0
 10
90.41963159631871
 20
-152.3090494410894
 10
90.34142792880354
 20
-152.3090494410894
 10
90.23979761198866
 20
-152.2921684732117
 10
90.1381672951738
 20
-152.2287787162831
 10
89.96487899226572
 20
-152.1188801703036
 10
89.94351940025717
 20
-151.9876220323156
 10
89.9245713750883
 20
-151.8797905436273
 10
89.9245713750883
 20
-151.8797905436273
 10
90.14678003388693
 20
-151.8797905436273
 10
90.14678003388693
 20
-151.8797905436273
 10
90.20155705210239
 20
-152.0785725531262
 10
90.32868107550811
 20
-152.1082003742993
 10
90.42169865360985
 20
-152.1082003742993
 10
90.56122502076248
 20
-152.1082003742993
 10
90.71349824121052
 20
-152.0086371147756
 10
90.71349824121052
 20
-151.7760931695213
 10
90.71349824121052
 20
-151.5201225749672
 10
90.53366425688047
 20
-151.4501871366166
 10
90.41308591489673
 20
-151.4501871366166
 10
90.38139103643243
 20
-151.4501871366166
 10
90.23979761198866
 20
-151.4501871366166
 10
90.15091414846923
 20
-151.5793782173135
 10
90.15091414846923
 20
-151.5793782173135
 10
89.97521427872148
 20
-151.5604301921446
 10
89.97521427872148
 20
-151.5604301921446
 10
89.97521427872148
 20
-151.5604301921446
 10
90.09579262070523
 20
-150.7139702314187
 10
90.09579262070523
 20
-150.7139702314187
 10
90.09579262070523
 20
-150.7139702314187
 10
90.87438420037168
 20
-150.7139702314187
 10
90.87438420037168
 20
-150.7139702314187
 10
90.87438420037168
 20
-150.7139702314187
 10
90.87438420037168
 20
-150.9086181263353
 10
90.87438420037168
 20
-150.9086181263353
 10
90.87438420037168
 20
-150.9086181263353
 10
90.25874563715755
 20
-150.9086181263353
 10
90.25874563715755
 20
-150.9086181263353
 10
90.25874563715755
 20
-150.9086181263353
 10
90.19328882293779
 20
-151.331675851924
 10
90.19328882293779
 20
-151.331675851924
 10
90.25461152257525
 20
-151.2979139161686
 10
90.33694930467271
 20
-151.2576062989912
 10
90.4554605893653
 20
-151.2576062989912
 10
90.70936412662822
 20
-151.2576062989912
 10
90.9463866960134
 20
-151.4439859647432
 10
90.9463866960134
 20
-151.7571451443524
 10
90.9463866960134
 20
-152.0744384385439
 10
90.72211097992364
 20
-152.3090494410894
 10
90.41963159631871
 20
-152.3090494410894
 97
        0
 97
        0
 75
     2
 76
     1
 98
        0
  0
ENDBLK
  5
FB
330
F8
100
AcDbEntity
  8
0
100
AcDbBlockEnd
  0
ENDSEC
  0
SECTION
  2
ENTITIES
  0
POLYLINE
  5
41
330
1F
100
AcDbEntity
  8
_U+30EC_U+30A4_U+30E4_U+30FC 1
 62
   253
420
 10855845
370
     9
100
AcDb2dPolyline
 66
     1
 10
0.0
 20
0.0
 30
0.0
  0
VERTEX
  5
42
330
41
100
AcDbEntity
  8
_U+30EC_U+30A4_U+30E4_U+30FC 1
 62
   253
420
 10855845
370
     9
100
AcDbVertex
100
AcDb2dVertex
 10
69.59938489103843
 20
-134.8754816329475
 30
0.0
  0
VERTEX
  5
43
330
41
100
AcDbEntity
  8
_U+30EC_U+30A4_U+30E4_U+30FC 1
 62
   253
420
 10855845
370
     9
100
AcDbVertex
100
AcDb2dVertex
 10
69.59938489103843
 20
-120.9407594142093
 30
0.0
  0
VERTEX
  5
44
330
41
100
AcDbEntity
  8
_U+30EC_U+30A4_U+30E4_U+30FC 1
 62
   253
420
 10855845
370
     9
100
AcDbVertex
100
AcDb2dVertex
 10
71.21648290533838
 20
-119.4704169145767
 30
0.0
  0
VERTEX
  5
45
330
41
100
AcDbEntity
  8
_U+30EC_U+30A4_U+30E4_U+30FC 1
 62
   253
420
 10855845
370
     9
100
AcDbVertex
100
AcDb2dVertex
 10
71.21648290533838
 20
-120.7643705253645
 30
0.0
  0
VERTEX
  5
46
330
41
100
AcDbEntity
  8
_U+30EC_U+30A4_U+30E4_U+30FC 1
 62
   253
420
 10855845
370
     9
100
AcDbVertex
100
AcDb2dVertex
 10
70.62840236478601
 20
-121.4106946918694
 30
0.0
  0
VERTEX
  5
47
330
41
100
AcDbEntity
  8
_U+30EC_U+30A4_U+30E4_U+30FC 1
 62
   253
420
 10855845
370
     9
100
AcDbVertex
100
AcDb2dVertex
 10
70.59912180997746
 20
-134.2870835775395
 30
0.0
  0
VERTEX
  5
48
330
41
100
AcDbEntity
  8
_U+30EC_U+30A4_U+30E4_U+30FC 1
 62
   253
420
 10855845
370
     9
100
AcDbVertex
100
AcDb2dVertex
 10
72.42160704125976
 20
-136.110203854861
 30
0.0
  0
VERTEX
  5
49
330
41
100
AcDbEntity
  8
_U+30EC_U+30A4_U+30E4_U+30FC 1
 62
   253
420
 10855845
370
     9
100
AcDbVertex
100
AcDb2dVertex
 10
81.59520486277734
 20
-126.9655335793696
 30
0.0
  0
VERTEX
  5
4A
330
41
100
AcDbEntity
  8
_U+30EC_U+30A4_U+30E4_U+30FC 1
 62
   253
420
 10855845
370
     9
100
AcDbVertex
100
AcDb2dVertex
 10
81.59520486277734
 20
-102.0065058078316
 30
0.0
  0
VERTEX
  5
4B
330
41
100
AcDbEntity
  8
_U+30EC_U+30A4_U+30E4_U+30FC 1
 62
   253
420
 10855845
370
     9
100
AcDbVertex
100
AcDb2dVertex
 10
82.50674733952195
 20
-101.9775780300613
 30
0.0
  0
VERTEX
  5
4C
330
41
100
AcDbEntity
  8
_U+30EC_U+30A4_U+30E4_U+30FC 1
 62
   253
420
 10855845
370
     9
100
AcDbVertex
100
AcDb2dVertex
 10
82.53571039433861
 20
-127.0833613571182
 30
0.0
  0
VERTEX
  5
4D
330
41
100
AcDbEntity
  8
_U+30EC_U+30A4_U+30E4_U+30FC 1
 62
   253
420
 10855845
370
     9
100
AcDbVertex
100
AcDb2dVertex
 10
107.4945638620155
 20
-127.0833613571182
 30
0.0
  0
VERTEX
  5
4E
330
41
100
AcDbEntity
  8
_U+30EC_U+30A4_U+30E4_U+30FC 1
 62
   253
420
 10855845
370
     9
100
AcDbVertex
100
AcDb2dVertex
 10
107.4945638620155
 20
-128.1120613568608
 30
0.0
  0
VERTEX
  5
4F
330
41
100
AcDbEntity
  8
_U+30EC_U+30A4_U+30E4_U+30FC 1
 62
   253
420
 10855845
370
     9
100
AcDbVertex
100
AcDb2dVertex
 10
81.97758068635545
 20
-128.0535002457646
 30
0.0
  0
VERTEX
  5
50
330
41
100
AcDbEntity
  8
_U+30EC_U+30A4_U+30E4_U+30FC 1
 62
   253
420
 10855845
370
     9
100
AcDbVertex
100
AcDb2dVertex
 10
73.39174590539835
 20
-136.7861260769147
 30
0.0
  0
VERTEX
  5
51
330
41
100
AcDbEntity
  8
_U+30EC_U+30A4_U+30E4_U+30FC 1
 62
   253
420
 10855845
370
     9
100
AcDbVertex
100
AcDb2dVertex
 10
75.2438291914811
 20
-138.6678427431105
 30
0.0
  0
VERTEX
  5
52
330
41
100
AcDbEntity
  8
_U+30EC_U+30A4_U+30E4_U+30FC 1
 62
   253
420
 10855845
370
     9
100
AcDbVertex
100
AcDb2dVertex
 10
88.17909636147495
 20
-138.7853177430813
 30
0.0
  0
VERTEX
  5
53
330
41
100
AcDbEntity
  8
_U+30EC_U+30A4_U+30E4_U+30FC 1
 62
   253
420
 10855845
370
     9
100
AcDbVertex
100
AcDb2dVertex
 10
88.70826301464145
 20
-138.197237187673
 30
0.0
  0
VERTEX
  5
54
330
41
100
AcDbEntity
  8
_U+30EC_U+30A4_U+30E4_U+30FC 1
 62
   253
420
 10855845
370
     9
100
AcDbVertex
100
AcDb2dVertex
 10
90.14868992233754
 20
-138.256151076547
 30
0.0
  0
VERTEX
  5
55
330
41
100
AcDbEntity
  8
_U+30EC_U+30A4_U+30E4_U+30FC 1
 62
   253
420
 10855845
370
     9
100
AcDbVertex
100
AcDb2dVertex
 10
88.6789824598329
 20
-139.7847371872761
 30
0.0
  0
VERTEX
  5
56
330
41
100
AcDbEntity
  8
_U+30EC_U+30A4_U+30E4_U+30FC 1
 62
   253
420
 10855845
370
     9
100
AcDbVertex
100
AcDb2dVertex
 10
74.68534670572917
 20
-139.8143705206016
 30
0.0
  0
VERTEX
  5
57
330
41
100
AcDbEntity
  8
_U+30EC_U+30A4_U+30E4_U+30FC 1
 62
   253
420
 10855845
370
     9
100
AcDbVertex
100
AcDb2dVertex
 10
69.59938489103843
 20
-134.8754816329475
 30
0.0
  0
SEQEND
  5
59
330
41
100
AcDbEntity
  8
_U+30EC_U+30A4_U+30E4_U+30FC 1
 62
   253
420
 10855845
370
     9
  0
HATCH
  5
58
330
1F
100
AcDbEntity
  8
_U+30EC_U+30A4_U+30E4_U+30FC 1
 62
   253
420
 10855845
100
AcDbHatch
 10
0.0
 20
0.0
 30
0.0
210
0.0
220
0.0
230
1.0
  2
SOLID
 70
     1
 71
     0
 91
        1
 92
        1
 93
       21
 72
     1
 10
69.59938489103843
 20
-134.8754816329475
 11
69.59938489103843
 21
-120.9407594142093
 72
     1
 10
69.59938489103843
 20
-120.9407594142093
 11
71.21648290533838
 21
-119.4704169145767
 72
     1
 10
71.21648290533838
 20
-119.4704169145767
 11
71.21648290533838
 21
-120.7643705253645
 72
     1
 10
71.21648290533838
 20
-120.7643705253645
 11
70.62840236478601
 21
-121.4106946918694
 72
     1
 10
70.62840236478601
 20
-121.4106946918694
 11
70.59912180997746
 21
-134.2870835775395
 72
     1
 10
70.59912180997746
 20
-134.2870835775395
 11
72.42160704125976
 21
-136.110203854861
 72
     1
 10
72.42160704125976
 20
-136.110203854861
 11
81.59520486277734
 21
-126.9655335793696
 72
     1
 10
81.59520486277734
 20
-126.9655335793696
 11
81.59520486277734
 21
-102.0065058078316
 72
     1
 10
81.59520486277734
 20
-102.0065058078316
 11
82.50674733952195
 21
-101.9775780300613
 72
     1
 10
82.50674733952195
 20
-101.9775780300613
 11
82.53571039433861
 21
-127.0833613571182
 72
     1
 10
82.53571039433861
 20
-127.0833613571182
 11
107.4945638620155
 21
-127.0833613571182
 72
     1
 10
107.4945638620155
 20
-127.0833613571182
 11
107.4945638620155
 21
-128.1120613568608
 72
     1
 10
107.4945638620155
 20
-128.1120613568608
 11
81.97758068635545
 21
-128.0535002457646
 72
     1
 10
81.97758068635545
 20
-128.0535002457646
 11
73.39174590539835
 21
-136.7861260769147
 72
     1
 10
73.39174590539835
 20
-136.7861260769147
 11
75.2438291914811
 21
-138.6678427431105
 72
     1
 10
75.2438291914811
 20
-138.6678427431105
 11
88.17909636147495
 21
-138.7853177430813
 72
     1
 10
88.17909636147495
 20
-138.7853177430813
 11
88.70826301464145
 21
-138.197237187673
 72
     1
 10
88.70826301464145
 20
-138.197237187673
 11
90.14868992233754
 21
-138.256151076547
 72
     1
 10
90.14868992233754
 20
-138.256151076547
 11
88.6789824598329
 21
-139.7847371872761
 72
     1
 10
88.6789824598329
 20
-139.7847371872761
 11
74.68534670572917
 21
-139.8143705206016
 72
     1
 10
74.68534670572917
 20
-139.8143705206016
 11
69.59938489103843
 21
-134.8754816329475
 97
        0
 75
     2
 76
     1
 98
        0
  0
SPLINE
  5
5A
330
1F
100
AcDbEntity
  8
_U+30EC_U+30A4_U+30E4_U+30FC 1
 62
     7
420
 16777215
370
     9
100
AcDbSpline
210
0.0
220
0.0
230
1.0
 70
    11
 71
     3
 72
    17
 73
    13
 74
     0
 42
0.0000000001
 43
0.0000000001
 12
1.0
 22
0.0
 32
0.0
 13
1.0
 23
0.0
 33
0.0
 40
0.0
 40
0.0
 40
0.0
 40
0.0
 40
1.0
 40
1.0
 40
1.0
 40
2.0
 40
2.0
 40
2.0
 40
3.0
 40
3.0
 40
3.0
 40
4.0
 40
4.0
 40
4.0
 40
4.0
 10
111.0430116115012
 20
-128.0679641346496
 30
0.0
 10
111.0430116115012
 20
-128.0128602457747
 30
0.0
 10
110.9982088348664
 20
-127.968057468008
 30
0.0
 10
110.9431049473834
 20
-127.968057468008
 30
0.0
 10
110.8879657821234
 20
-127.968057468008
 30
0.0
 10
110.8431982832655
 20
-128.0128602457747
 30
0.0
 10
110.8431982832655
 20
-128.0679641346496
 30
0.0
 10
110.8431982832655
 20
-128.1231033013027
 30
0.0
 10
110.8879657821234
 20
-128.1678708012912
 30
0.0
 10
110.9431049473834
 20
-128.1678708012912
 30
0.0
 10
110.9982088348664
 20
-128.1678708012912
 30
0.0
 10
111.0430116115012
 20
-128.1231033013027
 30
0.0
 10
111.0430116115012
 20
-128.0679641346496
 30
0.0
  0
SPLINE
  5
5B
330
1F
100
AcDbEntity
  8
_U+30EC_U+30A4_U+30E4_U+30FC 1
 62
     7
420
 16777215
370
     9
100
AcDbSpline
210
0.0
220
0.0
230
1.0
 70
    11
 71
     3
 72
    17
 73
    13
 74
     0
 42
0.0000000001
 43
0.0000000001
 12
1.0
 22
0.0
 32
0.0
 13
1.0
 23
0.0
 33
0.0
 40
0.0
 40
0.0
 40
0.0
 40
0.0
 40
1.0
 40
1.0
 40
1.0
 40
2.0
 40
2.0
 40
2.0
 40
3.0
 40
3.0
 40
3.0
 40
4.0
 40
4.0
 40
4.0
 40
4.0
 10
111.0430116115012
 20
-138.0676971877052
 30
0.0
 10
111.0430116115012
 20
-138.0125932988302
 30
0.0
 10
110.9982088348664
 20
-137.9677905210635
 30
0.0
 10
110.9431049473834
 20
-137.9677905210635
 30
0.0
 10
110.8879657821234
 20
-137.9677905210635
 30
0.0
 10
110.8431982832655
 20
-138.0125932988302
 30
0.0
 10
110.8431982832655
 20
-138.0676971877052
 30
0.0
 10
110.8431982832655
 20
-138.1228363543582
 30
0.0
 10
110.8879657821234
 20
-138.1676391321249
 30
0.0
 10
110.9431049473834
 20
-138.1676391321249
 30
0.0
 10
110.9982088348664
 20
-138.1676391321249
 30
0.0
 10
111.0430116115012
 20
-138.1228363543582
 30
0.0
 10
111.0430116115012
 20
-138.0676971877052
 30
0.0
  0
SPLINE
  5
5C
330
1F
100
AcDbEntity
  8
_U+30EC_U+30A4_U+30E4_U+30FC 1
 62
     7
420
 16777215
370
     9
100
AcDbSpline
210
0.0
220
0.0
230
1.0
 70
    11
 71
     3
 72
    17
 73
    13
 74
     0
 42
0.0000000001
 43
0.0000000001
 12
1.0
 22
0.0
 32
0.0
 13
1.0
 23
0.0
 33
0.0
 40
0.0
 40
0.0
 40
0.0
 40
0.0
 40
1.0
 40
1.0
 40
1.0
 40
2.0
 40
2.0
 40
2.0
 40
3.0
 40
3.0
 40
3.0
 40
4.0
 40
4.0
 40
4.0
 40
4.0
 10
111.0430116115012
 20
-139.6676149650831
 30
0.0
 10
111.0430116115012
 20
-139.6125110762081
 30
0.0
 10
110.9982088348664
 20
-139.5677082984414
 30
0.0
 10
110.9431049473834
 20
-139.5677082984414
 30
0.0
 10
110.8879657821234
 20
-139.5677082984414
 30
0.0
 10
110.8431982832655
 20
-139.6125110762081
 30
0.0
 10
110.8431982832655
 20
-139.6676149650831
 30
0.0
 10
110.8431982832655
 20
-139.7234244095135
 30
0.0
 10
110.8879657821234
 20
-139.7682271872802
 30
0.0
 10
110.9431049473834
 20
-139.7682271872802
 30
0.0
 10
110.9982088348664
 20
-139.7682271872802
 30
0.0
 10
111.0430116115012
 20
-139.7234244095135
 30
0.0
 10
111.0430116115012
 20
-139.6676149650831
 30
0.0
  0
POLYLINE
  5
5D
330
1F
100
AcDbEntity
  8
_U+30EC_U+30A4_U+30E4_U+30FC 1
 62
     7
420
 16777215
370
     9
100
AcDb2dPolyline
 66
     1
 10
0.0
 20
0.0
 30
0.0
  0
VERTEX
  5
5E
330
5D
100
AcDbEntity
  8
_U+30EC_U+30A4_U+30E4_U+30FC 1
 62
     7
420
 16777215
370
     9
100
AcDbVertex
100
AcDb2dVertex
 10
110.9431049473834
 20
-139.6676149650831
 30
0.0
  0
VERTEX
  5
5F
330
5D
100
AcDbEntity
  8
_U+30EC_U+30A4_U+30E4_U+30FC 1
 62
     7
420
 16777215
370
     9
100
AcDbVertex
100
AcDb2dVertex
 10
110.9431049473834
 20
-138.1676391321249
 30
0.0
  0
SEQEND
  5
60
330
5D
100
AcDbEntity
  8
_U+30EC_U+30A4_U+30E4_U+30FC 1
 62
     7
420
 16777215
370
     9
  0
POLYLINE
  5
61
330
1F
100
AcDbEntity
  8
_U+30EC_U+30A4_U+30E4_U+30FC 1
 62
     7
420
 16777215
370
     9
100
AcDb2dPolyline
 66
     1
 10
0.0
 20
0.0
 30
0.0
  0
VERTEX
  5
62
330
61
100
AcDbEntity
  8
_U+30EC_U+30A4_U+30E4_U+30FC 1
 62
     7
420
 16777215
370
     9
100
AcDbVertex
100
AcDb2dVertex
 10
99.4833333084625
 20
-139.6676149650831
 30
0.0
  0
VERTEX
  5
63
330
61
100
AcDbEntity
  8
_U+30EC_U+30A4_U+30E4_U+30FC 1
 62
     7
420
 16777215
370
     9
100
AcDbVertex
100
AcDb2dVertex
 10
111.94354742186
 20
-139.6676149650831
 30
0.0
  0
SEQEND
  5
64
330
61
100
AcDbEntity
  8
_U+30EC_U+30A4_U+30E4_U+30FC 1
 62
     7
420
 16777215
370
     9
  0
POLYLINE
  5
65
330
1F
100
AcDbEntity
  8
_U+30EC_U+30A4_U+30E4_U+30FC 1
 62
     7
420
 16777215
370
     9
100
AcDb2dPolyline
 66
     1
 10
0.0
 20
0.0
 30
0.0
  0
VERTEX
  5
66
330
65
100
AcDbEntity
  8
_U+30EC_U+30A4_U+30E4_U+30FC 1
 62
     7
420
 16777215
370
     9
100
AcDbVertex
100
AcDb2dVertex
 10
99.4833333084625
 20
-138.0676971877052
 30
0.0
  0
VERTEX
  5
67
330
65
100
AcDbEntity
  8
_U+30EC_U+30A4_U+30E4_U+30FC 1
 62
     7
420
 16777215
370
     9
100
AcDbVertex
100
AcDb2dVertex
 10
111.94354742186
 20
-138.0676971877052
 30
0.0
  0
SEQEND
  5
68
330
65
100
AcDbEntity
  8
_U+30EC_U+30A4_U+30E4_U+30FC 1
 62
     7
420
 16777215
370
     9
  0
INSERT
  5
6A
330
1F
100
AcDbEntity
  8
_U+30EC_U+30A4_U+30E4_U+30FC 1
100
AcDbBlockReference
  2
block 2
 10
0.0
 20
0.0
 30
0.0
  0
SPLINE
  5
79
330
1F
100
AcDbEntity
  8
_U+30EC_U+30A4_U+30E4_U+30FC 1
 62
     7
420
 16777215
370
     9
100
AcDbSpline
210
0.0
220
0.0
230
1.0
 70
    11
 71
     3
 72
    17
 73
    13
 74
     0
 42
0.0000000001
 43
0.0000000001
 12
1.0
 22
0.0
 32
0.0
 13
1.0
 23
0.0
 33
0.0
 40
0.0
 40
0.0
 40
0.0
 40
0.0
 40
1.0
 40
1.0
 40
1.0
 40
2.0
 40
2.0
 40
2.0
 40
3.0
 40
3.0
 40
3.0
 40
4.0
 40
4.0
 40
4.0
 40
4.0
 10
111.0430116115012
 20
-127.0678744126775
 30
0.0
 10
111.0430116115012
 20
-127.0127352460247
 30
0.0
 10
110.9982088348664
 20
-126.9679677460358
 30
0.0
 10
110.9431049473834
 20
-126.9679677460358
 30
0.0
 10
110.8879657821234
 20
-126.9679677460358
 30
0.0
 10
110.8431982832655
 20
-127.0127352460247
 30
0.0
 10
110.8431982832655
 20
-127.0678744126775
 30
0.0
 10
110.8431982832655
 20
-127.1229783015527
 30
0.0
 10
110.8879657821234
 20
-127.1677810793191
 30
0.0
 10
110.9431049473834
 20
-127.1677810793191
 30
0.0
 10
110.9982088348664
 20
-127.1677810793191
 30
0.0
 10
111.0430116115012
 20
-127.1229783015527
 30
0.0
 10
111.0430116115012
 20
-127.0678744126775
 30
0.0
  0
POLYLINE
  5
7A
330
1F
100
AcDbEntity
  8
_U+30EC_U+30A4_U+30E4_U+30FC 1
 62
     7
420
 16777215
370
     9
100
AcDb2dPolyline
 66
     1
 10
0.0
 20
0.0
 30
0.0
  0
VERTEX
  5
7B
330
7A
100
AcDbEntity
  8
_U+30EC_U+30A4_U+30E4_U+30FC 1
 62
     7
420
 16777215
370
     9
100
AcDbVertex
100
AcDb2dVertex
 10
110.9431049473834
 20
-128.0679641346496
 30
0.0
  0
VERTEX
  5
7C
330
7A
100
AcDbEntity
  8
_U+30EC_U+30A4_U+30E4_U+30FC 1
 62
     7
420
 16777215
370
     9
100
AcDbVertex
100
AcDb2dVertex
 10
110.9431049473834
 20
-127.0678744126775
 30
0.0
  0
SEQEND
  5
7D
330
7A
100
AcDbEntity
  8
_U+30EC_U+30A4_U+30E4_U+30FC 1
 62
     7
420
 16777215
370
     9
  0
POLYLINE
  5
7E
330
1F
100
AcDbEntity
  8
_U+30EC_U+30A4_U+30E4_U+30FC 1
 62
     7
420
 16777215
370
     9
100
AcDb2dPolyline
 66
     1
 10
0.0
 20
0.0
 30
0.0
  0
VERTEX
  5
7F
330
7E
100
AcDbEntity
  8
_U+30EC_U+30A4_U+30E4_U+30FC 1
 62
     7
420
 16777215
370
     9
100
AcDbVertex
100
AcDb2dVertex
 10
110.9431049473834
 20
-127.0678744126775
 30
0.0
  0
VERTEX
  5
80
330
7E
100
AcDbEntity
  8
_U+30EC_U+30A4_U+30E4_U+30FC 1
 62
     7
420
 16777215
370
     9
100
AcDbVertex
100
AcDb2dVertex
 10
110.9431049473834
 20
-102.0675010855943
 30
0.0
  0
SEQEND
  5
81
330
7E
100
AcDbEntity
  8
_U+30EC_U+30A4_U+30E4_U+30FC 1
 62
     7
420
 16777215
370
     9
  0
POLYLINE
  5
82
330
1F
100
AcDbEntity
  8
_U+30EC_U+30A4_U+30E4_U+30FC 1
 62
     7
420
 16777215
370
     9
100
AcDb2dPolyline
 66
     1
 10
0.0
 20
0.0
 30
0.0
  0
VERTEX
  5
83
330
82
100
AcDbEntity
  8
_U+30EC_U+30A4_U+30E4_U+30FC 1
 62
     7
420
 16777215
370
     9
100
AcDbVertex
100
AcDb2dVertex
 10
111.0492205002317
 20
-128.0679641346496
 30
0.0
  0
VERTEX
  5
84
330
82
100
AcDbEntity
  8
_U+30EC_U+30A4_U+30E4_U+30FC 1
 62
     7
420
 16777215
370
     9
100
AcDbVertex
100
AcDb2dVertex
 10
111.94354742186
 20
-128.0679641346496
 30
0.0
  0
SEQEND
  5
85
330
82
100
AcDbEntity
  8
_U+30EC_U+30A4_U+30E4_U+30FC 1
 62
     7
420
 16777215
370
     9
  0
POLYLINE
  5
86
330
1F
100
AcDbEntity
  8
_U+30EC_U+30A4_U+30E4_U+30FC 1
 62
     7
420
 16777215
370
     9
100
AcDb2dPolyline
 66
     1
 10
0.0
 20
0.0
 30
0.0
  0
VERTEX
  5
87
330
86
100
AcDbEntity
  8
_U+30EC_U+30A4_U+30E4_U+30FC 1
 62
     7
420
 16777215
370
     9
100
AcDbVertex
100
AcDb2dVertex
 10
109.4830635957432
 20
-127.0678744126775
 30
0.0
  0
VERTEX
  5
88
330
86
100
AcDbEntity
  8
_U+30EC_U+30A4_U+30E4_U+30FC 1
 62
     7
420
 16777215
370
     9
100
AcDbVertex
100
AcDb2dVertex
 10
111.94354742186
 20
-127.0678744126775
 30
0.0
  0
SEQEND
  5
89
330
86
100
AcDbEntity
  8
_U+30EC_U+30A4_U+30E4_U+30FC 1
 62
     7
420
 16777215
370
     9
  0
SPLINE
  5
8A
330
1F
100
AcDbEntity
  8
_U+30EC_U+30A4_U+30E4_U+30FC 1
 62
     7
420
 16777215
370
     9
100
AcDbSpline
210
0.0
220
0.0
230
1.0
 70
    11
 71
     3
 72
    17
 73
    13
 74
     0
 42
0.0000000001
 43
0.0000000001
 12
1.0
 22
0.0
 32
0.0
 13
1.0
 23
0.0
 33
0.0
 40
0.0
 40
0.0
 40
0.0
 40
0.0
 40
1.0
 40
1.0
 40
1.0
 40
2.0
 40
2.0
 40
2.0
 40
3.0
 40
3.0
 40
3.0
 40
4.0
 40
4.0
 40
4.0
 40
4.0
 10
111.0430116115012
 20
-102.0675010855943
 30
0.0
 10
111.0430116115012
 20
-102.0123619189412
 30
0.0
 10
110.9982088348664
 20
-101.9675944189527
 30
0.0
 10
110.9431049473834
 20
-101.9675944189527
 30
0.0
 10
110.8879657821234
 20
-101.9675944189527
 30
0.0
 10
110.8431982832655
 20
-102.0123619189412
 30
0.0
 10
110.8431982832655
 20
-102.0675010855943
 30
0.0
 10
110.8431982832655
 20
-102.1226049744692
 30
0.0
 10
110.8879657821234
 20
-102.167407752236
 30
0.0
 10
110.9431049473834
 20
-102.167407752236
 30
0.0
 10
110.9982088348664
 20
-102.167407752236
 30
0.0
 10
111.0430116115012
 20
-102.1226049744692
 30
0.0
 10
111.0430116115012
 20
-102.0675010855943
 30
0.0
  0
POLYLINE
  5
8B
330
1F
100
AcDbEntity
  8
_U+30EC_U+30A4_U+30E4_U+30FC 1
 62
     7
420
 16777215
370
     9
100
AcDb2dPolyline
 66
     1
 10
0.0
 20
0.0
 30
0.0
  0
VERTEX
  5
8C
330
8B
100
AcDbEntity
  8
_U+30EC_U+30A4_U+30E4_U+30FC 1
 62
     7
420
 16777215
370
     9
100
AcDbVertex
100
AcDb2dVertex
 10
99.4833333084625
 20
-102.0675010855943
 30
0.0
  0
VERTEX
  5
8D
330
8B
100
AcDbEntity
  8
_U+30EC_U+30A4_U+30E4_U+30FC 1
 62
     7
420
 16777215
370
     9
100
AcDbVertex
100
AcDb2dVertex
 10
111.94354742186
 20
-102.0675010855943
 30
0.0
  0
SEQEND
  5
8E
330
8B
100
AcDbEntity
  8
_U+30EC_U+30A4_U+30E4_U+30FC 1
 62
     7
420
 16777215
370
     9
  0
INSERT
  5
90
330
1F
100
AcDbEntity
  8
_U+30EC_U+30A4_U+30E4_U+30FC 1
100
AcDbBlockReference
  2
block 3
 10
0.0
 20
0.0
 30
0.0
  0
INSERT
  5
96
330
1F
100
AcDbEntity
  8
_U+30EC_U+30A4_U+30E4_U+30FC 1
100
AcDbBlockReference
  2
block 4
 10
0.0
 20
0.0
 30
0.0
  0
POLYLINE
  5
9D
330
1F
100
AcDbEntity
  8
_U+30EC_U+30A4_U+30E4_U+30FC 1
 62
     7
420
 16777215
370
     9
100
AcDb2dPolyline
 66
     1
 10
0.0
 20
0.0
 30
0.0
  0
VERTEX
  5
9E
330
9D
100
AcDbEntity
  8
_U+30EC_U+30A4_U+30E4_U+30FC 1
 62
     7
420
 16777215
370
     9
100
AcDbVertex
100
AcDb2dVertex
 10
110.9431049473834
 20
-138.0676971877052
 30
0.0
  0
VERTEX
  5
9F
330
9D
100
AcDbEntity
  8
_U+30EC_U+30A4_U+30E4_U+30FC 1
 62
     7
420
 16777215
370
     9
100
AcDbVertex
100
AcDb2dVertex
 10
110.9431049473834
 20
-128.0679641346496
 30
0.0
  0
SEQEND
  5
A0
330
9D
100
AcDbEntity
  8
_U+30EC_U+30A4_U+30E4_U+30FC 1
 62
     7
420
 16777215
370
     9
  0
POLYLINE
  5
A1
330
1F
100
AcDbEntity
  8
_U+30EC_U+30A4_U+30E4_U+30FC 1
 62
     7
420
 16777215
370
     9
100
AcDb2dPolyline
 66
     1
 10
0.0
 20
0.0
 30
0.0
  0
VERTEX
  5
A2
330
A1
100
AcDbEntity
  8
_U+30EC_U+30A4_U+30E4_U+30FC 1
 62
     7
420
 16777215
370
     9
100
AcDbVertex
100
AcDb2dVertex
 10
109.4830635957432
 20
-128.0679641346496
 30
0.0
  0
VERTEX
  5
A3
330
A1
100
AcDbEntity
  8
_U+30EC_U+30A4_U+30E4_U+30FC 1
 62
     7
420
 16777215
370
     9
100
AcDbVertex
100
AcDb2dVertex
 10
111.94354742186
 20
-128.0679641346496
 30
0.0
  0
SEQEND
  5
A4
330
A1
100
AcDbEntity
  8
_U+30EC_U+30A4_U+30E4_U+30FC 1
 62
     7
420
 16777215
370
     9
  0
INSERT
  5
A6
330
1F
100
AcDbEntity
  8
_U+30EC_U+30A4_U+30E4_U+30FC 1
100
AcDbBlockReference
  2
block 5
 10
0.0
 20
0.0
 30
0.0
  0
POLYLINE
  5
AE
330
1F
100
AcDbEntity
  8
_U+30EC_U+30A4_U+30E4_U+30FC 1
 62
     7
420
 16777215
370
    25
100
AcDb2dPolyline
 66
     1
 10
0.0
 20
0.0
 30
0.0
  0
VERTEX
  5
AF
330
AE
100
AcDbEntity
  8
_U+30EC_U+30A4_U+30E4_U+30FC 1
 62
     7
420
 16777215
370
    25
100
AcDbVertex
100
AcDb2dVertex
 10
69.69721016632047
 20
-134.8989060773866
 30
0.0
  0
VERTEX
  5
B0
330
AE
100
AcDbEntity
  8
_U+30EC_U+30A4_U+30E4_U+30FC 1
 62
     7
420
 16777215
370
    25
100
AcDbVertex
100
AcDb2dVertex
 10
74.72637476023802
 20
-139.7682271872802
 30
0.0
  0
SEQEND
  5
B1
330
AE
100
AcDbEntity
  8
_U+30EC_U+30A4_U+30E4_U+30FC 1
 62
     7
420
 16777215
370
    25
  0
POLYLINE
  5
B2
330
1F
100
AcDbEntity
  8
_U+30EC_U+30A4_U+30E4_U+30FC 1
 62
     7
420
 16777215
370
     9
100
AcDb2dPolyline
 66
     1
 10
0.0
 20
0.0
 30
0.0
  0
VERTEX
  5
B3
330
B2
100
AcDbEntity
  8
_U+30EC_U+30A4_U+30E4_U+30FC 1
 62
     7
420
 16777215
370
     9
100
AcDbVertex
100
AcDb2dVertex
 10
64.80241862453035
 20
-139.7936977428296
 30
0.0
  0
VERTEX
  5
B4
330
B2
100
AcDbEntity
  8
_U+30EC_U+30A4_U+30E4_U+30FC 1
 62
     7
420
 16777215
370
     9
100
AcDbVertex
100
AcDb2dVertex
 10
69.83158321844789
 20
-144.6630188527232
 30
0.0
  0
SEQEND
  5
B5
330
B2
100
AcDbEntity
  8
_U+30EC_U+30A4_U+30E4_U+30FC 1
 62
     7
420
 16777215
370
     9
  0
INSERT
  5
B7
330
1F
100
AcDbEntity
  8
_U+30EC_U+30A4_U+30E4_U+30FC 1
100
AcDbBlockReference
  2
block 6
 10
0.0
 20
0.0
 30
0.0
  0
SPLINE
  5
BC
330
1F
100
AcDbEntity
  8
_U+30EC_U+30A4_U+30E4_U+30FC 1
 62
     7
420
 16777215
370
     9
100
AcDbSpline
210
0.0
220
0.0
230
1.0
 70
    11
 71
     3
 72
    17
 73
    13
 74
     0
 42
0.0000000001
 43
0.0000000001
 12
1.0
 22
0.0
 32
0.0
 13
1.0
 23
0.0
 33
0.0
 40
0.0
 40
0.0
 40
0.0
 40
0.0
 40
1.0
 40
1.0
 40
1.0
 40
2.0
 40
2.0
 40
2.0
 40
3.0
 40
3.0
 40
3.0
 40
4.0
 40
4.0
 40
4.0
 40
4.0
 10
74.9261880884737
 20
-148.6693044072774
 30
0.0
 10
74.9261880884737
 20
-148.613847740624
 30
0.0
 10
74.88138531183893
 20
-148.569044962858
 30
0.0
 10
74.82628331462668
 20
-148.569044962858
 30
0.0
 10
74.77114225909591
 20
-148.569044962858
 30
0.0
 10
74.72637476023802
 20
-148.613847740624
 30
0.0
 10
74.72637476023802
 20
-148.6693044072774
 30
0.0
 10
74.72637476023802
 20
-148.7244435739298
 30
0.0
 10
74.77114225909591
 20
-148.769211073919
 30
0.0
 10
74.82628331462668
 20
-148.769211073919
 30
0.0
 10
74.88138531183893
 20
-148.769211073919
 30
0.0
 10
74.9261880884737
 20
-148.7244435739298
 30
0.0
 10
74.9261880884737
 20
-148.6693044072774
 30
0.0
  0
SPLINE
  5
BD
330
1F
100
AcDbEntity
  8
_U+30EC_U+30A4_U+30E4_U+30FC 1
 62
     7
420
 16777215
370
     9
100
AcDbSpline
210
0.0
220
0.0
230
1.0
 70
    11
 71
     3
 72
    17
 73
    13
 74
     0
 42
0.0000000001
 43
0.0000000001
 12
1.0
 22
0.0
 32
0.0
 13
1.0
 23
0.0
 33
0.0
 40
0.0
 40
0.0
 40
0.0
 40
0.0
 40
1.0
 40
1.0
 40
1.0
 40
2.0
 40
2.0
 40
2.0
 40
3.0
 40
3.0
 40
3.0
 40
4.0
 40
4.0
 40
4.0
 40
4.0
 10
90.42636130414243
 20
-148.6693044072774
 30
0.0
 10
90.42636130414243
 20
-148.613847740624
 30
0.0
 10
90.38155852750768
 20
-148.569044962858
 30
0.0
 10
90.32645464002461
 20
-148.569044962858
 30
0.0
 10
90.27131547476465
 20
-148.569044962858
 30
0.0
 10
90.22654797590677
 20
-148.613847740624
 30
0.0
 10
90.22654797590677
 20
-148.6693044072774
 30
0.0
 10
90.22654797590677
 20
-148.7244435739298
 30
0.0
 10
90.27131547476465
 20
-148.769211073919
 30
0.0
 10
90.32645464002461
 20
-148.769211073919
 30
0.0
 10
90.38155852750768
 20
-148.769211073919
 30
0.0
 10
90.42636130414243
 20
-148.7244435739298
 30
0.0
 10
90.42636130414243
 20
-148.6693044072774
 30
0.0
  0
SPLINE
  5
BE
330
1F
100
AcDbEntity
  8
_U+30EC_U+30A4_U+30E4_U+30FC 1
 62
     7
420
 16777215
370
     9
100
AcDbSpline
210
0.0
220
0.0
230
1.0
 70
    11
 71
     3
 72
    17
 73
    13
 74
     0
 42
0.0000000001
 43
0.0000000001
 12
1.0
 22
0.0
 32
0.0
 13
1.0
 23
0.0
 33
0.0
 40
0.0
 40
0.0
 40
0.0
 40
0.0
 40
1.0
 40
1.0
 40
1.0
 40
2.0
 40
2.0
 40
2.0
 40
3.0
 40
3.0
 40
3.0
 40
4.0
 40
4.0
 40
4.0
 40
4.0
 10
88.92705578683736
 20
-148.6693044072774
 30
0.0
 10
88.92705578683736
 20
-148.613847740624
 30
0.0
 10
88.88225301020259
 20
-148.569044962858
 30
0.0
 10
88.82644356718197
 20
-148.569044962858
 30
0.0
 10
88.7713396796989
 20
-148.569044962858
 30
0.0
 10
88.72653690306413
 20
-148.613847740624
 30
0.0
 10
88.72653690306413
 20
-148.6693044072774
 30
0.0
 10
88.72653690306413
 20
-148.7244435739298
 30
0.0
 10
88.7713396796989
 20
-148.769211073919
 30
0.0
 10
88.82644356718197
 20
-148.769211073919
 30
0.0
 10
88.88225301020259
 20
-148.769211073919
 30
0.0
 10
88.92705578683736
 20
-148.7244435739298
 30
0.0
 10
88.92705578683736
 20
-148.6693044072774
 30
0.0
  0
POLYLINE
  5
BF
330
1F
100
AcDbEntity
  8
_U+30EC_U+30A4_U+30E4_U+30FC 1
 62
     7
420
 16777215
370
     9
100
AcDb2dPolyline
 66
     1
 10
0.0
 20
0.0
 30
0.0
  0
VERTEX
  5
C0
330
BF
100
AcDbEntity
  8
_U+30EC_U+30A4_U+30E4_U+30FC 1
 62
     7
420
 16777215
370
     9
100
AcDbVertex
100
AcDb2dVertex
 10
74.82628331462668
 20
-148.6693044072774
 30
0.0
  0
VERTEX
  5
C1
330
BF
100
AcDbEntity
  8
_U+30EC_U+30A4_U+30E4_U+30FC 1
 62
     7
420
 16777215
370
     9
100
AcDbVertex
100
AcDb2dVertex
 10
88.82644356718197
 20
-148.6693044072774
 30
0.0
  0
SEQEND
  5
C2
330
BF
100
AcDbEntity
  8
_U+30EC_U+30A4_U+30E4_U+30FC 1
 62
     7
420
 16777215
370
     9
  0
POLYLINE
  5
C3
330
1F
100
AcDbEntity
  8
_U+30EC_U+30A4_U+30E4_U+30FC 1
 62
     7
420
 16777215
370
     9
100
AcDb2dPolyline
 66
     1
 10
0.0
 20
0.0
 30
0.0
  0
VERTEX
  5
C4
330
C3
100
AcDbEntity
  8
_U+30EC_U+30A4_U+30E4_U+30FC 1
 62
     7
420
 16777215
370
     9
100
AcDbVertex
100
AcDb2dVertex
 10
74.82628331462668
 20
-147.209263018753
 30
0.0
  0
VERTEX
  5
C5
330
C3
100
AcDbEntity
  8
_U+30EC_U+30A4_U+30E4_U+30FC 1
 62
     7
420
 16777215
370
     9
100
AcDbVertex
100
AcDb2dVertex
 10
74.82628331462668
 20
-149.6690766292493
 30
0.0
  0
SEQEND
  5
C6
330
C3
100
AcDbEntity
  8
_U+30EC_U+30A4_U+30E4_U+30FC 1
 62
     7
420
 16777215
370
     9
  0
SPLINE
  5
C7
330
1F
100
AcDbEntity
  8
_U+30EC_U+30A4_U+30E4_U+30FC 1
 62
     7
420
 16777215
370
     9
100
AcDbSpline
210
0.0
220
0.0
230
1.0
 70
    11
 71
     3
 72
    17
 73
    13
 74
     0
 42
0.0000000001
 43
0.0000000001
 12
1.0
 22
0.0
 32
0.0
 13
1.0
 23
0.0
 33
0.0
 40
0.0
 40
0.0
 40
0.0
 40
0.0
 40
1.0
 40
1.0
 40
1.0
 40
2.0
 40
2.0
 40
2.0
 40
3.0
 40
3.0
 40
3.0
 40
4.0
 40
4.0
 40
4.0
 40
4.0
 10
69.90563127211432
 20
-144.7477560749243
 30
0.0
 10
69.94489720473608
 20
-144.7084919082673
 30
0.0
 10
69.94489720473608
 20
-144.645450519394
 30
0.0
 10
69.9059840498831
 20
-144.6065038527372
 30
0.0
 10
69.86703738421005
 20
-144.5672396860802
 30
0.0
 10
69.80367849693758
 20
-144.5672396860802
 30
0.0
 10
69.76437905349574
 20
-144.6065038527372
 30
0.0
 10
69.72546942701305
 20
-144.6457680193942
 30
0.0
 10
69.72546942701305
 20
-144.7088094082675
 30
0.0
 10
69.76437905349574
 20
-144.7477560749243
 30
0.0
 10
69.8033257191688
 20
-144.7870202415813
 30
0.0
 10
69.86671988421814
 20
-144.7870202415813
 30
0.0
 10
69.90563127211432
 20
-144.7477560749243
 30
0.0
  0
POLYLINE
  5
C8
330
1F
100
AcDbEntity
  8
_U+30EC_U+30A4_U+30E4_U+30FC 1
 62
     7
420
 16777215
370
     9
100
AcDb2dPolyline
 66
     1
 10
0.0
 20
0.0
 30
0.0
  0
VERTEX
  5
C9
330
C8
100
AcDbEntity
  8
_U+30EC_U+30A4_U+30E4_U+30FC 1
 62
     7
420
 16777215
370
     9
100
AcDbVertex
100
AcDb2dVertex
 10
70.86751513646351
 20
-143.6446199640888
 30
0.0
  0
VERTEX
  5
CA
330
C8
100
AcDbEntity
  8
_U+30EC_U+30A4_U+30E4_U+30FC 1
 62
     7
420
 16777215
370
     9
100
AcDbVertex
100
AcDb2dVertex
 10
69.12807379195146
 20
-145.3844141303209
 30
0.0
  0
SEQEND
  5
CB
330
C8
100
AcDbEntity
  8
_U+30EC_U+30A4_U+30E4_U+30FC 1
 62
     7
420
 16777215
370
     9
  0
SPLINE
  5
CC
330
1F
100
AcDbEntity
  8
_U+30EC_U+30A4_U+30E4_U+30FC 1
 62
     7
420
 16777215
370
     9
100
AcDbSpline
210
0.0
220
0.0
230
1.0
 70
    11
 71
     3
 72
    17
 73
    13
 74
     0
 42
0.0000000001
 43
0.0000000001
 12
1.0
 22
0.0
 32
0.0
 13
1.0
 23
0.0
 33
0.0
 40
0.0
 40
0.0
 40
0.0
 40
0.0
 40
1.0
 40
1.0
 40
1.0
 40
2.0
 40
2.0
 40
2.0
 40
3.0
 40
3.0
 40
3.0
 40
4.0
 40
4.0
 40
4.0
 40
4.0
 10
64.93368887265558
 20
-139.9080682983562
 30
0.0
 10
64.97295139795747
 20
-139.8688041316992
 30
0.0
 10
64.97295139795747
 20
-139.8057627428266
 30
0.0
 10
64.93400473228442
 20
-139.7668513539473
 30
0.0
 10
64.89509334438824
 20
-139.7275519095128
 30
0.0
 10
64.8316991793389
 20
-139.7275519095128
 30
0.0
 10
64.79243501367394
 20
-139.7668513539473
 30
0.0
 10
64.75348834800089
 20
-139.8061155206044
 30
0.0
 10
64.75348834800089
 20
-139.869156909477
 30
0.0
 10
64.79243501367394
 20
-139.9080682983562
 30
0.0
 10
64.83134640157012
 20
-139.9473677427908
 30
0.0
 10
64.89474056661946
 20
-139.9473677427908
 30
0.0
 10
64.93368887265558
 20
-139.9080682983562
 30
0.0
  0
POLYLINE
  5
CD
330
1F
100
AcDbEntity
  8
_U+30EC_U+30A4_U+30E4_U+30FC 1
 62
     7
420
 16777215
370
     9
100
AcDb2dPolyline
 66
     1
 10
0.0
 20
0.0
 30
0.0
  0
VERTEX
  5
CE
330
CD
100
AcDbEntity
  8
_U+30EC_U+30A4_U+30E4_U+30FC 1
 62
     7
420
 16777215
370
     9
100
AcDbVertex
100
AcDb2dVertex
 10
65.89553581886483
 20
-138.8049674652989
 30
0.0
  0
VERTEX
  5
CF
330
CD
100
AcDbEntity
  8
_U+30EC_U+30A4_U+30E4_U+30FC 1
 62
     7
420
 16777215
370
     9
100
AcDbVertex
100
AcDb2dVertex
 10
64.15612975212966
 20
-140.5447263537528
 30
0.0
  0
SEQEND
  5
D0
330
CD
100
AcDbEntity
  8
_U+30EC_U+30A4_U+30E4_U+30FC 1
 62
     7
420
 16777215
370
     9
  0
INSERT
  5
D2
330
1F
100
AcDbEntity
  8
_U+30EC_U+30A4_U+30E4_U+30FC 1
100
AcDbBlockReference
  2
block 7
 10
0.0
 20
0.0
 30
0.0
  0
POLYLINE
  5
EC
330
1F
100
AcDbEntity
  8
_U+30EC_U+30A4_U+30E4_U+30FC 1
 62
     7
420
 16777215
370
     9
100
AcDb2dPolyline
 66
     1
 10
0.0
 20
0.0
 30
0.0
  0
VERTEX
  5
ED
330
EC
100
AcDbEntity
  8
_U+30EC_U+30A4_U+30E4_U+30FC 1
 62
     7
420
 16777215
370
     9
100
AcDbVertex
100
AcDb2dVertex
 10
88.82644356718197
 20
-148.6693044072774
 30
0.0
  0
VERTEX
  5
EE
330
EC
100
AcDbEntity
  8
_U+30EC_U+30A4_U+30E4_U+30FC 1
 62
     7
420
 16777215
370
     9
100
AcDbVertex
100
AcDb2dVertex
 10
90.32645464002461
 20
-148.6693044072774
 30
0.0
  0
SEQEND
  5
EF
330
EC
100
AcDbEntity
  8
_U+30EC_U+30A4_U+30E4_U+30FC 1
 62
     7
420
 16777215
370
     9
  0
POLYLINE
  5
F0
330
1F
100
AcDbEntity
  8
_U+30EC_U+30A4_U+30E4_U+30FC 1
 62
     7
420
 16777215
370
     9
100
AcDb2dPolyline
 66
     1
 10
0.0
 20
0.0
 30
0.0
  0
VERTEX
  5
F1
330
F0
100
AcDbEntity
  8
_U+30EC_U+30A4_U+30E4_U+30FC 1
 62
     7
420
 16777215
370
     9
100
AcDbVertex
100
AcDb2dVertex
 10
88.82644356718197
 20
-147.209263018753
 30
0.0
  0
VERTEX
  5
F2
330
F0
100
AcDbEntity
  8
_U+30EC_U+30A4_U+30E4_U+30FC 1
 62
     7
420
 16777215
370
     9
100
AcDbVertex
100
AcDb2dVertex
 10
88.82644356718197
 20
-149.6690766292493
 30
0.0
  0
SEQEND
  5
F3
330
F0
100
AcDbEntity
  8
_U+30EC_U+30A4_U+30E4_U+30FC 1
 62
     7
420
 16777215
370
     9
  0
POLYLINE
  5
F4
330
1F
100
AcDbEntity
  8
_U+30EC_U+30A4_U+30E4_U+30FC 1
 62
     7
420
 16777215
370
     9
100
AcDb2dPolyline
 66
     1
 10
0.0
 20
0.0
 30
0.0
  0
VERTEX
  5
F5
330
F4
100
AcDbEntity
  8
_U+30EC_U+30A4_U+30E4_U+30FC 1
 62
     7
420
 16777215
370
     9
100
AcDbVertex
100
AcDb2dVertex
 10
90.32645464002461
 20
-147.209263018753
 30
0.0
  0
VERTEX
  5
F6
330
F4
100
AcDbEntity
  8
_U+30EC_U+30A4_U+30E4_U+30FC 1
 62
     7
420
 16777215
370
     9
100
AcDbVertex
100
AcDb2dVertex
 10
90.32645464002461
 20
-149.6690766292493
 30
0.0
  0
SEQEND
  5
F7
330
F4
100
AcDbEntity
  8
_U+30EC_U+30A4_U+30E4_U+30FC 1
 62
     7
420
 16777215
370
     9
  0
INSERT
  5
F9
330
1F
100
AcDbEntity
  8
_U+30EC_U+30A4_U+30E4_U+30FC 1
100
AcDbBlockReference
  2
block 8
 10
0.0
 20
0.0
 30
0.0
  0
POLYLINE
  5
108
330
1F
100
AcDbEntity
  8
_U+30EC_U+30A4_U+30E4_U+30FC 1
 62
     7
420
 16777215
370
    25
100
AcDb2dPolyline
 66
     1
 10
0.0
 20
0.0
 30
0.0
  0
VERTEX
  5
109
330
108
100
AcDbEntity
  8
_U+30EC_U+30A4_U+30E4_U+30FC 1
 62
     7
420
 16777215
370
    25
100
AcDbVertex
100
AcDb2dVertex
 10
74.72637476023802
 20
-139.7682271872802
 30
0.0
  0
VERTEX
  5
10A
330
108
100
AcDbEntity
  8
_U+30EC_U+30A4_U+30E4_U+30FC 1
 62
     7
420
 16777215
370
    25
100
AcDbVertex
100
AcDb2dVertex
 10
88.72653690306413
 20
-139.7682271872802
 30
0.0
  0
SEQEND
  5
10B
330
108
100
AcDbEntity
  8
_U+30EC_U+30A4_U+30E4_U+30FC 1
 62
     7
420
 16777215
370
    25
  0
POLYLINE
  5
10C
330
1F
100
AcDbEntity
  8
_U+30EC_U+30A4_U+30E4_U+30FC 1
 62
     7
420
 16777215
370
    25
100
AcDb2dPolyline
 66
     1
 10
0.0
 20
0.0
 30
0.0
  0
VERTEX
  5
10D
330
10C
100
AcDbEntity
  8
_U+30EC_U+30A4_U+30E4_U+30FC 1
 62
     7
420
 16777215
370
    25
100
AcDbVertex
100
AcDb2dVertex
 10
75.30997502312691
 20
-138.7684549653077
 30
0.0
  0
VERTEX
  5
10E
330
10C
100
AcDbEntity
  8
_U+30EC_U+30A4_U+30E4_U+30FC 1
 62
     7
420
 16777215
370
    25
100
AcDbVertex
100
AcDb2dVertex
 10
88.18703608906445
 20
-138.7684549653077
 30
0.0
  0
SEQEND
  5
10F
330
10C
100
AcDbEntity
  8
_U+30EC_U+30A4_U+30E4_U+30FC 1
 62
     7
420
 16777215
370
    25
  0
POLYLINE
  5
110
330
1F
100
AcDbEntity
  8
_U+30EC_U+30A4_U+30E4_U+30FC 1
 62
     7
420
 16777215
370
    25
100
AcDb2dPolyline
 66
     1
 10
0.0
 20
0.0
 30
0.0
  0
VERTEX
  5
111
330
110
100
AcDbEntity
  8
_U+30EC_U+30A4_U+30E4_U+30FC 1
 62
     7
420
 16777215
370
    25
100
AcDbVertex
100
AcDb2dVertex
 10
88.72653690306413
 20
-139.7682271872802
 30
0.0
  0
VERTEX
  5
112
330
110
100
AcDbEntity
  8
_U+30EC_U+30A4_U+30E4_U+30FC 1
 62
     7
420
 16777215
370
    25
100
AcDbVertex
100
AcDb2dVertex
 10
90.31611825139942
 20
-138.1782930210109
 30
0.0
  0
SEQEND
  5
113
330
110
100
AcDbEntity
  8
_U+30EC_U+30A4_U+30E4_U+30FC 1
 62
     7
420
 16777215
370
    25
  0
POLYLINE
  5
114
330
1F
100
AcDbEntity
  8
_U+30EC_U+30A4_U+30E4_U+30FC 1
 62
     7
420
 16777215
370
    25
100
AcDb2dPolyline
 66
     1
 10
0.0
 20
0.0
 30
0.0
  0
VERTEX
  5
115
330
114
100
AcDbEntity
  8
_U+30EC_U+30A4_U+30E4_U+30FC 1
 62
     7
420
 16777215
370
    25
100
AcDbVertex
100
AcDb2dVertex
 10
88.13122441825182
 20
-138.8049674652989
 30
0.0
  0
VERTEX
  5
116
330
114
100
AcDbEntity
  8
_U+30EC_U+30A4_U+30E4_U+30FC 1
 62
     7
420
 16777215
370
    25
100
AcDbVertex
100
AcDb2dVertex
 10
88.76477801319963
 20
-138.1724369099016
 30
0.0
  0
SEQEND
  5
117
330
114
100
AcDbEntity
  8
_U+30EC_U+30A4_U+30E4_U+30FC 1
 62
     7
420
 16777215
370
    25
  0
POLYLINE
  5
118
330
1F
100
AcDbEntity
  8
_U+30EC_U+30A4_U+30E4_U+30FC 1
 62
     7
420
 16777215
370
    25
100
AcDb2dPolyline
 66
     1
 10
0.0
 20
0.0
 30
0.0
  0
VERTEX
  5
119
330
118
100
AcDbEntity
  8
_U+30EC_U+30A4_U+30E4_U+30FC 1
 62
     7
420
 16777215
370
    25
100
AcDbVertex
100
AcDb2dVertex
 10
69.67032850033962
 20
-134.8589363551741
 30
0.0
  0
VERTEX
  5
11A
330
118
100
AcDbEntity
  8
_U+30EC_U+30A4_U+30E4_U+30FC 1
 62
     7
420
 16777215
370
    25
100
AcDbVertex
100
AcDb2dVertex
 10
69.67032850033962
 20
-120.8587738586743
 30
0.0
  0
SEQEND
  5
11B
330
118
100
AcDbEntity
  8
_U+30EC_U+30A4_U+30E4_U+30FC 1
 62
     7
420
 16777215
370
    25
  0
POLYLINE
  5
11C
330
1F
100
AcDbEntity
  8
_U+30EC_U+30A4_U+30E4_U+30FC 1
 62
     7
420
 16777215
370
    25
100
AcDb2dPolyline
 66
     1
 10
0.0
 20
0.0
 30
0.0
  0
VERTEX
  5
11D
330
11C
100
AcDbEntity
  8
_U+30EC_U+30A4_U+30E4_U+30FC 1
 62
     7
420
 16777215
370
    25
100
AcDbVertex
100
AcDb2dVertex
 10
70.67010069705553
 20
-134.294633021982
 30
0.0
  0
VERTEX
  5
11E
330
11C
100
AcDbEntity
  8
_U+30EC_U+30A4_U+30E4_U+30FC 1
 62
     7
420
 16777215
370
    25
100
AcDbVertex
100
AcDb2dVertex
 10
70.67010069705553
 20
-121.4175738585345
 30
0.0
  0
SEQEND
  5
11F
330
11C
100
AcDbEntity
  8
_U+30EC_U+30A4_U+30E4_U+30FC 1
 62
     7
420
 16777215
370
    25
  0
POLYLINE
  5
120
330
1F
100
AcDbEntity
  8
_U+30EC_U+30A4_U+30E4_U+30FC 1
 62
     7
420
 16777215
370
    25
100
AcDb2dPolyline
 66
     1
 10
0.0
 20
0.0
 30
0.0
  0
VERTEX
  5
121
330
120
100
AcDbEntity
  8
_U+30EC_U+30A4_U+30E4_U+30FC 1
 62
     7
420
 16777215
370
    25
100
AcDbVertex
100
AcDb2dVertex
 10
69.67032850033962
 20
-120.8587738586743
 30
0.0
  0
VERTEX
  5
122
330
120
100
AcDbEntity
  8
_U+30EC_U+30A4_U+30E4_U+30FC 1
 62
     7
420
 16777215
370
    25
100
AcDbVertex
100
AcDb2dVertex
 10
71.25990984867491
 20
-119.2691924701827
 30
0.0
  0
SEQEND
  5
123
330
120
100
AcDbEntity
  8
_U+30EC_U+30A4_U+30E4_U+30FC 1
 62
     7
420
 16777215
370
    25
  0
POLYLINE
  5
124
330
1F
100
AcDbEntity
  8
_U+30EC_U+30A4_U+30E4_U+30FC 1
 62
     7
420
 16777215
370
    25
100
AcDb2dPolyline
 66
     1
 10
0.0
 20
0.0
 30
0.0
  0
VERTEX
  5
125
330
124
100
AcDbEntity
  8
_U+30EC_U+30A4_U+30E4_U+30FC 1
 62
     7
420
 16777215
370
    25
100
AcDbVertex
100
AcDb2dVertex
 10
70.63358819798704
 20
-121.4540863585254
 30
0.0
  0
VERTEX
  5
126
330
124
100
AcDbEntity
  8
_U+30EC_U+30A4_U+30E4_U+30FC 1
 62
     7
420
 16777215
370
    25
100
AcDbVertex
100
AcDb2dVertex
 10
71.26611873740539
 20
-120.8208855253504
 30
0.0
  0
SEQEND
  5
127
330
124
100
AcDbEntity
  8
_U+30EC_U+30A4_U+30E4_U+30FC 1
 62
     7
420
 16777215
370
    25
  0
POLYLINE
  5
128
330
1F
100
AcDbEntity
  8
_U+30EC_U+30A4_U+30E4_U+30FC 1
 62
     7
420
 16777215
370
    25
100
AcDb2dPolyline
 66
     1
 10
0.0
 20
0.0
 30
0.0
  0
VERTEX
  5
129
330
128
100
AcDbEntity
  8
_U+30EC_U+30A4_U+30E4_U+30FC 1
 62
     7
420
 16777215
370
    25
100
AcDbVertex
100
AcDb2dVertex
 10
70.68318875227718
 20
-134.3080738553118
 30
0.0
  0
VERTEX
  5
12A
330
128
100
AcDbEntity
  8
_U+30EC_U+30A4_U+30E4_U+30FC 1
 62
     7
420
 16777215
370
    25
100
AcDbVertex
100
AcDb2dVertex
 10
72.45191065159777
 20
-136.0764430215362
 30
0.0
  0
SEQEND
  5
12B
330
128
100
AcDbEntity
  8
_U+30EC_U+30A4_U+30E4_U+30FC 1
 62
     7
420
 16777215
370
    25
  0
POLYLINE
  5
12C
330
1F
100
AcDbEntity
  8
_U+30EC_U+30A4_U+30E4_U+30FC 1
 62
     7
420
 16777215
370
    25
100
AcDb2dPolyline
 66
     1
 10
0.0
 20
0.0
 30
0.0
  0
VERTEX
  5
12D
330
12C
100
AcDbEntity
  8
_U+30EC_U+30A4_U+30E4_U+30FC 1
 62
     7
420
 16777215
370
    25
100
AcDbVertex
100
AcDb2dVertex
 10
73.29215674127242
 20
-136.7582213546991
 30
0.0
  0
VERTEX
  5
12E
330
12C
100
AcDbEntity
  8
_U+30EC_U+30A4_U+30E4_U+30FC 1
 62
     7
420
 16777215
370
    25
100
AcDbVertex
100
AcDb2dVertex
 10
75.30856391205181
 20
-138.7746638541954
 30
0.0
  0
SEQEND
  5
12F
330
12C
100
AcDbEntity
  8
_U+30EC_U+30A4_U+30E4_U+30FC 1
 62
     7
420
 16777215
370
    25
  0
POLYLINE
  5
130
330
1F
100
AcDbEntity
  8
_U+30EC_U+30A4_U+30E4_U+30FC 1
 62
     7
420
 16777215
370
    25
100
AcDb2dPolyline
 66
     1
 10
0.0
 20
0.0
 30
0.0
  0
VERTEX
  5
131
330
130
100
AcDbEntity
  8
_U+30EC_U+30A4_U+30E4_U+30FC 1
 62
     7
420
 16777215
370
    25
100
AcDbVertex
100
AcDb2dVertex
 10
88.81610717855678
 20
-138.1782930210109
 30
0.0
  0
VERTEX
  5
132
330
130
100
AcDbEntity
  8
_U+30EC_U+30A4_U+30E4_U+30FC 1
 62
     7
420
 16777215
370
    25
100
AcDbVertex
100
AcDb2dVertex
 10
90.31611825139942
 20
-138.1782930210109
 30
0.0
  0
SEQEND
  5
133
330
130
100
AcDbEntity
  8
_U+30EC_U+30A4_U+30E4_U+30FC 1
 62
     7
420
 16777215
370
    25
  0
POLYLINE
  5
134
330
1F
100
AcDbEntity
  8
_U+30EC_U+30A4_U+30E4_U+30FC 1
 62
     7
420
 16777215
370
    25
100
AcDb2dPolyline
 66
     1
 10
0.0
 20
0.0
 30
0.0
  0
VERTEX
  5
135
330
134
100
AcDbEntity
  8
_U+30EC_U+30A4_U+30E4_U+30FC 1
 62
     7
420
 16777215
370
    25
100
AcDbVertex
100
AcDb2dVertex
 10
71.25990984867491
 20
-120.769203580919
 30
0.0
  0
VERTEX
  5
136
330
134
100
AcDbEntity
  8
_U+30EC_U+30A4_U+30E4_U+30FC 1
 62
     7
420
 16777215
370
    25
100
AcDbVertex
100
AcDb2dVertex
 10
71.25990984867491
 20
-119.2691924701827
 30
0.0
  0
SEQEND
  5
137
330
134
100
AcDbEntity
  8
_U+30EC_U+30A4_U+30E4_U+30FC 1
 62
     7
420
 16777215
370
    25
  0
POLYLINE
  5
138
330
1F
100
AcDbEntity
  8
_U+30EC_U+30A4_U+30E4_U+30FC 1
 62
     7
420
 16777215
370
    25
100
AcDb2dPolyline
 66
     1
 10
0.0
 20
0.0
 30
0.0
  0
VERTEX
  5
139
330
138
100
AcDbEntity
  8
_U+30EC_U+30A4_U+30E4_U+30FC 1
 62
     7
420
 16777215
370
    25
100
AcDbVertex
100
AcDb2dVertex
 10
82.60944094801313
 20
-127.0971549682259
 30
0.0
  0
VERTEX
  5
13A
330
138
100
AcDbEntity
  8
_U+30EC_U+30A4_U+30E4_U+30FC 1
 62
     7
420
 16777215
370
    25
100
AcDbVertex
100
AcDb2dVertex
 10
107.6096372546494
 20
-127.0971549682259
 30
0.0
  0
SEQEND
  5
13B
330
138
100
AcDbEntity
  8
_U+30EC_U+30A4_U+30E4_U+30FC 1
 62
     7
420
 16777215
370
    25
  0
POLYLINE
  5
13C
330
1F
100
AcDbEntity
  8
_U+30EC_U+30A4_U+30E4_U+30FC 1
 62
     7
420
 16777215
370
    25
100
AcDb2dPolyline
 66
     1
 10
0.0
 20
0.0
 30
0.0
  0
VERTEX
  5
13D
330
13C
100
AcDbEntity
  8
_U+30EC_U+30A4_U+30E4_U+30FC 1
 62
     7
420
 16777215
370
    25
100
AcDbVertex
100
AcDb2dVertex
 10
82.00654374117211
 20
-128.0969271901981
 30
0.0
  0
VERTEX
  5
13E
330
13C
100
AcDbEntity
  8
_U+30EC_U+30A4_U+30E4_U+30FC 1
 62
     7
420
 16777215
370
    25
100
AcDbVertex
100
AcDb2dVertex
 10
107.6096372546494
 20
-128.0969271901981
 30
0.0
  0
SEQEND
  5
13F
330
13C
100
AcDbEntity
  8
_U+30EC_U+30A4_U+30E4_U+30FC 1
 62
     7
420
 16777215
370
    25
  0
POLYLINE
  5
140
330
1F
100
AcDbEntity
  8
_U+30EC_U+30A4_U+30E4_U+30FC 1
 62
     7
420
 16777215
370
    25
100
AcDb2dPolyline
 66
     1
 10
0.0
 20
0.0
 30
0.0
  0
VERTEX
  5
141
330
140
100
AcDbEntity
  8
_U+30EC_U+30A4_U+30E4_U+30FC 1
 62
     7
420
 16777215
370
    25
100
AcDbVertex
100
AcDb2dVertex
 10
107.6096372546494
 20
-127.0971549682259
 30
0.0
  0
VERTEX
  5
142
330
140
100
AcDbEntity
  8
_U+30EC_U+30A4_U+30E4_U+30FC 1
 62
     7
420
 16777215
370
    25
100
AcDbVertex
100
AcDb2dVertex
 10
107.6096372546494
 20
-128.0969271901981
 30
0.0
  0
SEQEND
  5
143
330
140
100
AcDbEntity
  8
_U+30EC_U+30A4_U+30E4_U+30FC 1
 62
     7
420
 16777215
370
    25
  0
POLYLINE
  5
144
330
1F
100
AcDbEntity
  8
_U+30EC_U+30A4_U+30E4_U+30FC 1
 62
     7
420
 16777215
370
    25
100
AcDb2dPolyline
 66
     1
 10
0.0
 20
0.0
 30
0.0
  0
VERTEX
  5
145
330
144
100
AcDbEntity
  8
_U+30EC_U+30A4_U+30E4_U+30FC 1
 62
     7
420
 16777215
370
    25
100
AcDbVertex
100
AcDb2dVertex
 10
81.57865958542168
 20
-127.053728023792
 30
0.0
  0
VERTEX
  5
146
330
144
100
AcDbEntity
  8
_U+30EC_U+30A4_U+30E4_U+30FC 1
 62
     7
420
 16777215
370
    25
100
AcDbVertex
100
AcDb2dVertex
 10
81.57865958542168
 20
-101.9789538633942
 30
0.0
  0
SEQEND
  5
147
330
144
100
AcDbEntity
  8
_U+30EC_U+30A4_U+30E4_U+30FC 1
 62
     7
420
 16777215
370
    25
  0
POLYLINE
  5
148
330
1F
100
AcDbEntity
  8
_U+30EC_U+30A4_U+30E4_U+30FC 1
 62
     7
420
 16777215
370
    25
100
AcDb2dPolyline
 66
     1
 10
0.0
 20
0.0
 30
0.0
  0
VERTEX
  5
149
330
148
100
AcDbEntity
  8
_U+30EC_U+30A4_U+30E4_U+30FC 1
 62
     7
420
 16777215
370
    25
100
AcDbVertex
100
AcDb2dVertex
 10
82.57874928212948
 20
-127.1129946904441
 30
0.0
  0
VERTEX
  5
14A
330
148
100
AcDbEntity
  8
_U+30EC_U+30A4_U+30E4_U+30FC 1
 62
     7
420
 16777215
370
    25
100
AcDbVertex
100
AcDb2dVertex
 10
82.57874928212948
 20
-101.9789538633942
 30
0.0
  0
SEQEND
  5
14B
330
148
100
AcDbEntity
  8
_U+30EC_U+30A4_U+30E4_U+30FC 1
 62
     7
420
 16777215
370
    25
  0
POLYLINE
  5
14C
330
1F
100
AcDbEntity
  8
_U+30EC_U+30A4_U+30E4_U+30FC 1
 62
     7
420
 16777215
370
    25
100
AcDb2dPolyline
 66
     1
 10
0.0
 20
0.0
 30
0.0
  0
VERTEX
  5
14D
330
14C
100
AcDbEntity
  8
_U+30EC_U+30A4_U+30E4_U+30FC 1
 62
     7
420
 16777215
370
    25
100
AcDbVertex
100
AcDb2dVertex
 10
81.57865958542168
 20
-101.9789538633942
 30
0.0
  0
VERTEX
  5
14E
330
14C
100
AcDbEntity
  8
_U+30EC_U+30A4_U+30E4_U+30FC 1
 62
     7
420
 16777215
370
    25
100
AcDbVertex
100
AcDb2dVertex
 10
82.57910205989826
 20
-101.9789538633942
 30
0.0
  0
SEQEND
  5
14F
330
14C
100
AcDbEntity
  8
_U+30EC_U+30A4_U+30E4_U+30FC 1
 62
     7
420
 16777215
370
    25
  0
POLYLINE
  5
150
330
1F
100
AcDbEntity
  8
_U+30EC_U+30A4_U+30E4_U+30FC 1
 62
     7
420
 16777215
370
    25
100
AcDb2dPolyline
 66
     1
 10
0.0
 20
0.0
 30
0.0
  0
VERTEX
  5
151
330
150
100
AcDbEntity
  8
_U+30EC_U+30A4_U+30E4_U+30FC 1
 62
     7
420
 16777215
370
    25
100
AcDbVertex
100
AcDb2dVertex
 10
72.50839037237907
 20
-136.1556769104058
 30
0.0
  0
VERTEX
  5
152
330
150
100
AcDbEntity
  8
_U+30EC_U+30A4_U+30E4_U+30FC 1
 62
     7
420
 16777215
370
    25
100
AcDbVertex
100
AcDb2dVertex
 10
81.5703693078554
 20
-127.094050523782
 30
0.0
  0
SEQEND
  5
153
330
150
100
AcDbEntity
  8
_U+30EC_U+30A4_U+30E4_U+30FC 1
 62
     7
420
 16777215
370
    25
  0
POLYLINE
  5
154
330
1F
100
AcDbEntity
  8
_U+30EC_U+30A4_U+30E4_U+30FC 1
 62
     7
420
 16777215
370
    25
100
AcDb2dPolyline
 66
     1
 10
0.0
 20
0.0
 30
0.0
  0
VERTEX
  5
155
330
154
100
AcDbEntity
  8
_U+30EC_U+30A4_U+30E4_U+30FC 1
 62
     7
420
 16777215
370
    25
100
AcDbVertex
100
AcDb2dVertex
 10
73.37244896144621
 20
-136.6900294102721
 30
0.0
  0
VERTEX
  5
156
330
154
100
AcDbEntity
  8
_U+30EC_U+30A4_U+30E4_U+30FC 1
 62
     7
420
 16777215
370
    25
100
AcDbVertex
100
AcDb2dVertex
 10
81.91972513227591
 20
-128.1427530235199
 30
0.0
  0
SEQEND
  5
157
330
154
100
AcDbEntity
  8
_U+30EC_U+30A4_U+30E4_U+30FC 1
 62
     7
420
 16777215
370
    25
  0
ENDSEC
  0
SECTION
  2
OBJECTS
  0
DICTIONARY
  5
C
330
0
100
AcDbDictionary
281
     1
  3
ACAD_GROUP
350
D
  3
ACAD_LAYOUT
350
1A
  3
ACAD_MATERIAL
350
3B
  3
ACAD_MLEADERSTYLE
350
159
  3
ACAD_MLINESTYLE
350
17
  3
ACAD_PLOTSETTINGS
350
19
  3
ACAD_PLOTSTYLENAME
350
E
  3
ACAD_TABLESTYLE
350
158
  3
ACAD_VISUALSTYLE
350
2A
  0
SUN
  5
3F
330
29
100
AcDbSun
 90
        1
290
     0
 63
     7
421
 16777215
 40
1.0
291
     1
 91
  2455826
 92
 54000000
292
     0
 70
     2
 71
   256
280
     1
  0
DICTIONARY
  5
D
102
{ACAD_REACTORS
330
C
102
}
330
C
100
AcDbDictionary
281
     1
  0
DICTIONARY
  5
1A
102
{ACAD_REACTORS
330
C
102
}
330
C
100
AcDbDictionary
281
     1
  3
Layout1
350
1E
  3
Layout2
350
26
  3
Model
350
22
  0
DICTIONARY
  5
3B
102
{ACAD_REACTORS
330
C
102
}
330
C
100
AcDbDictionary
281
     1
  3
ByBlock
350
3D
  3
ByLayer
350
3C
  3
Global
350
3E
  0
DICTIONARY
  5
159
102
{ACAD_REACTORS
330
C
102
}
330
C
100
AcDbDictionary
281
     1
  0
DICTIONARY
  5
17
102
{ACAD_REACTORS
330
C
102
}
330
C
100
AcDbDictionary
281
     1
  3
Standard
350
18
  0
DICTIONARY
  5
19
102
{ACAD_REACTORS
330
C
102
}
330
C
100
AcDbDictionary
281
     1
  0
ACDBDICTIONARYWDFLT
  5
E
102
{ACAD_REACTORS
330
C
102
}
330
C
100
AcDbDictionary
281
     1
  3
Normal
350
F
100
AcDbDictionaryWithDefault
340
F
  0
DICTIONARY
  5
158
102
{ACAD_REACTORS
330
C
102
}
330
C
100
AcDbDictionary
281
     1
  0
DICTIONARY
  5
2A
102
{ACAD_REACTORS
330
C
102
}
330
C
100
AcDbDictionary
281
     1
  3
2dWireframe
350
2F
  3
3D Hidden
350
31
  3
3dWireframe
350
30
  3
Basic
350
32
  3
Brighten
350
36
  3
ColorChange
350
3A
  3
Conceptual
350
34
  3
Dim
350
35
  3
Facepattern
350
39
  3
Flat
350
2B
  3
FlatWithEdges
350
2C
  3
Gouraud
350
2D
  3
GouraudWithEdges
350
2E
  3
Linepattern
350
38
  3
Realistic
350
33
  3
Thicken
350
37
  0
LAYOUT
  5
1E
102
{ACAD_REACTORS
330
1A
102
}
330
1A
100
AcDbPlotSettings
  1

  2
none_device
  4

  6

 40
0.0
 41
0.0
 42
0.0
 43
0.0
 44
0.0
 45
0.0
 46
0.0
 47
0.0
 48
0.0
 49
0.0
140
0.0
141
0.0
142
1.0
143
1.0
 70
   688
 72
     0
 73
     0
 74
     5
  7

 75
    16
 76
     0
 77
     2
 78
   300
147
1.0
148
0.0
149
0.0
100
AcDbLayout
  1
Layout1
 70
     1
 71
     1
 10
0.0
 20
0.0
 11
12.0
 21
9.0
 12
0.0
 22
0.0
 32
0.0
 14
1.000000000000000E+20
 24
1.000000000000000E+20
 34
1.000000000000000E+20
 15
-1.000000000000000E+20
 25
-1.000000000000000E+20
 35
-1.000000000000000E+20
146
0.0
 13
0.0
 23
0.0
 33
0.0
 16
1.0
 26
0.0
 36
0.0
 17
0.0
 27
1.0
 37
0.0
 76
     0
330
1B
  0
LAYOUT
  5
26
102
{ACAD_REACTORS
330
1A
102
}
330
1A
100
AcDbPlotSettings
  1

  2
none_device
  4

  6

 40
0.0
 41
0.0
 42
0.0
 43
0.0
 44
0.0
 45
0.0
 46
0.0
 47
0.0
 48
0.0
 49
0.0
140
0.0
141
0.0
142
1.0
143
1.0
 70
   688
 72
     0
 73
     0
 74
     5
  7

 75
    16
 76
     0
 77
     2
 78
   300
147
1.0
148
0.0
149
0.0
100
AcDbLayout
  1
Layout2
 70
     1
 71
     2
 10
0.0
 20
0.0
 11
0.0
 21
0.0
 12
0.0
 22
0.0
 32
0.0
 14
0.0
 24
0.0
 34
0.0
 15
0.0
 25
0.0
 35
0.0
146
0.0
 13
0.0
 23
0.0
 33
0.0
 16
1.0
 26
0.0
 36
0.0
 17
0.0
 27
1.0
 37
0.0
 76
     0
330
23
  0
LAYOUT
  5
22
102
{ACAD_REACTORS
330
1A
102
}
330
1A
100
AcDbPlotSettings
  1

  2
none_device
  4

  6

 40
0.0
 41
0.0
 42
0.0
 43
0.0
 44
0.0
 45
0.0
 46
0.0
 47
0.0
 48
0.0
 49
0.0
140
0.0
141
0.0
142
1.0
143
1.0
 70
  1712
 72
     0
 73
     0
 74
     0
  7

 75
     0
 76
     0
 77
     2
 78
   300
147
1.0
148
0.0
149
0.0
100
AcDbLayout
  1
Model
 70
     1
 71
     0
 10
0.0
 20
0.0
 11
12.0
 21
9.0
 12
0.0
 22
0.0
 32
0.0
 14
1.000000000000000E+20
 24
1.000000000000000E+20
 34
1.000000000000000E+20
 15
-1.000000000000000E+20
 25
-1.000000000000000E+20
 35
-1.000000000000000E+20
146
0.0
 13
0.0
 23
0.0
 33
0.0
 16
1.0
 26
0.0
 36
0.0
 17
0.0
 27
1.0
 37
0.0
 76
     0
330
1F
331
29
  0
MATERIAL
  5
3D
102
{ACAD_REACTORS
330
3B
102
}
330
3B
100
AcDbMaterial
  1
ByBlock
 72
     1
 94
      127
  0
MATERIAL
  5
3C
102
{ACAD_REACTORS
330
3B
102
}
330
3B
100
AcDbMaterial
  1
ByLayer
 72
     1
 94
      127
  0
MATERIAL
  5
3E
102
{ACAD_REACTORS
330
3B
102
}
330
3B
100
AcDbMaterial
  1
Global
 72
     1
 94
      127
  0
MLINESTYLE
  5
18
102
{ACAD_REACTORS
330
17
102
}
330
17
100
AcDbMlineStyle
  2
Standard
 70
     0
  3

 62
   256
 51
90.0
 52
90.0
 71
     2
 49
0.5
 62
   256
  6
BYLAYER
 49
-0.5
 62
   256
  6
BYLAYER
  0
ACDBPLACEHOLDER
  5
F
102
{ACAD_REACTORS
330
E
102
}
330
E
  0
VISUALSTYLE
  5
2F
102
{ACAD_REACTORS
330
2A
102
}
330
2A
100
AcDbVisualStyle
  2
2dWireframe
 70
     4
177
     2
291
     0
 71
     0
176
     1
 72
     2
176
     1
 73
     0
176
     1
 90
        0
176
     1
 40
-0.6
176
     1
 41
-30.0
176
     1
 62
     5
 63
     7
421
 16777215
176
     1
 74
     1
176
     1
 91
        4
176
     1
 64
     7
176
     1
 65
   257
176
     1
 75
     1
176
     1
175
     1
176
     1
 42
1.0
176
     1
 92
        0
176
     1
 66
   257
176
     1
 43
1.0
176
     1
 76
     1
176
     1
 77
     6
176
     1
 78
     2
176
     1
 67
     7
176
     1
 79
     5
176
     1
170
     0
176
     1
171
     0
176
     1
290
     0
176
     1
 93
        1
176
     1
 44
0.0
176
     1
173
     0
176
     1
  0
VISUALSTYLE
  5
31
102
{ACAD_REACTORS
330
2A
102
}
330
2A
100
AcDbVisualStyle
  2
3D Hidden
 70
     6
177
     2
291
     0
 71
     1
176
     1
 72
     2
176
     1
 73
     2
176
     1
 90
        0
176
     1
 40
-0.6
176
     1
 41
-30.0
176
     1
 62
     5
 63
     7
421
 16777215
176
     1
 74
     2
176
     1
 91
        2
176
     1
 64
     7
176
     1
 65
   257
176
     1
 75
     2
176
     1
175
     1
176
     1
 42
40.0
176
     1
 92
        0
176
     1
 66
   257
176
     1
 43
1.0
176
     1
 76
     1
176
     1
 77
     6
176
     1
 78
     2
176
     1
 67
     7
176
     1
 79
     3
176
     1
170
     0
176
     1
171
     0
176
     1
290
     0
176
     1
 93
        1
176
     1
 44
0.0
176
     1
173
     0
176
     1
  0
VISUALSTYLE
  5
30
102
{ACAD_REACTORS
330
2A
102
}
330
2A
100
AcDbVisualStyle
  2
3dWireframe
 70
     5
177
     2
291
     0
 71
     0
176
     1
 72
     2
176
     1
 73
     0
176
     1
 90
        0
176
     1
 40
-0.6
176
     1
 41
-30.0
176
     1
 62
     5
 63
     7
421
 16777215
176
     1
 74
     1
176
     1
 91
        4
176
     1
 64
     7
176
     1
 65
   257
176
     1
 75
     1
176
     1
175
     1
176
     1
 42
1.0
176
     1
 92
        0
176
     1
 66
   257
176
     1
 43
1.0
176
     1
 76
     1
176
     1
 77
     6
176
     1
 78
     2
176
     1
 67
     7
176
     1
 79
     5
176
     1
170
     0
176
     1
171
     0
176
     1
290
     0
176
     1
 93
        1
176
     1
 44
0.0
176
     1
173
     0
176
     1
  0
VISUALSTYLE
  5
32
102
{ACAD_REACTORS
330
2A
102
}
330
2A
100
AcDbVisualStyle
  2
Basic
 70
     7
177
     2
291
     1
 71
     1
176
     1
 72
     0
176
     1
 73
     1
176
     1
 90
        0
176
     1
 40
-0.6
176
     1
 41
-30.0
176
     1
 62
     5
 63
     7
421
 16777215
176
     1
 74
     0
176
     1
 91
        4
176
     1
 64
     7
176
     1
 65
   257
176
     1
 75
     1
176
     1
175
     1
176
     1
 42
1.0
176
     1
 92
        8
176
     1
 66
     7
176
     1
 43
1.0
176
     1
 76
     1
176
     1
 77
     6
176
     1
 78
     2
176
     1
 67
     7
176
     1
 79
     5
176
     1
170
     0
176
     1
171
     0
176
     1
290
     0
176
     1
 93
        1
176
     1
 44
0.0
176
     1
173
     0
176
     1
  0
VISUALSTYLE
  5
36
102
{ACAD_REACTORS
330
2A
102
}
330
2A
100
AcDbVisualStyle
  2
Brighten
 70
    12
177
     2
291
     1
 71
     2
176
     1
 72
     2
176
     1
 73
     0
176
     1
 90
        0
176
     1
 40
-0.6
176
     1
 41
-30.0
176
     1
 62
     5
 63
     7
421
 16777215
176
     1
 74
     1
176
     1
 91
        4
176
     1
 64
     7
176
     1
 65
   257
176
     1
 75
     1
176
     1
175
     1
176
     1
 42
1.0
176
     1
 92
        8
176
     1
 66
     7
176
     1
 43
1.0
176
     1
 76
     1
176
     1
 77
     6
176
     1
 78
     2
176
     1
 67
     7
176
     1
 79
     5
176
     1
170
     0
176
     1
171
     0
176
     1
290
     0
176
     1
 93
        1
176
     1
 44
50.0
176
     1
173
     0
176
     1
  0
VISUALSTYLE
  5
3A
102
{ACAD_REACTORS
330
2A
102
}
330
2A
100
AcDbVisualStyle
  2
ColorChange
 70
    16
177
     2
291
     1
 71
     2
176
     1
 72
     2
176
     1
 73
     3
176
     1
 90
        0
176
     1
 40
-0.6
176
     1
 41
-30.0
176
     1
 62
     5
 63
     8
421
  8421504
176
     1
 74
     1
176
     1
 91
        4
176
     1
 64
     7
176
     1
 65
   257
176
     1
 75
     1
176
     1
175
     1
176
     1
 42
1.0
176
     1
 92
        8
176
     1
 66
     8
424
  8421504
176
     1
 43
1.0
176
     1
 76
     1
176
     1
 77
     6
176
     1
 78
     2
176
     1
 67
     7
176
     1
 79
     5
176
     1
170
     0
176
     1
171
     0
176
     1
290
     0
176
     1
 93
        1
176
     1
 44
0.0
176
     1
173
     0
176
     1
  0
VISUALSTYLE
  5
34
102
{ACAD_REACTORS
330
2A
102
}
330
2A
100
AcDbVisualStyle
  2
Conceptual
 70
     9
177
     2
291
     0
 71
     3
176
     1
 72
     2
176
     1
 73
     0
176
     1
 90
        0
176
     1
 40
-0.6
176
     1
 41
-30.0
176
     1
 62
     5
 63
     7
421
 16777215
176
     1
 74
     2
176
     1
 91
        2
176
     1
 64
     7
176
     1
 65
   257
176
     1
 75
     1
176
     1
175
     1
176
     1
 42
40.0
176
     1
 92
        8
176
     1
 66
     7
176
     1
 43
1.0
176
     1
 76
     1
176
     1
 77
     6
176
     1
 78
     2
176
     1
 67
     7
176
     1
 79
     3
176
     1
170
     0
176
     1
171
     0
176
     1
290
     0
176
     1
 93
        1
176
     1
 44
0.0
176
     1
173
     0
176
     1
  0
VISUALSTYLE
  5
35
102
{ACAD_REACTORS
330
2A
102
}
330
2A
100
AcDbVisualStyle
  2
Dim
 70
    11
177
     2
291
     1
 71
     2
176
     1
 72
     2
176
     1
 73
     0
176
     1
 90
        0
176
     1
 40
-0.6
176
     1
 41
-30.0
176
     1
 62
     5
 63
     7
421
 16777215
176
     1
 74
     1
176
     1
 91
        4
176
     1
 64
     7
176
     1
 65
   257
176
     1
 75
     1
176
     1
175
     1
176
     1
 42
1.0
176
     1
 92
        8
176
     1
 66
     7
176
     1
 43
1.0
176
     1
 76
     1
176
     1
 77
     6
176
     1
 78
     2
176
     1
 67
     7
176
     1
 79
     5
176
     1
170
     0
176
     1
171
     0
176
     1
290
     0
176
     1
 93
        1
176
     1
 44
-50.0
176
     1
173
     0
176
     1
  0
VISUALSTYLE
  5
39
102
{ACAD_REACTORS
330
2A
102
}
330
2A
100
AcDbVisualStyle
  2
Facepattern
 70
    15
177
     2
291
     1
 71
     2
176
     1
 72
     2
176
     1
 73
     0
176
     1
 90
        0
176
     1
 40
-0.6
176
     1
 41
-30.0
176
     1
 62
     5
 63
     7
421
 16777215
176
     1
 74
     1
176
     1
 91
        4
176
     1
 64
     7
176
     1
 65
   257
176
     1
 75
     1
176
     1
175
     1
176
     1
 42
1.0
176
     1
 92
        8
176
     1
 66
     7
176
     1
 43
1.0
176
     1
 76
     1
176
     1
 77
     6
176
     1
 78
     2
176
     1
 67
     7
176
     1
 79
     5
176
     1
170
     0
176
     1
171
     0
176
     1
290
     0
176
     1
 93
        1
176
     1
 44
0.0
176
     1
173
     0
176
     1
  0
VISUALSTYLE
  5
2B
102
{ACAD_REACTORS
330
2A
102
}
330
2A
100
AcDbVisualStyle
  2
Flat
 70
     0
177
     2
291
     1
 71
     2
176
     1
 72
     1
176
     1
 73
     1
176
     1
 90
        2
176
     1
 40
-0.6
176
     1
 41
30.0
176
     1
 62
     5
 63
     7
421
 16777215
176
     1
 74
     0
176
     1
 91
        4
176
     1
 64
     7
176
     1
 65
   257
176
     1
 75
     1
176
     1
175
     1
176
     1
 42
1.0
176
     1
 92
        8
176
     1
 66
     7
176
     1
 43
1.0
176
     1
 76
     1
176
     1
 77
     6
176
     1
 78
     2
176
     1
 67
     7
176
     1
 79
     5
176
     1
170
     0
176
     1
171
     0
176
     1
290
     0
176
     1
 93
       13
176
     1
 44
0.0
176
     1
173
     0
176
     1
  0
VISUALSTYLE
  5
2C
102
{ACAD_REACTORS
330
2A
102
}
330
2A
100
AcDbVisualStyle
  2
FlatWithEdges
 70
     1
177
     2
291
     1
 71
     2
176
     1
 72
     1
176
     1
 73
     1
176
     1
 90
        2
176
     1
 40
-0.6
176
     1
 41
30.0
176
     1
 62
     5
 63
     7
421
 16777215
176
     1
 74
     1
176
     1
 91
        4
176
     1
 64
     7
176
     1
 65
   257
176
     1
 75
     1
176
     1
175
     1
176
     1
 42
1.0
176
     1
 92
        0
176
     1
 66
   257
176
     1
 43
1.0
176
     1
 76
     1
176
     1
 77
     6
176
     1
 78
     2
176
     1
 67
     7
176
     1
 79
     5
176
     1
170
     0
176
     1
171
     0
176
     1
290
     0
176
     1
 93
       13
176
     1
 44
0.0
176
     1
173
     0
176
     1
  0
VISUALSTYLE
  5
2D
102
{ACAD_REACTORS
330
2A
102
}
330
2A
100
AcDbVisualStyle
  2
Gouraud
 70
     2
177
     2
291
     1
 71
     2
176
     1
 72
     2
176
     1
 73
     1
176
     1
 90
        2
176
     1
 40
-0.6
176
     1
 41
30.0
176
     1
 62
     5
 63
     7
421
 16777215
176
     1
 74
     0
176
     1
 91
        4
176
     1
 64
     7
176
     1
 65
   257
176
     1
 75
     1
176
     1
175
     1
176
     1
 42
1.0
176
     1
 92
        0
176
     1
 66
     7
176
     1
 43
1.0
176
     1
 76
     1
176
     1
 77
     6
176
     1
 78
     2
176
     1
 67
     7
176
     1
 79
     5
176
     1
170
     0
176
     1
171
     0
176
     1
290
     0
176
     1
 93
       13
176
     1
 44
0.0
176
     1
173
     0
176
     1
  0
VISUALSTYLE
  5
2E
102
{ACAD_REACTORS
330
2A
102
}
330
2A
100
AcDbVisualStyle
  2
GouraudWithEdges
 70
     3
177
     2
291
     1
 71
     2
176
     1
 72
     2
176
     1
 73
     1
176
     1
 90
        2
176
     1
 40
-0.6
176
     1
 41
30.0
176
     1
 62
     5
 63
     7
421
 16777215
176
     1
 74
     1
176
     1
 91
        4
176
     1
 64
     7
176
     1
 65
   257
176
     1
 75
     1
176
     1
175
     1
176
     1
 42
1.0
176
     1
 92
        0
176
     1
 66
   257
176
     1
 43
1.0
176
     1
 76
     1
176
     1
 77
     6
176
     1
 78
     2
176
     1
 67
     7
176
     1
 79
     5
176
     1
170
     0
176
     1
171
     0
176
     1
290
     0
176
     1
 93
       13
176
     1
 44
0.0
176
     1
173
     0
176
     1
  0
VISUALSTYLE
  5
38
102
{ACAD_REACTORS
330
2A
102
}
330
2A
100
AcDbVisualStyle
  2
Linepattern
 70
    14
177
     2
291
     1
 71
     2
176
     1
 72
     2
176
     1
 73
     0
176
     1
 90
        0
176
     1
 40
-0.6
176
     1
 41
-30.0
176
     1
 62
     5
 63
     7
421
 16777215
176
     1
 74
     1
176
     1
 91
        4
176
     1
 64
     7
176
     1
 65
   257
176
     1
 75
     7
176
     1
175
     7
176
     1
 42
1.0
176
     1
 92
        8
176
     1
 66
     7
176
     1
 43
1.0
176
     1
 76
     1
176
     1
 77
     6
176
     1
 78
     2
176
     1
 67
     7
176
     1
 79
     5
176
     1
170
     0
176
     1
171
     0
176
     1
290
     0
176
     1
 93
        1
176
     1
 44
0.0
176
     1
173
     0
176
     1
  0
VISUALSTYLE
  5
33
102
{ACAD_REACTORS
330
2A
102
}
330
2A
100
AcDbVisualStyle
  2
Realistic
 70
     8
177
     2
291
     0
 71
     2
176
     1
 72
     2
176
     1
 73
     0
176
     1
 90
        0
176
     1
 40
-0.6
176
     1
 41
-30.0
176
     1
 62
     5
 63
     7
421
 16777215
176
     1
 74
     1
176
     1
 91
        0
176
     1
 64
     7
176
     1
 65
   257
176
     1
 75
     1
176
     1
175
     1
176
     1
 42
1.0
176
     1
 92
        8
176
     1
 66
     8
424
  7895160
176
     1
 43
1.0
176
     1
 76
     1
176
     1
 77
     6
176
     1
 78
     2
176
     1
 67
     7
176
     1
 79
     5
176
     1
170
     0
176
     1
171
     0
176
     1
290
     0
176
     1
 93
       13
176
     1
 44
0.0
176
     1
173
     0
176
     1
  0
VISUALSTYLE
  5
37
102
{ACAD_REACTORS
330
2A
102
}
330
2A
100
AcDbVisualStyle
  2
Thicken
 70
    13
177
     2
291
     1
 71
     2
176
     1
 72
     2
176
     1
 73
     0
176
     1
 90
        0
176
     1
 40
-0.6
176
     1
 41
-30.0
176
     1
 62
     5
 63
     7
421
 16777215
176
     1
 74
     1
176
     1
 91
        4
176
     1
 64
     7
176
     1
 65
   257
176
     1
 75
     1
176
     1
175
     1
176
     1
 42
1.0
176
     1
 92
       12
176
     1
 66
     7
176
     1
 43
1.0
176
     1
 76
     1
176
     1
 77
     6
176
     1
 78
     2
176
     1
 67
     7
176
     1
 79
     5
176
     1
170
     0
176
     1
171
     0
176
     1
290
     0
176
     1
 93
        1
176
     1
 44
0.0
176
     1
173
     0
176
     1
  0
ENDSEC
  0
EOF
