  0
SECTION
  2
HEADER
  9
$ACADVER
  1
AC1024
  9
$ACADMAINTVER
 70
     6
  9
$DWGCODEPAGE
  3
UNDEFINED
  9
$INSBASE
 10
0.0
 20
0.0
 30
0.0
  9
$EXTMIN
 10
1.000000000000000E+20
 20
1.000000000000000E+20
 30
1.000000000000000E+20
  9
$EXTMAX
 10
-1.000000000000000E+20
 20
-1.000000000000000E+20
 30
-1.000000000000000E+20
  9
$LIMMIN
 10
0.0
 20
0.0
  9
$LIMMAX
 10
12.0
 20
9.0
  9
$ORTHOMODE
 70
     0
  9
$REGENMODE
 70
     1
  9
$FILLMODE
 70
     1
  9
$QTEXTMODE
 70
     0
  9
$MIRRTEXT
 70
     1
  9
$LTSCALE
 40
1.0
  9
$ATTMODE
 70
     1
  9
$TEXTSIZE
 40
0.2
  9
$TRACEWID
 40
0.05
  9
$TEXTSTYLE
  7
Standard
  9
$CLAYER
  8
0
  9
$CELTYPE
  6
ByLayer
  9
$CECOLOR
 62
   256
  9
$CELTSCALE
 40
1.0
  9
$DISPSILH
 70
     0
  9
$DIMSCALE
 40
1.0
  9
$DIMASZ
 40
0.18
  9
$DIMEXO
 40
0.0625
  9
$DIMDLI
 40
0.38
  9
$DIMRND
 40
0.0
  9
$DIMDLE
 40
0.0
  9
$DIMEXE
 40
0.18
  9
$DIMTP
 40
0.0
  9
$DIMTM
 40
0.0
  9
$DIMTXT
 40
0.18
  9
$DIMCEN
 40
0.09
  9
$DIMTSZ
 40
0.0
  9
$DIMTOL
 70
     0
  9
$DIMLIM
 70
     0
  9
$DIMTIH
 70
     1
  9
$DIMTOH
 70
     1
  9
$DIMSE1
 70
     0
  9
$DIMSE2
 70
     0
  9
$DIMTAD
 70
     0
  9
$DIMZIN
 70
     0
  9
$DIMBLK
  1

  9
$DIMASO
 70
     1
  9
$DIMSHO
 70
     1
  9
$DIMPOST
  1

  9
$DIMAPOST
  1

  9
$DIMALT
 70
     0
  9
$DIMALTD
 70
     2
  9
$DIMALTF
 40
25.4
  9
$DIMLFAC
 40
1.0
  9
$DIMTOFL
 70
     0
  9
$DIMTVP
 40
0.0
  9
$DIMTIX
 70
     0
  9
$DIMSOXD
 70
     0
  9
$DIMSAH
 70
     0
  9
$DIMBLK1
  1

  9
$DIMBLK2
  1

  9
$DIMSTYLE
  2
Standard
  9
$DIMCLRD
 70
     0
  9
$DIMCLRE
 70
     0
  9
$DIMCLRT
 70
     0
  9
$DIMTFAC
 40
1.0
  9
$DIMGAP
 40
0.09
  9
$DIMJUST
 70
     0
  9
$DIMSD1
 70
     0
  9
$DIMSD2
 70
     0
  9
$DIMTOLJ
 70
     1
  9
$DIMTZIN
 70
     0
  9
$DIMALTZ
 70
     0
  9
$DIMALTTZ
 70
     0
  9
$DIMUPT
 70
     0
  9
$DIMDEC
 70
     4
  9
$DIMTDEC
 70
     4
  9
$DIMALTU
 70
     2
  9
$DIMALTTD
 70
     2
  9
$DIMTXSTY
  7
Standard
  9
$DIMAUNIT
 70
     0
  9
$DIMADEC
 70
     0
  9
$DIMALTRND
 40
0.0
  9
$DIMAZIN
 70
     0
  9
$DIMDSEP
 70
    46
  9
$DIMATFIT
 70
     3
  9
$DIMFRAC
 70
     0
  9
$DIMLDRBLK
  1

  9
$DIMLUNIT
 70
     2
  9
$DIMLWD
 70
    -2
  9
$DIMLWE
 70
    -2
  9
$DIMTMOVE
 70
     0
  9
$DIMFXL
 40
1.0
  9
$DIMFXLON
 70
     0
  9
$DIMJOGANG
 40
0.7853981633974483
  9
$DIMTFILL
 70
     0
  9
$DIMTFILLCLR
 70
     0
  9
$DIMARCSYM
 70
     0
  9
$DIMLTYPE
  6

  9
$DIMLTEX1
  6

  9
$DIMLTEX2
  6

  9
$DIMTXTDIRECTION
 70
     0
  9
$LUNITS
 70
     2
  9
$LUPREC
 70
     4
  9
$SKETCHINC
 40
0.1
  9
$FILLETRAD
 40
0.5
  9
$AUNITS
 70
     0
  9
$AUPREC
 70
     0
  9
$MENU
  1
.
  9
$ELEVATION
 40
0.0
  9
$PELEVATION
 40
0.0
  9
$THICKNESS
 40
0.0
  9
$LIMCHECK
 70
     0
  9
$CHAMFERA
 40
0.5
  9
$CHAMFERB
 40
0.5
  9
$CHAMFERC
 40
1.0
  9
$CHAMFERD
 40
0.0
  9
$SKPOLY
 70
     0
  9
$TDCREATE
 40
2457917.623113414
  9
$TDUCREATE
 40
2457917.248113426
  9
$TDUPDATE
 40
2457917.623113414
  9
$TDUUPDATE
 40
2457917.248113426
  9
$TDINDWG
 40
0.0000000116
  9
$TDUSRTIMER
 40
0.0000000116
  9
$USRTIMER
 70
     1
  9
$ANGBASE
 50
0.0
  9
$ANGDIR
 70
     0
  9
$PDMODE
 70
     0
  9
$PDSIZE
 40
0.0
  9
$PLINEWID
 40
0.0
  9
$SPLFRAME
 70
     0
  9
$SPLINETYPE
 70
     6
  9
$SPLINESEGS
 70
     8
  9
$HANDSEED
  5
B3
  9
$SURFTAB1
 70
     6
  9
$SURFTAB2
 70
     6
  9
$SURFTYPE
 70
     6
  9
$SURFU
 70
     6
  9
$SURFV
 70
     6
  9
$UCSBASE
  2

  9
$UCSNAME
  2

  9
$UCSORG
 10
0.0
 20
0.0
 30
0.0
  9
$UCSXDIR
 10
1.0
 20
0.0
 30
0.0
  9
$UCSYDIR
 10
0.0
 20
1.0
 30
0.0
  9
$UCSORTHOREF
  2

  9
$UCSORTHOVIEW
 70
     0
  9
$UCSORGTOP
 10
0.0
 20
0.0
 30
0.0
  9
$UCSORGBOTTOM
 10
0.0
 20
0.0
 30
0.0
  9
$UCSORGLEFT
 10
0.0
 20
0.0
 30
0.0
  9
$UCSORGRIGHT
 10
0.0
 20
0.0
 30
0.0
  9
$UCSORGFRONT
 10
0.0
 20
0.0
 30
0.0
  9
$UCSORGBACK
 10
0.0
 20
0.0
 30
0.0
  9
$PUCSBASE
  2

  9
$PUCSNAME
  2

  9
$PUCSORG
 10
0.0
 20
0.0
 30
0.0
  9
$PUCSXDIR
 10
1.0
 20
0.0
 30
0.0
  9
$PUCSYDIR
 10
0.0
 20
1.0
 30
0.0
  9
$PUCSORTHOREF
  2

  9
$PUCSORTHOVIEW
 70
     0
  9
$PUCSORGTOP
 10
0.0
 20
0.0
 30
0.0
  9
$PUCSORGBOTTOM
 10
0.0
 20
0.0
 30
0.0
  9
$PUCSORGLEFT
 10
0.0
 20
0.0
 30
0.0
  9
$PUCSORGRIGHT
 10
0.0
 20
0.0
 30
0.0
  9
$PUCSORGFRONT
 10
0.0
 20
0.0
 30
0.0
  9
$PUCSORGBACK
 10
0.0
 20
0.0
 30
0.0
  9
$USERI1
 70
     0
  9
$USERI2
 70
     0
  9
$USERI3
 70
     0
  9
$USERI4
 70
     0
  9
$USERI5
 70
     0
  9
$USERR1
 40
0.0
  9
$USERR2
 40
0.0
  9
$USERR3
 40
0.0
  9
$USERR4
 40
0.0
  9
$USERR5
 40
0.0
  9
$WORLDVIEW
 70
     1
  9
$SHADEDGE
 70
     3
  9
$SHADEDIF
 70
    70
  9
$TILEMODE
 70
     1
  9
$MAXACTVP
 70
    64
  9
$PINSBASE
 10
0.0
 20
0.0
 30
0.0
  9
$PLIMCHECK
 70
     0
  9
$PEXTMIN
 10
1.000000000000000E+20
 20
1.000000000000000E+20
 30
1.000000000000000E+20
  9
$PEXTMAX
 10
-1.000000000000000E+20
 20
-1.000000000000000E+20
 30
-1.000000000000000E+20
  9
$PLIMMIN
 10
0.0
 20
0.0
  9
$PLIMMAX
 10
12.0
 20
9.0
  9
$UNITMODE
 70
     0
  9
$VISRETAIN
 70
     1
  9
$PLINEGEN
 70
     0
  9
$PSLTSCALE
 70
     1
  9
$TREEDEPTH
 70
  3020
  9
$CMLSTYLE
  2
Standard
  9
$CMLJUST
 70
     0
  9
$CMLSCALE
 40
1.0
  9
$PROXYGRAPHICS
 70
     1
  9
$MEASUREMENT
 70
     0
  9
$CELWEIGHT
370
    -1
  9
$ENDCAPS
280
     0
  9
$JOINSTYLE
280
     0
  9
$LWDISPLAY
290
     1
  9
$INSUNITS
 70
     1
  9
$HYPERLINKBASE
  1

  9
$STYLESHEET
  1

  9
$XEDIT
290
     1
  9
$CEPSNTYPE
380
     0
  9
$PSTYLEMODE
290
     1
  9
$FINGERPRINTGUID
  2
{7A0F3C62-400D-7AC8-E157-E0EF3983F8B8}
  9
$VERSIONGUID
  2
{FAEB1C32-E019-11D5-929B-00C0DF256EC4}
  9
$EXTNAMES
290
     1
  9
$PSVPSCALE
 40
0.0
  9
$OLESTARTUP
290
     0
  9
$SORTENTS
280
   127
  9
$INDEXCTL
280
     0
  9
$HIDETEXT
280
     1
  9
$XCLIPFRAME
280
     2
  9
$HALOGAP
280
     0
  9
$OBSCOLOR
 70
   257
  9
$OBSLTYPE
280
     0
  9
$INTERSECTIONDISPLAY
280
     0
  9
$INTERSECTIONCOLOR
 70
   257
  9
$DIMASSOC
280
     2
  9
$PROJECTNAME
  1

  9
$CAMERADISPLAY
290
     0
  9
$LENSLENGTH
 40
50.0
  9
$CAMERAHEIGHT
 40
0.0
  9
$STEPSPERSEC
 40
2.0
  9
$STEPSIZE
 40
6.0
  9
$3DDWFPREC
 40
2.0
  9
$PSOLWIDTH
 40
0.25
  9
$PSOLHEIGHT
 40
4.0
  9
$LOFTANG1
 40
1.570796326794897
  9
$LOFTANG2
 40
1.570796326794897
  9
$LOFTMAG1
 40
0.0
  9
$LOFTMAG2
 40
0.0
  9
$LOFTPARAM
 70
     7
  9
$LOFTNORMALS
280
     1
  9
$LATITUDE
 40
37.795
  9
$LONGITUDE
 40
-122.394
  9
$NORTHDIRECTION
 40
0.0
  9
$TIMEZONE
 70
 -8000
  9
$LIGHTGLYPHDISPLAY
280
     1
  9
$TILEMODELIGHTSYNCH
280
     1
  9
$CMATERIAL
347
3C
  9
$SOLIDHIST
280
     1
  9
$SHOWHIST
280
     1
  9
$DWFFRAME
280
     2
  9
$DGNFRAME
280
     2
  9
$REALWORLDSCALE
290
     1
  9
$INTERFERECOLOR
 62
   256
  9
$CSHADOW
280
     0
  9
$SHADOWPLANELOCATION
 40
0.0
  0
ENDSEC
  0
SECTION
  2
CLASSES
  0
CLASS
  1
ACDBDICTIONARYWDFLT
  2
AcDbDictionaryWithDefault
  3
ObjectDBX Classes
 90
        0
 91
        4
280
     0
281
     0
  0
CLASS
  1
VISUALSTYLE
  2
AcDbVisualStyle
  3
ObjectDBX Classes
 90
     4095
 91
        4
280
     0
281
     0
  0
CLASS
  1
MATERIAL
  2
AcDbMaterial
  3
ObjectDBX Classes
 90
     1153
 91
        4
280
     0
281
     0
  0
CLASS
  1
SUN
  2
AcDbSun
  3
SCENEOE
 90
     1024
 91
        4
280
     0
281
     0
  0
ENDSEC
  0
SECTION
  2
TABLES
  0
TABLE
  2
VPORT
  5
8
330
0
100
AcDbSymbolTable
 70
     1
  0
VPORT
  5
29
330
8
100
AcDbSymbolTableRecord
100
AcDbViewportTableRecord
  2
*Active
 70
     0
 10
0.0
 20
0.0
 11
1.0
 21
1.0
 12
0.0
 22
0.0
 13
0.0
 23
0.0
 14
0.5
 24
0.5
 15
0.5
 25
0.5
 16
0.0
 26
0.0
 36
1.0
 17
91.00082462281999
 27
-128.4993055234307
 37
0.0
 40
256.9986110468615
 41
0.7081814508812795
 42
50.0
 43
0.0
 44
0.0
 50
0.0
 51
0.0
 71
     0
 72
   100
 73
     1
 74
     3
 75
     0
 76
     0
 77
     0
 78
     0
281
     0
 65
     1
110
0.0
120
0.0
130
0.0
111
1.0
121
0.0
131
0.0
112
0.0
122
1.0
132
0.0
 79
     0
146
0.0
 60
     3
 61
     5
292
     1
282
     1
141
0.0
142
0.0
 63
   250
361
3F
  0
ENDTAB
  0
TABLE
  2
LTYPE
  5
5
330
0
100
AcDbSymbolTable
 70
     1
  0
LTYPE
  5
14
330
5
100
AcDbSymbolTableRecord
100
AcDbLinetypeTableRecord
  2
ByBlock
 70
     0
  3

 72
    65
 73
     0
 40
0.0
  0
LTYPE
  5
15
330
5
100
AcDbSymbolTableRecord
100
AcDbLinetypeTableRecord
  2
ByLayer
 70
     0
  3

 72
    65
 73
     0
 40
0.0
  0
LTYPE
  5
16
330
5
100
AcDbSymbolTableRecord
100
AcDbLinetypeTableRecord
  2
Continuous
 70
     0
  3
Solid line
 72
    65
 73
     0
 40
0.0
  0
ENDTAB
  0
TABLE
  2
LAYER
  5
2
330
0
100
AcDbSymbolTable
 70
     2
  0
LAYER
  5
10
330
2
100
AcDbSymbolTableRecord
100
AcDbLayerTableRecord
  2
0
 70
     0
 62
     7
  6
Continuous
370
    -3
390
F
347
3E
  0
LAYER
  5
40
330
2
100
AcDbSymbolTableRecord
100
AcDbLayerTableRecord
  2
_U+30EC_U+30A4_U+30E4_U+30FC 1
 70
     0
 62
     7
  6
Continuous
370
    -3
390
F
347
3E
  0
ENDTAB
  0
TABLE
  2
STYLE
  5
3
330
0
100
AcDbSymbolTable
 70
     1
  0
STYLE
  5
11
330
3
100
AcDbSymbolTableRecord
100
AcDbTextStyleTableRecord
  2
Standard
 70
     0
 40
0.0
 41
1.0
 50
0.0
 71
     0
 42
0.2
  3
txt
  4

  0
ENDTAB
  0
TABLE
  2
VIEW
  5
6
330
0
100
AcDbSymbolTable
 70
     0
  0
ENDTAB
  0
TABLE
  2
UCS
  5
7
330
0
100
AcDbSymbolTable
 70
     0
  0
ENDTAB
  0
TABLE
  2
APPID
  5
9
330
0
100
AcDbSymbolTable
 70
     1
  0
APPID
  5
12
330
9
100
AcDbSymbolTableRecord
100
AcDbRegAppTableRecord
  2
ACAD
 70
     0
  0
ENDTAB
  0
TABLE
  2
DIMSTYLE
  5
A
330
0
100
AcDbSymbolTable
 70
     1
100
AcDbDimStyleTable
  0
DIMSTYLE
105
27
330
A
100
AcDbSymbolTableRecord
100
AcDbDimStyleTableRecord
  2
Standard
 70
     0
178
     0
340
11
  0
ENDTAB
  0
TABLE
  2
BLOCK_RECORD
  5
1
330
0
100
AcDbSymbolTable
 70
     6
  0
BLOCK_RECORD
  5
1F
330
1
100
AcDbSymbolTableRecord
100
AcDbBlockTableRecord
  2
*Model_Space
340
22
 70
     0
280
     1
281
     0
  0
BLOCK_RECORD
  5
1B
330
1
100
AcDbSymbolTableRecord
100
AcDbBlockTableRecord
  2
*Paper_Space
340
1E
 70
     0
280
     1
281
     0
  0
BLOCK_RECORD
  5
23
330
1
100
AcDbSymbolTableRecord
100
AcDbBlockTableRecord
  2
*Paper_Space0
340
26
 70
     0
280
     1
281
     0
  0
BLOCK_RECORD
  5
59
330
1
100
AcDbSymbolTableRecord
100
AcDbBlockTableRecord
  2
block 2
340
0
102
{BLKREFS
331
5A
102
}
 70
     0
280
     1
281
     0
  0
BLOCK_RECORD
  5
62
330
1
100
AcDbSymbolTableRecord
100
AcDbBlockTableRecord
  2
block 3
340
0
102
{BLKREFS
331
63
102
}
 70
     0
280
     1
281
     0
  0
BLOCK_RECORD
  5
6A
330
1
100
AcDbSymbolTableRecord
100
AcDbBlockTableRecord
  2
block 4
340
0
102
{BLKREFS
331
6B
102
}
 70
     0
280
     1
281
     0
  0
BLOCK_RECORD
  5
7B
330
1
100
AcDbSymbolTableRecord
100
AcDbBlockTableRecord
  2
block 5
340
0
102
{BLKREFS
331
7C
102
}
 70
     0
280
     1
281
     0
  0
BLOCK_RECORD
  5
91
330
1
100
AcDbSymbolTableRecord
100
AcDbBlockTableRecord
  2
block 6
340
0
102
{BLKREFS
331
92
102
}
 70
     0
280
     1
281
     0
  0
ENDTAB
  0
ENDSEC
  0
SECTION
  2
BLOCKS
  0
BLOCK
  5
20
330
1F
100
AcDbEntity
  8
0
100
AcDbBlockBegin
  2
*Model_Space
 70
     0
 10
0.0
 20
0.0
 30
0.0
  3
*Model_Space
  1

  0
ENDBLK
  5
21
330
1F
100
AcDbEntity
  8
0
100
AcDbBlockEnd
  0
BLOCK
  5
1C
330
1B
100
AcDbEntity
 67
     1
  8
0
100
AcDbBlockBegin
  2
*Paper_Space
 70
     0
 10
0.0
 20
0.0
 30
0.0
  3
*Paper_Space
  1

  0
ENDBLK
  5
1D
330
1B
100
AcDbEntity
 67
     1
  8
0
100
AcDbBlockEnd
  0
BLOCK
  5
24
330
23
100
AcDbEntity
  8
0
100
AcDbBlockBegin
  2
*Paper_Space0
 70
     0
 10
0.0
 20
0.0
 30
0.0
  3
*Paper_Space0
  1

  0
ENDBLK
  5
25
330
23
100
AcDbEntity
  8
0
100
AcDbBlockEnd
  0
BLOCK
  5
5B
330
59
100
AcDbEntity
  8
0
100
AcDbBlockBegin
  2
block 2
 70
     0
 10
0.0
 20
0.0
 30
0.0
  3
block 2
  1

  0
SPLINE
  5
5D
330
59
100
AcDbEntity
  8
_U+30EC_U+30A4_U+30E4_U+30FC 1
370
     0
100
AcDbSpline
210
0.0
220
0.0
230
1.0
 70
    11
 71
     3
 72
    26
 73
    22
 74
     0
 42
0.0000000001
 43
0.0000000001
 12
1.0
 22
0.0
 32
0.0
 13
1.0
 23
0.0
 33
0.0
 40
0.0
 40
0.0
 40
0.0
 40
0.0
 40
1.0
 40
1.0
 40
1.0
 40
2.0
 40
2.0
 40
2.0
 40
3.0
 40
3.0
 40
3.0
 40
4.0
 40
4.0
 40
4.0
 40
5.0
 40
5.0
 40
5.0
 40
6.0
 40
6.0
 40
6.0
 40
7.0
 40
7.0
 40
7.0
 40
7.0
 10
74.53326278518614
 20
-133.5697970586214
 30
0.0
 10
74.53326278518614
 20
-133.5697970586214
 30
0.0
 10
73.4289374273893
 20
-133.5697970586214
 30
0.0
 10
73.4289374273893
 20
-133.5697970586214
 30
0.0
 10
73.4289374273893
 20
-133.5697970586214
 30
0.0
 10
73.4289374273893
 20
-133.8998372061084
 30
0.0
 10
73.4289374273893
 20
-133.8998372061084
 30
0.0
 10
73.4289374273893
 20
-133.8998372061084
 30
0.0
 10
73.28097057629782
 20
-133.8998372061084
 30
0.0
 10
73.28097057629782
 20
-133.8998372061084
 30
0.0
 10
73.26615666571124
 20
-133.5677300013303
 30
0.0
 10
73.10320364925893
 20
-133.5212212122794
 30
0.0
 10
72.9889987339229
 20
-133.4915933911063
 30
0.0
 10
72.9889987339229
 20
-133.4915933911063
 30
0.0
 10
72.9889987339229
 20
-133.3455213425317
 30
0.0
 10
72.9889987339229
 20
-133.3455213425317
 30
0.0
 10
72.9889987339229
 20
-133.3455213425317
 30
0.0
 10
74.53326278518614
 20
-133.3455213425317
 30
0.0
 10
74.53326278518614
 20
-133.3455213425317
 30
0.0
 10
74.53326278518614
 20
-133.3455213425317
 30
0.0
 10
74.53326278518614
 20
-133.5697970586214
 30
0.0
 10
74.53326278518614
 20
-133.5697970586214
 30
0.0
  0
HATCH
  5
5E
330
59
100
AcDbEntity
  8
_U+30EC_U+30A4_U+30E4_U+30FC 1
 62
     7
420
 16777215
100
AcDbHatch
 10
0.0
 20
0.0
 30
0.0
210
0.0
220
0.0
230
1.0
  2
SOLID
 70
     1
 71
     0
 91
        1
 92
        1
 93
        1
 72
     4
 94
        3
 73
     0
 74
     1
 95
       26
 96
       22
 40
0.0
 40
0.0
 40
0.0
 40
0.0
 40
1.0
 40
1.0
 40
1.0
 40
2.0
 40
2.0
 40
2.0
 40
3.0
 40
3.0
 40
3.0
 40
4.0
 40
4.0
 40
4.0
 40
5.0
 40
5.0
 40
5.0
 40
6.0
 40
6.0
 40
6.0
 40
7.0
 40
7.0
 40
7.0
 40
7.0
 10
74.53326278518614
 20
-133.5697970586214
 10
74.53326278518614
 20
-133.5697970586214
 10
73.4289374273893
 20
-133.5697970586214
 10
73.4289374273893
 20
-133.5697970586214
 10
73.4289374273893
 20
-133.5697970586214
 10
73.4289374273893
 20
-133.8998372061084
 10
73.4289374273893
 20
-133.8998372061084
 10
73.4289374273893
 20
-133.8998372061084
 10
73.28097057629782
 20
-133.8998372061084
 10
73.28097057629782
 20
-133.8998372061084
 10
73.26615666571124
 20
-133.5677300013303
 10
73.10320364925893
 20
-133.5212212122794
 10
72.9889987339229
 20
-133.4915933911063
 10
72.9889987339229
 20
-133.4915933911063
 10
72.9889987339229
 20
-133.3455213425317
 10
72.9889987339229
 20
-133.3455213425317
 10
72.9889987339229
 20
-133.3455213425317
 10
74.53326278518614
 20
-133.3455213425317
 10
74.53326278518614
 20
-133.3455213425317
 10
74.53326278518614
 20
-133.3455213425317
 10
74.53326278518614
 20
-133.5697970586214
 10
74.53326278518614
 20
-133.5697970586214
 97
        0
 97
        0
 75
     2
 76
     1
 98
        0
  0
SPLINE
  5
5F
330
59
100
AcDbEntity
  8
_U+30EC_U+30A4_U+30E4_U+30FC 1
370
     0
100
AcDbSpline
210
0.0
220
0.0
230
1.0
 70
    11
 71
     3
 72
    29
 73
    25
 74
     0
 42
0.0000000001
 43
0.0000000001
 12
1.0
 22
0.0
 32
0.0
 13
1.0
 23
0.0
 33
0.0
 40
0.0
 40
0.0
 40
0.0
 40
0.0
 40
1.0
 40
1.0
 40
1.0
 40
2.0
 40
2.0
 40
2.0
 40
3.0
 40
3.0
 40
3.0
 40
4.0
 40
4.0
 40
4.0
 40
5.0
 40
5.0
 40
5.0
 40
6.0
 40
6.0
 40
6.0
 40
7.0
 40
7.0
 40
7.0
 40
8.0
 40
8.0
 40
8.0
 40
8.0
 10
74.35549585814724
 20
-131.9461235564232
 30
0.0
 10
74.56495766365043
 20
-132.0539550451115
 30
0.0
 10
74.58407794359357
 20
-132.2275878575681
 30
0.0
 10
74.58407794359357
 20
-132.3440320849695
 30
0.0
 10
74.58407794359357
 20
-132.5045735345822
 30
0.0
 10
74.5375691545427
 20
-132.6465114685745
 30
0.0
 10
74.35549585814724
 20
-132.7415961039674
 30
0.0
 10
74.16084796323062
 20
-132.8449489685249
 30
0.0
 10
73.9239976486197
 20
-132.8642415032423
 30
0.0
 10
73.76104463216738
 20
-132.8642415032423
 30
0.0
 10
73.6172118956582
 20
-132.8642415032423
 30
0.0
 10
73.3655476704607
 20
-132.8473605353645
 30
0.0
 10
73.16659340618752
 20
-132.7415961039674
 30
0.0
 10
72.96350502733205
 20
-132.6334201057306
 30
0.0
 10
72.94025063280661
 20
-132.4728786561179
 30
0.0
 10
72.94025063280661
 20
-132.3440320849695
 30
0.0
 10
72.94025063280661
 20
-132.1852131830995
 30
0.0
 10
72.98469236456633
 20
-132.0415527013646
 30
0.0
 10
73.16659340618752
 20
-131.9461235564232
 30
0.0
 10
73.35917424381299
 20
-131.8465602968995
 30
0.0
 10
73.58758407448505
 20
-131.8234781571483
 30
0.0
 10
73.76104463216738
 20
-131.8234781571483
 30
0.0
 10
73.93243813255856
 20
-131.8234781571483
 30
0.0
 10
74.16308727529604
 20
-131.8444932396083
 30
0.0
 10
74.35549585814724
 20
-131.9461235564232
 30
0.0
  0
SPLINE
  5
60
330
59
100
AcDbEntity
  8
_U+30EC_U+30A4_U+30E4_U+30FC 1
370
     0
100
AcDbSpline
210
0.0
220
0.0
230
1.0
 70
    11
 71
     3
 72
    17
 73
    13
 74
     0
 42
0.0000000001
 43
0.0000000001
 12
1.0
 22
0.0
 32
0.0
 13
1.0
 23
0.0
 33
0.0
 40
0.0
 40
0.0
 40
0.0
 40
0.0
 40
1.0
 40
1.0
 40
1.0
 40
2.0
 40
2.0
 40
2.0
 40
3.0
 40
3.0
 40
3.0
 40
4.0
 40
4.0
 40
4.0
 40
4.0
 10
73.13283147043208
 20
-132.3440320849695
 30
0.0
 10
73.13283147043208
 20
-132.5934569981016
 30
0.0
 10
73.41636282886813
 20
-132.6399657871525
 30
0.0
 10
73.76104463216738
 20
-132.6399657871525
 30
0.0
 10
74.0805772384243
 20
-132.6399657871525
 30
0.0
 10
74.38943004867696
 20
-132.6037922845574
 30
0.0
 10
74.38943004867696
 20
-132.3440320849695
 30
0.0
 10
74.38943004867696
 20
-132.0963297195801
 30
0.0
 10
74.10796574753203
 20
-132.0477538732381
 30
0.0
 10
73.76104463216738
 20
-132.0477538732381
 30
0.0
 10
73.44168428068473
 20
-132.0477538732381
 30
0.0
 10
73.13283147043208
 20
-132.0856499235758
 30
0.0
 10
73.13283147043208
 20
-132.3440320849695
 30
0.0
  0
HATCH
  5
61
330
59
100
AcDbEntity
  8
_U+30EC_U+30A4_U+30E4_U+30FC 1
 62
     7
420
 16777215
100
AcDbHatch
 10
0.0
 20
0.0
 30
0.0
210
0.0
220
0.0
230
1.0
  2
SOLID
 70
     1
 71
     0
 91
        2
 92
        1
 93
        1
 72
     4
 94
        3
 73
     0
 74
     1
 95
       29
 96
       25
 40
0.0
 40
0.0
 40
0.0
 40
0.0
 40
1.0
 40
1.0
 40
1.0
 40
2.0
 40
2.0
 40
2.0
 40
3.0
 40
3.0
 40
3.0
 40
4.0
 40
4.0
 40
4.0
 40
5.0
 40
5.0
 40
5.0
 40
6.0
 40
6.0
 40
6.0
 40
7.0
 40
7.0
 40
7.0
 40
8.0
 40
8.0
 40
8.0
 40
8.0
 10
74.35549585814724
 20
-131.9461235564232
 10
74.56495766365043
 20
-132.0539550451115
 10
74.58407794359357
 20
-132.2275878575681
 10
74.58407794359357
 20
-132.3440320849695
 10
74.58407794359357
 20
-132.5045735345822
 10
74.5375691545427
 20
-132.6465114685745
 10
74.35549585814724
 20
-132.7415961039674
 10
74.16084796323062
 20
-132.8449489685249
 10
73.9239976486197
 20
-132.8642415032423
 10
73.76104463216738
 20
-132.8642415032423
 10
73.6172118956582
 20
-132.8642415032423
 10
73.3655476704607
 20
-132.8473605353645
 10
73.16659340618752
 20
-132.7415961039674
 10
72.96350502733205
 20
-132.6334201057306
 10
72.94025063280661
 20
-132.4728786561179
 10
72.94025063280661
 20
-132.3440320849695
 10
72.94025063280661
 20
-132.1852131830995
 10
72.98469236456633
 20
-132.0415527013646
 10
73.16659340618752
 20
-131.9461235564232
 10
73.35917424381299
 20
-131.8465602968995
 10
73.58758407448505
 20
-131.8234781571483
 10
73.76104463216738
 20
-131.8234781571483
 10
73.93243813255856
 20
-131.8234781571483
 10
74.16308727529604
 20
-131.8444932396083
 10
74.35549585814724
 20
-131.9461235564232
 97
        0
 97
        0
 92
        1
 93
        1
 72
     4
 94
        3
 73
     0
 74
     1
 95
       17
 96
       13
 40
0.0
 40
0.0
 40
0.0
 40
0.0
 40
1.0
 40
1.0
 40
1.0
 40
2.0
 40
2.0
 40
2.0
 40
3.0
 40
3.0
 40
3.0
 40
4.0
 40
4.0
 40
4.0
 40
4.0
 10
73.13283147043208
 20
-132.3440320849695
 10
73.13283147043208
 20
-132.5934569981016
 10
73.41636282886813
 20
-132.6399657871525
 10
73.76104463216738
 20
-132.6399657871525
 10
74.0805772384243
 20
-132.6399657871525
 10
74.38943004867696
 20
-132.6037922845574
 10
74.38943004867696
 20
-132.3440320849695
 10
74.38943004867696
 20
-132.0963297195801
 10
74.10796574753203
 20
-132.0477538732381
 10
73.76104463216738
 20
-132.0477538732381
 10
73.44168428068473
 20
-132.0477538732381
 10
73.13283147043208
 20
-132.0856499235758
 10
73.13283147043208
 20
-132.3440320849695
 97
        0
 97
        0
 75
     2
 76
     1
 98
        0
  0
ENDBLK
  5
5C
330
59
100
AcDbEntity
  8
0
100
AcDbBlockEnd
  0
BLOCK
  5
64
330
62
100
AcDbEntity
  8
0
100
AcDbBlockBegin
  2
block 3
 70
     0
 10
0.0
 20
0.0
 30
0.0
  3
block 3
  1

  0
SPLINE
  5
66
330
62
100
AcDbEntity
  8
_U+30EC_U+30A4_U+30E4_U+30FC 1
370
     0
100
AcDbSpline
210
0.0
220
0.0
230
1.0
 70
    11
 71
     3
 72
    26
 73
    22
 74
     0
 42
0.0000000001
 43
0.0000000001
 12
1.0
 22
0.0
 32
0.0
 13
1.0
 23
0.0
 33
0.0
 40
0.0
 40
0.0
 40
0.0
 40
0.0
 40
1.0
 40
1.0
 40
1.0
 40
2.0
 40
2.0
 40
2.0
 40
3.0
 40
3.0
 40
3.0
 40
4.0
 40
4.0
 40
4.0
 40
5.0
 40
5.0
 40
5.0
 40
6.0
 40
6.0
 40
6.0
 40
7.0
 40
7.0
 40
7.0
 40
7.0
 10
74.53326278518614
 20
-121.0968288542744
 30
0.0
 10
74.53326278518614
 20
-121.0968288542744
 30
0.0
 10
73.4289374273893
 20
-121.0968288542744
 30
0.0
 10
73.4289374273893
 20
-121.0968288542744
 30
0.0
 10
73.4289374273893
 20
-121.0968288542744
 30
0.0
 10
73.4289374273893
 20
-121.4268690017613
 30
0.0
 10
73.4289374273893
 20
-121.4268690017613
 30
0.0
 10
73.4289374273893
 20
-121.4268690017613
 30
0.0
 10
73.28097057629782
 20
-121.4268690017613
 30
0.0
 10
73.28097057629782
 20
-121.4268690017613
 30
0.0
 10
73.26615666571124
 20
-121.0947617969833
 30
0.0
 10
73.10320364925893
 20
-121.0482530079324
 30
0.0
 10
72.9889987339229
 20
-121.0186251867592
 30
0.0
 10
72.9889987339229
 20
-121.0186251867592
 30
0.0
 10
72.9889987339229
 20
-120.8725531381846
 30
0.0
 10
72.9889987339229
 20
-120.8725531381846
 30
0.0
 10
72.9889987339229
 20
-120.8725531381846
 30
0.0
 10
74.53326278518614
 20
-120.8725531381846
 30
0.0
 10
74.53326278518614
 20
-120.8725531381846
 30
0.0
 10
74.53326278518614
 20
-120.8725531381846
 30
0.0
 10
74.53326278518614
 20
-121.0968288542744
 30
0.0
 10
74.53326278518614
 20
-121.0968288542744
 30
0.0
  0
HATCH
  5
67
330
62
100
AcDbEntity
  8
_U+30EC_U+30A4_U+30E4_U+30FC 1
 62
     7
420
 16777215
100
AcDbHatch
 10
0.0
 20
0.0
 30
0.0
210
0.0
220
0.0
230
1.0
  2
SOLID
 70
     1
 71
     0
 91
        1
 92
        1
 93
        1
 72
     4
 94
        3
 73
     0
 74
     1
 95
       26
 96
       22
 40
0.0
 40
0.0
 40
0.0
 40
0.0
 40
1.0
 40
1.0
 40
1.0
 40
2.0
 40
2.0
 40
2.0
 40
3.0
 40
3.0
 40
3.0
 40
4.0
 40
4.0
 40
4.0
 40
5.0
 40
5.0
 40
5.0
 40
6.0
 40
6.0
 40
6.0
 40
7.0
 40
7.0
 40
7.0
 40
7.0
 10
74.53326278518614
 20
-121.0968288542744
 10
74.53326278518614
 20
-121.0968288542744
 10
73.4289374273893
 20
-121.0968288542744
 10
73.4289374273893
 20
-121.0968288542744
 10
73.4289374273893
 20
-121.0968288542744
 10
73.4289374273893
 20
-121.4268690017613
 10
73.4289374273893
 20
-121.4268690017613
 10
73.4289374273893
 20
-121.4268690017613
 10
73.28097057629782
 20
-121.4268690017613
 10
73.28097057629782
 20
-121.4268690017613
 10
73.26615666571124
 20
-121.0947617969833
 10
73.10320364925893
 20
-121.0482530079324
 10
72.9889987339229
 20
-121.0186251867592
 10
72.9889987339229
 20
-121.0186251867592
 10
72.9889987339229
 20
-120.8725531381846
 10
72.9889987339229
 20
-120.8725531381846
 10
72.9889987339229
 20
-120.8725531381846
 10
74.53326278518614
 20
-120.8725531381846
 10
74.53326278518614
 20
-120.8725531381846
 10
74.53326278518614
 20
-120.8725531381846
 10
74.53326278518614
 20
-121.0968288542744
 10
74.53326278518614
 20
-121.0968288542744
 97
        0
 97
        0
 75
     2
 76
     1
 98
        0
  0
SPLINE
  5
68
330
62
100
AcDbEntity
  8
_U+30EC_U+30A4_U+30E4_U+30FC 1
370
     0
100
AcDbSpline
210
0.0
220
0.0
230
1.0
 70
    11
 71
     3
 72
    53
 73
    49
 74
     0
 42
0.0000000001
 43
0.0000000001
 12
1.0
 22
0.0
 32
0.0
 13
1.0
 23
0.0
 33
0.0
 40
0.0
 40
0.0
 40
0.0
 40
0.0
 40
1.0
 40
1.0
 40
1.0
 40
2.0
 40
2.0
 40
2.0
 40
3.0
 40
3.0
 40
3.0
 40
4.0
 40
4.0
 40
4.0
 40
5.0
 40
5.0
 40
5.0
 40
6.0
 40
6.0
 40
6.0
 40
7.0
 40
7.0
 40
7.0
 40
8.0
 40
8.0
 40
8.0
 40
9.0
 40
9.0
 40
9.0
 40
10.0
 40
10.0
 40
10.0
 40
11.0
 40
11.0
 40
11.0
 40
12.0
 40
12.0
 40
12.0
 40
13.0
 40
13.0
 40
13.0
 40
14.0
 40
14.0
 40
14.0
 40
15.0
 40
15.0
 40
15.0
 40
16.0
 40
16.0
 40
16.0
 40
16.0
 10
74.58407794359357
 20
-119.8898396510171
 30
0.0
 10
74.58407794359357
 20
-119.9682155733066
 30
0.0
 10
74.56702472094157
 20
-120.0696736353472
 30
0.0
 10
74.50363496401299
 20
-120.171303952162
 30
0.0
 10
74.39356416325926
 20
-120.3447645098444
 30
0.0
 10
74.2624782800455
 20
-120.3659518470787
 30
0.0
 10
74.15464679135718
 20
-120.3848998722475
 30
0.0
 10
74.15464679135718
 20
-120.3848998722475
 30
0.0
 10
74.15464679135718
 20
-120.1628634682232
 30
0.0
 10
74.15464679135718
 20
-120.1628634682232
 30
0.0
 10
74.3534288008561
 20
-120.1077419404592
 30
0.0
 10
74.38305662202924
 20
-119.9807901718277
 30
0.0
 10
74.38305662202924
 20
-119.887772593726
 30
0.0
 10
74.38305662202924
 20
-119.7480739717991
 30
0.0
 10
74.28366561727978
 20
-119.595800751351
 30
0.0
 10
74.05094941725116
 20
-119.595800751351
 30
0.0
 10
73.79497882269709
 20
-119.595800751351
 30
0.0
 10
73.72521563912078
 20
-119.7756347356811
 30
0.0
 10
73.72521563912078
 20
-119.8962130776648
 30
0.0
 10
73.72521563912078
 20
-119.9279079561291
 30
0.0
 10
73.72521563912078
 20
-120.0696736353472
 30
0.0
 10
73.85423446504339
 20
-120.1585570988666
 30
0.0
 10
73.85423446504339
 20
-120.1585570988666
 30
0.0
 10
73.83511418510025
 20
-120.3340847138401
 30
0.0
 10
73.83511418510025
 20
-120.3340847138401
 30
0.0
 10
73.83511418510025
 20
-120.3340847138401
 30
0.0
 10
72.9889987339229
 20
-120.2135063718564
 30
0.0
 10
72.9889987339229
 20
-120.2135063718564
 30
0.0
 10
72.9889987339229
 20
-120.2135063718564
 30
0.0
 10
72.9889987339229
 20
-119.4350870469642
 30
0.0
 10
72.9889987339229
 20
-119.4350870469642
 30
0.0
 10
72.9889987339229
 20
-119.4350870469642
 30
0.0
 10
73.18364662883951
 20
-119.4350870469642
 30
0.0
 10
73.18364662883951
 20
-119.4350870469642
 30
0.0
 10
73.18364662883951
 20
-119.4350870469642
 30
0.0
 10
73.18364662883951
 20
-120.0507256101783
 30
0.0
 10
73.18364662883951
 20
-120.0507256101783
 30
0.0
 10
73.18364662883951
 20
-120.0507256101783
 30
0.0
 10
73.60670435442819
 20
-120.116182424398
 30
0.0
 10
73.60670435442819
 20
-120.116182424398
 30
0.0
 10
73.57277016389848
 20
-120.0548597247606
 30
0.0
 10
73.53263480149532
 20
-119.9723496878889
 30
0.0
 10
73.53263480149532
 20
-119.8540106579705
 30
0.0
 10
73.53263480149532
 20
-119.6001071207076
 30
0.0
 10
73.71884221247306
 20
-119.3630845513224
 30
0.0
 10
74.03182913730802
 20
-119.3630845513224
 30
0.0
 10
74.3492946862738
 20
-119.3630845513224
 30
0.0
 10
74.58407794359357
 20
-119.5873602674122
 30
0.0
 10
74.58407794359357
 20
-119.8898396510171
 30
0.0
  0
HATCH
  5
69
330
62
100
AcDbEntity
  8
_U+30EC_U+30A4_U+30E4_U+30FC 1
 62
     7
420
 16777215
100
AcDbHatch
 10
0.0
 20
0.0
 30
0.0
210
0.0
220
0.0
230
1.0
  2
SOLID
 70
     1
 71
     0
 91
        1
 92
        1
 93
        1
 72
     4
 94
        3
 73
     0
 74
     1
 95
       53
 96
       49
 40
0.0
 40
0.0
 40
0.0
 40
0.0
 40
1.0
 40
1.0
 40
1.0
 40
2.0
 40
2.0
 40
2.0
 40
3.0
 40
3.0
 40
3.0
 40
4.0
 40
4.0
 40
4.0
 40
5.0
 40
5.0
 40
5.0
 40
6.0
 40
6.0
 40
6.0
 40
7.0
 40
7.0
 40
7.0
 40
8.0
 40
8.0
 40
8.0
 40
9.0
 40
9.0
 40
9.0
 40
10.0
 40
10.0
 40
10.0
 40
11.0
 40
11.0
 40
11.0
 40
12.0
 40
12.0
 40
12.0
 40
13.0
 40
13.0
 40
13.0
 40
14.0
 40
14.0
 40
14.0
 40
15.0
 40
15.0
 40
15.0
 40
16.0
 40
16.0
 40
16.0
 40
16.0
 10
74.58407794359357
 20
-119.8898396510171
 10
74.58407794359357
 20
-119.9682155733066
 10
74.56702472094157
 20
-120.0696736353472
 10
74.50363496401299
 20
-120.171303952162
 10
74.39356416325926
 20
-120.3447645098444
 10
74.2624782800455
 20
-120.3659518470787
 10
74.15464679135718
 20
-120.3848998722475
 10
74.15464679135718
 20
-120.3848998722475
 10
74.15464679135718
 20
-120.1628634682232
 10
74.15464679135718
 20
-120.1628634682232
 10
74.3534288008561
 20
-120.1077419404592
 10
74.38305662202924
 20
-119.9807901718277
 10
74.38305662202924
 20
-119.887772593726
 10
74.38305662202924
 20
-119.7480739717991
 10
74.28366561727978
 20
-119.595800751351
 10
74.05094941725116
 20
-119.595800751351
 10
73.79497882269709
 20
-119.595800751351
 10
73.72521563912078
 20
-119.7756347356811
 10
73.72521563912078
 20
-119.8962130776648
 10
73.72521563912078
 20
-119.9279079561291
 10
73.72521563912078
 20
-120.0696736353472
 10
73.85423446504339
 20
-120.1585570988666
 10
73.85423446504339
 20
-120.1585570988666
 10
73.83511418510025
 20
-120.3340847138401
 10
73.83511418510025
 20
-120.3340847138401
 10
73.83511418510025
 20
-120.3340847138401
 10
72.9889987339229
 20
-120.2135063718564
 10
72.9889987339229
 20
-120.2135063718564
 10
72.9889987339229
 20
-120.2135063718564
 10
72.9889987339229
 20
-119.4350870469642
 10
72.9889987339229
 20
-119.4350870469642
 10
72.9889987339229
 20
-119.4350870469642
 10
73.18364662883951
 20
-119.4350870469642
 10
73.18364662883951
 20
-119.4350870469642
 10
73.18364662883951
 20
-119.4350870469642
 10
73.18364662883951
 20
-120.0507256101783
 10
73.18364662883951
 20
-120.0507256101783
 10
73.18364662883951
 20
-120.0507256101783
 10
73.60670435442819
 20
-120.116182424398
 10
73.60670435442819
 20
-120.116182424398
 10
73.57277016389848
 20
-120.0548597247606
 10
73.53263480149532
 20
-119.9723496878889
 10
73.53263480149532
 20
-119.8540106579705
 10
73.53263480149532
 20
-119.6001071207076
 10
73.71884221247306
 20
-119.3630845513224
 10
74.03182913730802
 20
-119.3630845513224
 10
74.3492946862738
 20
-119.3630845513224
 10
74.58407794359357
 20
-119.5873602674122
 10
74.58407794359357
 20
-119.8898396510171
 97
        0
 97
        0
 75
     2
 76
     1
 98
        0
  0
ENDBLK
  5
65
330
62
100
AcDbEntity
  8
0
100
AcDbBlockEnd
  0
BLOCK
  5
6C
330
6A
100
AcDbEntity
  8
0
100
AcDbBlockBegin
  2
block 4
 70
     0
 10
0.0
 20
0.0
 30
0.0
  3
block 4
  1

  0
SPLINE
  5
6E
330
6A
100
AcDbEntity
  8
_U+30EC_U+30A4_U+30E4_U+30FC 1
370
     0
100
AcDbSpline
210
0.0
220
0.0
230
1.0
 70
    11
 71
     3
 72
    32
 73
    28
 74
     0
 42
0.0000000001
 43
0.0000000001
 12
1.0
 22
0.0
 32
0.0
 13
1.0
 23
0.0
 33
0.0
 40
0.0
 40
0.0
 40
0.0
 40
0.0
 40
1.0
 40
1.0
 40
1.0
 40
2.0
 40
2.0
 40
2.0
 40
3.0
 40
3.0
 40
3.0
 40
4.0
 40
4.0
 40
4.0
 40
5.0
 40
5.0
 40
5.0
 40
6.0
 40
6.0
 40
6.0
 40
7.0
 40
7.0
 40
7.0
 40
8.0
 40
8.0
 40
8.0
 40
9.0
 40
9.0
 40
9.0
 40
9.0
 10
106.6980522736727
 20
-135.5710530260031
 30
0.0
 10
106.6980522736727
 20
-136.087472839242
 30
0.0
 10
106.143736410096
 20
-136.0957410684066
 30
0.0
 10
105.9301404900105
 20
-136.0957410684066
 30
0.0
 10
105.6996636020473
 20
-136.0957410684066
 30
0.0
 10
105.0519856508203
 20
-136.0764485336892
 30
0.0
 10
105.0519856508203
 20
-135.5328124661168
 30
0.0
 10
105.0519856508203
 20
-135.3595241632087
 30
0.0
 10
105.1219210891709
 20
-135.114233364659
 30
0.0
 10
105.454028293949
 20
-135.0759928047727
 30
0.0
 10
105.454028293949
 20
-135.0759928047727
 30
0.0
 10
105.454028293949
 20
-135.2895887248582
 30
0.0
 10
105.454028293949
 20
-135.2895887248582
 30
0.0
 10
105.3971842184424
 20
-135.3002685208624
 30
0.0
 10
105.2490451125766
 20
-135.3319633993267
 30
0.0
 10
105.2490451125766
 20
-135.534879523408
 30
0.0
 10
105.2490451125766
 20
-135.8270236205571
 30
0.0
 10
105.5770182027724
 20
-135.8673312377346
 30
0.0
 10
105.7820013841448
 20
-135.88007809103
 30
0.0
 10
105.7037977166296
 20
-135.7870605129282
 30
0.0
 10
105.6445420742833
 20
-135.7191921318688
 30
0.0
 10
105.6445420742833
 20
-135.5372910902476
 30
0.0
 10
105.6445420742833
 20
-135.3574571059176
 30
0.0
 10
105.7523735629716
 20
-135.0549777223127
 30
0.0
 10
106.1585503206826
 20
-135.0549777223127
 30
0.0
 10
106.4782551817138
 20
-135.0549777223127
 30
0.0
 10
106.6980522736727
 20
-135.2537597318116
 30
0.0
 10
106.6980522736727
 20
-135.5710530260031
 30
0.0
  0
SPLINE
  5
6F
330
6A
100
AcDbEntity
  8
_U+30EC_U+30A4_U+30E4_U+30FC 1
370
     0
100
AcDbSpline
210
0.0
220
0.0
230
1.0
 70
    11
 71
     3
 72
    17
 73
    13
 74
     0
 42
0.0000000001
 43
0.0000000001
 12
1.0
 22
0.0
 32
0.0
 13
1.0
 23
0.0
 33
0.0
 40
0.0
 40
0.0
 40
0.0
 40
0.0
 40
1.0
 40
1.0
 40
1.0
 40
2.0
 40
2.0
 40
2.0
 40
3.0
 40
3.0
 40
3.0
 40
4.0
 40
4.0
 40
4.0
 40
4.0
 10
105.8391899691999
 20
-135.5541720581253
 30
0.0
 10
105.8391899691999
 20
-135.8166883341014
 30
0.0
 10
106.0507188319943
 20
-135.8545843844391
 30
0.0
 10
106.1668185498472
 20
-135.8545843844391
 30
0.0
 10
106.3425184195949
 20
-135.8545843844391
 30
0.0
 10
106.5054714360472
 20
-135.7594997490463
 30
0.0
 10
106.5054714360472
 20
-135.5755316501339
 30
0.0
 10
106.5054714360472
 20
-135.4549533081502
 30
0.0
 10
106.446215793701
 20
-135.2792534384024
 30
0.0
 10
106.1606173779737
 20
-135.2792534384024
 30
0.0
 10
105.9366861714325
 20
-135.2792534384024
 30
0.0
 10
105.8391899691999
 20
-135.418779805555
 30
0.0
 10
105.8391899691999
 20
-135.5541720581253
 30
0.0
  0
HATCH
  5
70
330
6A
100
AcDbEntity
  8
_U+30EC_U+30A4_U+30E4_U+30FC 1
 62
     7
420
 16777215
100
AcDbHatch
 10
0.0
 20
0.0
 30
0.0
210
0.0
220
0.0
230
1.0
  2
SOLID
 70
     1
 71
     0
 91
        2
 92
        1
 93
        1
 72
     4
 94
        3
 73
     0
 74
     1
 95
       32
 96
       28
 40
0.0
 40
0.0
 40
0.0
 40
0.0
 40
1.0
 40
1.0
 40
1.0
 40
2.0
 40
2.0
 40
2.0
 40
3.0
 40
3.0
 40
3.0
 40
4.0
 40
4.0
 40
4.0
 40
5.0
 40
5.0
 40
5.0
 40
6.0
 40
6.0
 40
6.0
 40
7.0
 40
7.0
 40
7.0
 40
8.0
 40
8.0
 40
8.0
 40
9.0
 40
9.0
 40
9.0
 40
9.0
 10
106.6980522736727
 20
-135.5710530260031
 10
106.6980522736727
 20
-136.087472839242
 10
106.143736410096
 20
-136.0957410684066
 10
105.9301404900105
 20
-136.0957410684066
 10
105.6996636020473
 20
-136.0957410684066
 10
105.0519856508203
 20
-136.0764485336892
 10
105.0519856508203
 20
-135.5328124661168
 10
105.0519856508203
 20
-135.3595241632087
 10
105.1219210891709
 20
-135.114233364659
 10
105.454028293949
 20
-135.0759928047727
 10
105.454028293949
 20
-135.0759928047727
 10
105.454028293949
 20
-135.2895887248582
 10
105.454028293949
 20
-135.2895887248582
 10
105.3971842184424
 20
-135.3002685208624
 10
105.2490451125766
 20
-135.3319633993267
 10
105.2490451125766
 20
-135.534879523408
 10
105.2490451125766
 20
-135.8270236205571
 10
105.5770182027724
 20
-135.8673312377346
 10
105.7820013841448
 20
-135.88007809103
 10
105.7037977166296
 20
-135.7870605129282
 10
105.6445420742833
 20
-135.7191921318688
 10
105.6445420742833
 20
-135.5372910902476
 10
105.6445420742833
 20
-135.3574571059176
 10
105.7523735629716
 20
-135.0549777223127
 10
106.1585503206826
 20
-135.0549777223127
 10
106.4782551817138
 20
-135.0549777223127
 10
106.6980522736727
 20
-135.2537597318116
 10
106.6980522736727
 20
-135.5710530260031
 97
        0
 97
        0
 92
        1
 93
        1
 72
     4
 94
        3
 73
     0
 74
     1
 95
       17
 96
       13
 40
0.0
 40
0.0
 40
0.0
 40
0.0
 40
1.0
 40
1.0
 40
1.0
 40
2.0
 40
2.0
 40
2.0
 40
3.0
 40
3.0
 40
3.0
 40
4.0
 40
4.0
 40
4.0
 40
4.0
 10
105.8391899691999
 20
-135.5541720581253
 10
105.8391899691999
 20
-135.8166883341014
 10
106.0507188319943
 20
-135.8545843844391
 10
106.1668185498472
 20
-135.8545843844391
 10
106.3425184195949
 20
-135.8545843844391
 10
106.5054714360472
 20
-135.7594997490463
 10
106.5054714360472
 20
-135.5755316501339
 10
106.5054714360472
 20
-135.4549533081502
 10
106.446215793701
 20
-135.2792534384024
 10
106.1606173779737
 20
-135.2792534384024
 10
105.9366861714325
 20
-135.2792534384024
 10
105.8391899691999
 20
-135.418779805555
 10
105.8391899691999
 20
-135.5541720581253
 97
        0
 97
        0
 75
     2
 76
     1
 98
        0
  0
POLYLINE
  5
71
330
6A
100
AcDbEntity
  8
_U+30EC_U+30A4_U+30E4_U+30FC 1
370
     0
100
AcDb2dPolyline
 66
     1
 10
0.0
 20
0.0
 30
0.0
  0
VERTEX
  5
72
330
71
100
AcDbEntity
  8
_U+30EC_U+30A4_U+30E4_U+30FC 1
370
     0
100
AcDbVertex
100
AcDb2dVertex
 10
106.647064860491
 20
-134.8379367067419
 30
0.0
  0
VERTEX
  5
73
330
71
100
AcDbEntity
  8
_U+30EC_U+30A4_U+30E4_U+30FC 1
370
     0
100
AcDbVertex
100
AcDb2dVertex
 10
106.3955728900678
 20
-134.8379367067419
 30
0.0
  0
VERTEX
  5
74
330
71
100
AcDbEntity
  8
_U+30EC_U+30A4_U+30E4_U+30FC 1
370
     0
100
AcDbVertex
100
AcDb2dVertex
 10
106.3955728900678
 20
-134.5861002267702
 30
0.0
  0
VERTEX
  5
75
330
71
100
AcDbEntity
  8
_U+30EC_U+30A4_U+30E4_U+30FC 1
370
     0
100
AcDbVertex
100
AcDb2dVertex
 10
106.647064860491
 20
-134.5861002267702
 30
0.0
  0
VERTEX
  5
76
330
71
100
AcDbEntity
  8
_U+30EC_U+30A4_U+30E4_U+30FC 1
370
     0
100
AcDbVertex
100
AcDb2dVertex
 10
106.647064860491
 20
-134.8379367067419
 30
0.0
  0
SEQEND
  5
77
330
71
100
AcDbEntity
  8
_U+30EC_U+30A4_U+30E4_U+30FC 1
370
     0
  0
HATCH
  5
78
330
6A
100
AcDbEntity
  8
_U+30EC_U+30A4_U+30E4_U+30FC 1
 62
     7
420
 16777215
100
AcDbHatch
 10
0.0
 20
0.0
 30
0.0
210
0.0
220
0.0
230
1.0
  2
SOLID
 70
     1
 71
     0
 91
        1
 92
        1
 93
        4
 72
     1
 10
106.647064860491
 20
-134.8379367067419
 11
106.3955728900678
 21
-134.8379367067419
 72
     1
 10
106.3955728900678
 20
-134.8379367067419
 11
106.3955728900678
 21
-134.5861002267702
 72
     1
 10
106.3955728900678
 20
-134.5861002267702
 11
106.647064860491
 21
-134.5861002267702
 72
     1
 10
106.647064860491
 20
-134.5861002267702
 11
106.647064860491
 21
-134.8379367067419
 97
        0
 75
     2
 76
     1
 98
        0
  0
SPLINE
  5
79
330
6A
100
AcDbEntity
  8
_U+30EC_U+30A4_U+30E4_U+30FC 1
370
     0
100
AcDbSpline
210
0.0
220
0.0
230
1.0
 70
    11
 71
     3
 72
    53
 73
    49
 74
     0
 42
0.0000000001
 43
0.0000000001
 12
1.0
 22
0.0
 32
0.0
 13
1.0
 23
0.0
 33
0.0
 40
0.0
 40
0.0
 40
0.0
 40
0.0
 40
1.0
 40
1.0
 40
1.0
 40
2.0
 40
2.0
 40
2.0
 40
3.0
 40
3.0
 40
3.0
 40
4.0
 40
4.0
 40
4.0
 40
5.0
 40
5.0
 40
5.0
 40
6.0
 40
6.0
 40
6.0
 40
7.0
 40
7.0
 40
7.0
 40
8.0
 40
8.0
 40
8.0
 40
9.0
 40
9.0
 40
9.0
 40
10.0
 40
10.0
 40
10.0
 40
11.0
 40
11.0
 40
11.0
 40
12.0
 40
12.0
 40
12.0
 40
13.0
 40
13.0
 40
13.0
 40
14.0
 40
14.0
 40
14.0
 40
15.0
 40
15.0
 40
15.0
 40
16.0
 40
16.0
 40
16.0
 40
16.0
 10
106.6980522736727
 20
-133.8684868371926
 30
0.0
 10
106.6980522736727
 20
-133.9466905047078
 30
0.0
 10
106.6808267962465
 20
-134.0483208215227
 30
0.0
 10
106.6174370393179
 20
-134.1499511383375
 30
0.0
 10
106.5075384933384
 20
-134.3235839507941
 30
0.0
 10
106.3762803553504
 20
-134.3445990332541
 30
0.0
 10
106.2687933762106
 20
-134.363547058423
 30
0.0
 10
106.2687933762106
 20
-134.363547058423
 30
0.0
 10
106.2687933762106
 20
-134.1416829091729
 30
0.0
 10
106.2687933762106
 20
-134.1416829091729
 30
0.0
 10
106.467230876161
 20
-134.0865613814089
 30
0.0
 10
106.4968586973341
 20
-133.9594373580032
 30
0.0
 10
106.4968586973341
 20
-133.8664197799015
 30
0.0
 10
106.4968586973341
 20
-133.7268934127488
 30
0.0
 10
106.3976399473589
 20
-133.5746201923008
 30
0.0
 10
106.164751492556
 20
-133.5746201923008
 30
0.0
 10
105.9091254075505
 20
-133.5746201923008
 30
0.0
 10
105.8391899691999
 20
-133.7544541766308
 30
0.0
 10
105.8391899691999
 20
-133.8750325186146
 30
0.0
 10
105.8391899691999
 20
-133.9067273970789
 30
0.0
 10
105.8391899691999
 20
-134.0483208215227
 30
0.0
 10
105.9683810498968
 20
-134.1372042850421
 30
0.0
 10
105.9683810498968
 20
-134.1372042850421
 30
0.0
 10
105.9490885151794
 20
-134.3125596452413
 30
0.0
 10
105.9490885151794
 20
-134.3125596452413
 30
0.0
 10
105.9490885151794
 20
-134.3125596452413
 30
0.0
 10
105.102973064002
 20
-134.1919813032576
 30
0.0
 10
105.102973064002
 20
-134.1919813032576
 30
0.0
 10
105.102973064002
 20
-134.1919813032576
 30
0.0
 10
105.102973064002
 20
-133.4137342331396
 30
0.0
 10
105.102973064002
 20
-133.4137342331396
 30
0.0
 10
105.102973064002
 20
-133.4137342331396
 30
0.0
 10
105.2976209589187
 20
-133.4137342331396
 30
0.0
 10
105.2976209589187
 20
-133.4137342331396
 30
0.0
 10
105.2976209589187
 20
-133.4137342331396
 30
0.0
 10
105.2976209589187
 20
-134.0293727963538
 30
0.0
 10
105.2976209589187
 20
-134.0293727963538
 30
0.0
 10
105.2976209589187
 20
-134.0293727963538
 30
0.0
 10
105.7206786845073
 20
-134.0948296105735
 30
0.0
 10
105.7206786845073
 20
-134.0948296105735
 30
0.0
 10
105.6865722392034
 20
-134.0335069109361
 30
0.0
 10
105.6466091315745
 20
-133.9508246192901
 30
0.0
 10
105.6466091315745
 20
-133.832657844146
 30
0.0
 10
105.6466091315745
 20
-133.5787543068831
 30
0.0
 10
105.832644287778
 20
-133.3417317374979
 30
0.0
 10
106.1458034673872
 20
-133.3417317374979
 30
0.0
 10
106.4630967615787
 20
-133.3417317374979
 30
0.0
 10
106.6980522736727
 20
-133.5660074535877
 30
0.0
 10
106.6980522736727
 20
-133.8684868371926
 30
0.0
  0
HATCH
  5
7A
330
6A
100
AcDbEntity
  8
_U+30EC_U+30A4_U+30E4_U+30FC 1
 62
     7
420
 16777215
100
AcDbHatch
 10
0.0
 20
0.0
 30
0.0
210
0.0
220
0.0
230
1.0
  2
SOLID
 70
     1
 71
     0
 91
        1
 92
        1
 93
        1
 72
     4
 94
        3
 73
     0
 74
     1
 95
       53
 96
       49
 40
0.0
 40
0.0
 40
0.0
 40
0.0
 40
1.0
 40
1.0
 40
1.0
 40
2.0
 40
2.0
 40
2.0
 40
3.0
 40
3.0
 40
3.0
 40
4.0
 40
4.0
 40
4.0
 40
5.0
 40
5.0
 40
5.0
 40
6.0
 40
6.0
 40
6.0
 40
7.0
 40
7.0
 40
7.0
 40
8.0
 40
8.0
 40
8.0
 40
9.0
 40
9.0
 40
9.0
 40
10.0
 40
10.0
 40
10.0
 40
11.0
 40
11.0
 40
11.0
 40
12.0
 40
12.0
 40
12.0
 40
13.0
 40
13.0
 40
13.0
 40
14.0
 40
14.0
 40
14.0
 40
15.0
 40
15.0
 40
15.0
 40
16.0
 40
16.0
 40
16.0
 40
16.0
 10
106.6980522736727
 20
-133.8684868371926
 10
106.6980522736727
 20
-133.9466905047078
 10
106.6808267962465
 20
-134.0483208215227
 10
106.6174370393179
 20
-134.1499511383375
 10
106.5075384933384
 20
-134.3235839507941
 10
106.3762803553504
 20
-134.3445990332541
 10
106.2687933762106
 20
-134.363547058423
 10
106.2687933762106
 20
-134.363547058423
 10
106.2687933762106
 20
-134.1416829091729
 10
106.2687933762106
 20
-134.1416829091729
 10
106.467230876161
 20
-134.0865613814089
 10
106.4968586973341
 20
-133.9594373580032
 10
106.4968586973341
 20
-133.8664197799015
 10
106.4968586973341
 20
-133.7268934127488
 10
106.3976399473589
 20
-133.5746201923008
 10
106.164751492556
 20
-133.5746201923008
 10
105.9091254075505
 20
-133.5746201923008
 10
105.8391899691999
 20
-133.7544541766308
 10
105.8391899691999
 20
-133.8750325186146
 10
105.8391899691999
 20
-133.9067273970789
 10
105.8391899691999
 20
-134.0483208215227
 10
105.9683810498968
 20
-134.1372042850421
 10
105.9683810498968
 20
-134.1372042850421
 10
105.9490885151794
 20
-134.3125596452413
 10
105.9490885151794
 20
-134.3125596452413
 10
105.9490885151794
 20
-134.3125596452413
 10
105.102973064002
 20
-134.1919813032576
 10
105.102973064002
 20
-134.1919813032576
 10
105.102973064002
 20
-134.1919813032576
 10
105.102973064002
 20
-133.4137342331396
 10
105.102973064002
 20
-133.4137342331396
 10
105.102973064002
 20
-133.4137342331396
 10
105.2976209589187
 20
-133.4137342331396
 10
105.2976209589187
 20
-133.4137342331396
 10
105.2976209589187
 20
-133.4137342331396
 10
105.2976209589187
 20
-134.0293727963538
 10
105.2976209589187
 20
-134.0293727963538
 10
105.2976209589187
 20
-134.0293727963538
 10
105.7206786845073
 20
-134.0948296105735
 10
105.7206786845073
 20
-134.0948296105735
 10
105.6865722392034
 20
-134.0335069109361
 10
105.6466091315745
 20
-133.9508246192901
 10
105.6466091315745
 20
-133.832657844146
 10
105.6466091315745
 20
-133.5787543068831
 10
105.832644287778
 20
-133.3417317374979
 10
106.1458034673872
 20
-133.3417317374979
 10
106.4630967615787
 20
-133.3417317374979
 10
106.6980522736727
 20
-133.5660074535877
 10
106.6980522736727
 20
-133.8684868371926
 97
        0
 97
        0
 75
     2
 76
     1
 98
        0
  0
ENDBLK
  5
6D
330
6A
100
AcDbEntity
  8
0
100
AcDbBlockEnd
  0
BLOCK
  5
7D
330
7B
100
AcDbEntity
  8
0
100
AcDbBlockBegin
  2
block 5
 70
     0
 10
0.0
 20
0.0
 30
0.0
  3
block 5
  1

  0
SPLINE
  5
7F
330
7B
100
AcDbEntity
  8
_U+30EC_U+30A4_U+30E4_U+30FC 1
370
     0
100
AcDbSpline
210
0.0
220
0.0
230
1.0
 70
    11
 71
     3
 72
    26
 73
    22
 74
     0
 42
0.0000000001
 43
0.0000000001
 12
1.0
 22
0.0
 32
0.0
 13
1.0
 23
0.0
 33
0.0
 40
0.0
 40
0.0
 40
0.0
 40
0.0
 40
1.0
 40
1.0
 40
1.0
 40
2.0
 40
2.0
 40
2.0
 40
3.0
 40
3.0
 40
3.0
 40
4.0
 40
4.0
 40
4.0
 40
5.0
 40
5.0
 40
5.0
 40
6.0
 40
6.0
 40
6.0
 40
7.0
 40
7.0
 40
7.0
 40
7.0
 10
106.647064860491
 20
-128.916851096243
 30
0.0
 10
106.647064860491
 20
-128.916851096243
 30
0.0
 10
105.5429117574684
 20
-128.916851096243
 30
0.0
 10
105.5429117574684
 20
-128.916851096243
 30
0.0
 10
105.5429117574684
 20
-128.916851096243
 30
0.0
 10
105.5429117574684
 20
-129.2468912437299
 30
0.0
 10
105.5429117574684
 20
-129.2468912437299
 30
0.0
 10
105.5429117574684
 20
-129.2468912437299
 30
0.0
 10
105.3947726516027
 20
-129.2468912437299
 30
0.0
 10
105.3947726516027
 20
-129.2468912437299
 30
0.0
 10
105.3799587410161
 20
-128.9147840389519
 30
0.0
 10
105.2173502341123
 20
-128.868275249901
 30
0.0
 10
105.102973064002
 20
-128.8386474287279
 30
0.0
 10
105.102973064002
 20
-128.8386474287279
 30
0.0
 10
105.102973064002
 20
-128.6925753801532
 30
0.0
 10
105.102973064002
 20
-128.6925753801532
 30
0.0
 10
105.102973064002
 20
-128.6925753801532
 30
0.0
 10
106.647064860491
 20
-128.6925753801532
 30
0.0
 10
106.647064860491
 20
-128.6925753801532
 30
0.0
 10
106.647064860491
 20
-128.6925753801532
 30
0.0
 10
106.647064860491
 20
-128.916851096243
 30
0.0
 10
106.647064860491
 20
-128.916851096243
 30
0.0
  0
HATCH
  5
80
330
7B
100
AcDbEntity
  8
_U+30EC_U+30A4_U+30E4_U+30FC 1
 62
     7
420
 16777215
100
AcDbHatch
 10
0.0
 20
0.0
 30
0.0
210
0.0
220
0.0
230
1.0
  2
SOLID
 70
     1
 71
     0
 91
        1
 92
        1
 93
        1
 72
     4
 94
        3
 73
     0
 74
     1
 95
       26
 96
       22
 40
0.0
 40
0.0
 40
0.0
 40
0.0
 40
1.0
 40
1.0
 40
1.0
 40
2.0
 40
2.0
 40
2.0
 40
3.0
 40
3.0
 40
3.0
 40
4.0
 40
4.0
 40
4.0
 40
5.0
 40
5.0
 40
5.0
 40
6.0
 40
6.0
 40
6.0
 40
7.0
 40
7.0
 40
7.0
 40
7.0
 10
106.647064860491
 20
-128.916851096243
 10
106.647064860491
 20
-128.916851096243
 10
105.5429117574684
 20
-128.916851096243
 10
105.5429117574684
 20
-128.916851096243
 10
105.5429117574684
 20
-128.916851096243
 10
105.5429117574684
 20
-129.2468912437299
 10
105.5429117574684
 20
-129.2468912437299
 10
105.5429117574684
 20
-129.2468912437299
 10
105.3947726516027
 20
-129.2468912437299
 10
105.3947726516027
 20
-129.2468912437299
 10
105.3799587410161
 20
-128.9147840389519
 10
105.2173502341123
 20
-128.868275249901
 10
105.102973064002
 20
-128.8386474287279
 10
105.102973064002
 20
-128.8386474287279
 10
105.102973064002
 20
-128.6925753801532
 10
105.102973064002
 20
-128.6925753801532
 10
105.102973064002
 20
-128.6925753801532
 10
106.647064860491
 20
-128.6925753801532
 10
106.647064860491
 20
-128.6925753801532
 10
106.647064860491
 20
-128.6925753801532
 10
106.647064860491
 20
-128.916851096243
 10
106.647064860491
 20
-128.916851096243
 97
        0
 97
        0
 75
     2
 76
     1
 98
        0
  0
ENDBLK
  5
7E
330
7B
100
AcDbEntity
  8
0
100
AcDbBlockEnd
  0
BLOCK
  5
93
330
91
100
AcDbEntity
  8
0
100
AcDbBlockBegin
  2
block 6
 70
     0
 10
0.0
 20
0.0
 30
0.0
  3
block 6
  1

  0
SPLINE
  5
95
330
91
100
AcDbEntity
  8
_U+30EC_U+30A4_U+30E4_U+30FC 1
370
     0
100
AcDbSpline
210
0.0
220
0.0
230
1.0
 70
    11
 71
     3
 72
    44
 73
    40
 74
     0
 42
0.0000000001
 43
0.0000000001
 12
1.0
 22
0.0
 32
0.0
 13
1.0
 23
0.0
 33
0.0
 40
0.0
 40
0.0
 40
0.0
 40
0.0
 40
1.0
 40
1.0
 40
1.0
 40
2.0
 40
2.0
 40
2.0
 40
3.0
 40
3.0
 40
3.0
 40
4.0
 40
4.0
 40
4.0
 40
5.0
 40
5.0
 40
5.0
 40
6.0
 40
6.0
 40
6.0
 40
7.0
 40
7.0
 40
7.0
 40
8.0
 40
8.0
 40
8.0
 40
9.0
 40
9.0
 40
9.0
 40
10.0
 40
10.0
 40
10.0
 40
11.0
 40
11.0
 40
11.0
 40
12.0
 40
12.0
 40
12.0
 40
13.0
 40
13.0
 40
13.0
 40
13.0
 10
74.82764619440073
 20
-143.1478515267131
 30
0.0
 10
74.80421954510103
 20
-143.1034097949533
 30
0.0
 10
74.78320446264101
 20
-143.050699834029
 30
0.0
 10
74.7809651505756
 20
-142.8198784365173
 30
0.0
 10
74.7768310359933
 20
-142.5766546952586
 30
0.0
 10
74.717575393647
 20
-142.5070637664566
 30
0.0
 10
74.53980846660811
 20
-142.5070637664566
 30
0.0
 10
74.53980846660811
 20
-142.5070637664566
 30
0.0
 10
74.131564651606
 20
-142.5070637664566
 30
0.0
 10
74.131564651606
 20
-142.5070637664566
 30
0.0
 10
74.131564651606
 20
-142.5070637664566
 30
0.0
 10
74.131564651606
 20
-143.1478515267131
 30
0.0
 10
74.131564651606
 20
-143.1478515267131
 30
0.0
 10
74.131564651606
 20
-143.1478515267131
 30
0.0
 10
73.89678139428622
 20
-143.1478515267131
 30
0.0
 10
73.89678139428622
 20
-143.1478515267131
 30
0.0
 10
73.89678139428622
 20
-143.1478515267131
 30
0.0
 10
73.89678139428622
 20
-141.6037597302241
 30
0.0
 10
73.89678139428622
 20
-141.6037597302241
 30
0.0
 10
73.89678139428622
 20
-141.6037597302241
 30
0.0
 10
74.57167559984667
 20
-141.6037597302241
 30
0.0
 10
74.57167559984667
 20
-141.6037597302241
 30
0.0
 10
74.8782890980339
 20
-141.6037597302241
 30
0.0
 10
75.04537622906852
 20
-141.7746364662925
 30
0.0
 10
75.04537622906852
 20
-142.030951570395
 30
0.0
 10
75.04537622906852
 20
-142.0815944740282
 30
0.0
 10
75.03693574512965
 20
-142.1639322561257
 30
0.0
 10
74.99249401336994
 20
-142.2445474904805
 30
0.0
 10
74.9334106257979
 20
-142.3482448645865
 30
0.0
 10
74.86778155680389
 20
-142.3671928897554
 30
0.0
 10
74.80645885716645
 20
-142.3840738576332
 30
0.0
 10
74.94391816702792
 20
-142.4264485321017
 30
0.0
 10
75.01161429331307
 20
-142.4753688879923
 30
0.0
 10
75.01592066266963
 20
-142.7902506153441
 30
0.0
 10
75.02005477725193
 20
-143.0610351204847
 30
0.0
 10
75.05605602507279
 20
-143.092729998949
 30
0.0
 10
75.12375215135795
 20
-143.1478515267131
 30
0.0
 10
75.12375215135795
 20
-143.1478515267131
 30
0.0
 10
74.82764619440073
 20
-143.1478515267131
 30
0.0
 10
74.82764619440073
 20
-143.1478515267131
 30
0.0
  0
SPLINE
  5
96
330
91
100
AcDbEntity
  8
_U+30EC_U+30A4_U+30E4_U+30FC 1
370
     0
100
AcDbSpline
210
0.0
220
0.0
230
1.0
 70
    11
 71
     3
 72
    20
 73
    16
 74
     0
 42
0.0000000001
 43
0.0000000001
 12
1.0
 22
0.0
 32
0.0
 13
1.0
 23
0.0
 33
0.0
 40
0.0
 40
0.0
 40
0.0
 40
0.0
 40
1.0
 40
1.0
 40
1.0
 40
2.0
 40
2.0
 40
2.0
 40
3.0
 40
3.0
 40
3.0
 40
4.0
 40
4.0
 40
4.0
 40
5.0
 40
5.0
 40
5.0
 40
5.0
 10
74.57580971442897
 20
-141.8152885930184
 30
0.0
 10
74.57580971442897
 20
-141.8152885930184
 30
0.0
 10
74.131564651606
 20
-141.8152885930184
 30
0.0
 10
74.131564651606
 20
-141.8152885930184
 30
0.0
 10
74.131564651606
 20
-141.8152885930184
 30
0.0
 10
74.131564651606
 20
-142.2955349036622
 30
0.0
 10
74.131564651606
 20
-142.2955349036622
 30
0.0
 10
74.131564651606
 20
-142.2955349036622
 30
0.0
 10
74.57374265713781
 20
-142.2955349036622
 30
0.0
 10
74.57374265713781
 20
-142.2955349036622
 30
0.0
 10
74.67313366188728
 20
-142.2955349036622
 30
0.0
 10
74.80852591445759
 20
-142.2190537838897
 30
0.0
 10
74.80852591445759
 20
-142.0478325382728
 30
0.0
 10
74.80852591445759
 20
-141.9696288707576
 30
0.0
 10
74.77459172392788
 20
-141.8152885930184
 30
0.0
 10
74.57580971442897
 20
-141.8152885930184
 30
0.0
  0
HATCH
  5
97
330
91
100
AcDbEntity
  8
_U+30EC_U+30A4_U+30E4_U+30FC 1
 62
     7
420
 16777215
100
AcDbHatch
 10
0.0
 20
0.0
 30
0.0
210
0.0
220
0.0
230
1.0
  2
SOLID
 70
     1
 71
     0
 91
        2
 92
        1
 93
        1
 72
     4
 94
        3
 73
     0
 74
     1
 95
       44
 96
       40
 40
0.0
 40
0.0
 40
0.0
 40
0.0
 40
1.0
 40
1.0
 40
1.0
 40
2.0
 40
2.0
 40
2.0
 40
3.0
 40
3.0
 40
3.0
 40
4.0
 40
4.0
 40
4.0
 40
5.0
 40
5.0
 40
5.0
 40
6.0
 40
6.0
 40
6.0
 40
7.0
 40
7.0
 40
7.0
 40
8.0
 40
8.0
 40
8.0
 40
9.0
 40
9.0
 40
9.0
 40
10.0
 40
10.0
 40
10.0
 40
11.0
 40
11.0
 40
11.0
 40
12.0
 40
12.0
 40
12.0
 40
13.0
 40
13.0
 40
13.0
 40
13.0
 10
74.82764619440073
 20
-143.1478515267131
 10
74.80421954510103
 20
-143.1034097949533
 10
74.78320446264101
 20
-143.050699834029
 10
74.7809651505756
 20
-142.8198784365173
 10
74.7768310359933
 20
-142.5766546952586
 10
74.717575393647
 20
-142.5070637664566
 10
74.53980846660811
 20
-142.5070637664566
 10
74.53980846660811
 20
-142.5070637664566
 10
74.131564651606
 20
-142.5070637664566
 10
74.131564651606
 20
-142.5070637664566
 10
74.131564651606
 20
-142.5070637664566
 10
74.131564651606
 20
-143.1478515267131
 10
74.131564651606
 20
-143.1478515267131
 10
74.131564651606
 20
-143.1478515267131
 10
73.89678139428622
 20
-143.1478515267131
 10
73.89678139428622
 20
-143.1478515267131
 10
73.89678139428622
 20
-143.1478515267131
 10
73.89678139428622
 20
-141.6037597302241
 10
73.89678139428622
 20
-141.6037597302241
 10
73.89678139428622
 20
-141.6037597302241
 10
74.57167559984667
 20
-141.6037597302241
 10
74.57167559984667
 20
-141.6037597302241
 10
74.8782890980339
 20
-141.6037597302241
 10
75.04537622906852
 20
-141.7746364662925
 10
75.04537622906852
 20
-142.030951570395
 10
75.04537622906852
 20
-142.0815944740282
 10
75.03693574512965
 20
-142.1639322561257
 10
74.99249401336994
 20
-142.2445474904805
 10
74.9334106257979
 20
-142.3482448645865
 10
74.86778155680389
 20
-142.3671928897554
 10
74.80645885716645
 20
-142.3840738576332
 10
74.94391816702792
 20
-142.4264485321017
 10
75.01161429331307
 20
-142.4753688879923
 10
75.01592066266963
 20
-142.7902506153441
 10
75.02005477725193
 20
-143.0610351204847
 10
75.05605602507279
 20
-143.092729998949
 10
75.12375215135795
 20
-143.1478515267131
 10
75.12375215135795
 20
-143.1478515267131
 10
74.82764619440073
 20
-143.1478515267131
 10
74.82764619440073
 20
-143.1478515267131
 97
        0
 97
        0
 92
        1
 93
        1
 72
     4
 94
        3
 73
     0
 74
     1
 95
       20
 96
       16
 40
0.0
 40
0.0
 40
0.0
 40
0.0
 40
1.0
 40
1.0
 40
1.0
 40
2.0
 40
2.0
 40
2.0
 40
3.0
 40
3.0
 40
3.0
 40
4.0
 40
4.0
 40
4.0
 40
5.0
 40
5.0
 40
5.0
 40
5.0
 10
74.57580971442897
 20
-141.8152885930184
 10
74.57580971442897
 20
-141.8152885930184
 10
74.131564651606
 20
-141.8152885930184
 10
74.131564651606
 20
-141.8152885930184
 10
74.131564651606
 20
-141.8152885930184
 10
74.131564651606
 20
-142.2955349036622
 10
74.131564651606
 20
-142.2955349036622
 10
74.131564651606
 20
-142.2955349036622
 10
74.57374265713781
 20
-142.2955349036622
 10
74.57374265713781
 20
-142.2955349036622
 10
74.67313366188728
 20
-142.2955349036622
 10
74.80852591445759
 20
-142.2190537838897
 10
74.80852591445759
 20
-142.0478325382728
 10
74.80852591445759
 20
-141.9696288707576
 10
74.77459172392788
 20
-141.8152885930184
 10
74.57580971442897
 20
-141.8152885930184
 97
        0
 97
        0
 75
     2
 76
     1
 98
        0
  0
SPLINE
  5
98
330
91
100
AcDbEntity
  8
_U+30EC_U+30A4_U+30E4_U+30FC 1
370
     0
100
AcDbSpline
210
0.0
220
0.0
230
1.0
 70
    11
 71
     3
 72
    26
 73
    22
 74
     0
 42
0.0000000001
 43
0.0000000001
 12
1.0
 22
0.0
 32
0.0
 13
1.0
 23
0.0
 33
0.0
 40
0.0
 40
0.0
 40
0.0
 40
0.0
 40
1.0
 40
1.0
 40
1.0
 40
2.0
 40
2.0
 40
2.0
 40
3.0
 40
3.0
 40
3.0
 40
4.0
 40
4.0
 40
4.0
 40
5.0
 40
5.0
 40
5.0
 40
6.0
 40
6.0
 40
6.0
 40
7.0
 40
7.0
 40
7.0
 40
7.0
 10
75.71544730094962
 20
-143.1478515267131
 30
0.0
 10
75.71544730094962
 20
-143.1478515267131
 30
0.0
 10
75.71544730094962
 20
-142.0433539141419
 30
0.0
 10
75.71544730094962
 20
-142.0433539141419
 30
0.0
 10
75.71544730094962
 20
-142.0433539141419
 30
0.0
 10
75.38540715346268
 20
-142.0433539141419
 30
0.0
 10
75.38540715346268
 20
-142.0433539141419
 30
0.0
 10
75.38540715346268
 20
-142.0433539141419
 30
0.0
 10
75.38540715346268
 20
-141.8955593178247
 30
0.0
 10
75.38540715346268
 20
-141.8955593178247
 30
0.0
 10
75.71751435824076
 20
-141.8807454072382
 30
0.0
 10
75.76402314729164
 20
-141.7177923907858
 30
0.0
 10
75.79365096846479
 20
-141.6037597302241
 30
0.0
 10
75.79365096846479
 20
-141.6037597302241
 30
0.0
 10
75.93972301703938
 20
-141.6037597302241
 30
0.0
 10
75.93972301703938
 20
-141.6037597302241
 30
0.0
 10
75.93972301703938
 20
-141.6037597302241
 30
0.0
 10
75.93972301703938
 20
-143.1478515267131
 30
0.0
 10
75.93972301703938
 20
-143.1478515267131
 30
0.0
 10
75.93972301703938
 20
-143.1478515267131
 30
0.0
 10
75.71544730094962
 20
-143.1478515267131
 30
0.0
 10
75.71544730094962
 20
-143.1478515267131
 30
0.0
  0
HATCH
  5
99
330
91
100
AcDbEntity
  8
_U+30EC_U+30A4_U+30E4_U+30FC 1
 62
     7
420
 16777215
100
AcDbHatch
 10
0.0
 20
0.0
 30
0.0
210
0.0
220
0.0
230
1.0
  2
SOLID
 70
     1
 71
     0
 91
        1
 92
        1
 93
        1
 72
     4
 94
        3
 73
     0
 74
     1
 95
       26
 96
       22
 40
0.0
 40
0.0
 40
0.0
 40
0.0
 40
1.0
 40
1.0
 40
1.0
 40
2.0
 40
2.0
 40
2.0
 40
3.0
 40
3.0
 40
3.0
 40
4.0
 40
4.0
 40
4.0
 40
5.0
 40
5.0
 40
5.0
 40
6.0
 40
6.0
 40
6.0
 40
7.0
 40
7.0
 40
7.0
 40
7.0
 10
75.71544730094962
 20
-143.1478515267131
 10
75.71544730094962
 20
-143.1478515267131
 10
75.71544730094962
 20
-142.0433539141419
 10
75.71544730094962
 20
-142.0433539141419
 10
75.71544730094962
 20
-142.0433539141419
 10
75.38540715346268
 20
-142.0433539141419
 10
75.38540715346268
 20
-142.0433539141419
 10
75.38540715346268
 20
-142.0433539141419
 10
75.38540715346268
 20
-141.8955593178247
 10
75.38540715346268
 20
-141.8955593178247
 10
75.71751435824076
 20
-141.8807454072382
 10
75.76402314729164
 20
-141.7177923907858
 10
75.79365096846479
 20
-141.6037597302241
 10
75.79365096846479
 20
-141.6037597302241
 10
75.93972301703938
 20
-141.6037597302241
 10
75.93972301703938
 20
-141.6037597302241
 10
75.93972301703938
 20
-141.6037597302241
 10
75.93972301703938
 20
-143.1478515267131
 10
75.93972301703938
 20
-143.1478515267131
 10
75.93972301703938
 20
-143.1478515267131
 10
75.71544730094962
 20
-143.1478515267131
 10
75.71544730094962
 20
-143.1478515267131
 97
        0
 97
        0
 75
     2
 76
     1
 98
        0
  0
ENDBLK
  5
94
330
91
100
AcDbEntity
  8
0
100
AcDbBlockEnd
  0
ENDSEC
  0
SECTION
  2
ENTITIES
  0
POLYLINE
  5
41
330
1F
100
AcDbEntity
  8
_U+30EC_U+30A4_U+30E4_U+30FC 1
 62
     7
420
 16777215
370
     9
100
AcDb2dPolyline
 66
     1
 10
0.0
 20
0.0
 30
0.0
  0
VERTEX
  5
42
330
41
100
AcDbEntity
  8
_U+30EC_U+30A4_U+30E4_U+30FC 1
 62
     7
420
 16777215
370
     9
100
AcDbVertex
100
AcDb2dVertex
 10
75.35544998116106
 20
-137.9312780210729
 30
0.0
  0
VERTEX
  5
43
330
41
100
AcDbEntity
  8
_U+30EC_U+30A4_U+30E4_U+30FC 1
 62
     7
420
 16777215
370
     9
100
AcDbVertex
100
AcDb2dVertex
 10
75.35544998116106
 20
-112.9572571939829
 30
0.0
  0
SEQEND
  5
44
330
41
100
AcDbEntity
  8
_U+30EC_U+30A4_U+30E4_U+30FC 1
 62
     7
420
 16777215
370
     9
  0
POLYLINE
  5
45
330
1F
100
AcDbEntity
  8
_U+30EC_U+30A4_U+30E4_U+30FC 1
 62
     7
420
 16777215
370
     9
100
AcDb2dPolyline
 66
     1
 10
0.0
 20
0.0
 30
0.0
  0
VERTEX
  5
46
330
45
100
AcDbEntity
  8
_U+30EC_U+30A4_U+30E4_U+30FC 1
 62
     7
420
 16777215
370
     9
100
AcDbVertex
100
AcDb2dVertex
 10
77.21060053019347
 20
-137.9312780210729
 30
0.0
  0
VERTEX
  5
47
330
45
100
AcDbEntity
  8
_U+30EC_U+30A4_U+30E4_U+30FC 1
 62
     7
420
 16777215
370
     9
100
AcDbVertex
100
AcDb2dVertex
 10
74.45558254492428
 20
-137.9312780210729
 30
0.0
  0
SEQEND
  5
48
330
45
100
AcDbEntity
  8
_U+30EC_U+30A4_U+30E4_U+30FC 1
 62
     7
420
 16777215
370
     9
  0
POLYLINE
  5
49
330
1F
100
AcDbEntity
  8
_U+30EC_U+30A4_U+30E4_U+30FC 1
 62
     7
420
 16777215
370
     9
100
AcDb2dPolyline
 66
     1
 10
0.0
 20
0.0
 30
0.0
  0
VERTEX
  5
4A
330
49
100
AcDbEntity
  8
_U+30EC_U+30A4_U+30E4_U+30FC 1
 62
     7
420
 16777215
370
     9
100
AcDbVertex
100
AcDb2dVertex
 10
108.9942221949734
 20
-137.9609113543985
 30
0.0
  0
VERTEX
  5
4B
330
49
100
AcDbEntity
  8
_U+30EC_U+30A4_U+30E4_U+30FC 1
 62
     7
420
 16777215
370
     9
100
AcDbVertex
100
AcDb2dVertex
 10
92.0994451503474
 20
-137.9609113543985
 30
0.0
  0
SEQEND
  5
4C
330
49
100
AcDbEntity
  8
_U+30EC_U+30A4_U+30E4_U+30FC 1
 62
     7
420
 16777215
370
     9
  0
POLYLINE
  5
4D
330
1F
100
AcDbEntity
  8
_U+30EC_U+30A4_U+30E4_U+30FC 1
 62
     7
420
 16777215
370
     9
100
AcDb2dPolyline
 66
     1
 10
0.0
 20
0.0
 30
0.0
  0
VERTEX
  5
4E
330
4D
100
AcDbEntity
  8
_U+30EC_U+30A4_U+30E4_U+30FC 1
 62
     7
420
 16777215
370
     9
100
AcDbVertex
100
AcDb2dVertex
 10
108.9942221949734
 20
-131.4606985782461
 30
0.0
  0
VERTEX
  5
4F
330
4D
100
AcDbEntity
  8
_U+30EC_U+30A4_U+30E4_U+30FC 1
 62
     7
420
 16777215
370
     9
100
AcDbVertex
100
AcDb2dVertex
 10
104.8270320478618
 20
-131.4606985782461
 30
0.0
  0
SEQEND
  5
50
330
4D
100
AcDbEntity
  8
_U+30EC_U+30A4_U+30E4_U+30FC 1
 62
     7
420
 16777215
370
     9
  0
POLYLINE
  5
51
330
1F
100
AcDbEntity
  8
_U+30EC_U+30A4_U+30E4_U+30FC 1
 62
     7
420
 16777215
370
     9
100
AcDb2dPolyline
 66
     1
 10
0.0
 20
0.0
 30
0.0
  0
VERTEX
  5
52
330
51
100
AcDbEntity
  8
_U+30EC_U+30A4_U+30E4_U+30FC 1
 62
     7
420
 16777215
370
     9
100
AcDbVertex
100
AcDb2dVertex
 10
108.9942221949734
 20
-130.508480800706
 30
0.0
  0
VERTEX
  5
53
330
51
100
AcDbEntity
  8
_U+30EC_U+30A4_U+30E4_U+30FC 1
 62
     7
420
 16777215
370
     9
100
AcDbVertex
100
AcDb2dVertex
 10
104.8270320478618
 20
-130.508480800706
 30
0.0
  0
SEQEND
  5
54
330
51
100
AcDbEntity
  8
_U+30EC_U+30A4_U+30E4_U+30FC 1
 62
     7
420
 16777215
370
     9
  0
POLYLINE
  5
55
330
1F
100
AcDbEntity
  8
_U+30EC_U+30A4_U+30E4_U+30FC 1
 62
     7
420
 16777215
370
     9
100
AcDb2dPolyline
 66
     1
 10
0.0
 20
0.0
 30
0.0
  0
VERTEX
  5
56
330
55
100
AcDbEntity
  8
_U+30EC_U+30A4_U+30E4_U+30FC 1
 62
     7
420
 16777215
370
     9
100
AcDbVertex
100
AcDb2dVertex
 10
84.37435284743093
 20
-112.9574335828718
 30
0.0
  0
VERTEX
  5
57
330
55
100
AcDbEntity
  8
_U+30EC_U+30A4_U+30E4_U+30FC 1
 62
     7
420
 16777215
370
     9
100
AcDbVertex
100
AcDb2dVertex
 10
74.45558254492428
 20
-112.9574335828718
 30
0.0
  0
SEQEND
  5
58
330
55
100
AcDbEntity
  8
_U+30EC_U+30A4_U+30E4_U+30FC 1
 62
     7
420
 16777215
370
     9
  0
INSERT
  5
5A
330
1F
100
AcDbEntity
  8
_U+30EC_U+30A4_U+30E4_U+30FC 1
100
AcDbBlockReference
  2
block 2
 10
0.0
 20
0.0
 30
0.0
  0
INSERT
  5
63
330
1F
100
AcDbEntity
  8
_U+30EC_U+30A4_U+30E4_U+30FC 1
100
AcDbBlockReference
  2
block 3
 10
0.0
 20
0.0
 30
0.0
  0
INSERT
  5
6B
330
1F
100
AcDbEntity
  8
_U+30EC_U+30A4_U+30E4_U+30FC 1
100
AcDbBlockReference
  2
block 4
 10
0.0
 20
0.0
 30
0.0
  0
INSERT
  5
7C
330
1F
100
AcDbEntity
  8
_U+30EC_U+30A4_U+30E4_U+30FC 1
100
AcDbBlockReference
  2
block 5
 10
0.0
 20
0.0
 30
0.0
  0
POLYLINE
  5
81
330
1F
100
AcDbEntity
  8
_U+30EC_U+30A4_U+30E4_U+30FC 1
 62
     7
420
 16777215
370
     9
100
AcDb2dPolyline
 66
     1
 10
0.0
 20
0.0
 30
0.0
  0
VERTEX
  5
82
330
81
100
AcDbEntity
  8
_U+30EC_U+30A4_U+30E4_U+30FC 1
 62
     7
420
 16777215
370
     9
100
AcDbVertex
100
AcDb2dVertex
 10
107.5259230901185
 20
-137.9836655210596
 30
0.0
  0
VERTEX
  5
83
330
81
100
AcDbEntity
  8
_U+30EC_U+30A4_U+30E4_U+30FC 1
 62
     7
420
 16777215
370
     9
100
AcDbVertex
100
AcDb2dVertex
 10
107.5259230901185
 20
-127.8934802458043
 30
0.0
  0
SEQEND
  5
84
330
81
100
AcDbEntity
  8
_U+30EC_U+30A4_U+30E4_U+30FC 1
 62
     7
420
 16777215
370
     9
  0
POLYLINE
  5
85
330
1F
100
AcDbEntity
  8
_U+30EC_U+30A4_U+30E4_U+30FC 1
 62
     7
420
 16777215
370
     9
100
AcDb2dPolyline
 66
     1
 10
0.0
 20
0.0
 30
0.0
  0
VERTEX
  5
86
330
85
100
AcDbEntity
  8
_U+30EC_U+30A4_U+30E4_U+30FC 1
 62
     7
420
 16777215
370
     9
100
AcDbVertex
100
AcDb2dVertex
 10
78.35903327867229
 20
-138.1310913543562
 30
0.0
  0
VERTEX
  5
87
330
85
100
AcDbEntity
  8
_U+30EC_U+30A4_U+30E4_U+30FC 1
 62
     7
420
 16777215
370
     9
100
AcDbVertex
100
AcDb2dVertex
 10
79.13867214767093
 20
-137.6811585766907
 30
0.0
  0
SEQEND
  5
88
330
85
100
AcDbEntity
  8
_U+30EC_U+30A4_U+30E4_U+30FC 1
 62
     7
420
 16777215
370
     9
  0
POLYLINE
  5
89
330
1F
100
AcDbEntity
  8
_U+30EC_U+30A4_U+30E4_U+30FC 1
 62
     7
420
 16777215
370
     9
100
AcDb2dPolyline
 66
     1
 10
0.0
 20
0.0
 30
0.0
  0
VERTEX
  5
8A
330
89
100
AcDbEntity
  8
_U+30EC_U+30A4_U+30E4_U+30FC 1
 62
     7
420
 16777215
370
     9
100
AcDbVertex
100
AcDb2dVertex
 10
78.68838660360312
 20
-138.4604446876073
 30
0.0
  0
VERTEX
  5
8B
330
89
100
AcDbEntity
  8
_U+30EC_U+30A4_U+30E4_U+30FC 1
 62
     7
420
 16777215
370
     9
100
AcDbVertex
100
AcDb2dVertex
 10
79.13831936990216
 20
-137.6811585766907
 30
0.0
  0
SEQEND
  5
8C
330
89
100
AcDbEntity
  8
_U+30EC_U+30A4_U+30E4_U+30FC 1
 62
     7
420
 16777215
370
     9
  0
POLYLINE
  5
8D
330
1F
100
AcDbEntity
  8
_U+30EC_U+30A4_U+30E4_U+30FC 1
 62
     7
420
 16777215
370
     9
100
AcDb2dPolyline
 66
     1
 10
0.0
 20
0.0
 30
0.0
  0
VERTEX
  5
8E
330
8D
100
AcDbEntity
  8
_U+30EC_U+30A4_U+30E4_U+30FC 1
 62
     7
420
 16777215
370
     9
100
AcDbVertex
100
AcDb2dVertex
 10
76.02015194945324
 20
-140.7996788536892
 30
0.0
  0
VERTEX
  5
8F
330
8D
100
AcDbEntity
  8
_U+30EC_U+30A4_U+30E4_U+30FC 1
 62
     7
420
 16777215
370
     9
100
AcDbVertex
100
AcDb2dVertex
 10
79.13867214767093
 20
-137.6811585766907
 30
0.0
  0
SEQEND
  5
90
330
8D
100
AcDbEntity
  8
_U+30EC_U+30A4_U+30E4_U+30FC 1
 62
     7
420
 16777215
370
     9
  0
INSERT
  5
92
330
1F
100
AcDbEntity
  8
_U+30EC_U+30A4_U+30E4_U+30FC 1
100
AcDbBlockReference
  2
block 6
 10
0.0
 20
0.0
 30
0.0
  0
SPLINE
  5
9A
330
1F
100
AcDbEntity
  8
_U+30EC_U+30A4_U+30E4_U+30FC 1
 62
     7
420
 16777215
370
     9
100
AcDbSpline
210
0.0
220
0.0
230
1.0
 70
    11
 71
     3
 72
    17
 73
    13
 74
     0
 42
0.0000000001
 43
0.0000000001
 12
1.0
 22
0.0
 32
0.0
 13
1.0
 23
0.0
 33
0.0
 40
0.0
 40
0.0
 40
0.0
 40
0.0
 40
1.0
 40
1.0
 40
1.0
 40
2.0
 40
2.0
 40
2.0
 40
3.0
 40
3.0
 40
3.0
 40
4.0
 40
4.0
 40
4.0
 40
4.0
 10
75.44949863067848
 20
-112.9571160828719
 30
0.0
 10
75.44949863067848
 20
-112.9019769162188
 30
0.0
 10
75.40469585404372
 20
-112.8572094162302
 30
0.0
 10
75.34959196656065
 20
-112.8572094162302
 30
0.0
 10
75.29480557906948
 20
-112.8572094162302
 30
0.0
 10
75.25000280243471
 20
-112.9019769162188
 30
0.0
 10
75.25000280243471
 20
-112.9571160828719
 30
0.0
 10
75.25000280243471
 20
-113.0129255273023
 30
0.0
 10
75.29480557906948
 20
-113.0576930272912
 30
0.0
 10
75.34959196656065
 20
-113.0576930272912
 30
0.0
 10
75.40469585404372
 20
-113.0576930272912
 30
0.0
 10
75.44949863067848
 20
-113.0129255273023
 30
0.0
 10
75.44949863067848
 20
-112.9571160828719
 30
0.0
  0
SPLINE
  5
9B
330
1F
100
AcDbEntity
  8
_U+30EC_U+30A4_U+30E4_U+30FC 1
 62
     7
420
 16777215
370
     9
100
AcDbSpline
210
0.0
220
0.0
230
1.0
 70
    11
 71
     3
 72
    17
 73
    13
 74
     0
 42
0.0000000001
 43
0.0000000001
 12
1.0
 22
0.0
 32
0.0
 13
1.0
 23
0.0
 33
0.0
 40
0.0
 40
0.0
 40
0.0
 40
0.0
 40
1.0
 40
1.0
 40
1.0
 40
2.0
 40
2.0
 40
2.0
 40
3.0
 40
3.0
 40
3.0
 40
4.0
 40
4.0
 40
4.0
 40
4.0
 10
75.44949863067848
 20
-137.9243988544079
 30
0.0
 10
75.44949863067848
 20
-137.8692596877548
 30
0.0
 10
75.40469585404372
 20
-137.8244921877662
 30
0.0
 10
75.34959196656065
 20
-137.8244921877662
 30
0.0
 10
75.29480557906948
 20
-137.8244921877662
 30
0.0
 10
75.25000280243471
 20
-137.8692596877548
 30
0.0
 10
75.25000280243471
 20
-137.9243988544079
 30
0.0
 10
75.25000280243471
 20
-137.9802082988383
 30
0.0
 10
75.29480557906948
 20
-138.025011076605
 30
0.0
 10
75.34959196656065
 20
-138.025011076605
 30
0.0
 10
75.40469585404372
 20
-138.025011076605
 30
0.0
 10
75.44949863067848
 20
-137.9802082988383
 30
0.0
 10
75.44949863067848
 20
-137.9243988544079
 30
0.0
  0
POLYLINE
  5
9C
330
1F
100
AcDbEntity
  8
_U+30EC_U+30A4_U+30E4_U+30FC 1
 62
     7
420
 16777215
370
     9
100
AcDb2dPolyline
 66
     1
 10
0.0
 20
0.0
 30
0.0
  0
VERTEX
  5
9D
330
9C
100
AcDbEntity
  8
_U+30EC_U+30A4_U+30E4_U+30FC 1
 62
     7
420
 16777215
370
     9
100
AcDbVertex
100
AcDb2dVertex
 10
77.21060053019347
 20
-127.9574035791217
 30
0.0
  0
VERTEX
  5
9E
330
9C
100
AcDbEntity
  8
_U+30EC_U+30A4_U+30E4_U+30FC 1
 62
     7
420
 16777215
370
     9
100
AcDbVertex
100
AcDb2dVertex
 10
74.45558254492428
 20
-127.9574035791217
 30
0.0
  0
SEQEND
  5
9F
330
9C
100
AcDbEntity
  8
_U+30EC_U+30A4_U+30E4_U+30FC 1
 62
     7
420
 16777215
370
     9
  0
SPLINE
  5
A0
330
1F
100
AcDbEntity
  8
_U+30EC_U+30A4_U+30E4_U+30FC 1
 62
     7
420
 16777215
370
     9
100
AcDbSpline
210
0.0
220
0.0
230
1.0
 70
    11
 71
     3
 72
    17
 73
    13
 74
     0
 42
0.0000000001
 43
0.0000000001
 12
1.0
 22
0.0
 32
0.0
 13
1.0
 23
0.0
 33
0.0
 40
0.0
 40
0.0
 40
0.0
 40
0.0
 40
1.0
 40
1.0
 40
1.0
 40
2.0
 40
2.0
 40
2.0
 40
3.0
 40
3.0
 40
3.0
 40
4.0
 40
4.0
 40
4.0
 40
4.0
 10
75.44949863067848
 20
-127.9504891346791
 30
0.0
 10
75.44949863067848
 20
-127.8953852458039
 30
0.0
 10
75.40469585404372
 20
-127.8505824680375
 30
0.0
 10
75.34959196656065
 20
-127.8505824680375
 30
0.0
 10
75.29480557906948
 20
-127.8505824680375
 30
0.0
 10
75.25000280243471
 20
-127.8953852458039
 30
0.0
 10
75.25000280243471
 20
-127.9504891346791
 30
0.0
 10
75.25000280243471
 20
-128.0062985791095
 30
0.0
 10
75.29480557906948
 20
-128.0511013568762
 30
0.0
 10
75.34959196656065
 20
-128.0511013568762
 30
0.0
 10
75.40469585404372
 20
-128.0511013568762
 30
0.0
 10
75.44949863067848
 20
-128.0062985791095
 30
0.0
 10
75.44949863067848
 20
-127.9504891346791
 30
0.0
  0
SPLINE
  5
A1
330
1F
100
AcDbEntity
  8
_U+30EC_U+30A4_U+30E4_U+30FC 1
 62
     7
420
 16777215
370
     9
100
AcDbSpline
210
0.0
220
0.0
230
1.0
 70
    11
 71
     3
 72
    17
 73
    13
 74
     0
 42
0.0000000001
 43
0.0000000001
 12
1.0
 22
0.0
 32
0.0
 13
1.0
 23
0.0
 33
0.0
 40
0.0
 40
0.0
 40
0.0
 40
0.0
 40
1.0
 40
1.0
 40
1.0
 40
2.0
 40
2.0
 40
2.0
 40
3.0
 40
3.0
 40
3.0
 40
4.0
 40
4.0
 40
4.0
 40
4.0
 10
107.6416721953119
 20
-130.4933113562655
 30
0.0
 10
107.6416721953119
 20
-130.4382074673906
 30
0.0
 10
107.5968694175452
 20
-130.3934046896238
 30
0.0
 10
107.5417628119366
 20
-130.3934046896238
 30
0.0
 10
107.4869764244454
 20
-130.3934046896238
 30
0.0
 10
107.4421736478107
 20
-130.4382074673906
 30
0.0
 10
107.4421736478107
 20
-130.4933113562655
 30
0.0
 10
107.4421736478107
 20
-130.5484505229186
 30
0.0
 10
107.4869764244454
 20
-130.5932180229071
 30
0.0
 10
107.5417628119366
 20
-130.5932180229071
 30
0.0
 10
107.5968694175452
 20
-130.5932180229071
 30
0.0
 10
107.6416721953119
 20
-130.5484505229186
 30
0.0
 10
107.6416721953119
 20
-130.4933113562655
 30
0.0
  0
SPLINE
  5
A2
330
1F
100
AcDbEntity
  8
_U+30EC_U+30A4_U+30E4_U+30FC 1
 62
     7
420
 16777215
370
     9
100
AcDbSpline
210
0.0
220
0.0
230
1.0
 70
    11
 71
     3
 72
    17
 73
    13
 74
     0
 42
0.0000000001
 43
0.0000000001
 12
1.0
 22
0.0
 32
0.0
 13
1.0
 23
0.0
 33
0.0
 40
0.0
 40
0.0
 40
0.0
 40
0.0
 40
1.0
 40
1.0
 40
1.0
 40
2.0
 40
2.0
 40
2.0
 40
3.0
 40
3.0
 40
3.0
 40
4.0
 40
4.0
 40
4.0
 40
4.0
 10
107.6416721953119
 20
-131.4634502449118
 30
0.0
 10
107.6416721953119
 20
-131.4083463560369
 30
0.0
 10
107.5968694175452
 20
-131.3635435782702
 30
0.0
 10
107.5417628119366
 20
-131.3635435782702
 30
0.0
 10
107.4869764244454
 20
-131.3635435782702
 30
0.0
 10
107.4421736478107
 20
-131.4083463560369
 30
0.0
 10
107.4421736478107
 20
-131.4634502449118
 30
0.0
 10
107.4421736478107
 20
-131.5185894115649
 30
0.0
 10
107.4869764244454
 20
-131.5633569115535
 30
0.0
 10
107.5417628119366
 20
-131.5633569115535
 30
0.0
 10
107.5968694175452
 20
-131.5633569115535
 30
0.0
 10
107.6416721953119
 20
-131.5185894115649
 30
0.0
 10
107.6416721953119
 20
-131.4634502449118
 30
0.0
  0
SPLINE
  5
A3
330
1F
100
AcDbEntity
  8
_U+30EC_U+30A4_U+30E4_U+30FC 1
 62
     7
420
 16777215
370
     9
100
AcDbSpline
210
0.0
220
0.0
230
1.0
 70
    11
 71
     3
 72
    17
 73
    13
 74
     0
 42
0.0000000001
 43
0.0000000001
 12
1.0
 22
0.0
 32
0.0
 13
1.0
 23
0.0
 33
0.0
 40
0.0
 40
0.0
 40
0.0
 40
0.0
 40
1.0
 40
1.0
 40
1.0
 40
2.0
 40
2.0
 40
2.0
 40
3.0
 40
3.0
 40
3.0
 40
4.0
 40
4.0
 40
4.0
 40
4.0
 10
107.6416721953119
 20
-137.9836655210596
 30
0.0
 10
107.6416721953119
 20
-137.9285263544065
 30
0.0
 10
107.5968694175452
 20
-137.8837588544179
 30
0.0
 10
107.5417628119366
 20
-137.8837588544179
 30
0.0
 10
107.4869764244454
 20
-137.8837588544179
 30
0.0
 10
107.4421736478107
 20
-137.9285263544065
 30
0.0
 10
107.4421736478107
 20
-137.9836655210596
 30
0.0
 10
107.4421736478107
 20
-138.0387694099345
 30
0.0
 10
107.4869764244454
 20
-138.0835721877012
 30
0.0
 10
107.5417628119366
 20
-138.0835721877012
 30
0.0
 10
107.5968694175452
 20
-138.0835721877012
 30
0.0
 10
107.6416721953119
 20
-138.0387694099345
 30
0.0
 10
107.6416721953119
 20
-137.9836655210596
 30
0.0
  0
SPLINE
  5
A4
330
1F
100
AcDbEntity
  8
_U+30EC_U+30A4_U+30E4_U+30FC 1
 62
     7
420
 16777215
370
    25
100
AcDbSpline
210
0.0
220
0.0
230
1.0
 70
    11
 71
     3
 72
    53
 73
    49
 74
     0
 42
0.0000000001
 43
0.0000000001
 12
1.0
 22
0.0
 32
0.0
 13
1.0
 23
0.0
 33
0.0
 40
0.0
 40
0.0
 40
0.0
 40
0.0
 40
1.0
 40
1.0
 40
1.0
 40
2.0
 40
2.0
 40
2.0
 40
3.0
 40
3.0
 40
3.0
 40
4.0
 40
4.0
 40
4.0
 40
5.0
 40
5.0
 40
5.0
 40
6.0
 40
6.0
 40
6.0
 40
7.0
 40
7.0
 40
7.0
 40
8.0
 40
8.0
 40
8.0
 40
9.0
 40
9.0
 40
9.0
 40
10.0
 40
10.0
 40
10.0
 40
11.0
 40
11.0
 40
11.0
 40
12.0
 40
12.0
 40
12.0
 40
13.0
 40
13.0
 40
13.0
 40
14.0
 40
14.0
 40
14.0
 40
15.0
 40
15.0
 40
15.0
 40
16.0
 40
16.0
 40
16.0
 40
16.0
 10
103.8744615166084
 20
-130.4606088562739
 30
0.0
 10
103.8744615166084
 20
-130.4606088562739
 30
0.0
 10
86.37456751862342
 20
-130.4606088562739
 30
0.0
 10
86.37456751862342
 20
-130.4606088562739
 30
0.0
 10
86.37456751862342
 20
-130.4606088562739
 30
0.0
 10
86.37456751862342
 20
-128.9609505233154
 30
0.0
 10
86.37456751862342
 20
-128.9609505233154
 30
0.0
 10
86.37456751862342
 20
-128.9609505233154
 30
0.0
 10
86.37456751862342
 20
-112.9574335828718
 30
0.0
 10
86.37456751862342
 20
-112.9574335828718
 30
0.0
 10
86.37456751862342
 20
-112.9574335828718
 30
0.0
 10
85.37479532190751
 20
-112.9574335828718
 30
0.0
 10
85.37479532190751
 20
-112.9574335828718
 30
0.0
 10
85.37479532190751
 20
-112.9574335828718
 30
0.0
 10
85.37479532190751
 20
-127.9605080235655
 30
0.0
 10
85.37479532190751
 20
-127.9605080235655
 30
0.0
 10
85.37479532190751
 20
-127.9605080235655
 30
0.0
 10
78.9245360420229
 20
-127.9605080235655
 30
0.0
 10
78.9245360420229
 20
-127.9605080235655
 30
0.0
 10
78.9245360420229
 20
-127.9605080235655
 30
0.0
 10
78.87444159885646
 20
-127.9605080235655
 30
0.0
 10
78.87444159885646
 20
-127.9605080235655
 30
0.0
 10
78.87444159885646
 20
-127.9605080235655
 30
0.0
 10
78.87444159885646
 20
-136.7107021880448
 30
0.0
 10
78.87444159885646
 20
-136.7107021880448
 30
0.0
 10
78.87444159885646
 20
-136.7107021880448
 30
0.0
 10
78.87426520997208
 20
-136.9604688546486
 30
0.0
 10
78.87426520997208
 20
-136.9604688546486
 30
0.0
 10
78.87426520997208
 20
-137.5130599656221
 30
0.0
 10
79.32194019855093
 20
-137.9609113543985
 30
0.0
 10
79.874180535587
 20
-137.9609113543985
 30
0.0
 10
79.874180535587
 20
-137.9609113543985
 30
0.0
 10
81.87443053508696
 20
-137.9609113543985
 30
0.0
 10
81.87443053508696
 20
-137.9609113543985
 30
0.0
 10
81.87443053508696
 20
-137.9609113543985
 30
0.0
 10
88.5744191291672
 20
-137.9609113543985
 30
0.0
 10
88.5744191291672
 20
-137.9609113543985
 30
0.0
 10
88.5744191291672
 20
-137.9609113543985
 30
0.0
 10
88.87449189928948
 20
-137.9609113543985
 30
0.0
 10
88.87449189928948
 20
-137.9609113543985
 30
0.0
 10
88.87449189928948
 20
-137.9609113543985
 30
0.0
 10
88.87449189928948
 20
-131.4606985782461
 30
0.0
 10
88.87449189928948
 20
-131.4606985782461
 30
0.0
 10
88.87449189928948
 20
-131.4606985782461
 30
0.0
 10
103.8744615166084
 20
-131.4606985782461
 30
0.0
 10
103.8744615166084
 20
-131.4606985782461
 30
0.0
 10
103.8744615166084
 20
-131.4606985782461
 30
0.0
 10
103.8744615166084
 20
-130.4606088562739
 30
0.0
 10
103.8744615166084
 20
-130.4606088562739
 30
0.0
  0
HATCH
  5
A5
330
1F
100
AcDbEntity
  8
_U+30EC_U+30A4_U+30E4_U+30FC 1
 62
   253
420
 11711154
100
AcDbHatch
 10
0.0
 20
0.0
 30
0.0
210
0.0
220
0.0
230
1.0
  2
SOLID
 70
     1
 71
     0
 91
        1
 92
        1
 93
        1
 72
     4
 94
        3
 73
     0
 74
     1
 95
       53
 96
       49
 40
0.0
 40
0.0
 40
0.0
 40
0.0
 40
1.0
 40
1.0
 40
1.0
 40
2.0
 40
2.0
 40
2.0
 40
3.0
 40
3.0
 40
3.0
 40
4.0
 40
4.0
 40
4.0
 40
5.0
 40
5.0
 40
5.0
 40
6.0
 40
6.0
 40
6.0
 40
7.0
 40
7.0
 40
7.0
 40
8.0
 40
8.0
 40
8.0
 40
9.0
 40
9.0
 40
9.0
 40
10.0
 40
10.0
 40
10.0
 40
11.0
 40
11.0
 40
11.0
 40
12.0
 40
12.0
 40
12.0
 40
13.0
 40
13.0
 40
13.0
 40
14.0
 40
14.0
 40
14.0
 40
15.0
 40
15.0
 40
15.0
 40
16.0
 40
16.0
 40
16.0
 40
16.0
 10
103.8744615166084
 20
-130.4606088562739
 10
103.8744615166084
 20
-130.4606088562739
 10
86.37456751862342
 20
-130.4606088562739
 10
86.37456751862342
 20
-130.4606088562739
 10
86.37456751862342
 20
-130.4606088562739
 10
86.37456751862342
 20
-128.9609505233154
 10
86.37456751862342
 20
-128.9609505233154
 10
86.37456751862342
 20
-128.9609505233154
 10
86.37456751862342
 20
-112.9574335828718
 10
86.37456751862342
 20
-112.9574335828718
 10
86.37456751862342
 20
-112.9574335828718
 10
85.37479532190751
 20
-112.9574335828718
 10
85.37479532190751
 20
-112.9574335828718
 10
85.37479532190751
 20
-112.9574335828718
 10
85.37479532190751
 20
-127.9605080235655
 10
85.37479532190751
 20
-127.9605080235655
 10
85.37479532190751
 20
-127.9605080235655
 10
78.9245360420229
 20
-127.9605080235655
 10
78.9245360420229
 20
-127.9605080235655
 10
78.9245360420229
 20
-127.9605080235655
 10
78.87444159885646
 20
-127.9605080235655
 10
78.87444159885646
 20
-127.9605080235655
 10
78.87444159885646
 20
-127.9605080235655
 10
78.87444159885646
 20
-136.7107021880448
 10
78.87444159885646
 20
-136.7107021880448
 10
78.87444159885646
 20
-136.7107021880448
 10
78.87426520997208
 20
-136.9604688546486
 10
78.87426520997208
 20
-136.9604688546486
 10
78.87426520997208
 20
-137.5130599656221
 10
79.32194019855093
 20
-137.9609113543985
 10
79.874180535587
 20
-137.9609113543985
 10
79.874180535587
 20
-137.9609113543985
 10
81.87443053508696
 20
-137.9609113543985
 10
81.87443053508696
 20
-137.9609113543985
 10
81.87443053508696
 20
-137.9609113543985
 10
88.5744191291672
 20
-137.9609113543985
 10
88.5744191291672
 20
-137.9609113543985
 10
88.5744191291672
 20
-137.9609113543985
 10
88.87449189928948
 20
-137.9609113543985
 10
88.87449189928948
 20
-137.9609113543985
 10
88.87449189928948
 20
-137.9609113543985
 10
88.87449189928948
 20
-131.4606985782461
 10
88.87449189928948
 20
-131.4606985782461
 10
88.87449189928948
 20
-131.4606985782461
 10
103.8744615166084
 20
-131.4606985782461
 10
103.8744615166084
 20
-131.4606985782461
 10
103.8744615166084
 20
-131.4606985782461
 10
103.8744615166084
 20
-130.4606088562739
 10
103.8744615166084
 20
-130.4606088562739
 97
        0
 97
        0
 75
     2
 76
     1
 98
        0
  0
POLYLINE
  5
A6
330
1F
100
AcDbEntity
  8
_U+30EC_U+30A4_U+30E4_U+30FC 1
 62
     7
420
 16777215
370
    25
100
AcDb2dPolyline
 66
     1
 10
0.0
 20
0.0
 30
0.0
  0
VERTEX
  5
A7
330
A6
100
AcDbEntity
  8
_U+30EC_U+30A4_U+30E4_U+30FC 1
 62
     7
420
 16777215
370
    25
100
AcDbVertex
100
AcDb2dVertex
 10
87.87457859146606
 20
-136.9604688546486
 30
0.0
  0
VERTEX
  5
A8
330
A6
100
AcDbEntity
  8
_U+30EC_U+30A4_U+30E4_U+30FC 1
 62
     7
420
 16777215
370
    25
100
AcDbVertex
100
AcDb2dVertex
 10
79.87453331336476
 20
-136.9604688546486
 30
0.0
  0
VERTEX
  5
A9
330
A6
100
AcDbEntity
  8
_U+30EC_U+30A4_U+30E4_U+30FC 1
 62
     7
420
 16777215
370
    25
100
AcDbVertex
100
AcDb2dVertex
 10
79.87453331336476
 20
-128.9602449677599
 30
0.0
  0
VERTEX
  5
AA
330
A6
100
AcDbEntity
  8
_U+30EC_U+30A4_U+30E4_U+30FC 1
 62
     7
420
 16777215
370
    25
100
AcDbVertex
100
AcDb2dVertex
 10
85.37479532190751
 20
-128.9602449677599
 30
0.0
  0
VERTEX
  5
AB
330
A6
100
AcDbEntity
  8
_U+30EC_U+30A4_U+30E4_U+30FC 1
 62
     7
420
 16777215
370
    25
100
AcDbVertex
100
AcDb2dVertex
 10
85.37479532190751
 20
-129.9600171897324
 30
0.0
  0
VERTEX
  5
AC
330
A6
100
AcDbEntity
  8
_U+30EC_U+30A4_U+30E4_U+30FC 1
 62
     7
420
 16777215
370
    25
100
AcDbVertex
100
AcDb2dVertex
 10
85.3751480996763
 20
-129.9600171897324
 30
0.0
  0
VERTEX
  5
AD
330
A6
100
AcDbEntity
  8
_U+30EC_U+30A4_U+30E4_U+30FC 1
 62
     7
420
 16777215
370
    25
100
AcDbVertex
100
AcDb2dVertex
 10
85.3751480996763
 20
-131.4606985782461
 30
0.0
  0
VERTEX
  5
AE
330
A6
100
AcDbEntity
  8
_U+30EC_U+30A4_U+30E4_U+30FC 1
 62
     7
420
 16777215
370
    25
100
AcDbVertex
100
AcDb2dVertex
 10
87.87457859146606
 20
-131.4606985782461
 30
0.0
  0
VERTEX
  5
AF
330
A6
100
AcDbEntity
  8
_U+30EC_U+30A4_U+30E4_U+30FC 1
 62
     7
420
 16777215
370
    25
100
AcDbVertex
100
AcDb2dVertex
 10
87.87457859146606
 20
-136.9604688546486
 30
0.0
  0
SEQEND
  5
B0
330
A6
100
AcDbEntity
  8
_U+30EC_U+30A4_U+30E4_U+30FC 1
 62
     7
420
 16777215
370
    25
  0
ENDSEC
  0
SECTION
  2
OBJECTS
  0
DICTIONARY
  5
C
330
0
100
AcDbDictionary
281
     1
  3
ACAD_GROUP
350
D
  3
ACAD_LAYOUT
350
1A
  3
ACAD_MATERIAL
350
3B
  3
ACAD_MLEADERSTYLE
350
B2
  3
ACAD_MLINESTYLE
350
17
  3
ACAD_PLOTSETTINGS
350
19
  3
ACAD_PLOTSTYLENAME
350
E
  3
ACAD_TABLESTYLE
350
B1
  3
ACAD_VISUALSTYLE
350
2A
  0
SUN
  5
3F
330
29
100
AcDbSun
 90
        1
290
     0
 63
     7
421
 16777215
 40
1.0
291
     1
 91
  2455826
 92
 54000000
292
     0
 70
     2
 71
   256
280
     1
  0
DICTIONARY
  5
D
102
{ACAD_REACTORS
330
C
102
}
330
C
100
AcDbDictionary
281
     1
  0
DICTIONARY
  5
1A
102
{ACAD_REACTORS
330
C
102
}
330
C
100
AcDbDictionary
281
     1
  3
Layout1
350
1E
  3
Layout2
350
26
  3
Model
350
22
  0
DICTIONARY
  5
3B
102
{ACAD_REACTORS
330
C
102
}
330
C
100
AcDbDictionary
281
     1
  3
ByBlock
350
3D
  3
ByLayer
350
3C
  3
Global
350
3E
  0
DICTIONARY
  5
B2
102
{ACAD_REACTORS
330
C
102
}
330
C
100
AcDbDictionary
281
     1
  0
DICTIONARY
  5
17
102
{ACAD_REACTORS
330
C
102
}
330
C
100
AcDbDictionary
281
     1
  3
Standard
350
18
  0
DICTIONARY
  5
19
102
{ACAD_REACTORS
330
C
102
}
330
C
100
AcDbDictionary
281
     1
  0
ACDBDICTIONARYWDFLT
  5
E
102
{ACAD_REACTORS
330
C
102
}
330
C
100
AcDbDictionary
281
     1
  3
Normal
350
F
100
AcDbDictionaryWithDefault
340
F
  0
DICTIONARY
  5
B1
102
{ACAD_REACTORS
330
C
102
}
330
C
100
AcDbDictionary
281
     1
  0
DICTIONARY
  5
2A
102
{ACAD_REACTORS
330
C
102
}
330
C
100
AcDbDictionary
281
     1
  3
2dWireframe
350
2F
  3
3D Hidden
350
31
  3
3dWireframe
350
30
  3
Basic
350
32
  3
Brighten
350
36
  3
ColorChange
350
3A
  3
Conceptual
350
34
  3
Dim
350
35
  3
Facepattern
350
39
  3
Flat
350
2B
  3
FlatWithEdges
350
2C
  3
Gouraud
350
2D
  3
GouraudWithEdges
350
2E
  3
Linepattern
350
38
  3
Realistic
350
33
  3
Thicken
350
37
  0
LAYOUT
  5
1E
102
{ACAD_REACTORS
330
1A
102
}
330
1A
100
AcDbPlotSettings
  1

  2
none_device
  4

  6

 40
0.0
 41
0.0
 42
0.0
 43
0.0
 44
0.0
 45
0.0
 46
0.0
 47
0.0
 48
0.0
 49
0.0
140
0.0
141
0.0
142
1.0
143
1.0
 70
   688
 72
     0
 73
     0
 74
     5
  7

 75
    16
 76
     0
 77
     2
 78
   300
147
1.0
148
0.0
149
0.0
100
AcDbLayout
  1
Layout1
 70
     1
 71
     1
 10
0.0
 20
0.0
 11
12.0
 21
9.0
 12
0.0
 22
0.0
 32
0.0
 14
1.000000000000000E+20
 24
1.000000000000000E+20
 34
1.000000000000000E+20
 15
-1.000000000000000E+20
 25
-1.000000000000000E+20
 35
-1.000000000000000E+20
146
0.0
 13
0.0
 23
0.0
 33
0.0
 16
1.0
 26
0.0
 36
0.0
 17
0.0
 27
1.0
 37
0.0
 76
     0
330
1B
  0
LAYOUT
  5
26
102
{ACAD_REACTORS
330
1A
102
}
330
1A
100
AcDbPlotSettings
  1

  2
none_device
  4

  6

 40
0.0
 41
0.0
 42
0.0
 43
0.0
 44
0.0
 45
0.0
 46
0.0
 47
0.0
 48
0.0
 49
0.0
140
0.0
141
0.0
142
1.0
143
1.0
 70
   688
 72
     0
 73
     0
 74
     5
  7

 75
    16
 76
     0
 77
     2
 78
   300
147
1.0
148
0.0
149
0.0
100
AcDbLayout
  1
Layout2
 70
     1
 71
     2
 10
0.0
 20
0.0
 11
0.0
 21
0.0
 12
0.0
 22
0.0
 32
0.0
 14
0.0
 24
0.0
 34
0.0
 15
0.0
 25
0.0
 35
0.0
146
0.0
 13
0.0
 23
0.0
 33
0.0
 16
1.0
 26
0.0
 36
0.0
 17
0.0
 27
1.0
 37
0.0
 76
     0
330
23
  0
LAYOUT
  5
22
102
{ACAD_REACTORS
330
1A
102
}
330
1A
100
AcDbPlotSettings
  1

  2
none_device
  4

  6

 40
0.0
 41
0.0
 42
0.0
 43
0.0
 44
0.0
 45
0.0
 46
0.0
 47
0.0
 48
0.0
 49
0.0
140
0.0
141
0.0
142
1.0
143
1.0
 70
  1712
 72
     0
 73
     0
 74
     0
  7

 75
     0
 76
     0
 77
     2
 78
   300
147
1.0
148
0.0
149
0.0
100
AcDbLayout
  1
Model
 70
     1
 71
     0
 10
0.0
 20
0.0
 11
12.0
 21
9.0
 12
0.0
 22
0.0
 32
0.0
 14
1.000000000000000E+20
 24
1.000000000000000E+20
 34
1.000000000000000E+20
 15
-1.000000000000000E+20
 25
-1.000000000000000E+20
 35
-1.000000000000000E+20
146
0.0
 13
0.0
 23
0.0
 33
0.0
 16
1.0
 26
0.0
 36
0.0
 17
0.0
 27
1.0
 37
0.0
 76
     0
330
1F
331
29
  0
MATERIAL
  5
3D
102
{ACAD_REACTORS
330
3B
102
}
330
3B
100
AcDbMaterial
  1
ByBlock
 72
     1
 94
      127
  0
MATERIAL
  5
3C
102
{ACAD_REACTORS
330
3B
102
}
330
3B
100
AcDbMaterial
  1
ByLayer
 72
     1
 94
      127
  0
MATERIAL
  5
3E
102
{ACAD_REACTORS
330
3B
102
}
330
3B
100
AcDbMaterial
  1
Global
 72
     1
 94
      127
  0
MLINESTYLE
  5
18
102
{ACAD_REACTORS
330
17
102
}
330
17
100
AcDbMlineStyle
  2
Standard
 70
     0
  3

 62
   256
 51
90.0
 52
90.0
 71
     2
 49
0.5
 62
   256
  6
BYLAYER
 49
-0.5
 62
   256
  6
BYLAYER
  0
ACDBPLACEHOLDER
  5
F
102
{ACAD_REACTORS
330
E
102
}
330
E
  0
VISUALSTYLE
  5
2F
102
{ACAD_REACTORS
330
2A
102
}
330
2A
100
AcDbVisualStyle
  2
2dWireframe
 70
     4
177
     2
291
     0
 71
     0
176
     1
 72
     2
176
     1
 73
     0
176
     1
 90
        0
176
     1
 40
-0.6
176
     1
 41
-30.0
176
     1
 62
     5
 63
     7
421
 16777215
176
     1
 74
     1
176
     1
 91
        4
176
     1
 64
     7
176
     1
 65
   257
176
     1
 75
     1
176
     1
175
     1
176
     1
 42
1.0
176
     1
 92
        0
176
     1
 66
   257
176
     1
 43
1.0
176
     1
 76
     1
176
     1
 77
     6
176
     1
 78
     2
176
     1
 67
     7
176
     1
 79
     5
176
     1
170
     0
176
     1
171
     0
176
     1
290
     0
176
     1
 93
        1
176
     1
 44
0.0
176
     1
173
     0
176
     1
  0
VISUALSTYLE
  5
31
102
{ACAD_REACTORS
330
2A
102
}
330
2A
100
AcDbVisualStyle
  2
3D Hidden
 70
     6
177
     2
291
     0
 71
     1
176
     1
 72
     2
176
     1
 73
     2
176
     1
 90
        0
176
     1
 40
-0.6
176
     1
 41
-30.0
176
     1
 62
     5
 63
     7
421
 16777215
176
     1
 74
     2
176
     1
 91
        2
176
     1
 64
     7
176
     1
 65
   257
176
     1
 75
     2
176
     1
175
     1
176
     1
 42
40.0
176
     1
 92
        0
176
     1
 66
   257
176
     1
 43
1.0
176
     1
 76
     1
176
     1
 77
     6
176
     1
 78
     2
176
     1
 67
     7
176
     1
 79
     3
176
     1
170
     0
176
     1
171
     0
176
     1
290
     0
176
     1
 93
        1
176
     1
 44
0.0
176
     1
173
     0
176
     1
  0
VISUALSTYLE
  5
30
102
{ACAD_REACTORS
330
2A
102
}
330
2A
100
AcDbVisualStyle
  2
3dWireframe
 70
     5
177
     2
291
     0
 71
     0
176
     1
 72
     2
176
     1
 73
     0
176
     1
 90
        0
176
     1
 40
-0.6
176
     1
 41
-30.0
176
     1
 62
     5
 63
     7
421
 16777215
176
     1
 74
     1
176
     1
 91
        4
176
     1
 64
     7
176
     1
 65
   257
176
     1
 75
     1
176
     1
175
     1
176
     1
 42
1.0
176
     1
 92
        0
176
     1
 66
   257
176
     1
 43
1.0
176
     1
 76
     1
176
     1
 77
     6
176
     1
 78
     2
176
     1
 67
     7
176
     1
 79
     5
176
     1
170
     0
176
     1
171
     0
176
     1
290
     0
176
     1
 93
        1
176
     1
 44
0.0
176
     1
173
     0
176
     1
  0
VISUALSTYLE
  5
32
102
{ACAD_REACTORS
330
2A
102
}
330
2A
100
AcDbVisualStyle
  2
Basic
 70
     7
177
     2
291
     1
 71
     1
176
     1
 72
     0
176
     1
 73
     1
176
     1
 90
        0
176
     1
 40
-0.6
176
     1
 41
-30.0
176
     1
 62
     5
 63
     7
421
 16777215
176
     1
 74
     0
176
     1
 91
        4
176
     1
 64
     7
176
     1
 65
   257
176
     1
 75
     1
176
     1
175
     1
176
     1
 42
1.0
176
     1
 92
        8
176
     1
 66
     7
176
     1
 43
1.0
176
     1
 76
     1
176
     1
 77
     6
176
     1
 78
     2
176
     1
 67
     7
176
     1
 79
     5
176
     1
170
     0
176
     1
171
     0
176
     1
290
     0
176
     1
 93
        1
176
     1
 44
0.0
176
     1
173
     0
176
     1
  0
VISUALSTYLE
  5
36
102
{ACAD_REACTORS
330
2A
102
}
330
2A
100
AcDbVisualStyle
  2
Brighten
 70
    12
177
     2
291
     1
 71
     2
176
     1
 72
     2
176
     1
 73
     0
176
     1
 90
        0
176
     1
 40
-0.6
176
     1
 41
-30.0
176
     1
 62
     5
 63
     7
421
 16777215
176
     1
 74
     1
176
     1
 91
        4
176
     1
 64
     7
176
     1
 65
   257
176
     1
 75
     1
176
     1
175
     1
176
     1
 42
1.0
176
     1
 92
        8
176
     1
 66
     7
176
     1
 43
1.0
176
     1
 76
     1
176
     1
 77
     6
176
     1
 78
     2
176
     1
 67
     7
176
     1
 79
     5
176
     1
170
     0
176
     1
171
     0
176
     1
290
     0
176
     1
 93
        1
176
     1
 44
50.0
176
     1
173
     0
176
     1
  0
VISUALSTYLE
  5
3A
102
{ACAD_REACTORS
330
2A
102
}
330
2A
100
AcDbVisualStyle
  2
ColorChange
 70
    16
177
     2
291
     1
 71
     2
176
     1
 72
     2
176
     1
 73
     3
176
     1
 90
        0
176
     1
 40
-0.6
176
     1
 41
-30.0
176
     1
 62
     5
 63
     8
421
  8421504
176
     1
 74
     1
176
     1
 91
        4
176
     1
 64
     7
176
     1
 65
   257
176
     1
 75
     1
176
     1
175
     1
176
     1
 42
1.0
176
     1
 92
        8
176
     1
 66
     8
424
  8421504
176
     1
 43
1.0
176
     1
 76
     1
176
     1
 77
     6
176
     1
 78
     2
176
     1
 67
     7
176
     1
 79
     5
176
     1
170
     0
176
     1
171
     0
176
     1
290
     0
176
     1
 93
        1
176
     1
 44
0.0
176
     1
173
     0
176
     1
  0
VISUALSTYLE
  5
34
102
{ACAD_REACTORS
330
2A
102
}
330
2A
100
AcDbVisualStyle
  2
Conceptual
 70
     9
177
     2
291
     0
 71
     3
176
     1
 72
     2
176
     1
 73
     0
176
     1
 90
        0
176
     1
 40
-0.6
176
     1
 41
-30.0
176
     1
 62
     5
 63
     7
421
 16777215
176
     1
 74
     2
176
     1
 91
        2
176
     1
 64
     7
176
     1
 65
   257
176
     1
 75
     1
176
     1
175
     1
176
     1
 42
40.0
176
     1
 92
        8
176
     1
 66
     7
176
     1
 43
1.0
176
     1
 76
     1
176
     1
 77
     6
176
     1
 78
     2
176
     1
 67
     7
176
     1
 79
     3
176
     1
170
     0
176
     1
171
     0
176
     1
290
     0
176
     1
 93
        1
176
     1
 44
0.0
176
     1
173
     0
176
     1
  0
VISUALSTYLE
  5
35
102
{ACAD_REACTORS
330
2A
102
}
330
2A
100
AcDbVisualStyle
  2
Dim
 70
    11
177
     2
291
     1
 71
     2
176
     1
 72
     2
176
     1
 73
     0
176
     1
 90
        0
176
     1
 40
-0.6
176
     1
 41
-30.0
176
     1
 62
     5
 63
     7
421
 16777215
176
     1
 74
     1
176
     1
 91
        4
176
     1
 64
     7
176
     1
 65
   257
176
     1
 75
     1
176
     1
175
     1
176
     1
 42
1.0
176
     1
 92
        8
176
     1
 66
     7
176
     1
 43
1.0
176
     1
 76
     1
176
     1
 77
     6
176
     1
 78
     2
176
     1
 67
     7
176
     1
 79
     5
176
     1
170
     0
176
     1
171
     0
176
     1
290
     0
176
     1
 93
        1
176
     1
 44
-50.0
176
     1
173
     0
176
     1
  0
VISUALSTYLE
  5
39
102
{ACAD_REACTORS
330
2A
102
}
330
2A
100
AcDbVisualStyle
  2
Facepattern
 70
    15
177
     2
291
     1
 71
     2
176
     1
 72
     2
176
     1
 73
     0
176
     1
 90
        0
176
     1
 40
-0.6
176
     1
 41
-30.0
176
     1
 62
     5
 63
     7
421
 16777215
176
     1
 74
     1
176
     1
 91
        4
176
     1
 64
     7
176
     1
 65
   257
176
     1
 75
     1
176
     1
175
     1
176
     1
 42
1.0
176
     1
 92
        8
176
     1
 66
     7
176
     1
 43
1.0
176
     1
 76
     1
176
     1
 77
     6
176
     1
 78
     2
176
     1
 67
     7
176
     1
 79
     5
176
     1
170
     0
176
     1
171
     0
176
     1
290
     0
176
     1
 93
        1
176
     1
 44
0.0
176
     1
173
     0
176
     1
  0
VISUALSTYLE
  5
2B
102
{ACAD_REACTORS
330
2A
102
}
330
2A
100
AcDbVisualStyle
  2
Flat
 70
     0
177
     2
291
     1
 71
     2
176
     1
 72
     1
176
     1
 73
     1
176
     1
 90
        2
176
     1
 40
-0.6
176
     1
 41
30.0
176
     1
 62
     5
 63
     7
421
 16777215
176
     1
 74
     0
176
     1
 91
        4
176
     1
 64
     7
176
     1
 65
   257
176
     1
 75
     1
176
     1
175
     1
176
     1
 42
1.0
176
     1
 92
        8
176
     1
 66
     7
176
     1
 43
1.0
176
     1
 76
     1
176
     1
 77
     6
176
     1
 78
     2
176
     1
 67
     7
176
     1
 79
     5
176
     1
170
     0
176
     1
171
     0
176
     1
290
     0
176
     1
 93
       13
176
     1
 44
0.0
176
     1
173
     0
176
     1
  0
VISUALSTYLE
  5
2C
102
{ACAD_REACTORS
330
2A
102
}
330
2A
100
AcDbVisualStyle
  2
FlatWithEdges
 70
     1
177
     2
291
     1
 71
     2
176
     1
 72
     1
176
     1
 73
     1
176
     1
 90
        2
176
     1
 40
-0.6
176
     1
 41
30.0
176
     1
 62
     5
 63
     7
421
 16777215
176
     1
 74
     1
176
     1
 91
        4
176
     1
 64
     7
176
     1
 65
   257
176
     1
 75
     1
176
     1
175
     1
176
     1
 42
1.0
176
     1
 92
        0
176
     1
 66
   257
176
     1
 43
1.0
176
     1
 76
     1
176
     1
 77
     6
176
     1
 78
     2
176
     1
 67
     7
176
     1
 79
     5
176
     1
170
     0
176
     1
171
     0
176
     1
290
     0
176
     1
 93
       13
176
     1
 44
0.0
176
     1
173
     0
176
     1
  0
VISUALSTYLE
  5
2D
102
{ACAD_REACTORS
330
2A
102
}
330
2A
100
AcDbVisualStyle
  2
Gouraud
 70
     2
177
     2
291
     1
 71
     2
176
     1
 72
     2
176
     1
 73
     1
176
     1
 90
        2
176
     1
 40
-0.6
176
     1
 41
30.0
176
     1
 62
     5
 63
     7
421
 16777215
176
     1
 74
     0
176
     1
 91
        4
176
     1
 64
     7
176
     1
 65
   257
176
     1
 75
     1
176
     1
175
     1
176
     1
 42
1.0
176
     1
 92
        0
176
     1
 66
     7
176
     1
 43
1.0
176
     1
 76
     1
176
     1
 77
     6
176
     1
 78
     2
176
     1
 67
     7
176
     1
 79
     5
176
     1
170
     0
176
     1
171
     0
176
     1
290
     0
176
     1
 93
       13
176
     1
 44
0.0
176
     1
173
     0
176
     1
  0
VISUALSTYLE
  5
2E
102
{ACAD_REACTORS
330
2A
102
}
330
2A
100
AcDbVisualStyle
  2
GouraudWithEdges
 70
     3
177
     2
291
     1
 71
     2
176
     1
 72
     2
176
     1
 73
     1
176
     1
 90
        2
176
     1
 40
-0.6
176
     1
 41
30.0
176
     1
 62
     5
 63
     7
421
 16777215
176
     1
 74
     1
176
     1
 91
        4
176
     1
 64
     7
176
     1
 65
   257
176
     1
 75
     1
176
     1
175
     1
176
     1
 42
1.0
176
     1
 92
        0
176
     1
 66
   257
176
     1
 43
1.0
176
     1
 76
     1
176
     1
 77
     6
176
     1
 78
     2
176
     1
 67
     7
176
     1
 79
     5
176
     1
170
     0
176
     1
171
     0
176
     1
290
     0
176
     1
 93
       13
176
     1
 44
0.0
176
     1
173
     0
176
     1
  0
VISUALSTYLE
  5
38
102
{ACAD_REACTORS
330
2A
102
}
330
2A
100
AcDbVisualStyle
  2
Linepattern
 70
    14
177
     2
291
     1
 71
     2
176
     1
 72
     2
176
     1
 73
     0
176
     1
 90
        0
176
     1
 40
-0.6
176
     1
 41
-30.0
176
     1
 62
     5
 63
     7
421
 16777215
176
     1
 74
     1
176
     1
 91
        4
176
     1
 64
     7
176
     1
 65
   257
176
     1
 75
     7
176
     1
175
     7
176
     1
 42
1.0
176
     1
 92
        8
176
     1
 66
     7
176
     1
 43
1.0
176
     1
 76
     1
176
     1
 77
     6
176
     1
 78
     2
176
     1
 67
     7
176
     1
 79
     5
176
     1
170
     0
176
     1
171
     0
176
     1
290
     0
176
     1
 93
        1
176
     1
 44
0.0
176
     1
173
     0
176
     1
  0
VISUALSTYLE
  5
33
102
{ACAD_REACTORS
330
2A
102
}
330
2A
100
AcDbVisualStyle
  2
Realistic
 70
     8
177
     2
291
     0
 71
     2
176
     1
 72
     2
176
     1
 73
     0
176
     1
 90
        0
176
     1
 40
-0.6
176
     1
 41
-30.0
176
     1
 62
     5
 63
     7
421
 16777215
176
     1
 74
     1
176
     1
 91
        0
176
     1
 64
     7
176
     1
 65
   257
176
     1
 75
     1
176
     1
175
     1
176
     1
 42
1.0
176
     1
 92
        8
176
     1
 66
     8
424
  7895160
176
     1
 43
1.0
176
     1
 76
     1
176
     1
 77
     6
176
     1
 78
     2
176
     1
 67
     7
176
     1
 79
     5
176
     1
170
     0
176
     1
171
     0
176
     1
290
     0
176
     1
 93
       13
176
     1
 44
0.0
176
     1
173
     0
176
     1
  0
VISUALSTYLE
  5
37
102
{ACAD_REACTORS
330
2A
102
}
330
2A
100
AcDbVisualStyle
  2
Thicken
 70
    13
177
     2
291
     1
 71
     2
176
     1
 72
     2
176
     1
 73
     0
176
     1
 90
        0
176
     1
 40
-0.6
176
     1
 41
-30.0
176
     1
 62
     5
 63
     7
421
 16777215
176
     1
 74
     1
176
     1
 91
        4
176
     1
 64
     7
176
     1
 65
   257
176
     1
 75
     1
176
     1
175
     1
176
     1
 42
1.0
176
     1
 92
       12
176
     1
 66
     7
176
     1
 43
1.0
176
     1
 76
     1
176
     1
 77
     6
176
     1
 78
     2
176
     1
 67
     7
176
     1
 79
     5
176
     1
170
     0
176
     1
171
     0
176
     1
290
     0
176
     1
 93
        1
176
     1
 44
0.0
176
     1
173
     0
176
     1
  0
ENDSEC
  0
EOF
