  0
SECTION
  2
HEADER
  9
$ACADVER
  1
AC1024
  9
$ACADMAINTVER
 70
     6
  9
$DWGCODEPAGE
  3
UNDEFINED
  9
$INSBASE
 10
0.0
 20
0.0
 30
0.0
  9
$EXTMIN
 10
1.000000000000000E+20
 20
1.000000000000000E+20
 30
1.000000000000000E+20
  9
$EXTMAX
 10
-1.000000000000000E+20
 20
-1.000000000000000E+20
 30
-1.000000000000000E+20
  9
$LIMMIN
 10
0.0
 20
0.0
  9
$LIMMAX
 10
12.0
 20
9.0
  9
$ORTHOMODE
 70
     0
  9
$REGENMODE
 70
     1
  9
$FILLMODE
 70
     1
  9
$QTEXTMODE
 70
     0
  9
$MIRRTEXT
 70
     1
  9
$LTSCALE
 40
1.0
  9
$ATTMODE
 70
     1
  9
$TEXTSIZE
 40
0.2
  9
$TRACEWID
 40
0.05
  9
$TEXTSTYLE
  7
Standard
  9
$CLAYER
  8
0
  9
$CELTYPE
  6
ByLayer
  9
$CECOLOR
 62
   256
  9
$CELTSCALE
 40
1.0
  9
$DISPSILH
 70
     0
  9
$DIMSCALE
 40
1.0
  9
$DIMASZ
 40
0.18
  9
$DIMEXO
 40
0.0625
  9
$DIMDLI
 40
0.38
  9
$DIMRND
 40
0.0
  9
$DIMDLE
 40
0.0
  9
$DIMEXE
 40
0.18
  9
$DIMTP
 40
0.0
  9
$DIMTM
 40
0.0
  9
$DIMTXT
 40
0.18
  9
$DIMCEN
 40
0.09
  9
$DIMTSZ
 40
0.0
  9
$DIMTOL
 70
     0
  9
$DIMLIM
 70
     0
  9
$DIMTIH
 70
     1
  9
$DIMTOH
 70
     1
  9
$DIMSE1
 70
     0
  9
$DIMSE2
 70
     0
  9
$DIMTAD
 70
     0
  9
$DIMZIN
 70
     0
  9
$DIMBLK
  1

  9
$DIMASO
 70
     1
  9
$DIMSHO
 70
     1
  9
$DIMPOST
  1

  9
$DIMAPOST
  1

  9
$DIMALT
 70
     0
  9
$DIMALTD
 70
     2
  9
$DIMALTF
 40
25.4
  9
$DIMLFAC
 40
1.0
  9
$DIMTOFL
 70
     0
  9
$DIMTVP
 40
0.0
  9
$DIMTIX
 70
     0
  9
$DIMSOXD
 70
     0
  9
$DIMSAH
 70
     0
  9
$DIMBLK1
  1

  9
$DIMBLK2
  1

  9
$DIMSTYLE
  2
Standard
  9
$DIMCLRD
 70
     0
  9
$DIMCLRE
 70
     0
  9
$DIMCLRT
 70
     0
  9
$DIMTFAC
 40
1.0
  9
$DIMGAP
 40
0.09
  9
$DIMJUST
 70
     0
  9
$DIMSD1
 70
     0
  9
$DIMSD2
 70
     0
  9
$DIMTOLJ
 70
     1
  9
$DIMTZIN
 70
     0
  9
$DIMALTZ
 70
     0
  9
$DIMALTTZ
 70
     0
  9
$DIMUPT
 70
     0
  9
$DIMDEC
 70
     4
  9
$DIMTDEC
 70
     4
  9
$DIMALTU
 70
     2
  9
$DIMALTTD
 70
     2
  9
$DIMTXSTY
  7
Standard
  9
$DIMAUNIT
 70
     0
  9
$DIMADEC
 70
     0
  9
$DIMALTRND
 40
0.0
  9
$DIMAZIN
 70
     0
  9
$DIMDSEP
 70
    46
  9
$DIMATFIT
 70
     3
  9
$DIMFRAC
 70
     0
  9
$DIMLDRBLK
  1

  9
$DIMLUNIT
 70
     2
  9
$DIMLWD
 70
    -2
  9
$DIMLWE
 70
    -2
  9
$DIMTMOVE
 70
     0
  9
$DIMFXL
 40
1.0
  9
$DIMFXLON
 70
     0
  9
$DIMJOGANG
 40
0.7853981633974483
  9
$DIMTFILL
 70
     0
  9
$DIMTFILLCLR
 70
     0
  9
$DIMARCSYM
 70
     0
  9
$DIMLTYPE
  6

  9
$DIMLTEX1
  6

  9
$DIMLTEX2
  6

  9
$DIMTXTDIRECTION
 70
     0
  9
$LUNITS
 70
     2
  9
$LUPREC
 70
     4
  9
$SKETCHINC
 40
0.1
  9
$FILLETRAD
 40
0.5
  9
$AUNITS
 70
     0
  9
$AUPREC
 70
     0
  9
$MENU
  1
.
  9
$ELEVATION
 40
0.0
  9
$PELEVATION
 40
0.0
  9
$THICKNESS
 40
0.0
  9
$LIMCHECK
 70
     0
  9
$CHAMFERA
 40
0.5
  9
$CHAMFERB
 40
0.5
  9
$CHAMFERC
 40
1.0
  9
$CHAMFERD
 40
0.0
  9
$SKPOLY
 70
     0
  9
$TDCREATE
 40
2457917.623090278
  9
$TDUCREATE
 40
2457917.248090278
  9
$TDUPDATE
 40
2457917.623090278
  9
$TDUUPDATE
 40
2457917.248090278
  9
$TDINDWG
 40
0.0000000116
  9
$TDUSRTIMER
 40
0.0000000116
  9
$USRTIMER
 70
     1
  9
$ANGBASE
 50
0.0
  9
$ANGDIR
 70
     0
  9
$PDMODE
 70
     0
  9
$PDSIZE
 40
0.0
  9
$PLINEWID
 40
0.0
  9
$SPLFRAME
 70
     0
  9
$SPLINETYPE
 70
     6
  9
$SPLINESEGS
 70
     8
  9
$HANDSEED
  5
FC
  9
$SURFTAB1
 70
     6
  9
$SURFTAB2
 70
     6
  9
$SURFTYPE
 70
     6
  9
$SURFU
 70
     6
  9
$SURFV
 70
     6
  9
$UCSBASE
  2

  9
$UCSNAME
  2

  9
$UCSORG
 10
0.0
 20
0.0
 30
0.0
  9
$UCSXDIR
 10
1.0
 20
0.0
 30
0.0
  9
$UCSYDIR
 10
0.0
 20
1.0
 30
0.0
  9
$UCSORTHOREF
  2

  9
$UCSORTHOVIEW
 70
     0
  9
$UCSORGTOP
 10
0.0
 20
0.0
 30
0.0
  9
$UCSORGBOTTOM
 10
0.0
 20
0.0
 30
0.0
  9
$UCSORGLEFT
 10
0.0
 20
0.0
 30
0.0
  9
$UCSORGRIGHT
 10
0.0
 20
0.0
 30
0.0
  9
$UCSORGFRONT
 10
0.0
 20
0.0
 30
0.0
  9
$UCSORGBACK
 10
0.0
 20
0.0
 30
0.0
  9
$PUCSBASE
  2

  9
$PUCSNAME
  2

  9
$PUCSORG
 10
0.0
 20
0.0
 30
0.0
  9
$PUCSXDIR
 10
1.0
 20
0.0
 30
0.0
  9
$PUCSYDIR
 10
0.0
 20
1.0
 30
0.0
  9
$PUCSORTHOREF
  2

  9
$PUCSORTHOVIEW
 70
     0
  9
$PUCSORGTOP
 10
0.0
 20
0.0
 30
0.0
  9
$PUCSORGBOTTOM
 10
0.0
 20
0.0
 30
0.0
  9
$PUCSORGLEFT
 10
0.0
 20
0.0
 30
0.0
  9
$PUCSORGRIGHT
 10
0.0
 20
0.0
 30
0.0
  9
$PUCSORGFRONT
 10
0.0
 20
0.0
 30
0.0
  9
$PUCSORGBACK
 10
0.0
 20
0.0
 30
0.0
  9
$USERI1
 70
     0
  9
$USERI2
 70
     0
  9
$USERI3
 70
     0
  9
$USERI4
 70
     0
  9
$USERI5
 70
     0
  9
$USERR1
 40
0.0
  9
$USERR2
 40
0.0
  9
$USERR3
 40
0.0
  9
$USERR4
 40
0.0
  9
$USERR5
 40
0.0
  9
$WORLDVIEW
 70
     1
  9
$SHADEDGE
 70
     3
  9
$SHADEDIF
 70
    70
  9
$TILEMODE
 70
     1
  9
$MAXACTVP
 70
    64
  9
$PINSBASE
 10
0.0
 20
0.0
 30
0.0
  9
$PLIMCHECK
 70
     0
  9
$PEXTMIN
 10
1.000000000000000E+20
 20
1.000000000000000E+20
 30
1.000000000000000E+20
  9
$PEXTMAX
 10
-1.000000000000000E+20
 20
-1.000000000000000E+20
 30
-1.000000000000000E+20
  9
$PLIMMIN
 10
0.0
 20
0.0
  9
$PLIMMAX
 10
12.0
 20
9.0
  9
$UNITMODE
 70
     0
  9
$VISRETAIN
 70
     1
  9
$PLINEGEN
 70
     0
  9
$PSLTSCALE
 70
     1
  9
$TREEDEPTH
 70
  3020
  9
$CMLSTYLE
  2
Standard
  9
$CMLJUST
 70
     0
  9
$CMLSCALE
 40
1.0
  9
$PROXYGRAPHICS
 70
     1
  9
$MEASUREMENT
 70
     0
  9
$CELWEIGHT
370
    -1
  9
$ENDCAPS
280
     0
  9
$JOINSTYLE
280
     0
  9
$LWDISPLAY
290
     1
  9
$INSUNITS
 70
     1
  9
$HYPERLINKBASE
  1

  9
$STYLESHEET
  1

  9
$XEDIT
290
     1
  9
$CEPSNTYPE
380
     0
  9
$PSTYLEMODE
290
     1
  9
$FINGERPRINTGUID
  2
{70C7B21B-DCCE-57FD-0823-8FADA6C7C008}
  9
$VERSIONGUID
  2
{FAEB1C32-E019-11D5-929B-00C0DF256EC4}
  9
$EXTNAMES
290
     1
  9
$PSVPSCALE
 40
0.0
  9
$OLESTARTUP
290
     0
  9
$SORTENTS
280
   127
  9
$INDEXCTL
280
     0
  9
$HIDETEXT
280
     1
  9
$XCLIPFRAME
280
     2
  9
$HALOGAP
280
     0
  9
$OBSCOLOR
 70
   257
  9
$OBSLTYPE
280
     0
  9
$INTERSECTIONDISPLAY
280
     0
  9
$INTERSECTIONCOLOR
 70
   257
  9
$DIMASSOC
280
     2
  9
$PROJECTNAME
  1

  9
$CAMERADISPLAY
290
     0
  9
$LENSLENGTH
 40
50.0
  9
$CAMERAHEIGHT
 40
0.0
  9
$STEPSPERSEC
 40
2.0
  9
$STEPSIZE
 40
6.0
  9
$3DDWFPREC
 40
2.0
  9
$PSOLWIDTH
 40
0.25
  9
$PSOLHEIGHT
 40
4.0
  9
$LOFTANG1
 40
1.570796326794897
  9
$LOFTANG2
 40
1.570796326794897
  9
$LOFTMAG1
 40
0.0
  9
$LOFTMAG2
 40
0.0
  9
$LOFTPARAM
 70
     7
  9
$LOFTNORMALS
280
     1
  9
$LATITUDE
 40
37.795
  9
$LONGITUDE
 40
-122.394
  9
$NORTHDIRECTION
 40
0.0
  9
$TIMEZONE
 70
 -8000
  9
$LIGHTGLYPHDISPLAY
280
     1
  9
$TILEMODELIGHTSYNCH
280
     1
  9
$CMATERIAL
347
3C
  9
$SOLIDHIST
280
     1
  9
$SHOWHIST
280
     1
  9
$DWFFRAME
280
     2
  9
$DGNFRAME
280
     2
  9
$REALWORLDSCALE
290
     1
  9
$INTERFERECOLOR
 62
   256
  9
$CSHADOW
280
     0
  9
$SHADOWPLANELOCATION
 40
0.0
  0
ENDSEC
  0
SECTION
  2
CLASSES
  0
CLASS
  1
ACDBDICTIONARYWDFLT
  2
AcDbDictionaryWithDefault
  3
ObjectDBX Classes
 90
        0
 91
        4
280
     0
281
     0
  0
CLASS
  1
VISUALSTYLE
  2
AcDbVisualStyle
  3
ObjectDBX Classes
 90
     4095
 91
        4
280
     0
281
     0
  0
CLASS
  1
MATERIAL
  2
AcDbMaterial
  3
ObjectDBX Classes
 90
     1153
 91
        4
280
     0
281
     0
  0
CLASS
  1
SUN
  2
AcDbSun
  3
SCENEOE
 90
     1024
 91
        4
280
     0
281
     0
  0
ENDSEC
  0
SECTION
  2
TABLES
  0
TABLE
  2
VPORT
  5
8
330
0
100
AcDbSymbolTable
 70
     1
  0
VPORT
  5
29
330
8
100
AcDbSymbolTableRecord
100
AcDbViewportTableRecord
  2
*Active
 70
     0
 10
0.0
 20
0.0
 11
1.0
 21
1.0
 12
0.0
 22
0.0
 13
0.0
 23
0.0
 14
0.5
 24
0.5
 15
0.5
 25
0.5
 16
0.0
 26
0.0
 36
1.0
 17
91.00082462281999
 27
-128.4993055234307
 37
0.0
 40
256.9986110468615
 41
0.7081814508812795
 42
50.0
 43
0.0
 44
0.0
 50
0.0
 51
0.0
 71
     0
 72
   100
 73
     1
 74
     3
 75
     0
 76
     0
 77
     0
 78
     0
281
     0
 65
     1
110
0.0
120
0.0
130
0.0
111
1.0
121
0.0
131
0.0
112
0.0
122
1.0
132
0.0
 79
     0
146
0.0
 60
     3
 61
     5
292
     1
282
     1
141
0.0
142
0.0
 63
   250
361
3F
  0
ENDTAB
  0
TABLE
  2
LTYPE
  5
5
330
0
100
AcDbSymbolTable
 70
     1
  0
LTYPE
  5
14
330
5
100
AcDbSymbolTableRecord
100
AcDbLinetypeTableRecord
  2
ByBlock
 70
     0
  3

 72
    65
 73
     0
 40
0.0
  0
LTYPE
  5
15
330
5
100
AcDbSymbolTableRecord
100
AcDbLinetypeTableRecord
  2
ByLayer
 70
     0
  3

 72
    65
 73
     0
 40
0.0
  0
LTYPE
  5
16
330
5
100
AcDbSymbolTableRecord
100
AcDbLinetypeTableRecord
  2
Continuous
 70
     0
  3
Solid line
 72
    65
 73
     0
 40
0.0
  0
ENDTAB
  0
TABLE
  2
LAYER
  5
2
330
0
100
AcDbSymbolTable
 70
     2
  0
LAYER
  5
10
330
2
100
AcDbSymbolTableRecord
100
AcDbLayerTableRecord
  2
0
 70
     0
 62
     7
  6
Continuous
370
    -3
390
F
347
3E
  0
LAYER
  5
40
330
2
100
AcDbSymbolTableRecord
100
AcDbLayerTableRecord
  2
_U+30EC_U+30A4_U+30E4_U+30FC 1
 70
     0
 62
     7
  6
Continuous
370
    -3
390
F
347
3E
  0
ENDTAB
  0
TABLE
  2
STYLE
  5
3
330
0
100
AcDbSymbolTable
 70
     1
  0
STYLE
  5
11
330
3
100
AcDbSymbolTableRecord
100
AcDbTextStyleTableRecord
  2
Standard
 70
     0
 40
0.0
 41
1.0
 50
0.0
 71
     0
 42
0.2
  3
txt
  4

  0
ENDTAB
  0
TABLE
  2
VIEW
  5
6
330
0
100
AcDbSymbolTable
 70
     0
  0
ENDTAB
  0
TABLE
  2
UCS
  5
7
330
0
100
AcDbSymbolTable
 70
     0
  0
ENDTAB
  0
TABLE
  2
APPID
  5
9
330
0
100
AcDbSymbolTable
 70
     1
  0
APPID
  5
12
330
9
100
AcDbSymbolTableRecord
100
AcDbRegAppTableRecord
  2
ACAD
 70
     0
  0
ENDTAB
  0
TABLE
  2
DIMSTYLE
  5
A
330
0
100
AcDbSymbolTable
 70
     1
100
AcDbDimStyleTable
  0
DIMSTYLE
105
27
330
A
100
AcDbSymbolTableRecord
100
AcDbDimStyleTableRecord
  2
Standard
 70
     0
178
     0
340
11
  0
ENDTAB
  0
TABLE
  2
BLOCK_RECORD
  5
1
330
0
100
AcDbSymbolTable
 70
    10
  0
BLOCK_RECORD
  5
1F
330
1
100
AcDbSymbolTableRecord
100
AcDbBlockTableRecord
  2
*Model_Space
340
22
 70
     0
280
     1
281
     0
  0
BLOCK_RECORD
  5
1B
330
1
100
AcDbSymbolTableRecord
100
AcDbBlockTableRecord
  2
*Paper_Space
340
1E
 70
     0
280
     1
281
     0
  0
BLOCK_RECORD
  5
23
330
1
100
AcDbSymbolTableRecord
100
AcDbBlockTableRecord
  2
*Paper_Space0
340
26
 70
     0
280
     1
281
     0
  0
BLOCK_RECORD
  5
7D
330
1
100
AcDbSymbolTableRecord
100
AcDbBlockTableRecord
  2
block 2
340
0
102
{BLKREFS
331
7E
102
}
 70
     0
280
     1
281
     0
  0
BLOCK_RECORD
  5
8F
330
1
100
AcDbSymbolTableRecord
100
AcDbBlockTableRecord
  2
block 3
340
0
102
{BLKREFS
331
90
102
}
 70
     0
280
     1
281
     0
  0
BLOCK_RECORD
  5
95
330
1
100
AcDbSymbolTableRecord
100
AcDbBlockTableRecord
  2
block 4
340
0
102
{BLKREFS
331
96
102
}
 70
     0
280
     1
281
     0
  0
BLOCK_RECORD
  5
9E
330
1
100
AcDbSymbolTableRecord
100
AcDbBlockTableRecord
  2
block 5
340
0
102
{BLKREFS
331
9F
102
}
 70
     0
280
     1
281
     0
  0
BLOCK_RECORD
  5
BC
330
1
100
AcDbSymbolTableRecord
100
AcDbBlockTableRecord
  2
block 6
340
0
102
{BLKREFS
331
BD
102
}
 70
     0
280
     1
281
     0
  0
BLOCK_RECORD
  5
CB
330
1
100
AcDbSymbolTableRecord
100
AcDbBlockTableRecord
  2
block 7
340
0
102
{BLKREFS
331
CC
102
}
 70
     0
280
     1
281
     0
  0
BLOCK_RECORD
  5
D3
330
1
100
AcDbSymbolTableRecord
100
AcDbBlockTableRecord
  2
block 8
340
0
102
{BLKREFS
331
D4
102
}
 70
     0
280
     1
281
     0
  0
BLOCK_RECORD
  5
DB
330
1
100
AcDbSymbolTableRecord
100
AcDbBlockTableRecord
  2
block 9
340
0
102
{BLKREFS
331
DC
102
}
 70
     0
280
     1
281
     0
  0
BLOCK_RECORD
  5
E5
330
1
100
AcDbSymbolTableRecord
100
AcDbBlockTableRecord
  2
block 10
340
0
102
{BLKREFS
331
E6
102
}
 70
     0
280
     1
281
     0
  0
ENDTAB
  0
ENDSEC
  0
SECTION
  2
BLOCKS
  0
BLOCK
  5
20
330
1F
100
AcDbEntity
  8
0
100
AcDbBlockBegin
  2
*Model_Space
 70
     0
 10
0.0
 20
0.0
 30
0.0
  3
*Model_Space
  1

  0
ENDBLK
  5
21
330
1F
100
AcDbEntity
  8
0
100
AcDbBlockEnd
  0
BLOCK
  5
1C
330
1B
100
AcDbEntity
 67
     1
  8
0
100
AcDbBlockBegin
  2
*Paper_Space
 70
     0
 10
0.0
 20
0.0
 30
0.0
  3
*Paper_Space
  1

  0
ENDBLK
  5
1D
330
1B
100
AcDbEntity
 67
     1
  8
0
100
AcDbBlockEnd
  0
BLOCK
  5
24
330
23
100
AcDbEntity
  8
0
100
AcDbBlockBegin
  2
*Paper_Space0
 70
     0
 10
0.0
 20
0.0
 30
0.0
  3
*Paper_Space0
  1

  0
ENDBLK
  5
25
330
23
100
AcDbEntity
  8
0
100
AcDbBlockEnd
  0
BLOCK
  5
7F
330
7D
100
AcDbEntity
  8
0
100
AcDbBlockBegin
  2
block 2
 70
     0
 10
0.0
 20
0.0
 30
0.0
  3
block 2
  1

  0
SPLINE
  5
81
330
7D
100
AcDbEntity
  8
_U+30EC_U+30A4_U+30E4_U+30FC 1
370
     0
100
AcDbSpline
210
0.0
220
0.0
230
1.0
 70
    11
 71
     3
 72
    26
 73
    22
 74
     0
 42
0.0000000001
 43
0.0000000001
 12
1.0
 22
0.0
 32
0.0
 13
1.0
 23
0.0
 33
0.0
 40
0.0
 40
0.0
 40
0.0
 40
0.0
 40
1.0
 40
1.0
 40
1.0
 40
2.0
 40
2.0
 40
2.0
 40
3.0
 40
3.0
 40
3.0
 40
4.0
 40
4.0
 40
4.0
 40
5.0
 40
5.0
 40
5.0
 40
6.0
 40
6.0
 40
6.0
 40
7.0
 40
7.0
 40
7.0
 40
7.0
 10
120.3998860376084
 20
-142.0340521563318
 30
0.0
 10
120.3998860376084
 20
-142.0340521563318
 30
0.0
 10
119.2960774441343
 20
-142.0340521563318
 30
0.0
 10
119.2960774441343
 20
-142.0340521563318
 30
0.0
 10
119.2960774441343
 20
-142.0340521563318
 30
0.0
 10
119.2960774441343
 20
-142.3640923038187
 30
0.0
 10
119.2960774441343
 20
-142.3640923038187
 30
0.0
 10
119.2960774441343
 20
-142.3640923038187
 30
0.0
 10
119.1479383382686
 20
-142.3640923038187
 30
0.0
 10
119.1479383382686
 20
-142.3640923038187
 30
0.0
 10
119.1327799181335
 20
-142.0319850990406
 30
0.0
 10
118.9701714112297
 20
-141.9854763099897
 30
0.0
 10
118.8557942411194
 20
-141.9558484888166
 30
0.0
 10
118.8557942411194
 20
-141.9558484888166
 30
0.0
 10
118.8557942411194
 20
-141.809776440242
 30
0.0
 10
118.8557942411194
 20
-141.809776440242
 30
0.0
 10
118.8557942411194
 20
-141.809776440242
 30
0.0
 10
120.3998860376084
 20
-141.809776440242
 30
0.0
 10
120.3998860376084
 20
-141.809776440242
 30
0.0
 10
120.3998860376084
 20
-141.809776440242
 30
0.0
 10
120.3998860376084
 20
-142.0340521563318
 30
0.0
 10
120.3998860376084
 20
-142.0340521563318
 30
0.0
  0
HATCH
  5
82
330
7D
100
AcDbEntity
  8
_U+30EC_U+30A4_U+30E4_U+30FC 1
 62
     7
420
 16777215
100
AcDbHatch
 10
0.0
 20
0.0
 30
0.0
210
0.0
220
0.0
230
1.0
  2
SOLID
 70
     1
 71
     0
 91
        1
 92
        1
 93
        1
 72
     4
 94
        3
 73
     0
 74
     1
 95
       26
 96
       22
 40
0.0
 40
0.0
 40
0.0
 40
0.0
 40
1.0
 40
1.0
 40
1.0
 40
2.0
 40
2.0
 40
2.0
 40
3.0
 40
3.0
 40
3.0
 40
4.0
 40
4.0
 40
4.0
 40
5.0
 40
5.0
 40
5.0
 40
6.0
 40
6.0
 40
6.0
 40
7.0
 40
7.0
 40
7.0
 40
7.0
 10
120.3998860376084
 20
-142.0340521563318
 10
120.3998860376084
 20
-142.0340521563318
 10
119.2960774441343
 20
-142.0340521563318
 10
119.2960774441343
 20
-142.0340521563318
 10
119.2960774441343
 20
-142.0340521563318
 10
119.2960774441343
 20
-142.3640923038187
 10
119.2960774441343
 20
-142.3640923038187
 10
119.2960774441343
 20
-142.3640923038187
 10
119.1479383382686
 20
-142.3640923038187
 10
119.1479383382686
 20
-142.3640923038187
 10
119.1327799181335
 20
-142.0319850990406
 10
118.9701714112297
 20
-141.9854763099897
 10
118.8557942411194
 20
-141.9558484888166
 10
118.8557942411194
 20
-141.9558484888166
 10
118.8557942411194
 20
-141.809776440242
 10
118.8557942411194
 20
-141.809776440242
 10
118.8557942411194
 20
-141.809776440242
 10
120.3998860376084
 20
-141.809776440242
 10
120.3998860376084
 20
-141.809776440242
 10
120.3998860376084
 20
-141.809776440242
 10
120.3998860376084
 20
-142.0340521563318
 10
120.3998860376084
 20
-142.0340521563318
 97
        0
 97
        0
 75
     2
 76
     1
 98
        0
  0
SPLINE
  5
83
330
7D
100
AcDbEntity
  8
_U+30EC_U+30A4_U+30E4_U+30FC 1
370
     0
100
AcDbSpline
210
0.0
220
0.0
230
1.0
 70
    11
 71
     3
 72
    53
 73
    49
 74
     0
 42
0.0000000001
 43
0.0000000001
 12
1.0
 22
0.0
 32
0.0
 13
1.0
 23
0.0
 33
0.0
 40
0.0
 40
0.0
 40
0.0
 40
0.0
 40
1.0
 40
1.0
 40
1.0
 40
2.0
 40
2.0
 40
2.0
 40
3.0
 40
3.0
 40
3.0
 40
4.0
 40
4.0
 40
4.0
 40
5.0
 40
5.0
 40
5.0
 40
6.0
 40
6.0
 40
6.0
 40
7.0
 40
7.0
 40
7.0
 40
8.0
 40
8.0
 40
8.0
 40
9.0
 40
9.0
 40
9.0
 40
10.0
 40
10.0
 40
10.0
 40
11.0
 40
11.0
 40
11.0
 40
12.0
 40
12.0
 40
12.0
 40
13.0
 40
13.0
 40
13.0
 40
14.0
 40
14.0
 40
14.0
 40
15.0
 40
15.0
 40
15.0
 40
16.0
 40
16.0
 40
16.0
 40
16.0
 10
120.4508734507901
 20
-140.8275797173973
 30
0.0
 10
120.4508734507901
 20
-140.9057833849124
 30
0.0
 10
120.4336479733638
 20
-141.0074137017273
 30
0.0
 10
120.3702582164352
 20
-141.1090440185422
 30
0.0
 10
120.2607041800043
 20
-141.2823323214503
 30
0.0
 10
120.1291015324677
 20
-141.3036919134588
 30
0.0
 10
120.0216145533279
 20
-141.3226399386277
 30
0.0
 10
120.0216145533279
 20
-141.3226399386277
 30
0.0
 10
120.0216145533279
 20
-141.1004312798291
 30
0.0
 10
120.0216145533279
 20
-141.1004312798291
 30
0.0
 10
120.2200520532783
 20
-141.0456542616136
 30
0.0
 10
120.2496798744515
 20
-140.9185302382079
 30
0.0
 10
120.2496798744515
 20
-140.8255126601061
 30
0.0
 10
120.2496798744515
 20
-140.6859862929535
 30
0.0
 10
120.1504611244763
 20
-140.5337130725055
 30
0.0
 10
119.9175726696734
 20
-140.5337130725055
 30
0.0
 10
119.6619465846678
 20
-140.5337130725055
 30
0.0
 10
119.5916666367687
 20
-140.7135470568355
 30
0.0
 10
119.5916666367687
 20
-140.8341253988193
 30
0.0
 10
119.5916666367687
 20
-140.8658202772835
 30
0.0
 10
119.5916666367687
 20
-141.0074137017273
 30
0.0
 10
119.7212022270141
 20
-141.0962971652468
 30
0.0
 10
119.7212022270141
 20
-141.0962971652468
 30
0.0
 10
119.7019096922968
 20
-141.2719970349945
 30
0.0
 10
119.7019096922968
 20
-141.2719970349945
 30
0.0
 10
119.7019096922968
 20
-141.2719970349945
 30
0.0
 10
118.8557942411194
 20
-141.1514186930108
 30
0.0
 10
118.8557942411194
 20
-141.1514186930108
 30
0.0
 10
118.8557942411194
 20
-141.1514186930108
 30
0.0
 10
118.8557942411194
 20
-140.3728271133443
 30
0.0
 10
118.8557942411194
 20
-140.3728271133443
 30
0.0
 10
118.8557942411194
 20
-140.3728271133443
 30
0.0
 10
119.0500976264875
 20
-140.3728271133443
 30
0.0
 10
119.0500976264875
 20
-140.3728271133443
 30
0.0
 10
119.0500976264875
 20
-140.3728271133443
 30
0.0
 10
119.0500976264875
 20
-140.9884656765584
 30
0.0
 10
119.0500976264875
 20
-140.9884656765584
 30
0.0
 10
119.0500976264875
 20
-140.9884656765584
 30
0.0
 10
119.4731553520762
 20
-141.0539224907782
 30
0.0
 10
119.4731553520762
 20
-141.0539224907782
 30
0.0
 10
119.4393934163207
 20
-140.9925997911407
 30
0.0
 10
119.3994303086918
 20
-140.9102620090433
 30
0.0
 10
119.3994303086918
 20
-140.7917507243507
 30
0.0
 10
119.3994303086918
 20
-140.5378471870878
 30
0.0
 10
119.5854654648953
 20
-140.3008246177026
 30
0.0
 10
119.898969154053
 20
-140.3008246177026
 30
0.0
 10
120.215917938696
 20
-140.3008246177026
 30
0.0
 10
120.4508734507901
 20
-140.5251003337924
 30
0.0
 10
120.4508734507901
 20
-140.8275797173973
 30
0.0
  0
HATCH
  5
84
330
7D
100
AcDbEntity
  8
_U+30EC_U+30A4_U+30E4_U+30FC 1
 62
     7
420
 16777215
100
AcDbHatch
 10
0.0
 20
0.0
 30
0.0
210
0.0
220
0.0
230
1.0
  2
SOLID
 70
     1
 71
     0
 91
        1
 92
        1
 93
        1
 72
     4
 94
        3
 73
     0
 74
     1
 95
       53
 96
       49
 40
0.0
 40
0.0
 40
0.0
 40
0.0
 40
1.0
 40
1.0
 40
1.0
 40
2.0
 40
2.0
 40
2.0
 40
3.0
 40
3.0
 40
3.0
 40
4.0
 40
4.0
 40
4.0
 40
5.0
 40
5.0
 40
5.0
 40
6.0
 40
6.0
 40
6.0
 40
7.0
 40
7.0
 40
7.0
 40
8.0
 40
8.0
 40
8.0
 40
9.0
 40
9.0
 40
9.0
 40
10.0
 40
10.0
 40
10.0
 40
11.0
 40
11.0
 40
11.0
 40
12.0
 40
12.0
 40
12.0
 40
13.0
 40
13.0
 40
13.0
 40
14.0
 40
14.0
 40
14.0
 40
15.0
 40
15.0
 40
15.0
 40
16.0
 40
16.0
 40
16.0
 40
16.0
 10
120.4508734507901
 20
-140.8275797173973
 10
120.4508734507901
 20
-140.9057833849124
 10
120.4336479733638
 20
-141.0074137017273
 10
120.3702582164352
 20
-141.1090440185422
 10
120.2607041800043
 20
-141.2823323214503
 10
120.1291015324677
 20
-141.3036919134588
 10
120.0216145533279
 20
-141.3226399386277
 10
120.0216145533279
 20
-141.3226399386277
 10
120.0216145533279
 20
-141.1004312798291
 10
120.0216145533279
 20
-141.1004312798291
 10
120.2200520532783
 20
-141.0456542616136
 10
120.2496798744515
 20
-140.9185302382079
 10
120.2496798744515
 20
-140.8255126601061
 10
120.2496798744515
 20
-140.6859862929535
 10
120.1504611244763
 20
-140.5337130725055
 10
119.9175726696734
 20
-140.5337130725055
 10
119.6619465846678
 20
-140.5337130725055
 10
119.5916666367687
 20
-140.7135470568355
 10
119.5916666367687
 20
-140.8341253988193
 10
119.5916666367687
 20
-140.8658202772835
 10
119.5916666367687
 20
-141.0074137017273
 10
119.7212022270141
 20
-141.0962971652468
 10
119.7212022270141
 20
-141.0962971652468
 10
119.7019096922968
 20
-141.2719970349945
 10
119.7019096922968
 20
-141.2719970349945
 10
119.7019096922968
 20
-141.2719970349945
 10
118.8557942411194
 20
-141.1514186930108
 10
118.8557942411194
 20
-141.1514186930108
 10
118.8557942411194
 20
-141.1514186930108
 10
118.8557942411194
 20
-140.3728271133443
 10
118.8557942411194
 20
-140.3728271133443
 10
118.8557942411194
 20
-140.3728271133443
 10
119.0500976264875
 20
-140.3728271133443
 10
119.0500976264875
 20
-140.3728271133443
 10
119.0500976264875
 20
-140.3728271133443
 10
119.0500976264875
 20
-140.9884656765584
 10
119.0500976264875
 20
-140.9884656765584
 10
119.0500976264875
 20
-140.9884656765584
 10
119.4731553520762
 20
-141.0539224907782
 10
119.4731553520762
 20
-141.0539224907782
 10
119.4393934163207
 20
-140.9925997911407
 10
119.3994303086918
 20
-140.9102620090433
 10
119.3994303086918
 20
-140.7917507243507
 10
119.3994303086918
 20
-140.5378471870878
 10
119.5854654648953
 20
-140.3008246177026
 10
119.898969154053
 20
-140.3008246177026
 10
120.215917938696
 20
-140.3008246177026
 10
120.4508734507901
 20
-140.5251003337924
 10
120.4508734507901
 20
-140.8275797173973
 97
        0
 97
        0
 75
     2
 76
     1
 98
        0
  0
POLYLINE
  5
85
330
7D
100
AcDbEntity
  8
_U+30EC_U+30A4_U+30E4_U+30FC 1
370
     0
100
AcDb2dPolyline
 66
     1
 10
0.0
 20
0.0
 30
0.0
  0
VERTEX
  5
86
330
85
100
AcDbEntity
  8
_U+30EC_U+30A4_U+30E4_U+30FC 1
370
     0
100
AcDbVertex
100
AcDb2dVertex
 10
120.3998860376084
 20
-140.0717257679335
 30
0.0
  0
VERTEX
  5
87
330
85
100
AcDbEntity
  8
_U+30EC_U+30A4_U+30E4_U+30FC 1
370
     0
100
AcDbVertex
100
AcDb2dVertex
 10
120.1483940671851
 20
-140.0717257679335
 30
0.0
  0
VERTEX
  5
88
330
85
100
AcDbEntity
  8
_U+30EC_U+30A4_U+30E4_U+30FC 1
370
     0
100
AcDbVertex
100
AcDb2dVertex
 10
120.1483940671851
 20
-139.8198892879617
 30
0.0
  0
VERTEX
  5
89
330
85
100
AcDbEntity
  8
_U+30EC_U+30A4_U+30E4_U+30FC 1
370
     0
100
AcDbVertex
100
AcDb2dVertex
 10
120.3998860376084
 20
-139.8198892879617
 30
0.0
  0
VERTEX
  5
8A
330
85
100
AcDbEntity
  8
_U+30EC_U+30A4_U+30E4_U+30FC 1
370
     0
100
AcDbVertex
100
AcDb2dVertex
 10
120.3998860376084
 20
-140.0717257679335
 30
0.0
  0
SEQEND
  5
8B
330
85
100
AcDbEntity
  8
_U+30EC_U+30A4_U+30E4_U+30FC 1
370
     0
  0
HATCH
  5
8C
330
7D
100
AcDbEntity
  8
_U+30EC_U+30A4_U+30E4_U+30FC 1
 62
     7
420
 16777215
100
AcDbHatch
 10
0.0
 20
0.0
 30
0.0
210
0.0
220
0.0
230
1.0
  2
SOLID
 70
     1
 71
     0
 91
        1
 92
        1
 93
        4
 72
     1
 10
120.3998860376084
 20
-140.0717257679335
 11
120.1483940671851
 21
-140.0717257679335
 72
     1
 10
120.1483940671851
 20
-140.0717257679335
 11
120.1483940671851
 21
-139.8198892879617
 72
     1
 10
120.1483940671851
 20
-139.8198892879617
 11
120.3998860376084
 21
-139.8198892879617
 72
     1
 10
120.3998860376084
 20
-139.8198892879617
 11
120.3998860376084
 21
-140.0717257679335
 97
        0
 75
     2
 76
     1
 98
        0
  0
SPLINE
  5
8D
330
7D
100
AcDbEntity
  8
_U+30EC_U+30A4_U+30E4_U+30FC 1
370
     0
100
AcDbSpline
210
0.0
220
0.0
230
1.0
 70
    11
 71
     3
 72
    53
 73
    49
 74
     0
 42
0.0000000001
 43
0.0000000001
 12
1.0
 22
0.0
 32
0.0
 13
1.0
 23
0.0
 33
0.0
 40
0.0
 40
0.0
 40
0.0
 40
0.0
 40
1.0
 40
1.0
 40
1.0
 40
2.0
 40
2.0
 40
2.0
 40
3.0
 40
3.0
 40
3.0
 40
4.0
 40
4.0
 40
4.0
 40
5.0
 40
5.0
 40
5.0
 40
6.0
 40
6.0
 40
6.0
 40
7.0
 40
7.0
 40
7.0
 40
8.0
 40
8.0
 40
8.0
 40
9.0
 40
9.0
 40
9.0
 40
10.0
 40
10.0
 40
10.0
 40
11.0
 40
11.0
 40
11.0
 40
12.0
 40
12.0
 40
12.0
 40
13.0
 40
13.0
 40
13.0
 40
14.0
 40
14.0
 40
14.0
 40
15.0
 40
15.0
 40
15.0
 40
16.0
 40
16.0
 40
16.0
 40
16.0
 10
120.4508734507901
 20
-139.1026204079327
 30
0.0
 10
120.4508734507901
 20
-139.1808240754478
 30
0.0
 10
120.4336479733638
 20
-139.2824543922627
 30
0.0
 10
120.3702582164352
 20
-139.3840847090776
 30
0.0
 10
120.2607041800043
 20
-139.5573730119857
 30
0.0
 10
120.1291015324677
 20
-139.5787326039942
 30
0.0
 10
120.0216145533279
 20
-139.5976806291631
 30
0.0
 10
120.0216145533279
 20
-139.5976806291631
 30
0.0
 10
120.0216145533279
 20
-139.3754719703645
 30
0.0
 10
120.0216145533279
 20
-139.3754719703645
 30
0.0
 10
120.2200520532783
 20
-139.320694952149
 30
0.0
 10
120.2496798744515
 20
-139.1935709287433
 30
0.0
 10
120.2496798744515
 20
-139.1005533506415
 30
0.0
 10
120.2496798744515
 20
-138.9610269834889
 30
0.0
 10
120.1504611244763
 20
-138.8087537630409
 30
0.0
 10
119.9175726696734
 20
-138.8087537630409
 30
0.0
 10
119.6619465846678
 20
-138.8087537630409
 30
0.0
 10
119.5916666367687
 20
-138.9885877473709
 30
0.0
 10
119.5916666367687
 20
-139.1091660893547
 30
0.0
 10
119.5916666367687
 20
-139.140860967819
 30
0.0
 10
119.5916666367687
 20
-139.2824543922627
 30
0.0
 10
119.7212022270141
 20
-139.3713378557822
 30
0.0
 10
119.7212022270141
 20
-139.3713378557822
 30
0.0
 10
119.7019096922968
 20
-139.5470377255299
 30
0.0
 10
119.7019096922968
 20
-139.5470377255299
 30
0.0
 10
119.7019096922968
 20
-139.5470377255299
 30
0.0
 10
118.8557942411194
 20
-139.4264593835462
 30
0.0
 10
118.8557942411194
 20
-139.4264593835462
 30
0.0
 10
118.8557942411194
 20
-139.4264593835462
 30
0.0
 10
118.8557942411194
 20
-138.6478678038797
 30
0.0
 10
118.8557942411194
 20
-138.6478678038797
 30
0.0
 10
118.8557942411194
 20
-138.6478678038797
 30
0.0
 10
119.0500976264875
 20
-138.6478678038797
 30
0.0
 10
119.0500976264875
 20
-138.6478678038797
 30
0.0
 10
119.0500976264875
 20
-138.6478678038797
 30
0.0
 10
119.0500976264875
 20
-139.2635063670938
 30
0.0
 10
119.0500976264875
 20
-139.2635063670938
 30
0.0
 10
119.0500976264875
 20
-139.2635063670938
 30
0.0
 10
119.4731553520762
 20
-139.3289631813136
 30
0.0
 10
119.4731553520762
 20
-139.3289631813136
 30
0.0
 10
119.4393934163207
 20
-139.2676404816762
 30
0.0
 10
119.3994303086918
 20
-139.1853026995787
 30
0.0
 10
119.3994303086918
 20
-139.0667914148861
 30
0.0
 10
119.3994303086918
 20
-138.8128878776232
 30
0.0
 10
119.5854654648953
 20
-138.575865308238
 30
0.0
 10
119.898969154053
 20
-138.575865308238
 30
0.0
 10
120.215917938696
 20
-138.575865308238
 30
0.0
 10
120.4508734507901
 20
-138.8001410243278
 30
0.0
 10
120.4508734507901
 20
-139.1026204079327
 30
0.0
  0
HATCH
  5
8E
330
7D
100
AcDbEntity
  8
_U+30EC_U+30A4_U+30E4_U+30FC 1
 62
     7
420
 16777215
100
AcDbHatch
 10
0.0
 20
0.0
 30
0.0
210
0.0
220
0.0
230
1.0
  2
SOLID
 70
     1
 71
     0
 91
        1
 92
        1
 93
        1
 72
     4
 94
        3
 73
     0
 74
     1
 95
       53
 96
       49
 40
0.0
 40
0.0
 40
0.0
 40
0.0
 40
1.0
 40
1.0
 40
1.0
 40
2.0
 40
2.0
 40
2.0
 40
3.0
 40
3.0
 40
3.0
 40
4.0
 40
4.0
 40
4.0
 40
5.0
 40
5.0
 40
5.0
 40
6.0
 40
6.0
 40
6.0
 40
7.0
 40
7.0
 40
7.0
 40
8.0
 40
8.0
 40
8.0
 40
9.0
 40
9.0
 40
9.0
 40
10.0
 40
10.0
 40
10.0
 40
11.0
 40
11.0
 40
11.0
 40
12.0
 40
12.0
 40
12.0
 40
13.0
 40
13.0
 40
13.0
 40
14.0
 40
14.0
 40
14.0
 40
15.0
 40
15.0
 40
15.0
 40
16.0
 40
16.0
 40
16.0
 40
16.0
 10
120.4508734507901
 20
-139.1026204079327
 10
120.4508734507901
 20
-139.1808240754478
 10
120.4336479733638
 20
-139.2824543922627
 10
120.3702582164352
 20
-139.3840847090776
 10
120.2607041800043
 20
-139.5573730119857
 10
120.1291015324677
 20
-139.5787326039942
 10
120.0216145533279
 20
-139.5976806291631
 10
120.0216145533279
 20
-139.5976806291631
 10
120.0216145533279
 20
-139.3754719703645
 10
120.0216145533279
 20
-139.3754719703645
 10
120.2200520532783
 20
-139.320694952149
 10
120.2496798744515
 20
-139.1935709287433
 10
120.2496798744515
 20
-139.1005533506415
 10
120.2496798744515
 20
-138.9610269834889
 10
120.1504611244763
 20
-138.8087537630409
 10
119.9175726696734
 20
-138.8087537630409
 10
119.6619465846678
 20
-138.8087537630409
 10
119.5916666367687
 20
-138.9885877473709
 10
119.5916666367687
 20
-139.1091660893547
 10
119.5916666367687
 20
-139.140860967819
 10
119.5916666367687
 20
-139.2824543922627
 10
119.7212022270141
 20
-139.3713378557822
 10
119.7212022270141
 20
-139.3713378557822
 10
119.7019096922968
 20
-139.5470377255299
 10
119.7019096922968
 20
-139.5470377255299
 10
119.7019096922968
 20
-139.5470377255299
 10
118.8557942411194
 20
-139.4264593835462
 10
118.8557942411194
 20
-139.4264593835462
 10
118.8557942411194
 20
-139.4264593835462
 10
118.8557942411194
 20
-138.6478678038797
 10
118.8557942411194
 20
-138.6478678038797
 10
118.8557942411194
 20
-138.6478678038797
 10
119.0500976264875
 20
-138.6478678038797
 10
119.0500976264875
 20
-138.6478678038797
 10
119.0500976264875
 20
-138.6478678038797
 10
119.0500976264875
 20
-139.2635063670938
 10
119.0500976264875
 20
-139.2635063670938
 10
119.0500976264875
 20
-139.2635063670938
 10
119.4731553520762
 20
-139.3289631813136
 10
119.4731553520762
 20
-139.3289631813136
 10
119.4393934163207
 20
-139.2676404816762
 10
119.3994303086918
 20
-139.1853026995787
 10
119.3994303086918
 20
-139.0667914148861
 10
119.3994303086918
 20
-138.8128878776232
 10
119.5854654648953
 20
-138.575865308238
 10
119.898969154053
 20
-138.575865308238
 10
120.215917938696
 20
-138.575865308238
 10
120.4508734507901
 20
-138.8001410243278
 10
120.4508734507901
 20
-139.1026204079327
 97
        0
 97
        0
 75
     2
 76
     1
 98
        0
  0
ENDBLK
  5
80
330
7D
100
AcDbEntity
  8
0
100
AcDbBlockEnd
  0
BLOCK
  5
91
330
8F
100
AcDbEntity
  8
0
100
AcDbBlockBegin
  2
block 3
 70
     0
 10
0.0
 20
0.0
 30
0.0
  3
block 3
  1

  0
SPLINE
  5
93
330
8F
100
AcDbEntity
  8
_U+30EC_U+30A4_U+30E4_U+30FC 1
370
     0
100
AcDbSpline
210
0.0
220
0.0
230
1.0
 70
    11
 71
     3
 72
    26
 73
    22
 74
     0
 42
0.0000000001
 43
0.0000000001
 12
1.0
 22
0.0
 32
0.0
 13
1.0
 23
0.0
 33
0.0
 40
0.0
 40
0.0
 40
0.0
 40
0.0
 40
1.0
 40
1.0
 40
1.0
 40
2.0
 40
2.0
 40
2.0
 40
3.0
 40
3.0
 40
3.0
 40
4.0
 40
4.0
 40
4.0
 40
5.0
 40
5.0
 40
5.0
 40
6.0
 40
6.0
 40
6.0
 40
7.0
 40
7.0
 40
7.0
 40
7.0
 10
120.3998860376084
 20
-132.3367973844505
 30
0.0
 10
120.3998860376084
 20
-132.3367973844505
 30
0.0
 10
119.2960774441343
 20
-132.3367973844505
 30
0.0
 10
119.2960774441343
 20
-132.3367973844505
 30
0.0
 10
119.2960774441343
 20
-132.3367973844505
 30
0.0
 10
119.2960774441343
 20
-132.6668375319375
 30
0.0
 10
119.2960774441343
 20
-132.6668375319375
 30
0.0
 10
119.2960774441343
 20
-132.6668375319375
 30
0.0
 10
119.1479383382686
 20
-132.6668375319375
 30
0.0
 10
119.1479383382686
 20
-132.6668375319375
 30
0.0
 10
119.1327799181335
 20
-132.3347303271594
 30
0.0
 10
118.9701714112297
 20
-132.2882215381085
 30
0.0
 10
118.8557942411194
 20
-132.2585937169354
 30
0.0
 10
118.8557942411194
 20
-132.2585937169354
 30
0.0
 10
118.8557942411194
 20
-132.1125216683608
 30
0.0
 10
118.8557942411194
 20
-132.1125216683608
 30
0.0
 10
118.8557942411194
 20
-132.1125216683608
 30
0.0
 10
120.3998860376084
 20
-132.1125216683608
 30
0.0
 10
120.3998860376084
 20
-132.1125216683608
 30
0.0
 10
120.3998860376084
 20
-132.1125216683608
 30
0.0
 10
120.3998860376084
 20
-132.3367973844505
 30
0.0
 10
120.3998860376084
 20
-132.3367973844505
 30
0.0
  0
HATCH
  5
94
330
8F
100
AcDbEntity
  8
_U+30EC_U+30A4_U+30E4_U+30FC 1
 62
     7
420
 16777215
100
AcDbHatch
 10
0.0
 20
0.0
 30
0.0
210
0.0
220
0.0
230
1.0
  2
SOLID
 70
     1
 71
     0
 91
        1
 92
        1
 93
        1
 72
     4
 94
        3
 73
     0
 74
     1
 95
       26
 96
       22
 40
0.0
 40
0.0
 40
0.0
 40
0.0
 40
1.0
 40
1.0
 40
1.0
 40
2.0
 40
2.0
 40
2.0
 40
3.0
 40
3.0
 40
3.0
 40
4.0
 40
4.0
 40
4.0
 40
5.0
 40
5.0
 40
5.0
 40
6.0
 40
6.0
 40
6.0
 40
7.0
 40
7.0
 40
7.0
 40
7.0
 10
120.3998860376084
 20
-132.3367973844505
 10
120.3998860376084
 20
-132.3367973844505
 10
119.2960774441343
 20
-132.3367973844505
 10
119.2960774441343
 20
-132.3367973844505
 10
119.2960774441343
 20
-132.3367973844505
 10
119.2960774441343
 20
-132.6668375319375
 10
119.2960774441343
 20
-132.6668375319375
 10
119.2960774441343
 20
-132.6668375319375
 10
119.1479383382686
 20
-132.6668375319375
 10
119.1479383382686
 20
-132.6668375319375
 10
119.1327799181335
 20
-132.3347303271594
 10
118.9701714112297
 20
-132.2882215381085
 10
118.8557942411194
 20
-132.2585937169354
 10
118.8557942411194
 20
-132.2585937169354
 10
118.8557942411194
 20
-132.1125216683608
 10
118.8557942411194
 20
-132.1125216683608
 10
118.8557942411194
 20
-132.1125216683608
 10
120.3998860376084
 20
-132.1125216683608
 10
120.3998860376084
 20
-132.1125216683608
 10
120.3998860376084
 20
-132.1125216683608
 10
120.3998860376084
 20
-132.3367973844505
 10
120.3998860376084
 20
-132.3367973844505
 97
        0
 97
        0
 75
     2
 76
     1
 98
        0
  0
ENDBLK
  5
92
330
8F
100
AcDbEntity
  8
0
100
AcDbBlockEnd
  0
BLOCK
  5
97
330
95
100
AcDbEntity
  8
0
100
AcDbBlockBegin
  2
block 4
 70
     0
 10
0.0
 20
0.0
 30
0.0
  3
block 4
  1

  0
SPLINE
  5
99
330
95
100
AcDbEntity
  8
_U+30EC_U+30A4_U+30E4_U+30FC 1
370
     0
100
AcDbSpline
210
0.0
220
0.0
230
1.0
 70
    11
 71
     3
 72
    62
 73
    58
 74
     0
 42
0.0000000001
 43
0.0000000001
 12
1.0
 22
0.0
 32
0.0
 13
1.0
 23
0.0
 33
0.0
 40
0.0
 40
0.0
 40
0.0
 40
0.0
 40
1.0
 40
1.0
 40
1.0
 40
2.0
 40
2.0
 40
2.0
 40
3.0
 40
3.0
 40
3.0
 40
4.0
 40
4.0
 40
4.0
 40
5.0
 40
5.0
 40
5.0
 40
6.0
 40
6.0
 40
6.0
 40
7.0
 40
7.0
 40
7.0
 40
8.0
 40
8.0
 40
8.0
 40
9.0
 40
9.0
 40
9.0
 40
10.0
 40
10.0
 40
10.0
 40
11.0
 40
11.0
 40
11.0
 40
12.0
 40
12.0
 40
12.0
 40
13.0
 40
13.0
 40
13.0
 40
14.0
 40
14.0
 40
14.0
 40
15.0
 40
15.0
 40
15.0
 40
16.0
 40
16.0
 40
16.0
 40
17.0
 40
17.0
 40
17.0
 40
18.0
 40
18.0
 40
18.0
 40
19.0
 40
19.0
 40
19.0
 40
19.0
 10
120.4508734507901
 20
-117.3861165071118
 30
0.0
 10
120.4508734507901
 20
-117.4815456520532
 30
0.0
 10
120.4295138587815
 20
-117.699275686721
 30
0.0
 10
120.243478702578
 20
-117.8243326528356
 30
0.0
 10
120.1311685897589
 20
-117.8984022057685
 30
0.0
 10
120.0319498397837
 20
-117.9025363203508
 30
0.0
 10
119.9472004908465
 20
-117.9066704349331
 30
0.0
 10
119.9472004908465
 20
-117.9066704349331
 30
0.0
 10
119.9472004908465
 20
-117.6865288334256
 30
0.0
 10
119.9472004908465
 20
-117.6865288334256
 30
0.0
 10
120.0216145533279
 20
-117.6844617761344
 30
0.0
 10
120.2558810463249
 20
-117.6741264896787
 30
0.0
 10
120.2558810463249
 20
-117.3905951312426
 30
0.0
 10
120.2558810463249
 20
-117.2531358213812
 30
0.0
 10
120.1862901175229
 20
-117.1005180913846
 30
0.0
 10
119.9582247963993
 20
-117.1005180913846
 30
0.0
 10
119.8417805689979
 20
-117.1005180913846
 30
0.0
 10
119.7928602131073
 20
-117.1387586512709
 30
0.0
 10
119.7611653346431
 20
-117.1704535297352
 30
0.0
 10
119.6874402912587
 20
-117.244523082668
 30
0.0
 10
119.6743489284148
 20
-117.3609673100695
 30
0.0
 10
119.6743489284148
 20
-117.415744328285
 30
0.0
 10
119.6743489284148
 20
-117.4350368630024
 30
0.0
 10
119.6764159857059
 20
-117.470865856049
 30
0.0
 10
119.6805501002882
 20
-117.498426619931
 30
0.0
 10
119.6805501002882
 20
-117.498426619931
 30
0.0
 10
119.4862467149201
 20
-117.498426619931
 30
0.0
 10
119.4862467149201
 20
-117.498426619931
 30
0.0
 10
119.4924478867936
 20
-117.4601860600447
 30
0.0
 10
119.4945149440847
 20
-117.4181558951246
 30
0.0
 10
119.4945149440847
 20
-117.4116102137027
 30
0.0
 10
119.4945149440847
 20
-117.3461533994829
 30
0.0
 10
119.4731553520762
 20
-117.147371389984
 30
0.0
 10
119.236821801788
 20
-117.147371389984
 30
0.0
 10
119.0590548747491
 20
-117.147371389984
 30
0.0
 10
119.0039333469851
 20
-117.2782850184235
 30
0.0
 10
119.0039333469851
 20
-117.3885280739515
 30
0.0
 10
119.0039333469851
 20
-117.6527668976701
 30
0.0
 10
119.236821801788
 20
-117.6613796363833
 30
0.0
 10
119.3084797878812
 20
-117.6655137509656
 30
0.0
 10
119.3084797878812
 20
-117.6655137509656
 30
0.0
 10
119.3084797878812
 20
-117.8687743845953
 30
0.0
 10
119.3084797878812
 20
-117.8687743845953
 30
0.0
 10
119.1837673313152
 20
-117.8601616458822
 30
0.0
 10
118.8068738852288
 20
-117.8326008820002
 30
0.0
 10
118.8068738852288
 20
-117.3757812206561
 30
0.0
 10
118.8068738852288
 20
-117.1515055045663
 30
0.0
 10
118.9343424181831
 20
-116.9103488205988
 30
0.0
 10
119.2299316108175
 20
-116.9103488205988
 30
0.0
 10
119.4166557861181
 20
-116.9103488205988
 30
0.0
 10
119.498649058667
 20
-117.0054334559917
 30
0.0
 10
119.5599717583045
 20
-117.1049967155154
 30
0.0
 10
119.5875325221865
 20
-117.043674015878
 30
0.0
 10
119.6681477565413
 20
-116.8617729742568
 30
0.0
 10
119.9451334335554
 20
-116.8617729742568
 30
0.0
 10
120.2834418102069
 20
-116.8617729742568
 30
0.0
 10
120.4508734507901
 20
-117.1091308300977
 30
0.0
 10
120.4508734507901
 20
-117.3861165071118
 30
0.0
  0
HATCH
  5
9A
330
95
100
AcDbEntity
  8
_U+30EC_U+30A4_U+30E4_U+30FC 1
 62
     7
420
 16777215
100
AcDbHatch
 10
0.0
 20
0.0
 30
0.0
210
0.0
220
0.0
230
1.0
  2
SOLID
 70
     1
 71
     0
 91
        1
 92
        1
 93
        1
 72
     4
 94
        3
 73
     0
 74
     1
 95
       62
 96
       58
 40
0.0
 40
0.0
 40
0.0
 40
0.0
 40
1.0
 40
1.0
 40
1.0
 40
2.0
 40
2.0
 40
2.0
 40
3.0
 40
3.0
 40
3.0
 40
4.0
 40
4.0
 40
4.0
 40
5.0
 40
5.0
 40
5.0
 40
6.0
 40
6.0
 40
6.0
 40
7.0
 40
7.0
 40
7.0
 40
8.0
 40
8.0
 40
8.0
 40
9.0
 40
9.0
 40
9.0
 40
10.0
 40
10.0
 40
10.0
 40
11.0
 40
11.0
 40
11.0
 40
12.0
 40
12.0
 40
12.0
 40
13.0
 40
13.0
 40
13.0
 40
14.0
 40
14.0
 40
14.0
 40
15.0
 40
15.0
 40
15.0
 40
16.0
 40
16.0
 40
16.0
 40
17.0
 40
17.0
 40
17.0
 40
18.0
 40
18.0
 40
18.0
 40
19.0
 40
19.0
 40
19.0
 40
19.0
 10
120.4508734507901
 20
-117.3861165071118
 10
120.4508734507901
 20
-117.4815456520532
 10
120.4295138587815
 20
-117.699275686721
 10
120.243478702578
 20
-117.8243326528356
 10
120.1311685897589
 20
-117.8984022057685
 10
120.0319498397837
 20
-117.9025363203508
 10
119.9472004908465
 20
-117.9066704349331
 10
119.9472004908465
 20
-117.9066704349331
 10
119.9472004908465
 20
-117.6865288334256
 10
119.9472004908465
 20
-117.6865288334256
 10
120.0216145533279
 20
-117.6844617761344
 10
120.2558810463249
 20
-117.6741264896787
 10
120.2558810463249
 20
-117.3905951312426
 10
120.2558810463249
 20
-117.2531358213812
 10
120.1862901175229
 20
-117.1005180913846
 10
119.9582247963993
 20
-117.1005180913846
 10
119.8417805689979
 20
-117.1005180913846
 10
119.7928602131073
 20
-117.1387586512709
 10
119.7611653346431
 20
-117.1704535297352
 10
119.6874402912587
 20
-117.244523082668
 10
119.6743489284148
 20
-117.3609673100695
 10
119.6743489284148
 20
-117.415744328285
 10
119.6743489284148
 20
-117.4350368630024
 10
119.6764159857059
 20
-117.470865856049
 10
119.6805501002882
 20
-117.498426619931
 10
119.6805501002882
 20
-117.498426619931
 10
119.4862467149201
 20
-117.498426619931
 10
119.4862467149201
 20
-117.498426619931
 10
119.4924478867936
 20
-117.4601860600447
 10
119.4945149440847
 20
-117.4181558951246
 10
119.4945149440847
 20
-117.4116102137027
 10
119.4945149440847
 20
-117.3461533994829
 10
119.4731553520762
 20
-117.147371389984
 10
119.236821801788
 20
-117.147371389984
 10
119.0590548747491
 20
-117.147371389984
 10
119.0039333469851
 20
-117.2782850184235
 10
119.0039333469851
 20
-117.3885280739515
 10
119.0039333469851
 20
-117.6527668976701
 10
119.236821801788
 20
-117.6613796363833
 10
119.3084797878812
 20
-117.6655137509656
 10
119.3084797878812
 20
-117.6655137509656
 10
119.3084797878812
 20
-117.8687743845953
 10
119.3084797878812
 20
-117.8687743845953
 10
119.1837673313152
 20
-117.8601616458822
 10
118.8068738852288
 20
-117.8326008820002
 10
118.8068738852288
 20
-117.3757812206561
 10
118.8068738852288
 20
-117.1515055045663
 10
118.9343424181831
 20
-116.9103488205988
 10
119.2299316108175
 20
-116.9103488205988
 10
119.4166557861181
 20
-116.9103488205988
 10
119.498649058667
 20
-117.0054334559917
 10
119.5599717583045
 20
-117.1049967155154
 10
119.5875325221865
 20
-117.043674015878
 10
119.6681477565413
 20
-116.8617729742568
 10
119.9451334335554
 20
-116.8617729742568
 10
120.2834418102069
 20
-116.8617729742568
 10
120.4508734507901
 20
-117.1091308300977
 10
120.4508734507901
 20
-117.3861165071118
 97
        0
 97
        0
 75
     2
 76
     1
 98
        0
  0
SPLINE
  5
9B
330
95
100
AcDbEntity
  8
_U+30EC_U+30A4_U+30E4_U+30FC 1
370
     0
100
AcDbSpline
210
0.0
220
0.0
230
1.0
 70
    11
 71
     3
 72
    29
 73
    25
 74
     0
 42
0.0000000001
 43
0.0000000001
 12
1.0
 22
0.0
 32
0.0
 13
1.0
 23
0.0
 33
0.0
 40
0.0
 40
0.0
 40
0.0
 40
0.0
 40
1.0
 40
1.0
 40
1.0
 40
2.0
 40
2.0
 40
2.0
 40
3.0
 40
3.0
 40
3.0
 40
4.0
 40
4.0
 40
4.0
 40
5.0
 40
5.0
 40
5.0
 40
6.0
 40
6.0
 40
6.0
 40
7.0
 40
7.0
 40
7.0
 40
8.0
 40
8.0
 40
8.0
 40
8.0
 10
120.2221191105695
 20
-115.8030951316395
 30
0.0
 10
120.4315809160727
 20
-115.9112711298764
 30
0.0
 10
120.4508734507901
 20
-116.0845594327844
 30
0.0
 10
120.4508734507901
 20
-116.2010036601859
 30
0.0
 10
120.4508734507901
 20
-116.361889619347
 30
0.0
 10
120.4040201521907
 20
-116.5034830437908
 30
0.0
 10
120.2221191105695
 20
-116.5985676791837
 30
0.0
 10
120.0278157252014
 20
-116.7022650532897
 30
0.0
 10
119.7907931558162
 20
-116.7215575880071
 30
0.0
 10
119.6281846489124
 20
-116.7215575880071
 30
0.0
 10
119.484179657629
 20
-116.7215575880071
 30
0.0
 10
119.2319986681087
 20
-116.7043321105809
 30
0.0
 10
119.0335611681583
 20
-116.5985676791837
 30
0.0
 10
118.8303005345285
 20
-116.4907361904954
 30
0.0
 10
118.8068738852288
 20
-116.3298502313342
 30
0.0
 10
118.8068738852288
 20
-116.2010036601859
 30
0.0
 10
118.8068738852288
 20
-116.0421847583158
 30
0.0
 10
118.8516601265371
 20
-115.8985242765809
 30
0.0
 10
119.0335611681583
 20
-115.8030951316395
 30
0.0
 10
119.2257974962352
 20
-115.7038763816643
 30
0.0
 10
119.4545518364558
 20
-115.6804497323646
 30
0.0
 10
119.6281846489124
 20
-115.6804497323646
 30
0.0
 10
119.7990613849808
 20
-115.6804497323646
 30
0.0
 10
120.0298827824925
 20
-115.7018093243732
 30
0.0
 10
120.2221191105695
 20
-115.8030951316395
 30
0.0
  0
SPLINE
  5
9C
330
95
100
AcDbEntity
  8
_U+30EC_U+30A4_U+30E4_U+30FC 1
370
     0
100
AcDbSpline
210
0.0
220
0.0
230
1.0
 70
    11
 71
     3
 72
    17
 73
    13
 74
     0
 42
0.0000000001
 43
0.0000000001
 12
1.0
 22
0.0
 32
0.0
 13
1.0
 23
0.0
 33
0.0
 40
0.0
 40
0.0
 40
0.0
 40
0.0
 40
1.0
 40
1.0
 40
1.0
 40
2.0
 40
2.0
 40
2.0
 40
3.0
 40
3.0
 40
3.0
 40
4.0
 40
4.0
 40
4.0
 40
4.0
 10
118.9997992324028
 20
-116.2010036601859
 30
0.0
 10
118.9997992324028
 20
-116.4507730828665
 30
0.0
 10
119.2829860812904
 20
-116.4972818719174
 30
0.0
 10
119.6281846489124
 20
-116.4972818719174
 30
0.0
 10
119.9472004908465
 20
-116.4972818719174
 30
0.0
 10
120.2558810463249
 20
-116.4611083693222
 30
0.0
 10
120.2558810463249
 20
-116.2010036601859
 30
0.0
 10
120.2558810463249
 20
-115.9533012947964
 30
0.0
 10
119.9747612547285
 20
-115.9047254484544
 30
0.0
 10
119.6281846489124
 20
-115.9047254484544
 30
0.0
 10
119.3084797878812
 20
-115.9047254484544
 30
0.0
 10
118.9997992324028
 20
-115.9429660083406
 30
0.0
 10
118.9997992324028
 20
-116.2010036601859
 30
0.0
  0
HATCH
  5
9D
330
95
100
AcDbEntity
  8
_U+30EC_U+30A4_U+30E4_U+30FC 1
 62
     7
420
 16777215
100
AcDbHatch
 10
0.0
 20
0.0
 30
0.0
210
0.0
220
0.0
230
1.0
  2
SOLID
 70
     1
 71
     0
 91
        2
 92
        1
 93
        1
 72
     4
 94
        3
 73
     0
 74
     1
 95
       29
 96
       25
 40
0.0
 40
0.0
 40
0.0
 40
0.0
 40
1.0
 40
1.0
 40
1.0
 40
2.0
 40
2.0
 40
2.0
 40
3.0
 40
3.0
 40
3.0
 40
4.0
 40
4.0
 40
4.0
 40
5.0
 40
5.0
 40
5.0
 40
6.0
 40
6.0
 40
6.0
 40
7.0
 40
7.0
 40
7.0
 40
8.0
 40
8.0
 40
8.0
 40
8.0
 10
120.2221191105695
 20
-115.8030951316395
 10
120.4315809160727
 20
-115.9112711298764
 10
120.4508734507901
 20
-116.0845594327844
 10
120.4508734507901
 20
-116.2010036601859
 10
120.4508734507901
 20
-116.361889619347
 10
120.4040201521907
 20
-116.5034830437908
 10
120.2221191105695
 20
-116.5985676791837
 10
120.0278157252014
 20
-116.7022650532897
 10
119.7907931558162
 20
-116.7215575880071
 10
119.6281846489124
 20
-116.7215575880071
 10
119.484179657629
 20
-116.7215575880071
 10
119.2319986681087
 20
-116.7043321105809
 10
119.0335611681583
 20
-116.5985676791837
 10
118.8303005345285
 20
-116.4907361904954
 10
118.8068738852288
 20
-116.3298502313342
 10
118.8068738852288
 20
-116.2010036601859
 10
118.8068738852288
 20
-116.0421847583158
 10
118.8516601265371
 20
-115.8985242765809
 10
119.0335611681583
 20
-115.8030951316395
 10
119.2257974962352
 20
-115.7038763816643
 10
119.4545518364558
 20
-115.6804497323646
 10
119.6281846489124
 20
-115.6804497323646
 10
119.7990613849808
 20
-115.6804497323646
 10
120.0298827824925
 20
-115.7018093243732
 10
120.2221191105695
 20
-115.8030951316395
 97
        0
 97
        0
 92
        1
 93
        1
 72
     4
 94
        3
 73
     0
 74
     1
 95
       17
 96
       13
 40
0.0
 40
0.0
 40
0.0
 40
0.0
 40
1.0
 40
1.0
 40
1.0
 40
2.0
 40
2.0
 40
2.0
 40
3.0
 40
3.0
 40
3.0
 40
4.0
 40
4.0
 40
4.0
 40
4.0
 10
118.9997992324028
 20
-116.2010036601859
 10
118.9997992324028
 20
-116.4507730828665
 10
119.2829860812904
 20
-116.4972818719174
 10
119.6281846489124
 20
-116.4972818719174
 10
119.9472004908465
 20
-116.4972818719174
 10
120.2558810463249
 20
-116.4611083693222
 10
120.2558810463249
 20
-116.2010036601859
 10
120.2558810463249
 20
-115.9533012947964
 10
119.9747612547285
 20
-115.9047254484544
 10
119.6281846489124
 20
-115.9047254484544
 10
119.3084797878812
 20
-115.9047254484544
 10
118.9997992324028
 20
-115.9429660083406
 10
118.9997992324028
 20
-116.2010036601859
 97
        0
 97
        0
 75
     2
 76
     1
 98
        0
  0
ENDBLK
  5
98
330
95
100
AcDbEntity
  8
0
100
AcDbBlockEnd
  0
BLOCK
  5
A0
330
9E
100
AcDbEntity
  8
0
100
AcDbBlockBegin
  2
block 5
 70
     0
 10
0.0
 20
0.0
 30
0.0
  3
block 5
  1

  0
SPLINE
  5
A2
330
9E
100
AcDbEntity
  8
_U+30EC_U+30A4_U+30E4_U+30FC 1
370
     0
100
AcDbSpline
210
0.0
220
0.0
230
1.0
 70
    11
 71
     3
 72
    26
 73
    22
 74
     0
 42
0.0000000001
 43
0.0000000001
 12
1.0
 22
0.0
 32
0.0
 13
1.0
 23
0.0
 33
0.0
 40
0.0
 40
0.0
 40
0.0
 40
0.0
 40
1.0
 40
1.0
 40
1.0
 40
2.0
 40
2.0
 40
2.0
 40
3.0
 40
3.0
 40
3.0
 40
4.0
 40
4.0
 40
4.0
 40
5.0
 40
5.0
 40
5.0
 40
6.0
 40
6.0
 40
6.0
 40
7.0
 40
7.0
 40
7.0
 40
7.0
 10
120.3998860376084
 20
-153.0211506778905
 30
0.0
 10
120.3998860376084
 20
-153.0211506778905
 30
0.0
 10
119.2960774441343
 20
-153.0211506778905
 30
0.0
 10
119.2960774441343
 20
-153.0211506778905
 30
0.0
 10
119.2960774441343
 20
-153.0211506778905
 30
0.0
 10
119.2960774441343
 20
-153.3511908253775
 30
0.0
 10
119.2960774441343
 20
-153.3511908253775
 30
0.0
 10
119.2960774441343
 20
-153.3511908253775
 30
0.0
 10
119.1479383382686
 20
-153.3511908253775
 30
0.0
 10
119.1479383382686
 20
-153.3511908253775
 30
0.0
 10
119.1327799181335
 20
-153.0190836205994
 30
0.0
 10
118.9701714112297
 20
-152.9725748315485
 30
0.0
 10
118.8557942411194
 20
-152.9429470103754
 30
0.0
 10
118.8557942411194
 20
-152.9429470103754
 30
0.0
 10
118.8557942411194
 20
-152.7968749618008
 30
0.0
 10
118.8557942411194
 20
-152.7968749618008
 30
0.0
 10
118.8557942411194
 20
-152.7968749618008
 30
0.0
 10
120.3998860376084
 20
-152.7968749618008
 30
0.0
 10
120.3998860376084
 20
-152.7968749618008
 30
0.0
 10
120.3998860376084
 20
-152.7968749618008
 30
0.0
 10
120.3998860376084
 20
-153.0211506778905
 30
0.0
 10
120.3998860376084
 20
-153.0211506778905
 30
0.0
  0
HATCH
  5
A3
330
9E
100
AcDbEntity
  8
_U+30EC_U+30A4_U+30E4_U+30FC 1
 62
     7
420
 16777215
100
AcDbHatch
 10
0.0
 20
0.0
 30
0.0
210
0.0
220
0.0
230
1.0
  2
SOLID
 70
     1
 71
     0
 91
        1
 92
        1
 93
        1
 72
     4
 94
        3
 73
     0
 74
     1
 95
       26
 96
       22
 40
0.0
 40
0.0
 40
0.0
 40
0.0
 40
1.0
 40
1.0
 40
1.0
 40
2.0
 40
2.0
 40
2.0
 40
3.0
 40
3.0
 40
3.0
 40
4.0
 40
4.0
 40
4.0
 40
5.0
 40
5.0
 40
5.0
 40
6.0
 40
6.0
 40
6.0
 40
7.0
 40
7.0
 40
7.0
 40
7.0
 10
120.3998860376084
 20
-153.0211506778905
 10
120.3998860376084
 20
-153.0211506778905
 10
119.2960774441343
 20
-153.0211506778905
 10
119.2960774441343
 20
-153.0211506778905
 10
119.2960774441343
 20
-153.0211506778905
 10
119.2960774441343
 20
-153.3511908253775
 10
119.2960774441343
 20
-153.3511908253775
 10
119.2960774441343
 20
-153.3511908253775
 10
119.1479383382686
 20
-153.3511908253775
 10
119.1479383382686
 20
-153.3511908253775
 10
119.1327799181335
 20
-153.0190836205994
 10
118.9701714112297
 20
-152.9725748315485
 10
118.8557942411194
 20
-152.9429470103754
 10
118.8557942411194
 20
-152.9429470103754
 10
118.8557942411194
 20
-152.7968749618008
 10
118.8557942411194
 20
-152.7968749618008
 10
118.8557942411194
 20
-152.7968749618008
 10
120.3998860376084
 20
-152.7968749618008
 10
120.3998860376084
 20
-152.7968749618008
 10
120.3998860376084
 20
-152.7968749618008
 10
120.3998860376084
 20
-153.0211506778905
 10
120.3998860376084
 20
-153.0211506778905
 97
        0
 97
        0
 75
     2
 76
     1
 98
        0
  0
POLYLINE
  5
A4
330
9E
100
AcDbEntity
  8
_U+30EC_U+30A4_U+30E4_U+30FC 1
370
     0
100
AcDb2dPolyline
 66
     1
 10
0.0
 20
0.0
 30
0.0
  0
VERTEX
  5
A5
330
A4
100
AcDbEntity
  8
_U+30EC_U+30A4_U+30E4_U+30FC 1
370
     0
100
AcDbVertex
100
AcDb2dVertex
 10
120.3998860376084
 20
-152.2356689072536
 30
0.0
  0
VERTEX
  5
A6
330
A4
100
AcDbEntity
  8
_U+30EC_U+30A4_U+30E4_U+30FC 1
370
     0
100
AcDbVertex
100
AcDb2dVertex
 10
120.1483940671851
 20
-152.2356689072536
 30
0.0
  0
VERTEX
  5
A7
330
A4
100
AcDbEntity
  8
_U+30EC_U+30A4_U+30E4_U+30FC 1
370
     0
100
AcDbVertex
100
AcDb2dVertex
 10
120.1483940671851
 20
-151.9838324272818
 30
0.0
  0
VERTEX
  5
A8
330
A4
100
AcDbEntity
  8
_U+30EC_U+30A4_U+30E4_U+30FC 1
370
     0
100
AcDbVertex
100
AcDb2dVertex
 10
120.3998860376084
 20
-151.9838324272818
 30
0.0
  0
VERTEX
  5
A9
330
A4
100
AcDbEntity
  8
_U+30EC_U+30A4_U+30E4_U+30FC 1
370
     0
100
AcDbVertex
100
AcDb2dVertex
 10
120.3998860376084
 20
-152.2356689072536
 30
0.0
  0
SEQEND
  5
AA
330
A4
100
AcDbEntity
  8
_U+30EC_U+30A4_U+30E4_U+30FC 1
370
     0
  0
HATCH
  5
AB
330
9E
100
AcDbEntity
  8
_U+30EC_U+30A4_U+30E4_U+30FC 1
 62
     7
420
 16777215
100
AcDbHatch
 10
0.0
 20
0.0
 30
0.0
210
0.0
220
0.0
230
1.0
  2
SOLID
 70
     1
 71
     0
 91
        1
 92
        1
 93
        4
 72
     1
 10
120.3998860376084
 20
-152.2356689072536
 11
120.1483940671851
 21
-152.2356689072536
 72
     1
 10
120.1483940671851
 20
-152.2356689072536
 11
120.1483940671851
 21
-151.9838324272818
 72
     1
 10
120.1483940671851
 20
-151.9838324272818
 11
120.3998860376084
 21
-151.9838324272818
 72
     1
 10
120.3998860376084
 20
-151.9838324272818
 11
120.3998860376084
 21
-152.2356689072536
 97
        0
 75
     2
 76
     1
 98
        0
  0
SPLINE
  5
AC
330
9E
100
AcDbEntity
  8
_U+30EC_U+30A4_U+30E4_U+30FC 1
370
     0
100
AcDbSpline
210
0.0
220
0.0
230
1.0
 70
    11
 71
     3
 72
    53
 73
    49
 74
     0
 42
0.0000000001
 43
0.0000000001
 12
1.0
 22
0.0
 32
0.0
 13
1.0
 23
0.0
 33
0.0
 40
0.0
 40
0.0
 40
0.0
 40
0.0
 40
1.0
 40
1.0
 40
1.0
 40
2.0
 40
2.0
 40
2.0
 40
3.0
 40
3.0
 40
3.0
 40
4.0
 40
4.0
 40
4.0
 40
5.0
 40
5.0
 40
5.0
 40
6.0
 40
6.0
 40
6.0
 40
7.0
 40
7.0
 40
7.0
 40
8.0
 40
8.0
 40
8.0
 40
9.0
 40
9.0
 40
9.0
 40
10.0
 40
10.0
 40
10.0
 40
11.0
 40
11.0
 40
11.0
 40
12.0
 40
12.0
 40
12.0
 40
13.0
 40
13.0
 40
13.0
 40
14.0
 40
14.0
 40
14.0
 40
15.0
 40
15.0
 40
15.0
 40
16.0
 40
16.0
 40
16.0
 40
16.0
 10
120.4508734507901
 20
-151.2665635472528
 30
0.0
 10
120.4508734507901
 20
-151.344767214768
 30
0.0
 10
120.4336479733638
 20
-151.4463975315828
 30
0.0
 10
120.3702582164352
 20
-151.5480278483977
 30
0.0
 10
120.2607041800043
 20
-151.7213161513058
 30
0.0
 10
120.1291015324677
 20
-151.7426757433144
 30
0.0
 10
120.0216145533279
 20
-151.7616237684832
 30
0.0
 10
120.0216145533279
 20
-151.7616237684832
 30
0.0
 10
120.0216145533279
 20
-151.5394151096846
 30
0.0
 10
120.0216145533279
 20
-151.5394151096846
 30
0.0
 10
120.2200520532783
 20
-151.4846380914691
 30
0.0
 10
120.2496798744515
 20
-151.3575140680634
 30
0.0
 10
120.2496798744515
 20
-151.2644964899617
 30
0.0
 10
120.2496798744515
 20
-151.124970122809
 30
0.0
 10
120.1504611244763
 20
-150.972696902361
 30
0.0
 10
119.9175726696734
 20
-150.972696902361
 30
0.0
 10
119.6619465846678
 20
-150.972696902361
 30
0.0
 10
119.5916666367687
 20
-151.152530886691
 30
0.0
 10
119.5916666367687
 20
-151.2731092286748
 30
0.0
 10
119.5916666367687
 20
-151.3048041071391
 30
0.0
 10
119.5916666367687
 20
-151.4463975315828
 30
0.0
 10
119.7212022270141
 20
-151.5352809951023
 30
0.0
 10
119.7212022270141
 20
-151.5352809951023
 30
0.0
 10
119.7019096922968
 20
-151.71098086485
 30
0.0
 10
119.7019096922968
 20
-151.71098086485
 30
0.0
 10
119.7019096922968
 20
-151.71098086485
 30
0.0
 10
118.8557942411194
 20
-151.5904025228663
 30
0.0
 10
118.8557942411194
 20
-151.5904025228663
 30
0.0
 10
118.8557942411194
 20
-151.5904025228663
 30
0.0
 10
118.8557942411194
 20
-150.8118109431998
 30
0.0
 10
118.8557942411194
 20
-150.8118109431998
 30
0.0
 10
118.8557942411194
 20
-150.8118109431998
 30
0.0
 10
119.0500976264875
 20
-150.8118109431998
 30
0.0
 10
119.0500976264875
 20
-150.8118109431998
 30
0.0
 10
119.0500976264875
 20
-150.8118109431998
 30
0.0
 10
119.0500976264875
 20
-151.427449506414
 30
0.0
 10
119.0500976264875
 20
-151.427449506414
 30
0.0
 10
119.0500976264875
 20
-151.427449506414
 30
0.0
 10
119.4731553520762
 20
-151.4929063206337
 30
0.0
 10
119.4731553520762
 20
-151.4929063206337
 30
0.0
 10
119.4393934163207
 20
-151.4315836209963
 30
0.0
 10
119.3994303086918
 20
-151.3492458388988
 30
0.0
 10
119.3994303086918
 20
-151.2307345542062
 30
0.0
 10
119.3994303086918
 20
-150.9768310169433
 30
0.0
 10
119.5854654648953
 20
-150.7398084475581
 30
0.0
 10
119.898969154053
 20
-150.7398084475581
 30
0.0
 10
120.215917938696
 20
-150.7398084475581
 30
0.0
 10
120.4508734507901
 20
-150.9640841636479
 30
0.0
 10
120.4508734507901
 20
-151.2665635472528
 30
0.0
  0
HATCH
  5
AD
330
9E
100
AcDbEntity
  8
_U+30EC_U+30A4_U+30E4_U+30FC 1
 62
     7
420
 16777215
100
AcDbHatch
 10
0.0
 20
0.0
 30
0.0
210
0.0
220
0.0
230
1.0
  2
SOLID
 70
     1
 71
     0
 91
        1
 92
        1
 93
        1
 72
     4
 94
        3
 73
     0
 74
     1
 95
       53
 96
       49
 40
0.0
 40
0.0
 40
0.0
 40
0.0
 40
1.0
 40
1.0
 40
1.0
 40
2.0
 40
2.0
 40
2.0
 40
3.0
 40
3.0
 40
3.0
 40
4.0
 40
4.0
 40
4.0
 40
5.0
 40
5.0
 40
5.0
 40
6.0
 40
6.0
 40
6.0
 40
7.0
 40
7.0
 40
7.0
 40
8.0
 40
8.0
 40
8.0
 40
9.0
 40
9.0
 40
9.0
 40
10.0
 40
10.0
 40
10.0
 40
11.0
 40
11.0
 40
11.0
 40
12.0
 40
12.0
 40
12.0
 40
13.0
 40
13.0
 40
13.0
 40
14.0
 40
14.0
 40
14.0
 40
15.0
 40
15.0
 40
15.0
 40
16.0
 40
16.0
 40
16.0
 40
16.0
 10
120.4508734507901
 20
-151.2665635472528
 10
120.4508734507901
 20
-151.344767214768
 10
120.4336479733638
 20
-151.4463975315828
 10
120.3702582164352
 20
-151.5480278483977
 10
120.2607041800043
 20
-151.7213161513058
 10
120.1291015324677
 20
-151.7426757433144
 10
120.0216145533279
 20
-151.7616237684832
 10
120.0216145533279
 20
-151.7616237684832
 10
120.0216145533279
 20
-151.5394151096846
 10
120.0216145533279
 20
-151.5394151096846
 10
120.2200520532783
 20
-151.4846380914691
 10
120.2496798744515
 20
-151.3575140680634
 10
120.2496798744515
 20
-151.2644964899617
 10
120.2496798744515
 20
-151.124970122809
 10
120.1504611244763
 20
-150.972696902361
 10
119.9175726696734
 20
-150.972696902361
 10
119.6619465846678
 20
-150.972696902361
 10
119.5916666367687
 20
-151.152530886691
 10
119.5916666367687
 20
-151.2731092286748
 10
119.5916666367687
 20
-151.3048041071391
 10
119.5916666367687
 20
-151.4463975315828
 10
119.7212022270141
 20
-151.5352809951023
 10
119.7212022270141
 20
-151.5352809951023
 10
119.7019096922968
 20
-151.71098086485
 10
119.7019096922968
 20
-151.71098086485
 10
119.7019096922968
 20
-151.71098086485
 10
118.8557942411194
 20
-151.5904025228663
 10
118.8557942411194
 20
-151.5904025228663
 10
118.8557942411194
 20
-151.5904025228663
 10
118.8557942411194
 20
-150.8118109431998
 10
118.8557942411194
 20
-150.8118109431998
 10
118.8557942411194
 20
-150.8118109431998
 10
119.0500976264875
 20
-150.8118109431998
 10
119.0500976264875
 20
-150.8118109431998
 10
119.0500976264875
 20
-150.8118109431998
 10
119.0500976264875
 20
-151.427449506414
 10
119.0500976264875
 20
-151.427449506414
 10
119.0500976264875
 20
-151.427449506414
 10
119.4731553520762
 20
-151.4929063206337
 10
119.4731553520762
 20
-151.4929063206337
 10
119.4393934163207
 20
-151.4315836209963
 10
119.3994303086918
 20
-151.3492458388988
 10
119.3994303086918
 20
-151.2307345542062
 10
119.3994303086918
 20
-150.9768310169433
 10
119.5854654648953
 20
-150.7398084475581
 10
119.898969154053
 20
-150.7398084475581
 10
120.215917938696
 20
-150.7398084475581
 10
120.4508734507901
 20
-150.9640841636479
 10
120.4508734507901
 20
-151.2665635472528
 97
        0
 97
        0
 75
     2
 76
     1
 98
        0
  0
ENDBLK
  5
A1
330
9E
100
AcDbEntity
  8
0
100
AcDbBlockEnd
  0
BLOCK
  5
BE
330
BC
100
AcDbEntity
  8
0
100
AcDbBlockBegin
  2
block 6
 70
     0
 10
0.0
 20
0.0
 30
0.0
  3
block 6
  1

  0
SPLINE
  5
C0
330
BC
100
AcDbEntity
  8
_U+30EC_U+30A4_U+30E4_U+30FC 1
370
     0
100
AcDbSpline
210
0.0
220
0.0
230
1.0
 70
    11
 71
     3
 72
    44
 73
    40
 74
     0
 42
0.0000000001
 43
0.0000000001
 12
1.0
 22
0.0
 32
0.0
 13
1.0
 23
0.0
 33
0.0
 40
0.0
 40
0.0
 40
0.0
 40
0.0
 40
1.0
 40
1.0
 40
1.0
 40
2.0
 40
2.0
 40
2.0
 40
3.0
 40
3.0
 40
3.0
 40
4.0
 40
4.0
 40
4.0
 40
5.0
 40
5.0
 40
5.0
 40
6.0
 40
6.0
 40
6.0
 40
7.0
 40
7.0
 40
7.0
 40
8.0
 40
8.0
 40
8.0
 40
9.0
 40
9.0
 40
9.0
 40
10.0
 40
10.0
 40
10.0
 40
11.0
 40
11.0
 40
11.0
 40
12.0
 40
12.0
 40
12.0
 40
13.0
 40
13.0
 40
13.0
 40
13.0
 10
61.92266301620337
 20
-136.3803059554883
 30
0.0
 10
62.08130966329912
 20
-136.5980359901561
 30
0.0
 10
62.15537921623199
 20
-136.6910535682578
 30
0.0
 10
62.29921195274117
 20
-136.7399739241484
 30
0.0
 10
62.29921195274117
 20
-136.7399739241484
 30
0.0
 10
62.29921195274117
 20
-135.9613823444819
 30
0.0
 10
62.29921195274117
 20
-135.9613823444819
 30
0.0
 10
62.29921195274117
 20
-135.9613823444819
 30
0.0
 10
62.5043673888878
 20
-135.9613823444819
 30
0.0
 10
62.5043673888878
 20
-135.9613823444819
 30
0.0
 10
62.5043673888878
 20
-135.9613823444819
 30
0.0
 10
62.5043673888878
 20
-136.9893988372804
 30
0.0
 10
62.5043673888878
 20
-136.9893988372804
 30
0.0
 10
62.14676647751887
 20
-136.9577039588161
 30
0.0
 10
62.0685628100037
 20
-136.8922471445964
 30
0.0
 10
61.77021754098106
 20
-136.5070854693455
 30
0.0
 10
61.57143553148214
 20
-136.2511148747914
 30
0.0
 10
61.50373940519698
 20
-136.1856580605717
 30
0.0
 10
61.36628009533552
 20
-136.1856580605717
 30
0.0
 10
61.24776881064292
 20
-136.1856580605717
 30
0.0
 10
61.1165106726549
 20
-136.2576605562134
 30
0.0
 10
61.1165106726549
 20
-136.4543755084211
 30
0.0
 10
61.1165106726549
 20
-136.7144802175575
 30
0.0
 10
61.34715981539238
 20
-136.7230929562706
 30
0.0
 10
61.46360404279383
 20
-136.7272270708529
 30
0.0
 10
61.46360404279383
 20
-136.7272270708529
 30
0.0
 10
61.46360404279383
 20
-136.9515027869427
 30
0.0
 10
61.46360404279383
 20
-136.9515027869427
 30
0.0
 10
61.33665227416237
 20
-136.9428900482296
 30
0.0
 10
61.22451441611749
 20
-136.9322102522253
 30
0.0
 10
61.10600313142489
 20
-136.851939527419
 30
0.0
 10
60.94528942703798
 20
-136.7420409814395
 30
0.0
 10
60.91135523650828
 20
-136.5556613156875
 30
0.0
 10
60.91135523650828
 20
-136.4395615978346
 30
0.0
 10
60.91135523650828
 20
-136.162231411272
 30
0.0
 10
61.09549559019488
 20
-135.9548366630599
 30
0.0
 10
61.36834715262667
 20
-135.9548366630599
 30
0.0
 10
61.59675698329873
 20
-135.9548366630599
 30
0.0
 10
61.69632024282245
 20
-136.0712808904614
 30
0.0
 10
61.92266301620337
 20
-136.3803059554883
 30
0.0
  0
HATCH
  5
C1
330
BC
100
AcDbEntity
  8
_U+30EC_U+30A4_U+30E4_U+30FC 1
 62
     7
420
 16777215
100
AcDbHatch
 10
0.0
 20
0.0
 30
0.0
210
0.0
220
0.0
230
1.0
  2
SOLID
 70
     1
 71
     0
 91
        1
 92
        1
 93
        1
 72
     4
 94
        3
 73
     0
 74
     1
 95
       44
 96
       40
 40
0.0
 40
0.0
 40
0.0
 40
0.0
 40
1.0
 40
1.0
 40
1.0
 40
2.0
 40
2.0
 40
2.0
 40
3.0
 40
3.0
 40
3.0
 40
4.0
 40
4.0
 40
4.0
 40
5.0
 40
5.0
 40
5.0
 40
6.0
 40
6.0
 40
6.0
 40
7.0
 40
7.0
 40
7.0
 40
8.0
 40
8.0
 40
8.0
 40
9.0
 40
9.0
 40
9.0
 40
10.0
 40
10.0
 40
10.0
 40
11.0
 40
11.0
 40
11.0
 40
12.0
 40
12.0
 40
12.0
 40
13.0
 40
13.0
 40
13.0
 40
13.0
 10
61.92266301620337
 20
-136.3803059554883
 10
62.08130966329912
 20
-136.5980359901561
 10
62.15537921623199
 20
-136.6910535682578
 10
62.29921195274117
 20
-136.7399739241484
 10
62.29921195274117
 20
-136.7399739241484
 10
62.29921195274117
 20
-135.9613823444819
 10
62.29921195274117
 20
-135.9613823444819
 10
62.29921195274117
 20
-135.9613823444819
 10
62.5043673888878
 20
-135.9613823444819
 10
62.5043673888878
 20
-135.9613823444819
 10
62.5043673888878
 20
-135.9613823444819
 10
62.5043673888878
 20
-136.9893988372804
 10
62.5043673888878
 20
-136.9893988372804
 10
62.14676647751887
 20
-136.9577039588161
 10
62.0685628100037
 20
-136.8922471445964
 10
61.77021754098106
 20
-136.5070854693455
 10
61.57143553148214
 20
-136.2511148747914
 10
61.50373940519698
 20
-136.1856580605717
 10
61.36628009533552
 20
-136.1856580605717
 10
61.24776881064292
 20
-136.1856580605717
 10
61.1165106726549
 20
-136.2576605562134
 10
61.1165106726549
 20
-136.4543755084211
 10
61.1165106726549
 20
-136.7144802175575
 10
61.34715981539238
 20
-136.7230929562706
 10
61.46360404279383
 20
-136.7272270708529
 10
61.46360404279383
 20
-136.7272270708529
 10
61.46360404279383
 20
-136.9515027869427
 10
61.46360404279383
 20
-136.9515027869427
 10
61.33665227416237
 20
-136.9428900482296
 10
61.22451441611749
 20
-136.9322102522253
 10
61.10600313142489
 20
-136.851939527419
 10
60.94528942703798
 20
-136.7420409814395
 10
60.91135523650828
 20
-136.5556613156875
 10
60.91135523650828
 20
-136.4395615978346
 10
60.91135523650828
 20
-136.162231411272
 10
61.09549559019488
 20
-135.9548366630599
 10
61.36834715262667
 20
-135.9548366630599
 10
61.59675698329873
 20
-135.9548366630599
 10
61.69632024282245
 20
-136.0712808904614
 10
61.92266301620337
 20
-136.3803059554883
 97
        0
 97
        0
 75
     2
 76
     1
 98
        0
  0
SPLINE
  5
C2
330
BC
100
AcDbEntity
  8
_U+30EC_U+30A4_U+30E4_U+30FC 1
370
     0
100
AcDbSpline
210
0.0
220
0.0
230
1.0
 70
    11
 71
     3
 72
    29
 73
    25
 74
     0
 42
0.0000000001
 43
0.0000000001
 12
1.0
 22
0.0
 32
0.0
 13
1.0
 23
0.0
 33
0.0
 40
0.0
 40
0.0
 40
0.0
 40
0.0
 40
1.0
 40
1.0
 40
1.0
 40
2.0
 40
2.0
 40
2.0
 40
3.0
 40
3.0
 40
3.0
 40
4.0
 40
4.0
 40
4.0
 40
5.0
 40
5.0
 40
5.0
 40
6.0
 40
6.0
 40
6.0
 40
7.0
 40
7.0
 40
7.0
 40
8.0
 40
8.0
 40
8.0
 40
8.0
 10
62.55518254729523
 20
-135.2964789158287
 30
0.0
 10
62.55518254729523
 20
-135.563129306387
 30
0.0
 10
62.41755098265951
 20
-135.8170328436499
 30
0.0
 10
62.0685628100037
 20
-135.8170328436499
 30
0.0
 10
61.81259221544963
 20
-135.8170328436499
 30
0.0
 10
61.71733532528248
 20
-135.6750949096576
 30
0.0
 10
61.65601262564503
 20
-135.5693304782604
 30
0.0
 10
61.59675698329873
 20
-135.6940429348265
 30
0.0
 10
61.4825520679627
 20
-135.7701795450505
 30
0.0
 10
61.32183836357579
 20
-135.7701795450505
 30
0.0
 10
61.04674748907859
 20
-135.7701795450505
 30
0.0
 10
60.91135523650828
 20
-135.5713975355516
 30
0.0
 10
60.91135523650828
 20
-135.2964789158287
 30
0.0
 10
60.91135523650828
 20
-135.0129475573926
 30
0.0
 10
61.05518797301745
 20
-134.8224337770583
 30
0.0
 10
61.32183836357579
 20
-134.8224337770583
 30
0.0
 10
61.4825520679627
 20
-134.8224337770583
 30
0.0
 10
61.59675698329873
 20
-134.900981954122
 30
0.0
 10
61.65601262564503
 20
-135.025694410688
 30
0.0
 10
61.70682778405246
 20
-134.9368109471686
 30
0.0
 10
61.80208467421962
 20
-134.7779920452986
 30
0.0
 10
62.06425644064714
 20
-134.7779920452986
 30
0.0
 10
62.43873831989379
 20
-134.7779920452986
 30
0.0
 10
62.55518254729523
 20
-135.0573892891523
 30
0.0
 10
62.55518254729523
 20
-135.2964789158287
 30
0.0
  0
SPLINE
  5
C3
330
BC
100
AcDbEntity
  8
_U+30EC_U+30A4_U+30E4_U+30FC 1
370
     0
100
AcDbSpline
210
0.0
220
0.0
230
1.0
 70
    11
 71
     3
 72
    17
 73
    13
 74
     0
 42
0.0000000001
 43
0.0000000001
 12
1.0
 22
0.0
 32
0.0
 13
1.0
 23
0.0
 33
0.0
 40
0.0
 40
0.0
 40
0.0
 40
0.0
 40
1.0
 40
1.0
 40
1.0
 40
2.0
 40
2.0
 40
2.0
 40
3.0
 40
3.0
 40
3.0
 40
4.0
 40
4.0
 40
4.0
 40
4.0
 10
61.10393607413374
 20
-135.2964789158287
 30
0.0
 10
61.10393607413374
 20
-135.4614989895721
 30
0.0
 10
61.19902070952664
 20
-135.5462483385093
 30
0.0
 10
61.33441296209696
 20
-135.5462483385093
 30
0.0
 10
61.45723061614611
 20
-135.5462483385093
 30
0.0
 10
61.57574190083871
 20
-135.4742458428676
 30
0.0
 10
61.57574190083871
 20
-135.2964789158287
 30
0.0
 10
61.57574190083871
 20
-135.1187119887898
 30
0.0
 10
61.45723061614611
 20
-135.0467094931481
 30
0.0
 10
61.33441296209696
 20
-135.0467094931481
 30
0.0
 10
61.19902070952664
 20
-135.0467094931481
 30
0.0
 10
61.10393607413374
 20
-135.1335258993763
 30
0.0
 10
61.10393607413374
 20
-135.2964789158287
 30
0.0
  0
SPLINE
  5
C4
330
BC
100
AcDbEntity
  8
_U+30EC_U+30A4_U+30E4_U+30FC 1
370
     0
100
AcDbSpline
210
0.0
220
0.0
230
1.0
 70
    11
 71
     3
 72
    17
 73
    13
 74
     0
 42
0.0000000001
 43
0.0000000001
 12
1.0
 22
0.0
 32
0.0
 13
1.0
 23
0.0
 33
0.0
 40
0.0
 40
0.0
 40
0.0
 40
0.0
 40
1.0
 40
1.0
 40
1.0
 40
2.0
 40
2.0
 40
2.0
 40
3.0
 40
3.0
 40
3.0
 40
4.0
 40
4.0
 40
4.0
 40
4.0
 10
61.76401636910761
 20
-135.2964789158287
 30
0.0
 10
61.76401636910761
 20
-135.4401393975636
 30
0.0
 10
61.85066052056165
 20
-135.5927571275602
 30
0.0
 10
62.05374889941712
 20
-135.5927571275602
 30
0.0
 10
62.25890433556375
 20
-135.5927571275602
 30
0.0
 10
62.36053465237862
 20
-135.4656331041544
 30
0.0
 10
62.36053465237862
 20
-135.2964789158287
 30
0.0
 10
62.36053465237862
 20
-135.1104437596252
 30
0.0
 10
62.23788925310372
 20
-135.0002007040972
 30
0.0
 10
62.06012232606484
 20
-135.0002007040972
 30
0.0
 10
61.83791366726622
 20
-135.0002007040972
 30
0.0
 10
61.76401636910761
 20
-135.1631537205495
 30
0.0
 10
61.76401636910761
 20
-135.2964789158287
 30
0.0
  0
HATCH
  5
C5
330
BC
100
AcDbEntity
  8
_U+30EC_U+30A4_U+30E4_U+30FC 1
 62
     7
420
 16777215
100
AcDbHatch
 10
0.0
 20
0.0
 30
0.0
210
0.0
220
0.0
230
1.0
  2
SOLID
 70
     1
 71
     0
 91
        3
 92
        1
 93
        1
 72
     4
 94
        3
 73
     0
 74
     1
 95
       29
 96
       25
 40
0.0
 40
0.0
 40
0.0
 40
0.0
 40
1.0
 40
1.0
 40
1.0
 40
2.0
 40
2.0
 40
2.0
 40
3.0
 40
3.0
 40
3.0
 40
4.0
 40
4.0
 40
4.0
 40
5.0
 40
5.0
 40
5.0
 40
6.0
 40
6.0
 40
6.0
 40
7.0
 40
7.0
 40
7.0
 40
8.0
 40
8.0
 40
8.0
 40
8.0
 10
62.55518254729523
 20
-135.2964789158287
 10
62.55518254729523
 20
-135.563129306387
 10
62.41755098265951
 20
-135.8170328436499
 10
62.0685628100037
 20
-135.8170328436499
 10
61.81259221544963
 20
-135.8170328436499
 10
61.71733532528248
 20
-135.6750949096576
 10
61.65601262564503
 20
-135.5693304782604
 10
61.59675698329873
 20
-135.6940429348265
 10
61.4825520679627
 20
-135.7701795450505
 10
61.32183836357579
 20
-135.7701795450505
 10
61.04674748907859
 20
-135.7701795450505
 10
60.91135523650828
 20
-135.5713975355516
 10
60.91135523650828
 20
-135.2964789158287
 10
60.91135523650828
 20
-135.0129475573926
 10
61.05518797301745
 20
-134.8224337770583
 10
61.32183836357579
 20
-134.8224337770583
 10
61.4825520679627
 20
-134.8224337770583
 10
61.59675698329873
 20
-134.900981954122
 10
61.65601262564503
 20
-135.025694410688
 10
61.70682778405246
 20
-134.9368109471686
 10
61.80208467421962
 20
-134.7779920452986
 10
62.06425644064714
 20
-134.7779920452986
 10
62.43873831989379
 20
-134.7779920452986
 10
62.55518254729523
 20
-135.0573892891523
 10
62.55518254729523
 20
-135.2964789158287
 97
        0
 97
        0
 92
        1
 93
        1
 72
     4
 94
        3
 73
     0
 74
     1
 95
       17
 96
       13
 40
0.0
 40
0.0
 40
0.0
 40
0.0
 40
1.0
 40
1.0
 40
1.0
 40
2.0
 40
2.0
 40
2.0
 40
3.0
 40
3.0
 40
3.0
 40
4.0
 40
4.0
 40
4.0
 40
4.0
 10
61.10393607413374
 20
-135.2964789158287
 10
61.10393607413374
 20
-135.4614989895721
 10
61.19902070952664
 20
-135.5462483385093
 10
61.33441296209696
 20
-135.5462483385093
 10
61.45723061614611
 20
-135.5462483385093
 10
61.57574190083871
 20
-135.4742458428676
 10
61.57574190083871
 20
-135.2964789158287
 10
61.57574190083871
 20
-135.1187119887898
 10
61.45723061614611
 20
-135.0467094931481
 10
61.33441296209696
 20
-135.0467094931481
 10
61.19902070952664
 20
-135.0467094931481
 10
61.10393607413374
 20
-135.1335258993763
 10
61.10393607413374
 20
-135.2964789158287
 97
        0
 97
        0
 92
        1
 93
        1
 72
     4
 94
        3
 73
     0
 74
     1
 95
       17
 96
       13
 40
0.0
 40
0.0
 40
0.0
 40
0.0
 40
1.0
 40
1.0
 40
1.0
 40
2.0
 40
2.0
 40
2.0
 40
3.0
 40
3.0
 40
3.0
 40
4.0
 40
4.0
 40
4.0
 40
4.0
 10
61.76401636910761
 20
-135.2964789158287
 10
61.76401636910761
 20
-135.4401393975636
 10
61.85066052056165
 20
-135.5927571275602
 10
62.05374889941712
 20
-135.5927571275602
 10
62.25890433556375
 20
-135.5927571275602
 10
62.36053465237862
 20
-135.4656331041544
 10
62.36053465237862
 20
-135.2964789158287
 10
62.36053465237862
 20
-135.1104437596252
 10
62.23788925310372
 20
-135.0002007040972
 10
62.06012232606484
 20
-135.0002007040972
 10
61.83791366726622
 20
-135.0002007040972
 10
61.76401636910761
 20
-135.1631537205495
 10
61.76401636910761
 20
-135.2964789158287
 97
        0
 97
        0
 75
     2
 76
     1
 98
        0
  0
ENDBLK
  5
BF
330
BC
100
AcDbEntity
  8
0
100
AcDbBlockEnd
  0
BLOCK
  5
CD
330
CB
100
AcDbEntity
  8
0
100
AcDbBlockBegin
  2
block 7
 70
     0
 10
0.0
 20
0.0
 30
0.0
  3
block 7
  1

  0
SPLINE
  5
CF
330
CB
100
AcDbEntity
  8
_U+30EC_U+30A4_U+30E4_U+30FC 1
370
     0
100
AcDbSpline
210
0.0
220
0.0
230
1.0
 70
    11
 71
     3
 72
    26
 73
    22
 74
     0
 42
0.0000000001
 43
0.0000000001
 12
1.0
 22
0.0
 32
0.0
 13
1.0
 23
0.0
 33
0.0
 40
0.0
 40
0.0
 40
0.0
 40
0.0
 40
1.0
 40
1.0
 40
1.0
 40
2.0
 40
2.0
 40
2.0
 40
3.0
 40
3.0
 40
3.0
 40
4.0
 40
4.0
 40
4.0
 40
5.0
 40
5.0
 40
5.0
 40
6.0
 40
6.0
 40
6.0
 40
7.0
 40
7.0
 40
7.0
 40
7.0
 10
73.96378850147434
 20
-153.1954725094442
 30
0.0
 10
73.96378850147434
 20
-153.1954725094442
 30
0.0
 10
73.96378850147434
 20
-152.0913194064216
 30
0.0
 10
73.96378850147434
 20
-152.0913194064216
 30
0.0
 10
73.96378850147434
 20
-152.0913194064216
 30
0.0
 10
73.6337483539874
 20
-152.0913194064216
 30
0.0
 10
73.6337483539874
 20
-152.0913194064216
 30
0.0
 10
73.6337483539874
 20
-152.0913194064216
 30
0.0
 10
73.6337483539874
 20
-151.9431803005559
 30
0.0
 10
73.6337483539874
 20
-151.9431803005559
 30
0.0
 10
73.96585555876548
 20
-151.9283663899693
 30
0.0
 10
74.01236434781636
 20
-151.765413373517
 30
0.0
 10
74.04199216898951
 20
-151.6510362034067
 30
0.0
 10
74.04199216898951
 20
-151.6510362034067
 30
0.0
 10
74.1880642175641
 20
-151.6510362034067
 30
0.0
 10
74.1880642175641
 20
-151.6510362034067
 30
0.0
 10
74.1880642175641
 20
-151.6510362034067
 30
0.0
 10
74.1880642175641
 20
-153.1954725094442
 30
0.0
 10
74.1880642175641
 20
-153.1954725094442
 30
0.0
 10
74.1880642175641
 20
-153.1954725094442
 30
0.0
 10
73.96378850147434
 20
-153.1954725094442
 30
0.0
 10
73.96378850147434
 20
-153.1954725094442
 30
0.0
  0
HATCH
  5
D0
330
CB
100
AcDbEntity
  8
_U+30EC_U+30A4_U+30E4_U+30FC 1
 62
     7
420
 16777215
100
AcDbHatch
 10
0.0
 20
0.0
 30
0.0
210
0.0
220
0.0
230
1.0
  2
SOLID
 70
     1
 71
     0
 91
        1
 92
        1
 93
        1
 72
     4
 94
        3
 73
     0
 74
     1
 95
       26
 96
       22
 40
0.0
 40
0.0
 40
0.0
 40
0.0
 40
1.0
 40
1.0
 40
1.0
 40
2.0
 40
2.0
 40
2.0
 40
3.0
 40
3.0
 40
3.0
 40
4.0
 40
4.0
 40
4.0
 40
5.0
 40
5.0
 40
5.0
 40
6.0
 40
6.0
 40
6.0
 40
7.0
 40
7.0
 40
7.0
 40
7.0
 10
73.96378850147434
 20
-153.1954725094442
 10
73.96378850147434
 20
-153.1954725094442
 10
73.96378850147434
 20
-152.0913194064216
 10
73.96378850147434
 20
-152.0913194064216
 10
73.96378850147434
 20
-152.0913194064216
 10
73.6337483539874
 20
-152.0913194064216
 10
73.6337483539874
 20
-152.0913194064216
 10
73.6337483539874
 20
-152.0913194064216
 10
73.6337483539874
 20
-151.9431803005559
 10
73.6337483539874
 20
-151.9431803005559
 10
73.96585555876548
 20
-151.9283663899693
 10
74.01236434781636
 20
-151.765413373517
 10
74.04199216898951
 20
-151.6510362034067
 10
74.04199216898951
 20
-151.6510362034067
 10
74.1880642175641
 20
-151.6510362034067
 10
74.1880642175641
 20
-151.6510362034067
 10
74.1880642175641
 20
-151.6510362034067
 10
74.1880642175641
 20
-153.1954725094442
 10
74.1880642175641
 20
-153.1954725094442
 10
74.1880642175641
 20
-153.1954725094442
 10
73.96378850147434
 20
-153.1954725094442
 10
73.96378850147434
 20
-153.1954725094442
 97
        0
 97
        0
 75
     2
 76
     1
 98
        0
  0
SPLINE
  5
D1
330
CB
100
AcDbEntity
  8
_U+30EC_U+30A4_U+30E4_U+30FC 1
370
     0
100
AcDbSpline
210
0.0
220
0.0
230
1.0
 70
    11
 71
     3
 72
    53
 73
    49
 74
     0
 42
0.0000000001
 43
0.0000000001
 12
1.0
 22
0.0
 32
0.0
 13
1.0
 23
0.0
 33
0.0
 40
0.0
 40
0.0
 40
0.0
 40
0.0
 40
1.0
 40
1.0
 40
1.0
 40
2.0
 40
2.0
 40
2.0
 40
3.0
 40
3.0
 40
3.0
 40
4.0
 40
4.0
 40
4.0
 40
5.0
 40
5.0
 40
5.0
 40
6.0
 40
6.0
 40
6.0
 40
7.0
 40
7.0
 40
7.0
 40
8.0
 40
8.0
 40
8.0
 40
9.0
 40
9.0
 40
9.0
 40
10.0
 40
10.0
 40
10.0
 40
11.0
 40
11.0
 40
11.0
 40
12.0
 40
12.0
 40
12.0
 40
13.0
 40
13.0
 40
13.0
 40
14.0
 40
14.0
 40
14.0
 40
15.0
 40
15.0
 40
15.0
 40
16.0
 40
16.0
 40
16.0
 40
16.0
 10
75.17026094040882
 20
-153.2461154130774
 30
0.0
 10
75.09205727289365
 20
-153.2461154130774
 30
0.0
 10
74.99042695607879
 20
-153.2292344451996
 30
0.0
 10
74.88879663926392
 20
-153.1658446882711
 30
0.0
 10
74.71550833635585
 20
-153.0559461422916
 30
0.0
 10
74.6941487443473
 20
-152.9246880043036
 30
0.0
 10
74.67520071917842
 20
-152.8168565156152
 30
0.0
 10
74.67520071917842
 20
-152.8168565156152
 30
0.0
 10
74.89740937797704
 20
-152.8168565156152
 30
0.0
 10
74.89740937797704
 20
-152.8168565156152
 30
0.0
 10
74.95218639619252
 20
-153.0156385251142
 30
0.0
 10
75.07931041959823
 20
-153.0452663462873
 30
0.0
 10
75.17232799769998
 20
-153.0452663462873
 30
0.0
 10
75.31185436485259
 20
-153.0452663462873
 30
0.0
 10
75.46412758530064
 20
-152.9457030867636
 30
0.0
 10
75.46412758530064
 20
-152.7131591415092
 30
0.0
 10
75.46412758530064
 20
-152.4571885469552
 30
0.0
 10
75.2842936009706
 20
-152.3872531086046
 30
0.0
 10
75.16371525898685
 20
-152.3872531086046
 30
0.0
 10
75.13202038052255
 20
-152.3872531086046
 30
0.0
 10
74.99042695607879
 20
-152.3872531086046
 30
0.0
 10
74.90154349255934
 20
-152.5164441893014
 30
0.0
 10
74.90154349255934
 20
-152.5164441893014
 30
0.0
 10
74.7258436228116
 20
-152.4974961641326
 30
0.0
 10
74.7258436228116
 20
-152.4974961641326
 30
0.0
 10
74.7258436228116
 20
-152.4974961641326
 30
0.0
 10
74.84642196479534
 20
-151.6510362034067
 30
0.0
 10
74.84642196479534
 20
-151.6510362034067
 30
0.0
 10
74.84642196479534
 20
-151.6510362034067
 30
0.0
 10
75.62501354446181
 20
-151.6510362034067
 30
0.0
 10
75.62501354446181
 20
-151.6510362034067
 30
0.0
 10
75.62501354446181
 20
-151.6510362034067
 30
0.0
 10
75.62501354446181
 20
-151.8456840983233
 30
0.0
 10
75.62501354446181
 20
-151.8456840983233
 30
0.0
 10
75.62501354446181
 20
-151.8456840983233
 30
0.0
 10
75.00937498124766
 20
-151.8456840983233
 30
0.0
 10
75.00937498124766
 20
-151.8456840983233
 30
0.0
 10
75.00937498124766
 20
-151.8456840983233
 30
0.0
 10
74.94391816702792
 20
-152.268741823912
 30
0.0
 10
74.94391816702792
 20
-152.268741823912
 30
0.0
 10
75.00524086666536
 20
-152.2349798881565
 30
0.0
 10
75.08757864876283
 20
-152.1946722709791
 30
0.0
 10
75.20608993345543
 20
-152.1946722709791
 30
0.0
 10
75.45999347071835
 20
-152.1946722709791
 30
0.0
 10
75.69701604010352
 20
-152.3810519367311
 30
0.0
 10
75.69701604010352
 20
-152.6942111163403
 30
0.0
 10
75.69701604010352
 20
-153.0115044105318
 30
0.0
 10
75.47274032401376
 20
-153.2461154130774
 30
0.0
 10
75.17026094040882
 20
-153.2461154130774
 30
0.0
  0
HATCH
  5
D2
330
CB
100
AcDbEntity
  8
_U+30EC_U+30A4_U+30E4_U+30FC 1
 62
     7
420
 16777215
100
AcDbHatch
 10
0.0
 20
0.0
 30
0.0
210
0.0
220
0.0
230
1.0
  2
SOLID
 70
     1
 71
     0
 91
        1
 92
        1
 93
        1
 72
     4
 94
        3
 73
     0
 74
     1
 95
       53
 96
       49
 40
0.0
 40
0.0
 40
0.0
 40
0.0
 40
1.0
 40
1.0
 40
1.0
 40
2.0
 40
2.0
 40
2.0
 40
3.0
 40
3.0
 40
3.0
 40
4.0
 40
4.0
 40
4.0
 40
5.0
 40
5.0
 40
5.0
 40
6.0
 40
6.0
 40
6.0
 40
7.0
 40
7.0
 40
7.0
 40
8.0
 40
8.0
 40
8.0
 40
9.0
 40
9.0
 40
9.0
 40
10.0
 40
10.0
 40
10.0
 40
11.0
 40
11.0
 40
11.0
 40
12.0
 40
12.0
 40
12.0
 40
13.0
 40
13.0
 40
13.0
 40
14.0
 40
14.0
 40
14.0
 40
15.0
 40
15.0
 40
15.0
 40
16.0
 40
16.0
 40
16.0
 40
16.0
 10
75.17026094040882
 20
-153.2461154130774
 10
75.09205727289365
 20
-153.2461154130774
 10
74.99042695607879
 20
-153.2292344451996
 10
74.88879663926392
 20
-153.1658446882711
 10
74.71550833635585
 20
-153.0559461422916
 10
74.6941487443473
 20
-152.9246880043036
 10
74.67520071917842
 20
-152.8168565156152
 10
74.67520071917842
 20
-152.8168565156152
 10
74.89740937797704
 20
-152.8168565156152
 10
74.89740937797704
 20
-152.8168565156152
 10
74.95218639619252
 20
-153.0156385251142
 10
75.07931041959823
 20
-153.0452663462873
 10
75.17232799769998
 20
-153.0452663462873
 10
75.31185436485259
 20
-153.0452663462873
 10
75.46412758530064
 20
-152.9457030867636
 10
75.46412758530064
 20
-152.7131591415092
 10
75.46412758530064
 20
-152.4571885469552
 10
75.2842936009706
 20
-152.3872531086046
 10
75.16371525898685
 20
-152.3872531086046
 10
75.13202038052255
 20
-152.3872531086046
 10
74.99042695607879
 20
-152.3872531086046
 10
74.90154349255934
 20
-152.5164441893014
 10
74.90154349255934
 20
-152.5164441893014
 10
74.7258436228116
 20
-152.4974961641326
 10
74.7258436228116
 20
-152.4974961641326
 10
74.7258436228116
 20
-152.4974961641326
 10
74.84642196479534
 20
-151.6510362034067
 10
74.84642196479534
 20
-151.6510362034067
 10
74.84642196479534
 20
-151.6510362034067
 10
75.62501354446181
 20
-151.6510362034067
 10
75.62501354446181
 20
-151.6510362034067
 10
75.62501354446181
 20
-151.6510362034067
 10
75.62501354446181
 20
-151.8456840983233
 10
75.62501354446181
 20
-151.8456840983233
 10
75.62501354446181
 20
-151.8456840983233
 10
75.00937498124766
 20
-151.8456840983233
 10
75.00937498124766
 20
-151.8456840983233
 10
75.00937498124766
 20
-151.8456840983233
 10
74.94391816702792
 20
-152.268741823912
 10
74.94391816702792
 20
-152.268741823912
 10
75.00524086666536
 20
-152.2349798881565
 10
75.08757864876283
 20
-152.1946722709791
 10
75.20608993345543
 20
-152.1946722709791
 10
75.45999347071835
 20
-152.1946722709791
 10
75.69701604010352
 20
-152.3810519367311
 10
75.69701604010352
 20
-152.6942111163403
 10
75.69701604010352
 20
-153.0115044105318
 10
75.47274032401376
 20
-153.2461154130774
 10
75.17026094040882
 20
-153.2461154130774
 97
        0
 97
        0
 75
     2
 76
     1
 98
        0
  0
ENDBLK
  5
CE
330
CB
100
AcDbEntity
  8
0
100
AcDbBlockEnd
  0
BLOCK
  5
D5
330
D3
100
AcDbEntity
  8
0
100
AcDbBlockBegin
  2
block 8
 70
     0
 10
0.0
 20
0.0
 30
0.0
  3
block 8
  1

  0
SPLINE
  5
D7
330
D3
100
AcDbEntity
  8
_U+30EC_U+30A4_U+30E4_U+30FC 1
370
     0
100
AcDbSpline
210
0.0
220
0.0
230
1.0
 70
    11
 71
     3
 72
    26
 73
    22
 74
     0
 42
0.0000000001
 43
0.0000000001
 12
1.0
 22
0.0
 32
0.0
 13
1.0
 23
0.0
 33
0.0
 40
0.0
 40
0.0
 40
0.0
 40
0.0
 40
1.0
 40
1.0
 40
1.0
 40
2.0
 40
2.0
 40
2.0
 40
3.0
 40
3.0
 40
3.0
 40
4.0
 40
4.0
 40
4.0
 40
5.0
 40
5.0
 40
5.0
 40
6.0
 40
6.0
 40
6.0
 40
7.0
 40
7.0
 40
7.0
 40
7.0
 10
87.42704940305643
 20
-153.1954725094442
 30
0.0
 10
87.42704940305643
 20
-153.1954725094442
 30
0.0
 10
87.42704940305643
 20
-152.0913194064216
 30
0.0
 10
87.42704940305643
 20
-152.0913194064216
 30
0.0
 10
87.42704940305643
 20
-152.0913194064216
 30
0.0
 10
87.0970092555695
 20
-152.0913194064216
 30
0.0
 10
87.0970092555695
 20
-152.0913194064216
 30
0.0
 10
87.0970092555695
 20
-152.0913194064216
 30
0.0
 10
87.0970092555695
 20
-151.9431803005559
 30
0.0
 10
87.0970092555695
 20
-151.9431803005559
 30
0.0
 10
87.42911646034759
 20
-151.9283663899693
 30
0.0
 10
87.47562524939846
 20
-151.765413373517
 30
0.0
 10
87.50525307057161
 20
-151.6510362034067
 30
0.0
 10
87.50525307057161
 20
-151.6510362034067
 30
0.0
 10
87.65132511914621
 20
-151.6510362034067
 30
0.0
 10
87.65132511914621
 20
-151.6510362034067
 30
0.0
 10
87.65132511914621
 20
-151.6510362034067
 30
0.0
 10
87.65132511914621
 20
-153.1954725094442
 30
0.0
 10
87.65132511914621
 20
-153.1954725094442
 30
0.0
 10
87.65132511914621
 20
-153.1954725094442
 30
0.0
 10
87.42704940305643
 20
-153.1954725094442
 30
0.0
 10
87.42704940305643
 20
-153.1954725094442
 30
0.0
  0
HATCH
  5
D8
330
D3
100
AcDbEntity
  8
_U+30EC_U+30A4_U+30E4_U+30FC 1
 62
     7
420
 16777215
100
AcDbHatch
 10
0.0
 20
0.0
 30
0.0
210
0.0
220
0.0
230
1.0
  2
SOLID
 70
     1
 71
     0
 91
        1
 92
        1
 93
        1
 72
     4
 94
        3
 73
     0
 74
     1
 95
       26
 96
       22
 40
0.0
 40
0.0
 40
0.0
 40
0.0
 40
1.0
 40
1.0
 40
1.0
 40
2.0
 40
2.0
 40
2.0
 40
3.0
 40
3.0
 40
3.0
 40
4.0
 40
4.0
 40
4.0
 40
5.0
 40
5.0
 40
5.0
 40
6.0
 40
6.0
 40
6.0
 40
7.0
 40
7.0
 40
7.0
 40
7.0
 10
87.42704940305643
 20
-153.1954725094442
 10
87.42704940305643
 20
-153.1954725094442
 10
87.42704940305643
 20
-152.0913194064216
 10
87.42704940305643
 20
-152.0913194064216
 10
87.42704940305643
 20
-152.0913194064216
 10
87.0970092555695
 20
-152.0913194064216
 10
87.0970092555695
 20
-152.0913194064216
 10
87.0970092555695
 20
-152.0913194064216
 10
87.0970092555695
 20
-151.9431803005559
 10
87.0970092555695
 20
-151.9431803005559
 10
87.42911646034759
 20
-151.9283663899693
 10
87.47562524939846
 20
-151.765413373517
 10
87.50525307057161
 20
-151.6510362034067
 10
87.50525307057161
 20
-151.6510362034067
 10
87.65132511914621
 20
-151.6510362034067
 10
87.65132511914621
 20
-151.6510362034067
 10
87.65132511914621
 20
-151.6510362034067
 10
87.65132511914621
 20
-153.1954725094442
 10
87.65132511914621
 20
-153.1954725094442
 10
87.65132511914621
 20
-153.1954725094442
 10
87.42704940305643
 20
-153.1954725094442
 10
87.42704940305643
 20
-153.1954725094442
 97
        0
 97
        0
 75
     2
 76
     1
 98
        0
  0
SPLINE
  5
D9
330
D3
100
AcDbEntity
  8
_U+30EC_U+30A4_U+30E4_U+30FC 1
370
     0
100
AcDbSpline
210
0.0
220
0.0
230
1.0
 70
    11
 71
     3
 72
    44
 73
    40
 74
     0
 42
0.0000000001
 43
0.0000000001
 12
1.0
 22
0.0
 32
0.0
 13
1.0
 23
0.0
 33
0.0
 40
0.0
 40
0.0
 40
0.0
 40
0.0
 40
1.0
 40
1.0
 40
1.0
 40
2.0
 40
2.0
 40
2.0
 40
3.0
 40
3.0
 40
3.0
 40
4.0
 40
4.0
 40
4.0
 40
5.0
 40
5.0
 40
5.0
 40
6.0
 40
6.0
 40
6.0
 40
7.0
 40
7.0
 40
7.0
 40
8.0
 40
8.0
 40
8.0
 40
9.0
 40
9.0
 40
9.0
 40
10.0
 40
10.0
 40
10.0
 40
11.0
 40
11.0
 40
11.0
 40
12.0
 40
12.0
 40
12.0
 40
13.0
 40
13.0
 40
13.0
 40
13.0
 10
88.74548744526155
 20
-152.6135958819855
 30
0.0
 10
88.52775741059376
 20
-152.7724147838555
 30
0.0
 10
88.43473983249201
 20
-152.8464843367884
 30
0.0
 10
88.38581947660147
 20
-152.9901448185233
 30
0.0
 10
88.38581947660147
 20
-152.9901448185233
 30
0.0
 10
89.16441105626792
 20
-152.9901448185233
 30
0.0
 10
89.16441105626792
 20
-152.9901448185233
 30
0.0
 10
89.16441105626792
 20
-152.9901448185233
 30
0.0
 10
89.16441105626792
 20
-153.1954725094442
 30
0.0
 10
89.16441105626792
 20
-153.1954725094442
 30
0.0
 10
89.16441105626792
 20
-153.1954725094442
 30
0.0
 10
88.13639456346938
 20
-153.1954725094442
 30
0.0
 10
88.13639456346938
 20
-153.1954725094442
 30
0.0
 10
88.16808944193367
 20
-152.8378715980753
 30
0.0
 10
88.23354625615342
 20
-152.7596679305601
 30
0.0
 10
88.61870793140436
 20
-152.4613226615375
 30
0.0
 10
88.87467852595842
 20
-152.2625406520386
 30
0.0
 10
88.94013534017816
 20
-152.1946722709791
 30
0.0
 10
88.94013534017816
 20
-152.0572129611176
 30
0.0
 10
88.94013534017816
 20
-151.938701676425
 30
0.0
 10
88.86813284453645
 20
-151.8077880479856
 30
0.0
 10
88.67141789232868
 20
-151.8077880479856
 30
0.0
 10
88.41131318319232
 20
-151.8077880479856
 30
0.0
 10
88.40304495402772
 20
-152.0382649359488
 30
0.0
 10
88.3985663298969
 20
-152.1547091633502
 30
0.0
 10
88.3985663298969
 20
-152.1547091633502
 30
0.0
 10
88.17429061380713
 20
-152.1547091633502
 30
0.0
 10
88.17429061380713
 20
-152.1547091633502
 30
0.0
 10
88.18290335252026
 20
-152.0275851399445
 30
0.0
 10
88.19358314852452
 20
-151.9156195366739
 30
0.0
 10
88.27385387333085
 20
-151.7971082519813
 30
0.0
 10
88.38375241931031
 20
-151.6362222928201
 30
0.0
 10
88.57013208506233
 20
-151.6024603570647
 30
0.0
 10
88.68623180291524
 20
-151.6024603570647
 30
0.0
 10
88.96356198947787
 20
-151.6024603570647
 30
0.0
 10
89.1709567376899
 20
-151.786428455977
 30
0.0
 10
89.1709567376899
 20
-152.0592800184088
 30
0.0
 10
89.1709567376899
 20
-152.2880343586294
 30
0.0
 10
89.05451251028846
 20
-152.3872531086046
 30
0.0
 10
88.74548744526155
 20
-152.6135958819855
 30
0.0
  0
HATCH
  5
DA
330
D3
100
AcDbEntity
  8
_U+30EC_U+30A4_U+30E4_U+30FC 1
 62
     7
420
 16777215
100
AcDbHatch
 10
0.0
 20
0.0
 30
0.0
210
0.0
220
0.0
230
1.0
  2
SOLID
 70
     1
 71
     0
 91
        1
 92
        1
 93
        1
 72
     4
 94
        3
 73
     0
 74
     1
 95
       44
 96
       40
 40
0.0
 40
0.0
 40
0.0
 40
0.0
 40
1.0
 40
1.0
 40
1.0
 40
2.0
 40
2.0
 40
2.0
 40
3.0
 40
3.0
 40
3.0
 40
4.0
 40
4.0
 40
4.0
 40
5.0
 40
5.0
 40
5.0
 40
6.0
 40
6.0
 40
6.0
 40
7.0
 40
7.0
 40
7.0
 40
8.0
 40
8.0
 40
8.0
 40
9.0
 40
9.0
 40
9.0
 40
10.0
 40
10.0
 40
10.0
 40
11.0
 40
11.0
 40
11.0
 40
12.0
 40
12.0
 40
12.0
 40
13.0
 40
13.0
 40
13.0
 40
13.0
 10
88.74548744526155
 20
-152.6135958819855
 10
88.52775741059376
 20
-152.7724147838555
 10
88.43473983249201
 20
-152.8464843367884
 10
88.38581947660147
 20
-152.9901448185233
 10
88.38581947660147
 20
-152.9901448185233
 10
89.16441105626792
 20
-152.9901448185233
 10
89.16441105626792
 20
-152.9901448185233
 10
89.16441105626792
 20
-152.9901448185233
 10
89.16441105626792
 20
-153.1954725094442
 10
89.16441105626792
 20
-153.1954725094442
 10
89.16441105626792
 20
-153.1954725094442
 10
88.13639456346938
 20
-153.1954725094442
 10
88.13639456346938
 20
-153.1954725094442
 10
88.16808944193367
 20
-152.8378715980753
 10
88.23354625615342
 20
-152.7596679305601
 10
88.61870793140436
 20
-152.4613226615375
 10
88.87467852595842
 20
-152.2625406520386
 10
88.94013534017816
 20
-152.1946722709791
 10
88.94013534017816
 20
-152.0572129611176
 10
88.94013534017816
 20
-151.938701676425
 10
88.86813284453645
 20
-151.8077880479856
 10
88.67141789232868
 20
-151.8077880479856
 10
88.41131318319232
 20
-151.8077880479856
 10
88.40304495402772
 20
-152.0382649359488
 10
88.3985663298969
 20
-152.1547091633502
 10
88.3985663298969
 20
-152.1547091633502
 10
88.17429061380713
 20
-152.1547091633502
 10
88.17429061380713
 20
-152.1547091633502
 10
88.18290335252026
 20
-152.0275851399445
 10
88.19358314852452
 20
-151.9156195366739
 10
88.27385387333085
 20
-151.7971082519813
 10
88.38375241931031
 20
-151.6362222928201
 10
88.57013208506233
 20
-151.6024603570647
 10
88.68623180291524
 20
-151.6024603570647
 10
88.96356198947787
 20
-151.6024603570647
 10
89.1709567376899
 20
-151.786428455977
 10
89.1709567376899
 20
-152.0592800184088
 10
89.1709567376899
 20
-152.2880343586294
 10
89.05451251028846
 20
-152.3872531086046
 10
88.74548744526155
 20
-152.6135958819855
 97
        0
 97
        0
 75
     2
 76
     1
 98
        0
  0
ENDBLK
  5
D6
330
D3
100
AcDbEntity
  8
0
100
AcDbBlockEnd
  0
BLOCK
  5
DD
330
DB
100
AcDbEntity
  8
0
100
AcDbBlockBegin
  2
block 9
 70
     0
 10
0.0
 20
0.0
 30
0.0
  3
block 9
  1

  0
SPLINE
  5
DF
330
DB
100
AcDbEntity
  8
_U+30EC_U+30A4_U+30E4_U+30FC 1
370
     0
100
AcDbSpline
210
0.0
220
0.0
230
1.0
 70
    11
 71
     3
 72
    26
 73
    22
 74
     0
 42
0.0000000001
 43
0.0000000001
 12
1.0
 22
0.0
 32
0.0
 13
1.0
 23
0.0
 33
0.0
 40
0.0
 40
0.0
 40
0.0
 40
0.0
 40
1.0
 40
1.0
 40
1.0
 40
2.0
 40
2.0
 40
2.0
 40
3.0
 40
3.0
 40
3.0
 40
4.0
 40
4.0
 40
4.0
 40
5.0
 40
5.0
 40
5.0
 40
6.0
 40
6.0
 40
6.0
 40
7.0
 40
7.0
 40
7.0
 40
7.0
 10
96.21738278844566
 20
-153.1954725094442
 30
0.0
 10
96.21738278844566
 20
-153.1954725094442
 30
0.0
 10
96.21738278844566
 20
-152.0913194064216
 30
0.0
 10
96.21738278844566
 20
-152.0913194064216
 30
0.0
 10
96.21738278844566
 20
-152.0913194064216
 30
0.0
 10
95.88734264095872
 20
-152.0913194064216
 30
0.0
 10
95.88734264095872
 20
-152.0913194064216
 30
0.0
 10
95.88734264095872
 20
-152.0913194064216
 30
0.0
 10
95.88734264095872
 20
-151.9431803005559
 30
0.0
 10
95.88734264095872
 20
-151.9431803005559
 30
0.0
 10
96.2194498457368
 20
-151.9283663899693
 30
0.0
 10
96.26595863478768
 20
-151.765413373517
 30
0.0
 10
96.29558645596083
 20
-151.6510362034067
 30
0.0
 10
96.29558645596083
 20
-151.6510362034067
 30
0.0
 10
96.44165850453543
 20
-151.6510362034067
 30
0.0
 10
96.44165850453543
 20
-151.6510362034067
 30
0.0
 10
96.44165850453543
 20
-151.6510362034067
 30
0.0
 10
96.44165850453543
 20
-153.1954725094442
 30
0.0
 10
96.44165850453543
 20
-153.1954725094442
 30
0.0
 10
96.44165850453543
 20
-153.1954725094442
 30
0.0
 10
96.21738278844566
 20
-153.1954725094442
 30
0.0
 10
96.21738278844566
 20
-153.1954725094442
 30
0.0
  0
HATCH
  5
E0
330
DB
100
AcDbEntity
  8
_U+30EC_U+30A4_U+30E4_U+30FC 1
 62
     7
420
 16777215
100
AcDbHatch
 10
0.0
 20
0.0
 30
0.0
210
0.0
220
0.0
230
1.0
  2
SOLID
 70
     1
 71
     0
 91
        1
 92
        1
 93
        1
 72
     4
 94
        3
 73
     0
 74
     1
 95
       26
 96
       22
 40
0.0
 40
0.0
 40
0.0
 40
0.0
 40
1.0
 40
1.0
 40
1.0
 40
2.0
 40
2.0
 40
2.0
 40
3.0
 40
3.0
 40
3.0
 40
4.0
 40
4.0
 40
4.0
 40
5.0
 40
5.0
 40
5.0
 40
6.0
 40
6.0
 40
6.0
 40
7.0
 40
7.0
 40
7.0
 40
7.0
 10
96.21738278844566
 20
-153.1954725094442
 10
96.21738278844566
 20
-153.1954725094442
 10
96.21738278844566
 20
-152.0913194064216
 10
96.21738278844566
 20
-152.0913194064216
 10
96.21738278844566
 20
-152.0913194064216
 10
95.88734264095872
 20
-152.0913194064216
 10
95.88734264095872
 20
-152.0913194064216
 10
95.88734264095872
 20
-152.0913194064216
 10
95.88734264095872
 20
-151.9431803005559
 10
95.88734264095872
 20
-151.9431803005559
 10
96.2194498457368
 20
-151.9283663899693
 10
96.26595863478768
 20
-151.765413373517
 10
96.29558645596083
 20
-151.6510362034067
 10
96.29558645596083
 20
-151.6510362034067
 10
96.44165850453543
 20
-151.6510362034067
 10
96.44165850453543
 20
-151.6510362034067
 10
96.44165850453543
 20
-151.6510362034067
 10
96.44165850453543
 20
-153.1954725094442
 10
96.44165850453543
 20
-153.1954725094442
 10
96.44165850453543
 20
-153.1954725094442
 10
96.21738278844566
 20
-153.1954725094442
 10
96.21738278844566
 20
-153.1954725094442
 97
        0
 97
        0
 75
     2
 76
     1
 98
        0
  0
ENDBLK
  5
DE
330
DB
100
AcDbEntity
  8
0
100
AcDbBlockEnd
  0
BLOCK
  5
E7
330
E5
100
AcDbEntity
  8
0
100
AcDbBlockBegin
  2
block 10
 70
     0
 10
0.0
 20
0.0
 30
0.0
  3
block 10
  1

  0
SPLINE
  5
E9
330
E5
100
AcDbEntity
  8
_U+30EC_U+30A4_U+30E4_U+30FC 1
370
     0
100
AcDbSpline
210
0.0
220
0.0
230
1.0
 70
    11
 71
     3
 72
    44
 73
    40
 74
     0
 42
0.0000000001
 43
0.0000000001
 12
1.0
 22
0.0
 32
0.0
 13
1.0
 23
0.0
 33
0.0
 40
0.0
 40
0.0
 40
0.0
 40
0.0
 40
1.0
 40
1.0
 40
1.0
 40
2.0
 40
2.0
 40
2.0
 40
3.0
 40
3.0
 40
3.0
 40
4.0
 40
4.0
 40
4.0
 40
5.0
 40
5.0
 40
5.0
 40
6.0
 40
6.0
 40
6.0
 40
7.0
 40
7.0
 40
7.0
 40
8.0
 40
8.0
 40
8.0
 40
9.0
 40
9.0
 40
9.0
 40
10.0
 40
10.0
 40
10.0
 40
11.0
 40
11.0
 40
11.0
 40
12.0
 40
12.0
 40
12.0
 40
13.0
 40
13.0
 40
13.0
 40
13.0
 10
62.44597302041281
 20
-154.6269096835655
 30
0.0
 10
62.42254637111311
 20
-154.5824679518058
 30
0.0
 10
62.40153128865309
 20
-154.5297579908814
 30
0.0
 10
62.39929197658768
 20
-154.2989365933697
 30
0.0
 10
62.39515786200538
 20
-154.0557128521111
 30
0.0
 10
62.33590221965908
 20
-153.986121923309
 30
0.0
 10
62.15813529262019
 20
-153.986121923309
 30
0.0
 10
62.15813529262019
 20
-153.986121923309
 30
0.0
 10
61.74989147761809
 20
-153.986121923309
 30
0.0
 10
61.74989147761809
 20
-153.986121923309
 30
0.0
 10
61.74989147761809
 20
-153.986121923309
 30
0.0
 10
61.74989147761809
 20
-154.6269096835655
 30
0.0
 10
61.74989147761809
 20
-154.6269096835655
 30
0.0
 10
61.74989147761809
 20
-154.6269096835655
 30
0.0
 10
61.51510822029831
 20
-154.6269096835655
 30
0.0
 10
61.51510822029831
 20
-154.6269096835655
 30
0.0
 10
61.51510822029831
 20
-154.6269096835655
 30
0.0
 10
61.51510822029831
 20
-153.0828178870765
 30
0.0
 10
61.51510822029831
 20
-153.0828178870765
 30
0.0
 10
61.51510822029831
 20
-153.0828178870765
 30
0.0
 10
62.18983017108449
 20
-153.0828178870765
 30
0.0
 10
62.18983017108449
 20
-153.0828178870765
 30
0.0
 10
62.49661592404599
 20
-153.0828178870765
 30
0.0
 10
62.66387530985487
 20
-153.2536946231449
 30
0.0
 10
62.66387530985487
 20
-153.5100097272475
 30
0.0
 10
62.66387530985487
 20
-153.5606526308807
 30
0.0
 10
62.65526257114174
 20
-153.6429904129782
 30
0.0
 10
62.61082083938202
 20
-153.723605647333
 30
0.0
 10
62.55173745180998
 20
-153.827303021439
 30
0.0
 10
62.48610838281598
 20
-153.8462510466079
 30
0.0
 10
62.42478568317853
 20
-153.8631320144856
 30
0.0
 10
62.56224499304
 20
-153.9055066889542
 30
0.0
 10
62.62994111932515
 20
-153.9544270448447
 30
0.0
 10
62.63424748868172
 20
-154.2693087721966
 30
0.0
 10
62.63838160326402
 20
-154.5400932773372
 30
0.0
 10
62.67438285108488
 20
-154.5717881558015
 30
0.0
 10
62.74207897737004
 20
-154.6269096835655
 30
0.0
 10
62.74207897737004
 20
-154.6269096835655
 30
0.0
 10
62.44597302041281
 20
-154.6269096835655
 30
0.0
 10
62.44597302041281
 20
-154.6269096835655
 30
0.0
  0
SPLINE
  5
EA
330
E5
100
AcDbEntity
  8
_U+30EC_U+30A4_U+30E4_U+30FC 1
370
     0
100
AcDbSpline
210
0.0
220
0.0
230
1.0
 70
    11
 71
     3
 72
    20
 73
    16
 74
     0
 42
0.0000000001
 43
0.0000000001
 12
1.0
 22
0.0
 32
0.0
 13
1.0
 23
0.0
 33
0.0
 40
0.0
 40
0.0
 40
0.0
 40
0.0
 40
1.0
 40
1.0
 40
1.0
 40
2.0
 40
2.0
 40
2.0
 40
3.0
 40
3.0
 40
3.0
 40
4.0
 40
4.0
 40
4.0
 40
5.0
 40
5.0
 40
5.0
 40
5.0
 10
62.19413654044105
 20
-153.2943467498709
 30
0.0
 10
62.19413654044105
 20
-153.2943467498709
 30
0.0
 10
61.74989147761809
 20
-153.2943467498709
 30
0.0
 10
61.74989147761809
 20
-153.2943467498709
 30
0.0
 10
61.74989147761809
 20
-153.2943467498709
 30
0.0
 10
61.74989147761809
 20
-153.7745930605147
 30
0.0
 10
61.74989147761809
 20
-153.7745930605147
 30
0.0
 10
61.74989147761809
 20
-153.7745930605147
 30
0.0
 10
62.1920694831499
 20
-153.7745930605147
 30
0.0
 10
62.1920694831499
 20
-153.7745930605147
 30
0.0
 10
62.29146048789936
 20
-153.7745930605147
 30
0.0
 10
62.42685274046968
 20
-153.6981119407421
 30
0.0
 10
62.42685274046968
 20
-153.5268906951252
 30
0.0
 10
62.42685274046968
 20
-153.44868702761
 30
0.0
 10
62.39309080471423
 20
-153.2943467498709
 30
0.0
 10
62.19413654044105
 20
-153.2943467498709
 30
0.0
  0
HATCH
  5
EB
330
E5
100
AcDbEntity
  8
_U+30EC_U+30A4_U+30E4_U+30FC 1
 62
     7
420
 16777215
100
AcDbHatch
 10
0.0
 20
0.0
 30
0.0
210
0.0
220
0.0
230
1.0
  2
SOLID
 70
     1
 71
     0
 91
        2
 92
        1
 93
        1
 72
     4
 94
        3
 73
     0
 74
     1
 95
       44
 96
       40
 40
0.0
 40
0.0
 40
0.0
 40
0.0
 40
1.0
 40
1.0
 40
1.0
 40
2.0
 40
2.0
 40
2.0
 40
3.0
 40
3.0
 40
3.0
 40
4.0
 40
4.0
 40
4.0
 40
5.0
 40
5.0
 40
5.0
 40
6.0
 40
6.0
 40
6.0
 40
7.0
 40
7.0
 40
7.0
 40
8.0
 40
8.0
 40
8.0
 40
9.0
 40
9.0
 40
9.0
 40
10.0
 40
10.0
 40
10.0
 40
11.0
 40
11.0
 40
11.0
 40
12.0
 40
12.0
 40
12.0
 40
13.0
 40
13.0
 40
13.0
 40
13.0
 10
62.44597302041281
 20
-154.6269096835655
 10
62.42254637111311
 20
-154.5824679518058
 10
62.40153128865309
 20
-154.5297579908814
 10
62.39929197658768
 20
-154.2989365933697
 10
62.39515786200538
 20
-154.0557128521111
 10
62.33590221965908
 20
-153.986121923309
 10
62.15813529262019
 20
-153.986121923309
 10
62.15813529262019
 20
-153.986121923309
 10
61.74989147761809
 20
-153.986121923309
 10
61.74989147761809
 20
-153.986121923309
 10
61.74989147761809
 20
-153.986121923309
 10
61.74989147761809
 20
-154.6269096835655
 10
61.74989147761809
 20
-154.6269096835655
 10
61.74989147761809
 20
-154.6269096835655
 10
61.51510822029831
 20
-154.6269096835655
 10
61.51510822029831
 20
-154.6269096835655
 10
61.51510822029831
 20
-154.6269096835655
 10
61.51510822029831
 20
-153.0828178870765
 10
61.51510822029831
 20
-153.0828178870765
 10
61.51510822029831
 20
-153.0828178870765
 10
62.18983017108449
 20
-153.0828178870765
 10
62.18983017108449
 20
-153.0828178870765
 10
62.49661592404599
 20
-153.0828178870765
 10
62.66387530985487
 20
-153.2536946231449
 10
62.66387530985487
 20
-153.5100097272475
 10
62.66387530985487
 20
-153.5606526308807
 10
62.65526257114174
 20
-153.6429904129782
 10
62.61082083938202
 20
-153.723605647333
 10
62.55173745180998
 20
-153.827303021439
 10
62.48610838281598
 20
-153.8462510466079
 10
62.42478568317853
 20
-153.8631320144856
 10
62.56224499304
 20
-153.9055066889542
 10
62.62994111932515
 20
-153.9544270448447
 10
62.63424748868172
 20
-154.2693087721966
 10
62.63838160326402
 20
-154.5400932773372
 10
62.67438285108488
 20
-154.5717881558015
 10
62.74207897737004
 20
-154.6269096835655
 10
62.74207897737004
 20
-154.6269096835655
 10
62.44597302041281
 20
-154.6269096835655
 10
62.44597302041281
 20
-154.6269096835655
 97
        0
 97
        0
 92
        1
 93
        1
 72
     4
 94
        3
 73
     0
 74
     1
 95
       20
 96
       16
 40
0.0
 40
0.0
 40
0.0
 40
0.0
 40
1.0
 40
1.0
 40
1.0
 40
2.0
 40
2.0
 40
2.0
 40
3.0
 40
3.0
 40
3.0
 40
4.0
 40
4.0
 40
4.0
 40
5.0
 40
5.0
 40
5.0
 40
5.0
 10
62.19413654044105
 20
-153.2943467498709
 10
62.19413654044105
 20
-153.2943467498709
 10
61.74989147761809
 20
-153.2943467498709
 10
61.74989147761809
 20
-153.2943467498709
 10
61.74989147761809
 20
-153.2943467498709
 10
61.74989147761809
 20
-153.7745930605147
 10
61.74989147761809
 20
-153.7745930605147
 10
61.74989147761809
 20
-153.7745930605147
 10
62.1920694831499
 20
-153.7745930605147
 10
62.1920694831499
 20
-153.7745930605147
 10
62.29146048789936
 20
-153.7745930605147
 10
62.42685274046968
 20
-153.6981119407421
 10
62.42685274046968
 20
-153.5268906951252
 10
62.42685274046968
 20
-153.44868702761
 10
62.39309080471423
 20
-153.2943467498709
 10
62.19413654044105
 20
-153.2943467498709
 97
        0
 97
        0
 75
     2
 76
     1
 98
        0
  0
SPLINE
  5
EC
330
E5
100
AcDbEntity
  8
_U+30EC_U+30A4_U+30E4_U+30FC 1
370
     0
100
AcDbSpline
210
0.0
220
0.0
230
1.0
 70
    11
 71
     3
 72
    26
 73
    22
 74
     0
 42
0.0000000001
 43
0.0000000001
 12
1.0
 22
0.0
 32
0.0
 13
1.0
 23
0.0
 33
0.0
 40
0.0
 40
0.0
 40
0.0
 40
0.0
 40
1.0
 40
1.0
 40
1.0
 40
2.0
 40
2.0
 40
2.0
 40
3.0
 40
3.0
 40
3.0
 40
4.0
 40
4.0
 40
4.0
 40
5.0
 40
5.0
 40
5.0
 40
6.0
 40
6.0
 40
6.0
 40
7.0
 40
7.0
 40
7.0
 40
7.0
 10
63.33308510786465
 20
-154.6269096835655
 30
0.0
 10
63.33308510786465
 20
-154.6269096835655
 30
0.0
 10
63.33308510786465
 20
-153.5224120709944
 30
0.0
 10
63.33308510786465
 20
-153.5224120709944
 30
0.0
 10
63.33308510786465
 20
-153.5224120709944
 30
0.0
 10
63.00304496037771
 20
-153.5224120709944
 30
0.0
 10
63.00304496037771
 20
-153.5224120709944
 30
0.0
 10
63.00304496037771
 20
-153.5224120709944
 30
0.0
 10
63.00304496037771
 20
-153.3746174746772
 30
0.0
 10
63.00304496037771
 20
-153.3746174746772
 30
0.0
 10
63.3351521651558
 20
-153.3598035640906
 30
0.0
 10
63.38166095420667
 20
-153.1968505476383
 30
0.0
 10
63.41128877537982
 20
-153.0828178870765
 30
0.0
 10
63.41128877537982
 20
-153.0828178870765
 30
0.0
 10
63.55736082395441
 20
-153.0828178870765
 30
0.0
 10
63.55736082395441
 20
-153.0828178870765
 30
0.0
 10
63.55736082395441
 20
-153.0828178870765
 30
0.0
 10
63.55736082395441
 20
-154.6269096835655
 30
0.0
 10
63.55736082395441
 20
-154.6269096835655
 30
0.0
 10
63.55736082395441
 20
-154.6269096835655
 30
0.0
 10
63.33308510786465
 20
-154.6269096835655
 30
0.0
 10
63.33308510786465
 20
-154.6269096835655
 30
0.0
  0
HATCH
  5
ED
330
E5
100
AcDbEntity
  8
_U+30EC_U+30A4_U+30E4_U+30FC 1
 62
     7
420
 16777215
100
AcDbHatch
 10
0.0
 20
0.0
 30
0.0
210
0.0
220
0.0
230
1.0
  2
SOLID
 70
     1
 71
     0
 91
        1
 92
        1
 93
        1
 72
     4
 94
        3
 73
     0
 74
     1
 95
       26
 96
       22
 40
0.0
 40
0.0
 40
0.0
 40
0.0
 40
1.0
 40
1.0
 40
1.0
 40
2.0
 40
2.0
 40
2.0
 40
3.0
 40
3.0
 40
3.0
 40
4.0
 40
4.0
 40
4.0
 40
5.0
 40
5.0
 40
5.0
 40
6.0
 40
6.0
 40
6.0
 40
7.0
 40
7.0
 40
7.0
 40
7.0
 10
63.33308510786465
 20
-154.6269096835655
 10
63.33308510786465
 20
-154.6269096835655
 10
63.33308510786465
 20
-153.5224120709944
 10
63.33308510786465
 20
-153.5224120709944
 10
63.33308510786465
 20
-153.5224120709944
 10
63.00304496037771
 20
-153.5224120709944
 10
63.00304496037771
 20
-153.5224120709944
 10
63.00304496037771
 20
-153.5224120709944
 10
63.00304496037771
 20
-153.3746174746772
 10
63.00304496037771
 20
-153.3746174746772
 10
63.3351521651558
 20
-153.3598035640906
 10
63.38166095420667
 20
-153.1968505476383
 10
63.41128877537982
 20
-153.0828178870765
 10
63.41128877537982
 20
-153.0828178870765
 10
63.55736082395441
 20
-153.0828178870765
 10
63.55736082395441
 20
-153.0828178870765
 10
63.55736082395441
 20
-153.0828178870765
 10
63.55736082395441
 20
-154.6269096835655
 10
63.55736082395441
 20
-154.6269096835655
 10
63.55736082395441
 20
-154.6269096835655
 10
63.33308510786465
 20
-154.6269096835655
 10
63.33308510786465
 20
-154.6269096835655
 97
        0
 97
        0
 75
     2
 76
     1
 98
        0
  0
SPLINE
  5
EE
330
E5
100
AcDbEntity
  8
_U+30EC_U+30A4_U+30E4_U+30FC 1
370
     0
100
AcDbSpline
210
0.0
220
0.0
230
1.0
 70
    11
 71
     3
 72
    53
 73
    49
 74
     0
 42
0.0000000001
 43
0.0000000001
 12
1.0
 22
0.0
 32
0.0
 13
1.0
 23
0.0
 33
0.0
 40
0.0
 40
0.0
 40
0.0
 40
0.0
 40
1.0
 40
1.0
 40
1.0
 40
2.0
 40
2.0
 40
2.0
 40
3.0
 40
3.0
 40
3.0
 40
4.0
 40
4.0
 40
4.0
 40
5.0
 40
5.0
 40
5.0
 40
6.0
 40
6.0
 40
6.0
 40
7.0
 40
7.0
 40
7.0
 40
8.0
 40
8.0
 40
8.0
 40
9.0
 40
9.0
 40
9.0
 40
10.0
 40
10.0
 40
10.0
 40
11.0
 40
11.0
 40
11.0
 40
12.0
 40
12.0
 40
12.0
 40
13.0
 40
13.0
 40
13.0
 40
14.0
 40
14.0
 40
14.0
 40
15.0
 40
15.0
 40
15.0
 40
16.0
 40
16.0
 40
16.0
 40
16.0
 10
64.53955754679914
 20
-154.6778970967472
 30
0.0
 10
64.4611816245097
 20
-154.6778970967472
 30
0.0
 10
64.3597235624691
 20
-154.6606716193209
 30
0.0
 10
64.25809324565422
 20
-154.5972818623924
 30
0.0
 10
64.0846326879719
 20
-154.4870388068643
 30
0.0
 10
64.06344535073761
 20
-154.3561251784249
 30
0.0
 10
64.04449732556874
 20
-154.2482936897366
 30
0.0
 10
64.04449732556874
 20
-154.2482936897366
 30
0.0
 10
64.26653372959309
 20
-154.2482936897366
 30
0.0
 10
64.26653372959309
 20
-154.2482936897366
 30
0.0
 10
64.3216552573571
 20
-154.4470756992355
 30
0.0
 10
64.44860702598855
 20
-154.4767035204086
 30
0.0
 10
64.54162460409029
 20
-154.4767035204086
 30
0.0
 10
64.68132322601717
 20
-154.4767035204086
 30
0.0
 10
64.83359644646521
 20
-154.3774847704334
 30
0.0
 10
64.83359644646521
 20
-154.1445963156305
 30
0.0
 10
64.83359644646521
 20
-153.8886257210765
 30
0.0
 10
64.65376246213518
 20
-153.8186902827259
 30
0.0
 10
64.53318412015143
 20
-153.8186902827259
 30
0.0
 10
64.50148924168712
 20
-153.8186902827259
 30
0.0
 10
64.3597235624691
 20
-153.8186902827259
 30
0.0
 10
64.27084009894965
 20
-153.9478813634228
 30
0.0
 10
64.27084009894965
 20
-153.9478813634228
 30
0.0
 10
64.09531248397617
 20
-153.9289333382539
 30
0.0
 10
64.09531248397617
 20
-153.9289333382539
 30
0.0
 10
64.09531248397617
 20
-153.9289333382539
 30
0.0
 10
64.21589082595992
 20
-153.0828178870765
 30
0.0
 10
64.21589082595992
 20
-153.0828178870765
 30
0.0
 10
64.21589082595992
 20
-153.0828178870765
 30
0.0
 10
64.99431015085212
 20
-153.0828178870765
 30
0.0
 10
64.99431015085212
 20
-153.0828178870765
 30
0.0
 10
64.99431015085212
 20
-153.0828178870765
 30
0.0
 10
64.99431015085212
 20
-153.2771212724446
 30
0.0
 10
64.99431015085212
 20
-153.2771212724446
 30
0.0
 10
64.99431015085212
 20
-153.2771212724446
 30
0.0
 10
64.37867158763797
 20
-153.2771212724446
 30
0.0
 10
64.37867158763797
 20
-153.2771212724446
 30
0.0
 10
64.37867158763797
 20
-153.2771212724446
 30
0.0
 10
64.31321477341822
 20
-153.7001789980333
 30
0.0
 10
64.31321477341822
 20
-153.7001789980333
 30
0.0
 10
64.37453747305567
 20
-153.6664170622778
 30
0.0
 10
64.4570475099274
 20
-153.626453954649
 30
0.0
 10
64.57538653984574
 20
-153.626453954649
 30
0.0
 10
64.82929007710865
 20
-153.626453954649
 30
0.0
 10
65.06631264649384
 20
-153.8124891108525
 30
0.0
 10
65.06631264649384
 20
-154.1253037809131
 30
0.0
 10
65.06631264649384
 20
-154.4429415846532
 30
0.0
 10
64.84203693040408
 20
-154.6778970967472
 30
0.0
 10
64.53955754679914
 20
-154.6778970967472
 30
0.0
  0
HATCH
  5
EF
330
E5
100
AcDbEntity
  8
_U+30EC_U+30A4_U+30E4_U+30FC 1
 62
     7
420
 16777215
100
AcDbHatch
 10
0.0
 20
0.0
 30
0.0
210
0.0
220
0.0
230
1.0
  2
SOLID
 70
     1
 71
     0
 91
        1
 92
        1
 93
        1
 72
     4
 94
        3
 73
     0
 74
     1
 95
       53
 96
       49
 40
0.0
 40
0.0
 40
0.0
 40
0.0
 40
1.0
 40
1.0
 40
1.0
 40
2.0
 40
2.0
 40
2.0
 40
3.0
 40
3.0
 40
3.0
 40
4.0
 40
4.0
 40
4.0
 40
5.0
 40
5.0
 40
5.0
 40
6.0
 40
6.0
 40
6.0
 40
7.0
 40
7.0
 40
7.0
 40
8.0
 40
8.0
 40
8.0
 40
9.0
 40
9.0
 40
9.0
 40
10.0
 40
10.0
 40
10.0
 40
11.0
 40
11.0
 40
11.0
 40
12.0
 40
12.0
 40
12.0
 40
13.0
 40
13.0
 40
13.0
 40
14.0
 40
14.0
 40
14.0
 40
15.0
 40
15.0
 40
15.0
 40
16.0
 40
16.0
 40
16.0
 40
16.0
 10
64.53955754679914
 20
-154.6778970967472
 10
64.4611816245097
 20
-154.6778970967472
 10
64.3597235624691
 20
-154.6606716193209
 10
64.25809324565422
 20
-154.5972818623924
 10
64.0846326879719
 20
-154.4870388068643
 10
64.06344535073761
 20
-154.3561251784249
 10
64.04449732556874
 20
-154.2482936897366
 10
64.04449732556874
 20
-154.2482936897366
 10
64.26653372959309
 20
-154.2482936897366
 10
64.26653372959309
 20
-154.2482936897366
 10
64.3216552573571
 20
-154.4470756992355
 10
64.44860702598855
 20
-154.4767035204086
 10
64.54162460409029
 20
-154.4767035204086
 10
64.68132322601717
 20
-154.4767035204086
 10
64.83359644646521
 20
-154.3774847704334
 10
64.83359644646521
 20
-154.1445963156305
 10
64.83359644646521
 20
-153.8886257210765
 10
64.65376246213518
 20
-153.8186902827259
 10
64.53318412015143
 20
-153.8186902827259
 10
64.50148924168712
 20
-153.8186902827259
 10
64.3597235624691
 20
-153.8186902827259
 10
64.27084009894965
 20
-153.9478813634228
 10
64.27084009894965
 20
-153.9478813634228
 10
64.09531248397617
 20
-153.9289333382539
 10
64.09531248397617
 20
-153.9289333382539
 10
64.09531248397617
 20
-153.9289333382539
 10
64.21589082595992
 20
-153.0828178870765
 10
64.21589082595992
 20
-153.0828178870765
 10
64.21589082595992
 20
-153.0828178870765
 10
64.99431015085212
 20
-153.0828178870765
 10
64.99431015085212
 20
-153.0828178870765
 10
64.99431015085212
 20
-153.0828178870765
 10
64.99431015085212
 20
-153.2771212724446
 10
64.99431015085212
 20
-153.2771212724446
 10
64.99431015085212
 20
-153.2771212724446
 10
64.37867158763797
 20
-153.2771212724446
 10
64.37867158763797
 20
-153.2771212724446
 10
64.37867158763797
 20
-153.2771212724446
 10
64.31321477341822
 20
-153.7001789980333
 10
64.31321477341822
 20
-153.7001789980333
 10
64.37453747305567
 20
-153.6664170622778
 10
64.4570475099274
 20
-153.626453954649
 10
64.57538653984574
 20
-153.626453954649
 10
64.82929007710865
 20
-153.626453954649
 10
65.06631264649384
 20
-153.8124891108525
 10
65.06631264649384
 20
-154.1253037809131
 10
65.06631264649384
 20
-154.4429415846532
 10
64.84203693040408
 20
-154.6778970967472
 10
64.53955754679914
 20
-154.6778970967472
 97
        0
 97
        0
 75
     2
 76
     1
 98
        0
  0
ENDBLK
  5
E8
330
E5
100
AcDbEntity
  8
0
100
AcDbBlockEnd
  0
ENDSEC
  0
SECTION
  2
ENTITIES
  0
SPLINE
  5
41
330
1F
100
AcDbEntity
  8
_U+30EC_U+30A4_U+30E4_U+30FC 1
 62
     7
420
 16777215
370
     9
100
AcDbSpline
210
0.0
220
0.0
230
1.0
 70
    11
 71
     3
 72
    17
 73
    13
 74
     0
 42
0.0000000001
 43
0.0000000001
 12
1.0
 22
0.0
 32
0.0
 13
1.0
 23
0.0
 33
0.0
 40
0.0
 40
0.0
 40
0.0
 40
0.0
 40
1.0
 40
1.0
 40
1.0
 40
2.0
 40
2.0
 40
2.0
 40
3.0
 40
3.0
 40
3.0
 40
4.0
 40
4.0
 40
4.0
 40
4.0
 10
82.20170040285991
 20
-153.7921669059963
 30
0.0
 10
82.20170040285991
 20
-153.7370277393438
 30
0.0
 10
82.15689762622515
 20
-153.6922602393546
 30
0.0
 10
82.10108818320452
 20
-153.6922602393546
 30
0.0
 10
82.04598429572144
 20
-153.6922602393546
 30
0.0
 10
82.00118151908669
 20
-153.7370277393438
 30
0.0
 10
82.00118151908669
 20
-153.7921669059963
 30
0.0
 10
82.00118151908669
 20
-153.8472707948718
 30
0.0
 10
82.04598429572144
 20
-153.8920735726379
 30
0.0
 10
82.10108818320452
 20
-153.8920735726379
 30
0.0
 10
82.15689762622515
 20
-153.8920735726379
 30
0.0
 10
82.20170040285991
 20
-153.8472707948718
 30
0.0
 10
82.20170040285991
 20
-153.7921669059963
 30
0.0
  0
POLYLINE
  5
42
330
1F
100
AcDbEntity
  8
_U+30EC_U+30A4_U+30E4_U+30FC 1
 62
     7
420
 16777215
370
     9
100
AcDb2dPolyline
 66
     1
 10
0.0
 20
0.0
 30
0.0
  0
VERTEX
  5
43
330
42
100
AcDbEntity
  8
_U+30EC_U+30A4_U+30E4_U+30FC 1
 62
     7
420
 16777215
370
     9
100
AcDbVertex
100
AcDb2dVertex
 10
82.10108818320452
 20
-152.3321255174726
 30
0.0
  0
VERTEX
  5
44
330
42
100
AcDbEntity
  8
_U+30EC_U+30A4_U+30E4_U+30FC 1
 62
     7
420
 16777215
370
     9
100
AcDbVertex
100
AcDb2dVertex
 10
82.10108818320452
 20
-154.7919391279688
 30
0.0
  0
SEQEND
  5
45
330
42
100
AcDbEntity
  8
_U+30EC_U+30A4_U+30E4_U+30FC 1
 62
     7
420
 16777215
370
     9
  0
SPLINE
  5
46
330
1F
100
AcDbEntity
  8
_U+30EC_U+30A4_U+30E4_U+30FC 1
 62
     7
420
 16777215
370
     9
100
AcDbSpline
210
0.0
220
0.0
230
1.0
 70
    11
 71
     3
 72
    17
 73
    13
 74
     0
 42
0.0000000001
 43
0.0000000001
 12
1.0
 22
0.0
 32
0.0
 13
1.0
 23
0.0
 33
0.0
 40
0.0
 40
0.0
 40
0.0
 40
0.0
 40
1.0
 40
1.0
 40
1.0
 40
2.0
 40
2.0
 40
2.0
 40
3.0
 40
3.0
 40
3.0
 40
4.0
 40
4.0
 40
4.0
 40
4.0
 10
94.20097759673284
 20
-153.7918141282185
 30
0.0
 10
94.20097759673284
 20
-153.7367102393436
 30
0.0
 10
94.15617482009807
 20
-153.6919074615769
 30
0.0
 10
94.101070932615
 20
-153.6919074615769
 30
0.0
 10
94.04593176735506
 20
-153.6919074615769
 30
0.0
 10
94.00116664316607
 20
-153.7367102393436
 30
0.0
 10
94.00116664316607
 20
-153.7918141282185
 30
0.0
 10
94.00116664316607
 20
-153.8469532948716
 30
0.0
 10
94.04593176735506
 20
-153.8917207948601
 30
0.0
 10
94.101070932615
 20
-153.8917207948601
 30
0.0
 10
94.15617482009807
 20
-153.8917207948601
 30
0.0
 10
94.20097759673284
 20
-153.8469532948716
 30
0.0
 10
94.20097759673284
 20
-153.7918141282185
 30
0.0
  0
POLYLINE
  5
47
330
1F
100
AcDbEntity
  8
_U+30EC_U+30A4_U+30E4_U+30FC 1
 62
     7
420
 16777215
370
     9
100
AcDb2dPolyline
 66
     1
 10
0.0
 20
0.0
 30
0.0
  0
VERTEX
  5
48
330
47
100
AcDbEntity
  8
_U+30EC_U+30A4_U+30E4_U+30FC 1
 62
     7
420
 16777215
370
     9
100
AcDbVertex
100
AcDb2dVertex
 10
94.101070932615
 20
-151.2920660732879
 30
0.0
  0
VERTEX
  5
49
330
47
100
AcDbEntity
  8
_U+30EC_U+30A4_U+30E4_U+30FC 1
 62
     7
420
 16777215
370
     9
100
AcDbVertex
100
AcDb2dVertex
 10
94.101070932615
 20
-154.7919391279688
 30
0.0
  0
SEQEND
  5
4A
330
47
100
AcDbEntity
  8
_U+30EC_U+30A4_U+30E4_U+30FC 1
 62
     7
420
 16777215
370
     9
  0
SPLINE
  5
4B
330
1F
100
AcDbEntity
  8
_U+30EC_U+30A4_U+30E4_U+30FC 1
 62
     7
420
 16777215
370
     9
100
AcDbSpline
210
0.0
220
0.0
230
1.0
 70
    11
 71
     3
 72
    17
 73
    13
 74
     0
 42
0.0000000001
 43
0.0000000001
 12
1.0
 22
0.0
 32
0.0
 13
1.0
 23
0.0
 33
0.0
 40
0.0
 40
0.0
 40
0.0
 40
0.0
 40
1.0
 40
1.0
 40
1.0
 40
2.0
 40
2.0
 40
2.0
 40
3.0
 40
3.0
 40
3.0
 40
4.0
 40
4.0
 40
4.0
 40
4.0
 10
95.20142007120943
 20
-153.7918141282185
 30
0.0
 10
95.20142007120943
 20
-153.7367102393436
 30
0.0
 10
95.15665257235155
 20
-153.6919074615769
 30
0.0
 10
95.10151340709159
 20
-153.6919074615769
 30
0.0
 10
95.04640951960852
 20
-153.6919074615769
 30
0.0
 10
95.00160674297376
 20
-153.7367102393436
 30
0.0
 10
95.00160674297376
 20
-153.7918141282185
 30
0.0
 10
95.00160674297376
 20
-153.8469532948716
 30
0.0
 10
95.04640951960852
 20
-153.8917207948601
 30
0.0
 10
95.10151340709159
 20
-153.8917207948601
 30
0.0
 10
95.15665257235155
 20
-153.8917207948601
 30
0.0
 10
95.20142007120943
 20
-153.8469532948716
 30
0.0
 10
95.20142007120943
 20
-153.7918141282185
 30
0.0
  0
POLYLINE
  5
4C
330
1F
100
AcDbEntity
  8
_U+30EC_U+30A4_U+30E4_U+30FC 1
 62
     7
420
 16777215
370
     9
100
AcDb2dPolyline
 66
     1
 10
0.0
 20
0.0
 30
0.0
  0
VERTEX
  5
4D
330
4C
100
AcDbEntity
  8
_U+30EC_U+30A4_U+30E4_U+30FC 1
 62
     7
420
 16777215
370
     9
100
AcDbVertex
100
AcDb2dVertex
 10
95.10151340709159
 20
-150.2919410735382
 30
0.0
  0
VERTEX
  5
4E
330
4C
100
AcDbEntity
  8
_U+30EC_U+30A4_U+30E4_U+30FC 1
 62
     7
420
 16777215
370
     9
100
AcDbVertex
100
AcDb2dVertex
 10
95.10151340709159
 20
-154.7919391279688
 30
0.0
  0
SEQEND
  5
4F
330
4C
100
AcDbEntity
  8
_U+30EC_U+30A4_U+30E4_U+30FC 1
 62
     7
420
 16777215
370
     9
  0
POLYLINE
  5
50
330
1F
100
AcDbEntity
  8
_U+30EC_U+30A4_U+30E4_U+30FC 1
 62
     7
420
 16777215
370
     9
100
AcDb2dPolyline
 66
     1
 10
0.0
 20
0.0
 30
0.0
  0
VERTEX
  5
51
330
50
100
AcDbEntity
  8
_U+30EC_U+30A4_U+30E4_U+30FC 1
 62
     7
420
 16777215
370
     9
100
AcDbVertex
100
AcDb2dVertex
 10
67.1015083165579
 20
-140.7920941314686
 30
0.0
  0
VERTEX
  5
52
330
50
100
AcDbEntity
  8
_U+30EC_U+30A4_U+30E4_U+30FC 1
 62
     7
420
 16777215
370
     9
100
AcDbVertex
100
AcDb2dVertex
 10
67.1015083165579
 20
-154.7919391279688
 30
0.0
  0
SEQEND
  5
53
330
50
100
AcDbEntity
  8
_U+30EC_U+30A4_U+30E4_U+30FC 1
 62
     7
420
 16777215
370
     9
  0
SPLINE
  5
54
330
1F
100
AcDbEntity
  8
_U+30EC_U+30A4_U+30E4_U+30FC 1
 62
     7
420
 16777215
370
     9
100
AcDbSpline
210
0.0
220
0.0
230
1.0
 70
    11
 71
     3
 72
    17
 73
    13
 74
     0
 42
0.0000000001
 43
0.0000000001
 12
1.0
 22
0.0
 32
0.0
 13
1.0
 23
0.0
 33
0.0
 40
0.0
 40
0.0
 40
0.0
 40
0.0
 40
1.0
 40
1.0
 40
1.0
 40
2.0
 40
2.0
 40
2.0
 40
3.0
 40
3.0
 40
3.0
 40
4.0
 40
4.0
 40
4.0
 40
4.0
 10
118.2012253177688
 20
-132.7884483001362
 30
0.0
 10
118.2012253177688
 20
-132.7333444112613
 30
0.0
 10
118.1564225411341
 20
-132.6885416334945
 30
0.0
 10
118.101318653651
 20
-132.6885416334945
 30
0.0
 10
118.0461794883911
 20
-132.6885416334945
 30
0.0
 10
118.0014119895332
 20
-132.7333444112613
 30
0.0
 10
118.0014119895332
 20
-132.7884483001362
 30
0.0
 10
118.0014119895332
 20
-132.8442577445666
 30
0.0
 10
118.0461794883911
 20
-132.8890605223333
 30
0.0
 10
118.101318653651
 20
-132.8890605223333
 30
0.0
 10
118.1564225411341
 20
-132.8890605223333
 30
0.0
 10
118.2012253177688
 20
-132.8442577445666
 30
0.0
 10
118.2012253177688
 20
-132.7884483001362
 30
0.0
  0
SPLINE
  5
55
330
1F
100
AcDbEntity
  8
_U+30EC_U+30A4_U+30E4_U+30FC 1
 62
     7
420
 16777215
370
     9
100
AcDbSpline
210
0.0
220
0.0
230
1.0
 70
    11
 71
     3
 72
    17
 73
    13
 74
     0
 42
0.0000000001
 43
0.0000000001
 12
1.0
 22
0.0
 32
0.0
 13
1.0
 23
0.0
 33
0.0
 40
0.0
 40
0.0
 40
0.0
 40
0.0
 40
1.0
 40
1.0
 40
1.0
 40
2.0
 40
2.0
 40
2.0
 40
3.0
 40
3.0
 40
3.0
 40
4.0
 40
4.0
 40
4.0
 40
4.0
 10
118.2012253177688
 20
-149.7920549625523
 30
0.0
 10
118.2012253177688
 20
-149.7369510736767
 30
0.0
 10
118.1564225411341
 20
-149.69214829591
 30
0.0
 10
118.101318653651
 20
-149.69214829591
 30
0.0
 10
118.0461794883911
 20
-149.69214829591
 30
0.0
 10
118.0014119895332
 20
-149.7369510736767
 30
0.0
 10
118.0014119895332
 20
-149.7920549625523
 30
0.0
 10
118.0014119895332
 20
-149.8478644069827
 30
0.0
 10
118.0461794883911
 20
-149.8926671847488
 30
0.0
 10
118.101318653651
 20
-149.8926671847488
 30
0.0
 10
118.1564225411341
 20
-149.8926671847488
 30
0.0
 10
118.2012253177688
 20
-149.8478644069827
 30
0.0
 10
118.2012253177688
 20
-149.7920549625523
 30
0.0
  0
POLYLINE
  5
56
330
1F
100
AcDbEntity
  8
_U+30EC_U+30A4_U+30E4_U+30FC 1
 62
     7
420
 16777215
370
     9
100
AcDb2dPolyline
 66
     1
 10
0.0
 20
0.0
 30
0.0
  0
VERTEX
  5
57
330
56
100
AcDbEntity
  8
_U+30EC_U+30A4_U+30E4_U+30FC 1
 62
     7
420
 16777215
370
     9
100
AcDbVertex
100
AcDb2dVertex
 10
118.101318653651
 20
-149.7920549625523
 30
0.0
  0
VERTEX
  5
58
330
56
100
AcDbEntity
  8
_U+30EC_U+30A4_U+30E4_U+30FC 1
 62
     7
420
 16777215
370
     9
100
AcDbVertex
100
AcDb2dVertex
 10
118.101318653651
 20
-148.2920791295935
 30
0.0
  0
SEQEND
  5
59
330
56
100
AcDbEntity
  8
_U+30EC_U+30A4_U+30E4_U+30FC 1
 62
     7
420
 16777215
370
     9
  0
POLYLINE
  5
5A
330
1F
100
AcDbEntity
  8
_U+30EC_U+30A4_U+30E4_U+30FC 1
 62
     7
420
 16777215
370
     9
100
AcDb2dPolyline
 66
     1
 10
0.0
 20
0.0
 30
0.0
  0
VERTEX
  5
5B
330
5A
100
AcDbEntity
  8
_U+30EC_U+30A4_U+30E4_U+30FC 1
 62
     7
420
 16777215
370
     9
100
AcDbVertex
100
AcDb2dVertex
 10
118.101318653651
 20
-148.2837888518181
 30
0.0
  0
VERTEX
  5
5C
330
5A
100
AcDbEntity
  8
_U+30EC_U+30A4_U+30E4_U+30FC 1
 62
     7
420
 16777215
370
     9
100
AcDbVertex
100
AcDb2dVertex
 10
118.101318653651
 20
-132.783615244582
 30
0.0
  0
SEQEND
  5
5D
330
5A
100
AcDbEntity
  8
_U+30EC_U+30A4_U+30E4_U+30FC 1
 62
     7
420
 16777215
370
     9
  0
POLYLINE
  5
5E
330
1F
100
AcDbEntity
  8
_U+30EC_U+30A4_U+30E4_U+30FC 1
 62
     7
420
 16777215
370
     9
100
AcDb2dPolyline
 66
     1
 10
0.0
 20
0.0
 30
0.0
  0
VERTEX
  5
5F
330
5E
100
AcDbEntity
  8
_U+30EC_U+30A4_U+30E4_U+30FC 1
 62
     7
420
 16777215
370
     9
100
AcDbVertex
100
AcDb2dVertex
 10
118.101318653651
 20
-132.7880955223584
 30
0.0
  0
VERTEX
  5
60
330
5E
100
AcDbEntity
  8
_U+30EC_U+30A4_U+30E4_U+30FC 1
 62
     7
420
 16777215
370
     9
100
AcDbVertex
100
AcDb2dVertex
 10
118.101318653651
 20
-131.7890288559414
 30
0.0
  0
SEQEND
  5
61
330
5E
100
AcDbEntity
  8
_U+30EC_U+30A4_U+30E4_U+30FC 1
 62
     7
420
 16777215
370
     9
  0
POLYLINE
  5
62
330
1F
100
AcDbEntity
  8
_U+30EC_U+30A4_U+30E4_U+30FC 1
 62
     7
420
 16777215
370
     9
100
AcDb2dPolyline
 66
     1
 10
0.0
 20
0.0
 30
0.0
  0
VERTEX
  5
63
330
62
100
AcDbEntity
  8
_U+30EC_U+30A4_U+30E4_U+30FC 1
 62
     7
420
 16777215
370
     9
100
AcDbVertex
100
AcDb2dVertex
 10
118.101318653651
 20
-131.7890288559414
 30
0.0
  0
VERTEX
  5
64
330
62
100
AcDbEntity
  8
_U+30EC_U+30A4_U+30E4_U+30FC 1
 62
     7
420
 16777215
370
     9
100
AcDbVertex
100
AcDb2dVertex
 10
118.101318653651
 20
-101.7889477523306
 30
0.0
  0
SEQEND
  5
65
330
62
100
AcDbEntity
  8
_U+30EC_U+30A4_U+30E4_U+30FC 1
 62
     7
420
 16777215
370
     9
  0
POLYLINE
  5
66
330
1F
100
AcDbEntity
  8
_U+30EC_U+30A4_U+30E4_U+30FC 1
 62
     7
420
 16777215
370
     9
100
AcDb2dPolyline
 66
     1
 10
0.0
 20
0.0
 30
0.0
  0
VERTEX
  5
67
330
66
100
AcDbEntity
  8
_U+30EC_U+30A4_U+30E4_U+30FC 1
 62
     7
420
 16777215
370
     9
100
AcDbVertex
100
AcDb2dVertex
 10
95.60104672768077
 20
-149.7920549625523
 30
0.0
  0
VERTEX
  5
68
330
66
100
AcDbEntity
  8
_U+30EC_U+30A4_U+30E4_U+30FC 1
 62
     7
420
 16777215
370
     9
100
AcDbVertex
100
AcDb2dVertex
 10
119.1010908503669
 20
-149.7920549625523
 30
0.0
  0
SEQEND
  5
69
330
66
100
AcDbEntity
  8
_U+30EC_U+30A4_U+30E4_U+30FC 1
 62
     7
420
 16777215
370
     9
  0
SPLINE
  5
6A
330
1F
100
AcDbEntity
  8
_U+30EC_U+30A4_U+30E4_U+30FC 1
 62
     7
420
 16777215
370
     9
100
AcDbSpline
210
0.0
220
0.0
230
1.0
 70
    11
 71
     3
 72
    17
 73
    13
 74
     0
 42
0.0000000001
 43
0.0000000001
 12
1.0
 22
0.0
 32
0.0
 13
1.0
 23
0.0
 33
0.0
 40
0.0
 40
0.0
 40
0.0
 40
0.0
 40
1.0
 40
1.0
 40
1.0
 40
2.0
 40
2.0
 40
2.0
 40
3.0
 40
3.0
 40
3.0
 40
4.0
 40
4.0
 40
4.0
 40
4.0
 10
118.2012253177688
 20
-148.2920791295935
 30
0.0
 10
118.2012253177688
 20
-148.2369399629405
 30
0.0
 10
118.1564225411341
 20
-148.1921724629519
 30
0.0
 10
118.101318653651
 20
-148.1921724629519
 30
0.0
 10
118.0461794883911
 20
-148.1921724629519
 30
0.0
 10
118.0014119895332
 20
-148.2369399629405
 30
0.0
 10
118.0014119895332
 20
-148.2920791295935
 30
0.0
 10
118.0014119895332
 20
-148.347888574024
 30
0.0
 10
118.0461794883911
 20
-148.3926560740132
 30
0.0
 10
118.101318653651
 20
-148.3926560740132
 30
0.0
 10
118.1564225411341
 20
-148.3926560740132
 30
0.0
 10
118.2012253177688
 20
-148.347888574024
 30
0.0
 10
118.2012253177688
 20
-148.2920791295935
 30
0.0
  0
POLYLINE
  5
6B
330
1F
100
AcDbEntity
  8
_U+30EC_U+30A4_U+30E4_U+30FC 1
 62
     7
420
 16777215
370
     9
100
AcDb2dPolyline
 66
     1
 10
0.0
 20
0.0
 30
0.0
  0
VERTEX
  5
6C
330
6B
100
AcDbEntity
  8
_U+30EC_U+30A4_U+30E4_U+30FC 1
 62
     7
420
 16777215
370
     9
100
AcDbVertex
100
AcDb2dVertex
 10
96.25149837775304
 20
-148.2920791295935
 30
0.0
  0
VERTEX
  5
6D
330
6B
100
AcDbEntity
  8
_U+30EC_U+30A4_U+30E4_U+30FC 1
 62
     7
420
 16777215
370
     9
100
AcDbVertex
100
AcDb2dVertex
 10
119.1010908503669
 20
-148.2920791295935
 30
0.0
  0
SEQEND
  5
6E
330
6B
100
AcDbEntity
  8
_U+30EC_U+30A4_U+30E4_U+30FC 1
 62
     7
420
 16777215
370
     9
  0
POLYLINE
  5
6F
330
1F
100
AcDbEntity
  8
_U+30EC_U+30A4_U+30E4_U+30FC 1
 62
     7
420
 16777215
370
     9
100
AcDb2dPolyline
 66
     1
 10
0.0
 20
0.0
 30
0.0
  0
VERTEX
  5
70
330
6F
100
AcDbEntity
  8
_U+30EC_U+30A4_U+30E4_U+30FC 1
 62
     7
420
 16777215
370
     9
100
AcDbVertex
100
AcDb2dVertex
 10
116.6412773020109
 20
-132.7884483001362
 30
0.0
  0
VERTEX
  5
71
330
6F
100
AcDbEntity
  8
_U+30EC_U+30A4_U+30E4_U+30FC 1
 62
     7
420
 16777215
370
     9
100
AcDbVertex
100
AcDb2dVertex
 10
119.1010908503669
 20
-132.7884483001362
 30
0.0
  0
SEQEND
  5
72
330
6F
100
AcDbEntity
  8
_U+30EC_U+30A4_U+30E4_U+30FC 1
 62
     7
420
 16777215
370
     9
  0
SPLINE
  5
73
330
1F
100
AcDbEntity
  8
_U+30EC_U+30A4_U+30E4_U+30FC 1
 62
     7
420
 16777215
370
     9
100
AcDbSpline
210
0.0
220
0.0
230
1.0
 70
    11
 71
     3
 72
    17
 73
    13
 74
     0
 42
0.0000000001
 43
0.0000000001
 12
1.0
 22
0.0
 32
0.0
 13
1.0
 23
0.0
 33
0.0
 40
0.0
 40
0.0
 40
0.0
 40
0.0
 40
1.0
 40
1.0
 40
1.0
 40
2.0
 40
2.0
 40
2.0
 40
3.0
 40
3.0
 40
3.0
 40
4.0
 40
4.0
 40
4.0
 40
4.0
 10
118.2012253177688
 20
-131.7880058003863
 30
0.0
 10
118.2012253177688
 20
-131.7328666337332
 30
0.0
 10
118.1564225411341
 20
-131.6880991337446
 30
0.0
 10
118.101318653651
 20
-131.6880991337446
 30
0.0
 10
118.0461794883911
 20
-131.6880991337446
 30
0.0
 10
118.0014119895332
 20
-131.7328666337332
 30
0.0
 10
118.0014119895332
 20
-131.7880058003863
 30
0.0
 10
118.0014119895332
 20
-131.8438152448167
 30
0.0
 10
118.0461794883911
 20
-131.8885827448059
 30
0.0
 10
118.101318653651
 20
-131.8885827448059
 30
0.0
 10
118.1564225411341
 20
-131.8885827448059
 30
0.0
 10
118.2012253177688
 20
-131.8438152448167
 30
0.0
 10
118.2012253177688
 20
-131.7880058003863
 30
0.0
  0
POLYLINE
  5
74
330
1F
100
AcDbEntity
  8
_U+30EC_U+30A4_U+30E4_U+30FC 1
 62
     7
420
 16777215
370
     9
100
AcDb2dPolyline
 66
     1
 10
0.0
 20
0.0
 30
0.0
  0
VERTEX
  5
75
330
74
100
AcDbEntity
  8
_U+30EC_U+30A4_U+30E4_U+30FC 1
 62
     7
420
 16777215
370
     9
100
AcDbVertex
100
AcDb2dVertex
 10
116.6412773020109
 20
-131.7880058003863
 30
0.0
  0
VERTEX
  5
76
330
74
100
AcDbEntity
  8
_U+30EC_U+30A4_U+30E4_U+30FC 1
 62
     7
420
 16777215
370
     9
100
AcDbVertex
100
AcDb2dVertex
 10
119.1010908503669
 20
-131.7880058003863
 30
0.0
  0
SEQEND
  5
77
330
74
100
AcDbEntity
  8
_U+30EC_U+30A4_U+30E4_U+30FC 1
 62
     7
420
 16777215
370
     9
  0
SPLINE
  5
78
330
1F
100
AcDbEntity
  8
_U+30EC_U+30A4_U+30E4_U+30FC 1
 62
     7
420
 16777215
370
     9
100
AcDbSpline
210
0.0
220
0.0
230
1.0
 70
    11
 71
     3
 72
    17
 73
    13
 74
     0
 42
0.0000000001
 43
0.0000000001
 12
1.0
 22
0.0
 32
0.0
 13
1.0
 23
0.0
 33
0.0
 40
0.0
 40
0.0
 40
0.0
 40
0.0
 40
1.0
 40
1.0
 40
1.0
 40
2.0
 40
2.0
 40
2.0
 40
3.0
 40
3.0
 40
3.0
 40
4.0
 40
4.0
 40
4.0
 40
4.0
 10
118.2012253177688
 20
-101.7877483078863
 30
0.0
 10
118.2012253177688
 20
-101.7326444190114
 30
0.0
 10
118.1564225411341
 20
-101.6878416412446
 30
0.0
 10
118.101318653651
 20
-101.6878416412446
 30
0.0
 10
118.0461794883911
 20
-101.6878416412446
 30
0.0
 10
118.0014119895332
 20
-101.7326444190114
 30
0.0
 10
118.0014119895332
 20
-101.7877483078863
 30
0.0
 10
118.0014119895332
 20
-101.843557752317
 30
0.0
 10
118.0461794883911
 20
-101.8883605300834
 30
0.0
 10
118.101318653651
 20
-101.8883605300834
 30
0.0
 10
118.1564225411341
 20
-101.8883605300834
 30
0.0
 10
118.2012253177688
 20
-101.843557752317
 30
0.0
 10
118.2012253177688
 20
-101.7877483078863
 30
0.0
  0
POLYLINE
  5
79
330
1F
100
AcDbEntity
  8
_U+30EC_U+30A4_U+30E4_U+30FC 1
 62
     7
420
 16777215
370
     9
100
AcDb2dPolyline
 66
     1
 10
0.0
 20
0.0
 30
0.0
  0
VERTEX
  5
7A
330
79
100
AcDbEntity
  8
_U+30EC_U+30A4_U+30E4_U+30FC 1
 62
     7
420
 16777215
370
     9
100
AcDbVertex
100
AcDb2dVertex
 10
86.63449417865881
 20
-101.788101085664
 30
0.0
  0
VERTEX
  5
7B
330
79
100
AcDbEntity
  8
_U+30EC_U+30A4_U+30E4_U+30FC 1
 62
     7
420
 16777215
370
     9
100
AcDbVertex
100
AcDb2dVertex
 10
119.1010908503669
 20
-101.788101085664
 30
0.0
  0
SEQEND
  5
7C
330
79
100
AcDbEntity
  8
_U+30EC_U+30A4_U+30E4_U+30FC 1
 62
     7
420
 16777215
370
     9
  0
INSERT
  5
7E
330
1F
100
AcDbEntity
  8
_U+30EC_U+30A4_U+30E4_U+30FC 1
100
AcDbBlockReference
  2
block 2
 10
0.0
 20
0.0
 30
0.0
  0
INSERT
  5
90
330
1F
100
AcDbEntity
  8
_U+30EC_U+30A4_U+30E4_U+30FC 1
100
AcDbBlockReference
  2
block 3
 10
0.0
 20
0.0
 30
0.0
  0
INSERT
  5
96
330
1F
100
AcDbEntity
  8
_U+30EC_U+30A4_U+30E4_U+30FC 1
100
AcDbBlockReference
  2
block 4
 10
0.0
 20
0.0
 30
0.0
  0
INSERT
  5
9F
330
1F
100
AcDbEntity
  8
_U+30EC_U+30A4_U+30E4_U+30FC 1
100
AcDbBlockReference
  2
block 5
 10
0.0
 20
0.0
 30
0.0
  0
SPLINE
  5
AE
330
1F
100
AcDbEntity
  8
_U+30EC_U+30A4_U+30E4_U+30FC 1
 62
     7
420
 16777215
370
     9
100
AcDbSpline
210
0.0
220
0.0
230
1.0
 70
    11
 71
     3
 72
    17
 73
    13
 74
     0
 42
0.0000000001
 43
0.0000000001
 12
1.0
 22
0.0
 32
0.0
 13
1.0
 23
0.0
 33
0.0
 40
0.0
 40
0.0
 40
0.0
 40
0.0
 40
1.0
 40
1.0
 40
1.0
 40
2.0
 40
2.0
 40
2.0
 40
3.0
 40
3.0
 40
3.0
 40
4.0
 40
4.0
 40
4.0
 40
4.0
 10
63.2016542209248
 20
-149.7920549625523
 30
0.0
 10
63.2016542209248
 20
-149.7362455181212
 30
0.0
 10
63.15685144429004
 20
-149.6914780181326
 30
0.0
 10
63.10174755680697
 20
-149.6914780181326
 30
0.0
 10
63.04593811378634
 20
-149.6914780181326
 30
0.0
 10
63.00113533715157
 20
-149.7362455181212
 30
0.0
 10
63.00113533715157
 20
-149.7920549625523
 30
0.0
 10
63.00113533715157
 20
-149.8471941292047
 30
0.0
 10
63.04593811378634
 20
-149.8919616291939
 30
0.0
 10
63.10174755680697
 20
-149.8919616291939
 30
0.0
 10
63.15685144429004
 20
-149.8919616291939
 30
0.0
 10
63.2016542209248
 20
-149.8471941292047
 30
0.0
 10
63.2016542209248
 20
-149.7920549625523
 30
0.0
  0
SPLINE
  5
AF
330
1F
100
AcDbEntity
  8
_U+30EC_U+30A4_U+30E4_U+30FC 1
 62
     7
420
 16777215
370
     9
100
AcDbSpline
210
0.0
220
0.0
230
1.0
 70
    11
 71
     3
 72
    17
 73
    13
 74
     0
 42
0.0000000001
 43
0.0000000001
 12
1.0
 22
0.0
 32
0.0
 13
1.0
 23
0.0
 33
0.0
 40
0.0
 40
0.0
 40
0.0
 40
0.0
 40
1.0
 40
1.0
 40
1.0
 40
2.0
 40
2.0
 40
2.0
 40
3.0
 40
3.0
 40
3.0
 40
4.0
 40
4.0
 40
4.0
 40
4.0
 10
63.2016542209248
 20
-121.7916946917745
 30
0.0
 10
63.2016542209248
 20
-121.7365908028992
 30
0.0
 10
63.15685144429004
 20
-121.6917880251325
 30
0.0
 10
63.10174755680697
 20
-121.6917880251325
 30
0.0
 10
63.04593811378634
 20
-121.6917880251325
 30
0.0
 10
63.00113533715157
 20
-121.7365908028992
 30
0.0
 10
63.00113533715157
 20
-121.7916946917745
 30
0.0
 10
63.00113533715157
 20
-121.8475041362049
 30
0.0
 10
63.04593811378634
 20
-121.8923069139713
 30
0.0
 10
63.10174755680697
 20
-121.8923069139713
 30
0.0
 10
63.15685144429004
 20
-121.8923069139713
 30
0.0
 10
63.2016542209248
 20
-121.8475041362049
 30
0.0
 10
63.2016542209248
 20
-121.7916946917745
 30
0.0
  0
POLYLINE
  5
B0
330
1F
100
AcDbEntity
  8
_U+30EC_U+30A4_U+30E4_U+30FC 1
 62
     7
420
 16777215
370
     9
100
AcDb2dPolyline
 66
     1
 10
0.0
 20
0.0
 30
0.0
  0
VERTEX
  5
B1
330
B0
100
AcDbEntity
  8
_U+30EC_U+30A4_U+30E4_U+30FC 1
 62
     7
420
 16777215
370
     9
100
AcDbVertex
100
AcDb2dVertex
 10
63.10174755680697
 20
-149.7917021847745
 30
0.0
  0
VERTEX
  5
B2
330
B0
100
AcDbEntity
  8
_U+30EC_U+30A4_U+30E4_U+30FC 1
 62
     7
420
 16777215
370
     9
100
AcDbVertex
100
AcDb2dVertex
 10
63.10174755680697
 20
-121.7916946917745
 30
0.0
  0
SEQEND
  5
B3
330
B0
100
AcDbEntity
  8
_U+30EC_U+30A4_U+30E4_U+30FC 1
 62
     7
420
 16777215
370
     9
  0
POLYLINE
  5
B4
330
1F
100
AcDbEntity
  8
_U+30EC_U+30A4_U+30E4_U+30FC 1
 62
     7
420
 16777215
370
     9
100
AcDb2dPolyline
 66
     1
 10
0.0
 20
0.0
 30
0.0
  0
VERTEX
  5
B5
330
B4
100
AcDbEntity
  8
_U+30EC_U+30A4_U+30E4_U+30FC 1
 62
     7
420
 16777215
370
     9
100
AcDbVertex
100
AcDb2dVertex
 10
76.10146722515648
 20
-149.7920549625523
 30
0.0
  0
VERTEX
  5
B6
330
B4
100
AcDbEntity
  8
_U+30EC_U+30A4_U+30E4_U+30FC 1
 62
     7
420
 16777215
370
     9
100
AcDbVertex
100
AcDb2dVertex
 10
62.10130508233038
 20
-149.7920549625523
 30
0.0
  0
SEQEND
  5
B7
330
B4
100
AcDbEntity
  8
_U+30EC_U+30A4_U+30E4_U+30FC 1
 62
     7
420
 16777215
370
     9
  0
POLYLINE
  5
B8
330
1F
100
AcDbEntity
  8
_U+30EC_U+30A4_U+30E4_U+30FC 1
 62
     7
420
 16777215
370
     9
100
AcDb2dPolyline
 66
     1
 10
0.0
 20
0.0
 30
0.0
  0
VERTEX
  5
B9
330
B8
100
AcDbEntity
  8
_U+30EC_U+30A4_U+30E4_U+30FC 1
 62
     7
420
 16777215
370
     9
100
AcDbVertex
100
AcDb2dVertex
 10
66.6019749833494
 20
-121.7916946917745
 30
0.0
  0
VERTEX
  5
BA
330
B8
100
AcDbEntity
  8
_U+30EC_U+30A4_U+30E4_U+30FC 1
 62
     7
420
 16777215
370
     9
100
AcDbVertex
100
AcDb2dVertex
 10
62.10130508233038
 20
-121.7916946917745
 30
0.0
  0
SEQEND
  5
BB
330
B8
100
AcDbEntity
  8
_U+30EC_U+30A4_U+30E4_U+30FC 1
 62
     7
420
 16777215
370
     9
  0
INSERT
  5
BD
330
1F
100
AcDbEntity
  8
_U+30EC_U+30A4_U+30E4_U+30FC 1
100
AcDbBlockReference
  2
block 6
 10
0.0
 20
0.0
 30
0.0
  0
SPLINE
  5
C6
330
1F
100
AcDbEntity
  8
_U+30EC_U+30A4_U+30E4_U+30FC 1
 62
     7
420
 16777215
370
     9
100
AcDbSpline
210
0.0
220
0.0
230
1.0
 70
    11
 71
     3
 72
    17
 73
    13
 74
     0
 42
0.0000000001
 43
0.0000000001
 12
1.0
 22
0.0
 32
0.0
 13
1.0
 23
0.0
 33
0.0
 40
0.0
 40
0.0
 40
0.0
 40
0.0
 40
1.0
 40
1.0
 40
1.0
 40
2.0
 40
2.0
 40
2.0
 40
3.0
 40
3.0
 40
3.0
 40
4.0
 40
4.0
 40
4.0
 40
4.0
 10
67.20141328554911
 20
-153.7918141282185
 30
0.0
 10
67.20141328554911
 20
-153.7367102393436
 30
0.0
 10
67.15661050891435
 20
-153.6919074615769
 30
0.0
 10
67.1015083165579
 20
-153.6919074615769
 30
0.0
 10
67.04636745617132
 20
-153.6919074615769
 30
0.0
 10
67.00159995731345
 20
-153.7367102393436
 30
0.0
 10
67.00159995731345
 20
-153.7918141282185
 30
0.0
 10
67.00159995731345
 20
-153.8469532948716
 30
0.0
 10
67.04636745617132
 20
-153.8917207948601
 30
0.0
 10
67.1015083165579
 20
-153.8917207948601
 30
0.0
 10
67.15661050891435
 20
-153.8917207948601
 30
0.0
 10
67.20141328554911
 20
-153.8469532948716
 30
0.0
 10
67.20141328554911
 20
-153.7918141282185
 30
0.0
  0
POLYLINE
  5
C7
330
1F
100
AcDbEntity
  8
_U+30EC_U+30A4_U+30E4_U+30FC 1
 62
     7
420
 16777215
370
     9
100
AcDb2dPolyline
 66
     1
 10
0.0
 20
0.0
 30
0.0
  0
VERTEX
  5
C8
330
C7
100
AcDbEntity
  8
_U+30EC_U+30A4_U+30E4_U+30FC 1
 62
     7
420
 16777215
370
     9
100
AcDbVertex
100
AcDb2dVertex
 10
67.10217689919196
 20
-153.7918141282185
 30
0.0
  0
VERTEX
  5
C9
330
C7
100
AcDbEntity
  8
_U+30EC_U+30A4_U+30E4_U+30FC 1
 62
     7
420
 16777215
370
     9
100
AcDbVertex
100
AcDb2dVertex
 10
95.10151340709159
 20
-153.7918141282185
 30
0.0
  0
SEQEND
  5
CA
330
C7
100
AcDbEntity
  8
_U+30EC_U+30A4_U+30E4_U+30FC 1
 62
     7
420
 16777215
370
     9
  0
INSERT
  5
CC
330
1F
100
AcDbEntity
  8
_U+30EC_U+30A4_U+30E4_U+30FC 1
100
AcDbBlockReference
  2
block 7
 10
0.0
 20
0.0
 30
0.0
  0
INSERT
  5
D4
330
1F
100
AcDbEntity
  8
_U+30EC_U+30A4_U+30E4_U+30FC 1
100
AcDbBlockReference
  2
block 8
 10
0.0
 20
0.0
 30
0.0
  0
INSERT
  5
DC
330
1F
100
AcDbEntity
  8
_U+30EC_U+30A4_U+30E4_U+30FC 1
100
AcDbBlockReference
  2
block 9
 10
0.0
 20
0.0
 30
0.0
  0
POLYLINE
  5
E1
330
1F
100
AcDbEntity
  8
_U+30EC_U+30A4_U+30E4_U+30FC 1
 62
     7
420
 16777215
370
     9
100
AcDb2dPolyline
 66
     1
 10
0.0
 20
0.0
 30
0.0
  0
VERTEX
  5
E2
330
E1
100
AcDbEntity
  8
_U+30EC_U+30A4_U+30E4_U+30FC 1
 62
     7
420
 16777215
370
     9
100
AcDbVertex
100
AcDb2dVertex
 10
64.37160641329906
 20
-152.4892174618775
 30
0.0
  0
VERTEX
  5
E3
330
E1
100
AcDbEntity
  8
_U+30EC_U+30A4_U+30E4_U+30FC 1
 62
     7
420
 16777215
370
     9
100
AcDbVertex
100
AcDb2dVertex
 10
71.1794765173936
 20
-145.6824055191352
 30
0.0
  0
SEQEND
  5
E4
330
E1
100
AcDbEntity
  8
_U+30EC_U+30A4_U+30E4_U+30FC 1
 62
     7
420
 16777215
370
     9
  0
INSERT
  5
E6
330
1F
100
AcDbEntity
  8
_U+30EC_U+30A4_U+30E4_U+30FC 1
100
AcDbBlockReference
  2
block 10
 10
0.0
 20
0.0
 30
0.0
  0
SPLINE
  5
F0
330
1F
100
AcDbEntity
  8
_U+30EC_U+30A4_U+30E4_U+30FC 1
 62
     7
420
 16777215
370
    25
100
AcDbSpline
210
0.0
220
0.0
230
1.0
 70
    11
 71
     3
 72
    77
 73
    73
 74
     0
 42
0.0000000001
 43
0.0000000001
 12
1.0
 22
0.0
 32
0.0
 13
1.0
 23
0.0
 33
0.0
 40
0.0
 40
0.0
 40
0.0
 40
0.0
 40
1.0
 40
1.0
 40
1.0
 40
2.0
 40
2.0
 40
2.0
 40
3.0
 40
3.0
 40
3.0
 40
4.0
 40
4.0
 40
4.0
 40
5.0
 40
5.0
 40
5.0
 40
6.0
 40
6.0
 40
6.0
 40
7.0
 40
7.0
 40
7.0
 40
8.0
 40
8.0
 40
8.0
 40
9.0
 40
9.0
 40
9.0
 40
10.0
 40
10.0
 40
10.0
 40
11.0
 40
11.0
 40
11.0
 40
12.0
 40
12.0
 40
12.0
 40
13.0
 40
13.0
 40
13.0
 40
14.0
 40
14.0
 40
14.0
 40
15.0
 40
15.0
 40
15.0
 40
16.0
 40
16.0
 40
16.0
 40
17.0
 40
17.0
 40
17.0
 40
18.0
 40
18.0
 40
18.0
 40
19.0
 40
19.0
 40
19.0
 40
20.0
 40
20.0
 40
20.0
 40
21.0
 40
21.0
 40
21.0
 40
22.0
 40
22.0
 40
22.0
 40
23.0
 40
23.0
 40
23.0
 40
24.0
 40
24.0
 40
24.0
 40
24.0
 10
115.1006262302051
 20
-132.7884483001362
 30
0.0
 10
115.1006262302051
 20
-132.7884483001362
 30
0.0
 10
115.1006262302051
 20
-131.7880058003863
 30
0.0
 10
115.1006262302051
 20
-131.7880058003863
 30
0.0
 10
115.1006262302051
 20
-131.7880058003863
 30
0.0
 10
85.10075755112102
 20
-131.7880058003863
 30
0.0
 10
85.10075755112102
 20
-131.7880058003863
 30
0.0
 10
85.10075755112102
 20
-131.7880058003863
 30
0.0
 10
85.10075755112102
 20
-101.788101085664
 30
0.0
 10
85.10075755112102
 20
-101.788101085664
 30
0.0
 10
85.10075755112102
 20
-101.788101085664
 30
0.0
 10
84.10098535440511
 20
-101.788101085664
 30
0.0
 10
84.10098535440511
 20
-101.788101085664
 30
0.0
 10
84.10098535440511
 20
-101.788101085664
 30
0.0
 10
84.10098535440511
 20
-132.0498374669877
 30
0.0
 10
84.10098535440511
 20
-132.0498374669877
 30
0.0
 10
84.10098535440511
 20
-132.0498374669877
 30
0.0
 10
71.84195788938118
 20
-144.3133102416996
 30
0.0
 10
71.84195788938118
 20
-144.3133102416996
 30
0.0
 10
69.52202072634549
 20
-141.8149380201019
 30
0.0
 10
68.10194909590787
 20
-138.4697580209379
 30
0.0
 10
68.10194909590787
 20
-134.7917674663022
 30
0.0
 10
68.10194909590787
 20
-134.7917674663022
 30
0.0
 10
68.10194909590787
 20
-122.7918196915241
 30
0.0
 10
68.10194909590787
 20
-122.7918196915241
 30
0.0
 10
68.10194909590787
 20
-122.7918196915241
 30
0.0
 10
68.60148241649705
 20
-122.7918196915241
 30
0.0
 10
68.60148241649705
 20
-122.7918196915241
 30
0.0
 10
68.60148241649705
 20
-122.7918196915241
 30
0.0
 10
68.60148241649705
 20
-121.7920474695519
 30
0.0
 10
68.60148241649705
 20
-121.7920474695519
 30
0.0
 10
68.60148241649705
 20
-121.7920474695519
 30
0.0
 10
68.10194909590787
 20
-121.7920474695519
 30
0.0
 10
68.10194909590787
 20
-121.7920474695519
 30
0.0
 10
68.10194909590787
 20
-121.7920474695519
 30
0.0
 10
67.1015083165579
 20
-122.7918196915241
 30
0.0
 10
67.1015083165579
 20
-122.7918196915241
 30
0.0
 10
67.1015083165579
 20
-122.7918196915241
 30
0.0
 10
67.1015083165579
 20
-134.7917674663022
 30
0.0
 10
67.1015083165579
 20
-134.7917674663022
 30
0.0
 10
67.1015083165579
 20
-134.7917674663022
 30
0.0
 10
67.1015083165579
 20
-134.7917674663022
 30
0.0
 10
67.1015083165579
 20
-134.7917674663022
 30
0.0
 10
67.1015083165579
 20
-144.1507149639625
 30
0.0
 10
73.9524156133167
 20
-149.7920549625523
 30
0.0
 10
84.60122423053184
 20
-149.7920549625523
 30
0.0
 10
84.60122423053184
 20
-149.7920549625523
 30
0.0
 10
94.101070932615
 20
-149.7920549625523
 30
0.0
 10
94.101070932615
 20
-149.7920549625523
 30
0.0
 10
94.101070932615
 20
-149.7920549625523
 30
0.0
 10
95.10151340709159
 20
-148.7919652405795
 30
0.0
 10
95.10151340709159
 20
-148.7919652405795
 30
0.0
 10
95.10151340709159
 20
-148.7919652405795
 30
0.0
 10
95.10151340709159
 20
-148.2920791295935
 30
0.0
 10
95.10151340709159
 20
-148.2920791295935
 30
0.0
 10
95.10151340709159
 20
-148.2920791295935
 30
0.0
 10
94.101070932615
 20
-148.2920791295935
 30
0.0
 10
94.101070932615
 20
-148.2920791295935
 30
0.0
 10
94.101070932615
 20
-148.2920791295935
 30
0.0
 10
94.101070932615
 20
-148.7919652405795
 30
0.0
 10
94.101070932615
 20
-148.7919652405795
 30
0.0
 10
94.101070932615
 20
-148.7919652405795
 30
0.0
 10
84.60122423053184
 20
-148.7919652405795
 30
0.0
 10
84.60122423053184
 20
-148.7919652405795
 30
0.0
 10
80.55320516713874
 20
-148.8033246850216
 30
0.0
 10
75.05036586308343
 20
-147.3591230187158
 30
0.0
 10
72.54853648246598
 20
-145.0216527415221
 30
0.0
 10
72.54853648246598
 20
-145.0216527415221
 30
0.0
 10
84.77690755938312
 20
-132.7884483001362
 30
0.0
 10
84.77690755938312
 20
-132.7884483001362
 30
0.0
 10
84.77690755938312
 20
-132.7884483001362
 30
0.0
 10
115.1006262302051
 20
-132.7884483001362
 30
0.0
 10
115.1006262302051
 20
-132.7884483001362
 30
0.0
  0
HATCH
  5
F1
330
1F
100
AcDbEntity
  8
_U+30EC_U+30A4_U+30E4_U+30FC 1
 62
   253
420
 11711154
100
AcDbHatch
 10
0.0
 20
0.0
 30
0.0
210
0.0
220
0.0
230
1.0
  2
SOLID
 70
     1
 71
     0
 91
        1
 92
        1
 93
        1
 72
     4
 94
        3
 73
     0
 74
     1
 95
       77
 96
       73
 40
0.0
 40
0.0
 40
0.0
 40
0.0
 40
1.0
 40
1.0
 40
1.0
 40
2.0
 40
2.0
 40
2.0
 40
3.0
 40
3.0
 40
3.0
 40
4.0
 40
4.0
 40
4.0
 40
5.0
 40
5.0
 40
5.0
 40
6.0
 40
6.0
 40
6.0
 40
7.0
 40
7.0
 40
7.0
 40
8.0
 40
8.0
 40
8.0
 40
9.0
 40
9.0
 40
9.0
 40
10.0
 40
10.0
 40
10.0
 40
11.0
 40
11.0
 40
11.0
 40
12.0
 40
12.0
 40
12.0
 40
13.0
 40
13.0
 40
13.0
 40
14.0
 40
14.0
 40
14.0
 40
15.0
 40
15.0
 40
15.0
 40
16.0
 40
16.0
 40
16.0
 40
17.0
 40
17.0
 40
17.0
 40
18.0
 40
18.0
 40
18.0
 40
19.0
 40
19.0
 40
19.0
 40
20.0
 40
20.0
 40
20.0
 40
21.0
 40
21.0
 40
21.0
 40
22.0
 40
22.0
 40
22.0
 40
23.0
 40
23.0
 40
23.0
 40
24.0
 40
24.0
 40
24.0
 40
24.0
 10
115.1006262302051
 20
-132.7884483001362
 10
115.1006262302051
 20
-132.7884483001362
 10
115.1006262302051
 20
-131.7880058003863
 10
115.1006262302051
 20
-131.7880058003863
 10
115.1006262302051
 20
-131.7880058003863
 10
85.10075755112102
 20
-131.7880058003863
 10
85.10075755112102
 20
-131.7880058003863
 10
85.10075755112102
 20
-131.7880058003863
 10
85.10075755112102
 20
-101.788101085664
 10
85.10075755112102
 20
-101.788101085664
 10
85.10075755112102
 20
-101.788101085664
 10
84.10098535440511
 20
-101.788101085664
 10
84.10098535440511
 20
-101.788101085664
 10
84.10098535440511
 20
-101.788101085664
 10
84.10098535440511
 20
-132.0498374669877
 10
84.10098535440511
 20
-132.0498374669877
 10
84.10098535440511
 20
-132.0498374669877
 10
71.84195788938118
 20
-144.3133102416996
 10
71.84195788938118
 20
-144.3133102416996
 10
69.52202072634549
 20
-141.8149380201019
 10
68.10194909590787
 20
-138.4697580209379
 10
68.10194909590787
 20
-134.7917674663022
 10
68.10194909590787
 20
-134.7917674663022
 10
68.10194909590787
 20
-122.7918196915241
 10
68.10194909590787
 20
-122.7918196915241
 10
68.10194909590787
 20
-122.7918196915241
 10
68.60148241649705
 20
-122.7918196915241
 10
68.60148241649705
 20
-122.7918196915241
 10
68.60148241649705
 20
-122.7918196915241
 10
68.60148241649705
 20
-121.7920474695519
 10
68.60148241649705
 20
-121.7920474695519
 10
68.60148241649705
 20
-121.7920474695519
 10
68.10194909590787
 20
-121.7920474695519
 10
68.10194909590787
 20
-121.7920474695519
 10
68.10194909590787
 20
-121.7920474695519
 10
67.1015083165579
 20
-122.7918196915241
 10
67.1015083165579
 20
-122.7918196915241
 10
67.1015083165579
 20
-122.7918196915241
 10
67.1015083165579
 20
-134.7917674663022
 10
67.1015083165579
 20
-134.7917674663022
 10
67.1015083165579
 20
-134.7917674663022
 10
67.1015083165579
 20
-134.7917674663022
 10
67.1015083165579
 20
-134.7917674663022
 10
67.1015083165579
 20
-144.1507149639625
 10
73.9524156133167
 20
-149.7920549625523
 10
84.60122423053184
 20
-149.7920549625523
 10
84.60122423053184
 20
-149.7920549625523
 10
94.101070932615
 20
-149.7920549625523
 10
94.101070932615
 20
-149.7920549625523
 10
94.101070932615
 20
-149.7920549625523
 10
95.10151340709159
 20
-148.7919652405795
 10
95.10151340709159
 20
-148.7919652405795
 10
95.10151340709159
 20
-148.7919652405795
 10
95.10151340709159
 20
-148.2920791295935
 10
95.10151340709159
 20
-148.2920791295935
 10
95.10151340709159
 20
-148.2920791295935
 10
94.101070932615
 20
-148.2920791295935
 10
94.101070932615
 20
-148.2920791295935
 10
94.101070932615
 20
-148.2920791295935
 10
94.101070932615
 20
-148.7919652405795
 10
94.101070932615
 20
-148.7919652405795
 10
94.101070932615
 20
-148.7919652405795
 10
84.60122423053184
 20
-148.7919652405795
 10
84.60122423053184
 20
-148.7919652405795
 10
80.55320516713874
 20
-148.8033246850216
 10
75.05036586308343
 20
-147.3591230187158
 10
72.54853648246598
 20
-145.0216527415221
 10
72.54853648246598
 20
-145.0216527415221
 10
84.77690755938312
 20
-132.7884483001362
 10
84.77690755938312
 20
-132.7884483001362
 10
84.77690755938312
 20
-132.7884483001362
 10
115.1006262302051
 20
-132.7884483001362
 10
115.1006262302051
 20
-132.7884483001362
 97
        0
 97
        0
 75
     2
 76
     1
 98
        0
  0
POLYLINE
  5
F2
330
1F
100
AcDbEntity
  8
_U+30EC_U+30A4_U+30E4_U+30FC 1
 62
     7
420
 16777215
370
     9
100
AcDb2dPolyline
 66
     1
 10
0.0
 20
0.0
 30
0.0
  0
VERTEX
  5
F3
330
F2
100
AcDbEntity
  8
_U+30EC_U+30A4_U+30E4_U+30FC 1
 62
     7
420
 16777215
370
     9
100
AcDbVertex
100
AcDb2dVertex
 10
71.1794765173936
 20
-145.6824055191352
 30
0.0
  0
VERTEX
  5
F4
330
F2
100
AcDbEntity
  8
_U+30EC_U+30A4_U+30E4_U+30FC 1
 62
     7
420
 16777215
370
     9
100
AcDbVertex
100
AcDb2dVertex
 10
70.26754598510333
 20
-146.1888532967859
 30
0.0
  0
SEQEND
  5
F5
330
F2
100
AcDbEntity
  8
_U+30EC_U+30A4_U+30E4_U+30FC 1
 62
     7
420
 16777215
370
     9
  0
POLYLINE
  5
F6
330
1F
100
AcDbEntity
  8
_U+30EC_U+30A4_U+30E4_U+30FC 1
 62
     7
420
 16777215
370
     9
100
AcDb2dPolyline
 66
     1
 10
0.0
 20
0.0
 30
0.0
  0
VERTEX
  5
F7
330
F6
100
AcDbEntity
  8
_U+30EC_U+30A4_U+30E4_U+30FC 1
 62
     7
420
 16777215
370
     9
100
AcDbVertex
100
AcDb2dVertex
 10
71.1794765173936
 20
-145.6824055191352
 30
0.0
  0
VERTEX
  5
F8
330
F6
100
AcDbEntity
  8
_U+30EC_U+30A4_U+30E4_U+30FC 1
 62
     7
420
 16777215
370
     9
100
AcDbVertex
100
AcDb2dVertex
 10
70.64201958666082
 20
-146.5764149633561
 30
0.0
  0
SEQEND
  5
F9
330
F6
100
AcDbEntity
  8
_U+30EC_U+30A4_U+30E4_U+30FC 1
 62
     7
420
 16777215
370
     9
  0
ENDSEC
  0
SECTION
  2
OBJECTS
  0
DICTIONARY
  5
C
330
0
100
AcDbDictionary
281
     1
  3
ACAD_GROUP
350
D
  3
ACAD_LAYOUT
350
1A
  3
ACAD_MATERIAL
350
3B
  3
ACAD_MLEADERSTYLE
350
FB
  3
ACAD_MLINESTYLE
350
17
  3
ACAD_PLOTSETTINGS
350
19
  3
ACAD_PLOTSTYLENAME
350
E
  3
ACAD_TABLESTYLE
350
FA
  3
ACAD_VISUALSTYLE
350
2A
  0
SUN
  5
3F
330
29
100
AcDbSun
 90
        1
290
     0
 63
     7
421
 16777215
 40
1.0
291
     1
 91
  2455826
 92
 54000000
292
     0
 70
     2
 71
   256
280
     1
  0
DICTIONARY
  5
D
102
{ACAD_REACTORS
330
C
102
}
330
C
100
AcDbDictionary
281
     1
  0
DICTIONARY
  5
1A
102
{ACAD_REACTORS
330
C
102
}
330
C
100
AcDbDictionary
281
     1
  3
Layout1
350
1E
  3
Layout2
350
26
  3
Model
350
22
  0
DICTIONARY
  5
3B
102
{ACAD_REACTORS
330
C
102
}
330
C
100
AcDbDictionary
281
     1
  3
ByBlock
350
3D
  3
ByLayer
350
3C
  3
Global
350
3E
  0
DICTIONARY
  5
FB
102
{ACAD_REACTORS
330
C
102
}
330
C
100
AcDbDictionary
281
     1
  0
DICTIONARY
  5
17
102
{ACAD_REACTORS
330
C
102
}
330
C
100
AcDbDictionary
281
     1
  3
Standard
350
18
  0
DICTIONARY
  5
19
102
{ACAD_REACTORS
330
C
102
}
330
C
100
AcDbDictionary
281
     1
  0
ACDBDICTIONARYWDFLT
  5
E
102
{ACAD_REACTORS
330
C
102
}
330
C
100
AcDbDictionary
281
     1
  3
Normal
350
F
100
AcDbDictionaryWithDefault
340
F
  0
DICTIONARY
  5
FA
102
{ACAD_REACTORS
330
C
102
}
330
C
100
AcDbDictionary
281
     1
  0
DICTIONARY
  5
2A
102
{ACAD_REACTORS
330
C
102
}
330
C
100
AcDbDictionary
281
     1
  3
2dWireframe
350
2F
  3
3D Hidden
350
31
  3
3dWireframe
350
30
  3
Basic
350
32
  3
Brighten
350
36
  3
ColorChange
350
3A
  3
Conceptual
350
34
  3
Dim
350
35
  3
Facepattern
350
39
  3
Flat
350
2B
  3
FlatWithEdges
350
2C
  3
Gouraud
350
2D
  3
GouraudWithEdges
350
2E
  3
Linepattern
350
38
  3
Realistic
350
33
  3
Thicken
350
37
  0
LAYOUT
  5
1E
102
{ACAD_REACTORS
330
1A
102
}
330
1A
100
AcDbPlotSettings
  1

  2
none_device
  4

  6

 40
0.0
 41
0.0
 42
0.0
 43
0.0
 44
0.0
 45
0.0
 46
0.0
 47
0.0
 48
0.0
 49
0.0
140
0.0
141
0.0
142
1.0
143
1.0
 70
   688
 72
     0
 73
     0
 74
     5
  7

 75
    16
 76
     0
 77
     2
 78
   300
147
1.0
148
0.0
149
0.0
100
AcDbLayout
  1
Layout1
 70
     1
 71
     1
 10
0.0
 20
0.0
 11
12.0
 21
9.0
 12
0.0
 22
0.0
 32
0.0
 14
1.000000000000000E+20
 24
1.000000000000000E+20
 34
1.000000000000000E+20
 15
-1.000000000000000E+20
 25
-1.000000000000000E+20
 35
-1.000000000000000E+20
146
0.0
 13
0.0
 23
0.0
 33
0.0
 16
1.0
 26
0.0
 36
0.0
 17
0.0
 27
1.0
 37
0.0
 76
     0
330
1B
  0
LAYOUT
  5
26
102
{ACAD_REACTORS
330
1A
102
}
330
1A
100
AcDbPlotSettings
  1

  2
none_device
  4

  6

 40
0.0
 41
0.0
 42
0.0
 43
0.0
 44
0.0
 45
0.0
 46
0.0
 47
0.0
 48
0.0
 49
0.0
140
0.0
141
0.0
142
1.0
143
1.0
 70
   688
 72
     0
 73
     0
 74
     5
  7

 75
    16
 76
     0
 77
     2
 78
   300
147
1.0
148
0.0
149
0.0
100
AcDbLayout
  1
Layout2
 70
     1
 71
     2
 10
0.0
 20
0.0
 11
0.0
 21
0.0
 12
0.0
 22
0.0
 32
0.0
 14
0.0
 24
0.0
 34
0.0
 15
0.0
 25
0.0
 35
0.0
146
0.0
 13
0.0
 23
0.0
 33
0.0
 16
1.0
 26
0.0
 36
0.0
 17
0.0
 27
1.0
 37
0.0
 76
     0
330
23
  0
LAYOUT
  5
22
102
{ACAD_REACTORS
330
1A
102
}
330
1A
100
AcDbPlotSettings
  1

  2
none_device
  4

  6

 40
0.0
 41
0.0
 42
0.0
 43
0.0
 44
0.0
 45
0.0
 46
0.0
 47
0.0
 48
0.0
 49
0.0
140
0.0
141
0.0
142
1.0
143
1.0
 70
  1712
 72
     0
 73
     0
 74
     0
  7

 75
     0
 76
     0
 77
     2
 78
   300
147
1.0
148
0.0
149
0.0
100
AcDbLayout
  1
Model
 70
     1
 71
     0
 10
0.0
 20
0.0
 11
12.0
 21
9.0
 12
0.0
 22
0.0
 32
0.0
 14
1.000000000000000E+20
 24
1.000000000000000E+20
 34
1.000000000000000E+20
 15
-1.000000000000000E+20
 25
-1.000000000000000E+20
 35
-1.000000000000000E+20
146
0.0
 13
0.0
 23
0.0
 33
0.0
 16
1.0
 26
0.0
 36
0.0
 17
0.0
 27
1.0
 37
0.0
 76
     0
330
1F
331
29
  0
MATERIAL
  5
3D
102
{ACAD_REACTORS
330
3B
102
}
330
3B
100
AcDbMaterial
  1
ByBlock
 72
     1
 94
      127
  0
MATERIAL
  5
3C
102
{ACAD_REACTORS
330
3B
102
}
330
3B
100
AcDbMaterial
  1
ByLayer
 72
     1
 94
      127
  0
MATERIAL
  5
3E
102
{ACAD_REACTORS
330
3B
102
}
330
3B
100
AcDbMaterial
  1
Global
 72
     1
 94
      127
  0
MLINESTYLE
  5
18
102
{ACAD_REACTORS
330
17
102
}
330
17
100
AcDbMlineStyle
  2
Standard
 70
     0
  3

 62
   256
 51
90.0
 52
90.0
 71
     2
 49
0.5
 62
   256
  6
BYLAYER
 49
-0.5
 62
   256
  6
BYLAYER
  0
ACDBPLACEHOLDER
  5
F
102
{ACAD_REACTORS
330
E
102
}
330
E
  0
VISUALSTYLE
  5
2F
102
{ACAD_REACTORS
330
2A
102
}
330
2A
100
AcDbVisualStyle
  2
2dWireframe
 70
     4
177
     2
291
     0
 71
     0
176
     1
 72
     2
176
     1
 73
     0
176
     1
 90
        0
176
     1
 40
-0.6
176
     1
 41
-30.0
176
     1
 62
     5
 63
     7
421
 16777215
176
     1
 74
     1
176
     1
 91
        4
176
     1
 64
     7
176
     1
 65
   257
176
     1
 75
     1
176
     1
175
     1
176
     1
 42
1.0
176
     1
 92
        0
176
     1
 66
   257
176
     1
 43
1.0
176
     1
 76
     1
176
     1
 77
     6
176
     1
 78
     2
176
     1
 67
     7
176
     1
 79
     5
176
     1
170
     0
176
     1
171
     0
176
     1
290
     0
176
     1
 93
        1
176
     1
 44
0.0
176
     1
173
     0
176
     1
  0
VISUALSTYLE
  5
31
102
{ACAD_REACTORS
330
2A
102
}
330
2A
100
AcDbVisualStyle
  2
3D Hidden
 70
     6
177
     2
291
     0
 71
     1
176
     1
 72
     2
176
     1
 73
     2
176
     1
 90
        0
176
     1
 40
-0.6
176
     1
 41
-30.0
176
     1
 62
     5
 63
     7
421
 16777215
176
     1
 74
     2
176
     1
 91
        2
176
     1
 64
     7
176
     1
 65
   257
176
     1
 75
     2
176
     1
175
     1
176
     1
 42
40.0
176
     1
 92
        0
176
     1
 66
   257
176
     1
 43
1.0
176
     1
 76
     1
176
     1
 77
     6
176
     1
 78
     2
176
     1
 67
     7
176
     1
 79
     3
176
     1
170
     0
176
     1
171
     0
176
     1
290
     0
176
     1
 93
        1
176
     1
 44
0.0
176
     1
173
     0
176
     1
  0
VISUALSTYLE
  5
30
102
{ACAD_REACTORS
330
2A
102
}
330
2A
100
AcDbVisualStyle
  2
3dWireframe
 70
     5
177
     2
291
     0
 71
     0
176
     1
 72
     2
176
     1
 73
     0
176
     1
 90
        0
176
     1
 40
-0.6
176
     1
 41
-30.0
176
     1
 62
     5
 63
     7
421
 16777215
176
     1
 74
     1
176
     1
 91
        4
176
     1
 64
     7
176
     1
 65
   257
176
     1
 75
     1
176
     1
175
     1
176
     1
 42
1.0
176
     1
 92
        0
176
     1
 66
   257
176
     1
 43
1.0
176
     1
 76
     1
176
     1
 77
     6
176
     1
 78
     2
176
     1
 67
     7
176
     1
 79
     5
176
     1
170
     0
176
     1
171
     0
176
     1
290
     0
176
     1
 93
        1
176
     1
 44
0.0
176
     1
173
     0
176
     1
  0
VISUALSTYLE
  5
32
102
{ACAD_REACTORS
330
2A
102
}
330
2A
100
AcDbVisualStyle
  2
Basic
 70
     7
177
     2
291
     1
 71
     1
176
     1
 72
     0
176
     1
 73
     1
176
     1
 90
        0
176
     1
 40
-0.6
176
     1
 41
-30.0
176
     1
 62
     5
 63
     7
421
 16777215
176
     1
 74
     0
176
     1
 91
        4
176
     1
 64
     7
176
     1
 65
   257
176
     1
 75
     1
176
     1
175
     1
176
     1
 42
1.0
176
     1
 92
        8
176
     1
 66
     7
176
     1
 43
1.0
176
     1
 76
     1
176
     1
 77
     6
176
     1
 78
     2
176
     1
 67
     7
176
     1
 79
     5
176
     1
170
     0
176
     1
171
     0
176
     1
290
     0
176
     1
 93
        1
176
     1
 44
0.0
176
     1
173
     0
176
     1
  0
VISUALSTYLE
  5
36
102
{ACAD_REACTORS
330
2A
102
}
330
2A
100
AcDbVisualStyle
  2
Brighten
 70
    12
177
     2
291
     1
 71
     2
176
     1
 72
     2
176
     1
 73
     0
176
     1
 90
        0
176
     1
 40
-0.6
176
     1
 41
-30.0
176
     1
 62
     5
 63
     7
421
 16777215
176
     1
 74
     1
176
     1
 91
        4
176
     1
 64
     7
176
     1
 65
   257
176
     1
 75
     1
176
     1
175
     1
176
     1
 42
1.0
176
     1
 92
        8
176
     1
 66
     7
176
     1
 43
1.0
176
     1
 76
     1
176
     1
 77
     6
176
     1
 78
     2
176
     1
 67
     7
176
     1
 79
     5
176
     1
170
     0
176
     1
171
     0
176
     1
290
     0
176
     1
 93
        1
176
     1
 44
50.0
176
     1
173
     0
176
     1
  0
VISUALSTYLE
  5
3A
102
{ACAD_REACTORS
330
2A
102
}
330
2A
100
AcDbVisualStyle
  2
ColorChange
 70
    16
177
     2
291
     1
 71
     2
176
     1
 72
     2
176
     1
 73
     3
176
     1
 90
        0
176
     1
 40
-0.6
176
     1
 41
-30.0
176
     1
 62
     5
 63
     8
421
  8421504
176
     1
 74
     1
176
     1
 91
        4
176
     1
 64
     7
176
     1
 65
   257
176
     1
 75
     1
176
     1
175
     1
176
     1
 42
1.0
176
     1
 92
        8
176
     1
 66
     8
424
  8421504
176
     1
 43
1.0
176
     1
 76
     1
176
     1
 77
     6
176
     1
 78
     2
176
     1
 67
     7
176
     1
 79
     5
176
     1
170
     0
176
     1
171
     0
176
     1
290
     0
176
     1
 93
        1
176
     1
 44
0.0
176
     1
173
     0
176
     1
  0
VISUALSTYLE
  5
34
102
{ACAD_REACTORS
330
2A
102
}
330
2A
100
AcDbVisualStyle
  2
Conceptual
 70
     9
177
     2
291
     0
 71
     3
176
     1
 72
     2
176
     1
 73
     0
176
     1
 90
        0
176
     1
 40
-0.6
176
     1
 41
-30.0
176
     1
 62
     5
 63
     7
421
 16777215
176
     1
 74
     2
176
     1
 91
        2
176
     1
 64
     7
176
     1
 65
   257
176
     1
 75
     1
176
     1
175
     1
176
     1
 42
40.0
176
     1
 92
        8
176
     1
 66
     7
176
     1
 43
1.0
176
     1
 76
     1
176
     1
 77
     6
176
     1
 78
     2
176
     1
 67
     7
176
     1
 79
     3
176
     1
170
     0
176
     1
171
     0
176
     1
290
     0
176
     1
 93
        1
176
     1
 44
0.0
176
     1
173
     0
176
     1
  0
VISUALSTYLE
  5
35
102
{ACAD_REACTORS
330
2A
102
}
330
2A
100
AcDbVisualStyle
  2
Dim
 70
    11
177
     2
291
     1
 71
     2
176
     1
 72
     2
176
     1
 73
     0
176
     1
 90
        0
176
     1
 40
-0.6
176
     1
 41
-30.0
176
     1
 62
     5
 63
     7
421
 16777215
176
     1
 74
     1
176
     1
 91
        4
176
     1
 64
     7
176
     1
 65
   257
176
     1
 75
     1
176
     1
175
     1
176
     1
 42
1.0
176
     1
 92
        8
176
     1
 66
     7
176
     1
 43
1.0
176
     1
 76
     1
176
     1
 77
     6
176
     1
 78
     2
176
     1
 67
     7
176
     1
 79
     5
176
     1
170
     0
176
     1
171
     0
176
     1
290
     0
176
     1
 93
        1
176
     1
 44
-50.0
176
     1
173
     0
176
     1
  0
VISUALSTYLE
  5
39
102
{ACAD_REACTORS
330
2A
102
}
330
2A
100
AcDbVisualStyle
  2
Facepattern
 70
    15
177
     2
291
     1
 71
     2
176
     1
 72
     2
176
     1
 73
     0
176
     1
 90
        0
176
     1
 40
-0.6
176
     1
 41
-30.0
176
     1
 62
     5
 63
     7
421
 16777215
176
     1
 74
     1
176
     1
 91
        4
176
     1
 64
     7
176
     1
 65
   257
176
     1
 75
     1
176
     1
175
     1
176
     1
 42
1.0
176
     1
 92
        8
176
     1
 66
     7
176
     1
 43
1.0
176
     1
 76
     1
176
     1
 77
     6
176
     1
 78
     2
176
     1
 67
     7
176
     1
 79
     5
176
     1
170
     0
176
     1
171
     0
176
     1
290
     0
176
     1
 93
        1
176
     1
 44
0.0
176
     1
173
     0
176
     1
  0
VISUALSTYLE
  5
2B
102
{ACAD_REACTORS
330
2A
102
}
330
2A
100
AcDbVisualStyle
  2
Flat
 70
     0
177
     2
291
     1
 71
     2
176
     1
 72
     1
176
     1
 73
     1
176
     1
 90
        2
176
     1
 40
-0.6
176
     1
 41
30.0
176
     1
 62
     5
 63
     7
421
 16777215
176
     1
 74
     0
176
     1
 91
        4
176
     1
 64
     7
176
     1
 65
   257
176
     1
 75
     1
176
     1
175
     1
176
     1
 42
1.0
176
     1
 92
        8
176
     1
 66
     7
176
     1
 43
1.0
176
     1
 76
     1
176
     1
 77
     6
176
     1
 78
     2
176
     1
 67
     7
176
     1
 79
     5
176
     1
170
     0
176
     1
171
     0
176
     1
290
     0
176
     1
 93
       13
176
     1
 44
0.0
176
     1
173
     0
176
     1
  0
VISUALSTYLE
  5
2C
102
{ACAD_REACTORS
330
2A
102
}
330
2A
100
AcDbVisualStyle
  2
FlatWithEdges
 70
     1
177
     2
291
     1
 71
     2
176
     1
 72
     1
176
     1
 73
     1
176
     1
 90
        2
176
     1
 40
-0.6
176
     1
 41
30.0
176
     1
 62
     5
 63
     7
421
 16777215
176
     1
 74
     1
176
     1
 91
        4
176
     1
 64
     7
176
     1
 65
   257
176
     1
 75
     1
176
     1
175
     1
176
     1
 42
1.0
176
     1
 92
        0
176
     1
 66
   257
176
     1
 43
1.0
176
     1
 76
     1
176
     1
 77
     6
176
     1
 78
     2
176
     1
 67
     7
176
     1
 79
     5
176
     1
170
     0
176
     1
171
     0
176
     1
290
     0
176
     1
 93
       13
176
     1
 44
0.0
176
     1
173
     0
176
     1
  0
VISUALSTYLE
  5
2D
102
{ACAD_REACTORS
330
2A
102
}
330
2A
100
AcDbVisualStyle
  2
Gouraud
 70
     2
177
     2
291
     1
 71
     2
176
     1
 72
     2
176
     1
 73
     1
176
     1
 90
        2
176
     1
 40
-0.6
176
     1
 41
30.0
176
     1
 62
     5
 63
     7
421
 16777215
176
     1
 74
     0
176
     1
 91
        4
176
     1
 64
     7
176
     1
 65
   257
176
     1
 75
     1
176
     1
175
     1
176
     1
 42
1.0
176
     1
 92
        0
176
     1
 66
     7
176
     1
 43
1.0
176
     1
 76
     1
176
     1
 77
     6
176
     1
 78
     2
176
     1
 67
     7
176
     1
 79
     5
176
     1
170
     0
176
     1
171
     0
176
     1
290
     0
176
     1
 93
       13
176
     1
 44
0.0
176
     1
173
     0
176
     1
  0
VISUALSTYLE
  5
2E
102
{ACAD_REACTORS
330
2A
102
}
330
2A
100
AcDbVisualStyle
  2
GouraudWithEdges
 70
     3
177
     2
291
     1
 71
     2
176
     1
 72
     2
176
     1
 73
     1
176
     1
 90
        2
176
     1
 40
-0.6
176
     1
 41
30.0
176
     1
 62
     5
 63
     7
421
 16777215
176
     1
 74
     1
176
     1
 91
        4
176
     1
 64
     7
176
     1
 65
   257
176
     1
 75
     1
176
     1
175
     1
176
     1
 42
1.0
176
     1
 92
        0
176
     1
 66
   257
176
     1
 43
1.0
176
     1
 76
     1
176
     1
 77
     6
176
     1
 78
     2
176
     1
 67
     7
176
     1
 79
     5
176
     1
170
     0
176
     1
171
     0
176
     1
290
     0
176
     1
 93
       13
176
     1
 44
0.0
176
     1
173
     0
176
     1
  0
VISUALSTYLE
  5
38
102
{ACAD_REACTORS
330
2A
102
}
330
2A
100
AcDbVisualStyle
  2
Linepattern
 70
    14
177
     2
291
     1
 71
     2
176
     1
 72
     2
176
     1
 73
     0
176
     1
 90
        0
176
     1
 40
-0.6
176
     1
 41
-30.0
176
     1
 62
     5
 63
     7
421
 16777215
176
     1
 74
     1
176
     1
 91
        4
176
     1
 64
     7
176
     1
 65
   257
176
     1
 75
     7
176
     1
175
     7
176
     1
 42
1.0
176
     1
 92
        8
176
     1
 66
     7
176
     1
 43
1.0
176
     1
 76
     1
176
     1
 77
     6
176
     1
 78
     2
176
     1
 67
     7
176
     1
 79
     5
176
     1
170
     0
176
     1
171
     0
176
     1
290
     0
176
     1
 93
        1
176
     1
 44
0.0
176
     1
173
     0
176
     1
  0
VISUALSTYLE
  5
33
102
{ACAD_REACTORS
330
2A
102
}
330
2A
100
AcDbVisualStyle
  2
Realistic
 70
     8
177
     2
291
     0
 71
     2
176
     1
 72
     2
176
     1
 73
     0
176
     1
 90
        0
176
     1
 40
-0.6
176
     1
 41
-30.0
176
     1
 62
     5
 63
     7
421
 16777215
176
     1
 74
     1
176
     1
 91
        0
176
     1
 64
     7
176
     1
 65
   257
176
     1
 75
     1
176
     1
175
     1
176
     1
 42
1.0
176
     1
 92
        8
176
     1
 66
     8
424
  7895160
176
     1
 43
1.0
176
     1
 76
     1
176
     1
 77
     6
176
     1
 78
     2
176
     1
 67
     7
176
     1
 79
     5
176
     1
170
     0
176
     1
171
     0
176
     1
290
     0
176
     1
 93
       13
176
     1
 44
0.0
176
     1
173
     0
176
     1
  0
VISUALSTYLE
  5
37
102
{ACAD_REACTORS
330
2A
102
}
330
2A
100
AcDbVisualStyle
  2
Thicken
 70
    13
177
     2
291
     1
 71
     2
176
     1
 72
     2
176
     1
 73
     0
176
     1
 90
        0
176
     1
 40
-0.6
176
     1
 41
-30.0
176
     1
 62
     5
 63
     7
421
 16777215
176
     1
 74
     1
176
     1
 91
        4
176
     1
 64
     7
176
     1
 65
   257
176
     1
 75
     1
176
     1
175
     1
176
     1
 42
1.0
176
     1
 92
       12
176
     1
 66
     7
176
     1
 43
1.0
176
     1
 76
     1
176
     1
 77
     6
176
     1
 78
     2
176
     1
 67
     7
176
     1
 79
     5
176
     1
170
     0
176
     1
171
     0
176
     1
290
     0
176
     1
 93
        1
176
     1
 44
0.0
176
     1
173
     0
176
     1
  0
ENDSEC
  0
EOF
