  0
SECTION
  2
HEADER
  9
$ACADVER
  1
AC1024
  9
$ACADMAINTVER
 70
     6
  9
$DWGCODEPAGE
  3
UNDEFINED
  9
$INSBASE
 10
0.0
 20
0.0
 30
0.0
  9
$EXTMIN
 10
1.000000000000000E+20
 20
1.000000000000000E+20
 30
1.000000000000000E+20
  9
$EXTMAX
 10
-1.000000000000000E+20
 20
-1.000000000000000E+20
 30
-1.000000000000000E+20
  9
$LIMMIN
 10
0.0
 20
0.0
  9
$LIMMAX
 10
12.0
 20
9.0
  9
$ORTHOMODE
 70
     0
  9
$REGENMODE
 70
     1
  9
$FILLMODE
 70
     1
  9
$QTEXTMODE
 70
     0
  9
$MIRRTEXT
 70
     1
  9
$LTSCALE
 40
1.0
  9
$ATTMODE
 70
     1
  9
$TEXTSIZE
 40
0.2
  9
$TRACEWID
 40
0.05
  9
$TEXTSTYLE
  7
Standard
  9
$CLAYER
  8
0
  9
$CELTYPE
  6
ByLayer
  9
$CECOLOR
 62
   256
  9
$CELTSCALE
 40
1.0
  9
$DISPSILH
 70
     0
  9
$DIMSCALE
 40
1.0
  9
$DIMASZ
 40
0.18
  9
$DIMEXO
 40
0.0625
  9
$DIMDLI
 40
0.38
  9
$DIMRND
 40
0.0
  9
$DIMDLE
 40
0.0
  9
$DIMEXE
 40
0.18
  9
$DIMTP
 40
0.0
  9
$DIMTM
 40
0.0
  9
$DIMTXT
 40
0.18
  9
$DIMCEN
 40
0.09
  9
$DIMTSZ
 40
0.0
  9
$DIMTOL
 70
     0
  9
$DIMLIM
 70
     0
  9
$DIMTIH
 70
     1
  9
$DIMTOH
 70
     1
  9
$DIMSE1
 70
     0
  9
$DIMSE2
 70
     0
  9
$DIMTAD
 70
     0
  9
$DIMZIN
 70
     0
  9
$DIMBLK
  1

  9
$DIMASO
 70
     1
  9
$DIMSHO
 70
     1
  9
$DIMPOST
  1

  9
$DIMAPOST
  1

  9
$DIMALT
 70
     0
  9
$DIMALTD
 70
     2
  9
$DIMALTF
 40
25.4
  9
$DIMLFAC
 40
1.0
  9
$DIMTOFL
 70
     0
  9
$DIMTVP
 40
0.0
  9
$DIMTIX
 70
     0
  9
$DIMSOXD
 70
     0
  9
$DIMSAH
 70
     0
  9
$DIMBLK1
  1

  9
$DIMBLK2
  1

  9
$DIMSTYLE
  2
Standard
  9
$DIMCLRD
 70
     0
  9
$DIMCLRE
 70
     0
  9
$DIMCLRT
 70
     0
  9
$DIMTFAC
 40
1.0
  9
$DIMGAP
 40
0.09
  9
$DIMJUST
 70
     0
  9
$DIMSD1
 70
     0
  9
$DIMSD2
 70
     0
  9
$DIMTOLJ
 70
     1
  9
$DIMTZIN
 70
     0
  9
$DIMALTZ
 70
     0
  9
$DIMALTTZ
 70
     0
  9
$DIMUPT
 70
     0
  9
$DIMDEC
 70
     4
  9
$DIMTDEC
 70
     4
  9
$DIMALTU
 70
     2
  9
$DIMALTTD
 70
     2
  9
$DIMTXSTY
  7
Standard
  9
$DIMAUNIT
 70
     0
  9
$DIMADEC
 70
     0
  9
$DIMALTRND
 40
0.0
  9
$DIMAZIN
 70
     0
  9
$DIMDSEP
 70
    46
  9
$DIMATFIT
 70
     3
  9
$DIMFRAC
 70
     0
  9
$DIMLDRBLK
  1

  9
$DIMLUNIT
 70
     2
  9
$DIMLWD
 70
    -2
  9
$DIMLWE
 70
    -2
  9
$DIMTMOVE
 70
     0
  9
$DIMFXL
 40
1.0
  9
$DIMFXLON
 70
     0
  9
$DIMJOGANG
 40
0.7853981633974483
  9
$DIMTFILL
 70
     0
  9
$DIMTFILLCLR
 70
     0
  9
$DIMARCSYM
 70
     0
  9
$DIMLTYPE
  6

  9
$DIMLTEX1
  6

  9
$DIMLTEX2
  6

  9
$DIMTXTDIRECTION
 70
     0
  9
$LUNITS
 70
     2
  9
$LUPREC
 70
     4
  9
$SKETCHINC
 40
0.1
  9
$FILLETRAD
 40
0.5
  9
$AUNITS
 70
     0
  9
$AUPREC
 70
     0
  9
$MENU
  1
.
  9
$ELEVATION
 40
0.0
  9
$PELEVATION
 40
0.0
  9
$THICKNESS
 40
0.0
  9
$LIMCHECK
 70
     0
  9
$CHAMFERA
 40
0.5
  9
$CHAMFERB
 40
0.5
  9
$CHAMFERC
 40
1.0
  9
$CHAMFERD
 40
0.0
  9
$SKPOLY
 70
     0
  9
$TDCREATE
 40
2457917.623067118
  9
$TDUCREATE
 40
2457917.248067129
  9
$TDUPDATE
 40
2457917.623067118
  9
$TDUUPDATE
 40
2457917.248067129
  9
$TDINDWG
 40
0.0000000116
  9
$TDUSRTIMER
 40
0.0000000116
  9
$USRTIMER
 70
     1
  9
$ANGBASE
 50
0.0
  9
$ANGDIR
 70
     0
  9
$PDMODE
 70
     0
  9
$PDSIZE
 40
0.0
  9
$PLINEWID
 40
0.0
  9
$SPLFRAME
 70
     0
  9
$SPLINETYPE
 70
     6
  9
$SPLINESEGS
 70
     8
  9
$HANDSEED
  5
E9
  9
$SURFTAB1
 70
     6
  9
$SURFTAB2
 70
     6
  9
$SURFTYPE
 70
     6
  9
$SURFU
 70
     6
  9
$SURFV
 70
     6
  9
$UCSBASE
  2

  9
$UCSNAME
  2

  9
$UCSORG
 10
0.0
 20
0.0
 30
0.0
  9
$UCSXDIR
 10
1.0
 20
0.0
 30
0.0
  9
$UCSYDIR
 10
0.0
 20
1.0
 30
0.0
  9
$UCSORTHOREF
  2

  9
$UCSORTHOVIEW
 70
     0
  9
$UCSORGTOP
 10
0.0
 20
0.0
 30
0.0
  9
$UCSORGBOTTOM
 10
0.0
 20
0.0
 30
0.0
  9
$UCSORGLEFT
 10
0.0
 20
0.0
 30
0.0
  9
$UCSORGRIGHT
 10
0.0
 20
0.0
 30
0.0
  9
$UCSORGFRONT
 10
0.0
 20
0.0
 30
0.0
  9
$UCSORGBACK
 10
0.0
 20
0.0
 30
0.0
  9
$PUCSBASE
  2

  9
$PUCSNAME
  2

  9
$PUCSORG
 10
0.0
 20
0.0
 30
0.0
  9
$PUCSXDIR
 10
1.0
 20
0.0
 30
0.0
  9
$PUCSYDIR
 10
0.0
 20
1.0
 30
0.0
  9
$PUCSORTHOREF
  2

  9
$PUCSORTHOVIEW
 70
     0
  9
$PUCSORGTOP
 10
0.0
 20
0.0
 30
0.0
  9
$PUCSORGBOTTOM
 10
0.0
 20
0.0
 30
0.0
  9
$PUCSORGLEFT
 10
0.0
 20
0.0
 30
0.0
  9
$PUCSORGRIGHT
 10
0.0
 20
0.0
 30
0.0
  9
$PUCSORGFRONT
 10
0.0
 20
0.0
 30
0.0
  9
$PUCSORGBACK
 10
0.0
 20
0.0
 30
0.0
  9
$USERI1
 70
     0
  9
$USERI2
 70
     0
  9
$USERI3
 70
     0
  9
$USERI4
 70
     0
  9
$USERI5
 70
     0
  9
$USERR1
 40
0.0
  9
$USERR2
 40
0.0
  9
$USERR3
 40
0.0
  9
$USERR4
 40
0.0
  9
$USERR5
 40
0.0
  9
$WORLDVIEW
 70
     1
  9
$SHADEDGE
 70
     3
  9
$SHADEDIF
 70
    70
  9
$TILEMODE
 70
     1
  9
$MAXACTVP
 70
    64
  9
$PINSBASE
 10
0.0
 20
0.0
 30
0.0
  9
$PLIMCHECK
 70
     0
  9
$PEXTMIN
 10
1.000000000000000E+20
 20
1.000000000000000E+20
 30
1.000000000000000E+20
  9
$PEXTMAX
 10
-1.000000000000000E+20
 20
-1.000000000000000E+20
 30
-1.000000000000000E+20
  9
$PLIMMIN
 10
0.0
 20
0.0
  9
$PLIMMAX
 10
12.0
 20
9.0
  9
$UNITMODE
 70
     0
  9
$VISRETAIN
 70
     1
  9
$PLINEGEN
 70
     0
  9
$PSLTSCALE
 70
     1
  9
$TREEDEPTH
 70
  3020
  9
$CMLSTYLE
  2
Standard
  9
$CMLJUST
 70
     0
  9
$CMLSCALE
 40
1.0
  9
$PROXYGRAPHICS
 70
     1
  9
$MEASUREMENT
 70
     0
  9
$CELWEIGHT
370
    -1
  9
$ENDCAPS
280
     0
  9
$JOINSTYLE
280
     0
  9
$LWDISPLAY
290
     1
  9
$INSUNITS
 70
     1
  9
$HYPERLINKBASE
  1

  9
$STYLESHEET
  1

  9
$XEDIT
290
     1
  9
$CEPSNTYPE
380
     0
  9
$PSTYLEMODE
290
     1
  9
$FINGERPRINTGUID
  2
{6CEB52B6-F3E4-27EF-6B3B-E0AF36E89E2E}
  9
$VERSIONGUID
  2
{FAEB1C32-E019-11D5-929B-00C0DF256EC4}
  9
$EXTNAMES
290
     1
  9
$PSVPSCALE
 40
0.0
  9
$OLESTARTUP
290
     0
  9
$SORTENTS
280
   127
  9
$INDEXCTL
280
     0
  9
$HIDETEXT
280
     1
  9
$XCLIPFRAME
280
     2
  9
$HALOGAP
280
     0
  9
$OBSCOLOR
 70
   257
  9
$OBSLTYPE
280
     0
  9
$INTERSECTIONDISPLAY
280
     0
  9
$INTERSECTIONCOLOR
 70
   257
  9
$DIMASSOC
280
     2
  9
$PROJECTNAME
  1

  9
$CAMERADISPLAY
290
     0
  9
$LENSLENGTH
 40
50.0
  9
$CAMERAHEIGHT
 40
0.0
  9
$STEPSPERSEC
 40
2.0
  9
$STEPSIZE
 40
6.0
  9
$3DDWFPREC
 40
2.0
  9
$PSOLWIDTH
 40
0.25
  9
$PSOLHEIGHT
 40
4.0
  9
$LOFTANG1
 40
1.570796326794897
  9
$LOFTANG2
 40
1.570796326794897
  9
$LOFTMAG1
 40
0.0
  9
$LOFTMAG2
 40
0.0
  9
$LOFTPARAM
 70
     7
  9
$LOFTNORMALS
280
     1
  9
$LATITUDE
 40
37.795
  9
$LONGITUDE
 40
-122.394
  9
$NORTHDIRECTION
 40
0.0
  9
$TIMEZONE
 70
 -8000
  9
$LIGHTGLYPHDISPLAY
280
     1
  9
$TILEMODELIGHTSYNCH
280
     1
  9
$CMATERIAL
347
3C
  9
$SOLIDHIST
280
     1
  9
$SHOWHIST
280
     1
  9
$DWFFRAME
280
     2
  9
$DGNFRAME
280
     2
  9
$REALWORLDSCALE
290
     1
  9
$INTERFERECOLOR
 62
   256
  9
$CSHADOW
280
     0
  9
$SHADOWPLANELOCATION
 40
0.0
  0
ENDSEC
  0
SECTION
  2
CLASSES
  0
CLASS
  1
ACDBDICTIONARYWDFLT
  2
AcDbDictionaryWithDefault
  3
ObjectDBX Classes
 90
        0
 91
        4
280
     0
281
     0
  0
CLASS
  1
VISUALSTYLE
  2
AcDbVisualStyle
  3
ObjectDBX Classes
 90
     4095
 91
        4
280
     0
281
     0
  0
CLASS
  1
MATERIAL
  2
AcDbMaterial
  3
ObjectDBX Classes
 90
     1153
 91
        4
280
     0
281
     0
  0
CLASS
  1
SUN
  2
AcDbSun
  3
SCENEOE
 90
     1024
 91
        4
280
     0
281
     0
  0
ENDSEC
  0
SECTION
  2
TABLES
  0
TABLE
  2
VPORT
  5
8
330
0
100
AcDbSymbolTable
 70
     1
  0
VPORT
  5
29
330
8
100
AcDbSymbolTableRecord
100
AcDbViewportTableRecord
  2
*Active
 70
     0
 10
0.0
 20
0.0
 11
1.0
 21
1.0
 12
0.0
 22
0.0
 13
0.0
 23
0.0
 14
0.5
 24
0.5
 15
0.5
 25
0.5
 16
0.0
 26
0.0
 36
1.0
 17
91.00082462281999
 27
-128.4993055234307
 37
0.0
 40
256.9986110468615
 41
0.7081814508812795
 42
50.0
 43
0.0
 44
0.0
 50
0.0
 51
0.0
 71
     0
 72
   100
 73
     1
 74
     3
 75
     0
 76
     0
 77
     0
 78
     0
281
     0
 65
     1
110
0.0
120
0.0
130
0.0
111
1.0
121
0.0
131
0.0
112
0.0
122
1.0
132
0.0
 79
     0
146
0.0
 60
     3
 61
     5
292
     1
282
     1
141
0.0
142
0.0
 63
   250
361
3F
  0
ENDTAB
  0
TABLE
  2
LTYPE
  5
5
330
0
100
AcDbSymbolTable
 70
     1
  0
LTYPE
  5
14
330
5
100
AcDbSymbolTableRecord
100
AcDbLinetypeTableRecord
  2
ByBlock
 70
     0
  3

 72
    65
 73
     0
 40
0.0
  0
LTYPE
  5
15
330
5
100
AcDbSymbolTableRecord
100
AcDbLinetypeTableRecord
  2
ByLayer
 70
     0
  3

 72
    65
 73
     0
 40
0.0
  0
LTYPE
  5
16
330
5
100
AcDbSymbolTableRecord
100
AcDbLinetypeTableRecord
  2
Continuous
 70
     0
  3
Solid line
 72
    65
 73
     0
 40
0.0
  0
ENDTAB
  0
TABLE
  2
LAYER
  5
2
330
0
100
AcDbSymbolTable
 70
     2
  0
LAYER
  5
10
330
2
100
AcDbSymbolTableRecord
100
AcDbLayerTableRecord
  2
0
 70
     0
 62
     7
  6
Continuous
370
    -3
390
F
347
3E
  0
LAYER
  5
40
330
2
100
AcDbSymbolTableRecord
100
AcDbLayerTableRecord
  2
_U+30EC_U+30A4_U+30E4_U+30FC 1
 70
     0
 62
     7
  6
Continuous
370
    -3
390
F
347
3E
  0
ENDTAB
  0
TABLE
  2
STYLE
  5
3
330
0
100
AcDbSymbolTable
 70
     1
  0
STYLE
  5
11
330
3
100
AcDbSymbolTableRecord
100
AcDbTextStyleTableRecord
  2
Standard
 70
     0
 40
0.0
 41
1.0
 50
0.0
 71
     0
 42
0.2
  3
txt
  4

  0
ENDTAB
  0
TABLE
  2
VIEW
  5
6
330
0
100
AcDbSymbolTable
 70
     0
  0
ENDTAB
  0
TABLE
  2
UCS
  5
7
330
0
100
AcDbSymbolTable
 70
     0
  0
ENDTAB
  0
TABLE
  2
APPID
  5
9
330
0
100
AcDbSymbolTable
 70
     1
  0
APPID
  5
12
330
9
100
AcDbSymbolTableRecord
100
AcDbRegAppTableRecord
  2
ACAD
 70
     0
  0
ENDTAB
  0
TABLE
  2
DIMSTYLE
  5
A
330
0
100
AcDbSymbolTable
 70
     1
100
AcDbDimStyleTable
  0
DIMSTYLE
105
27
330
A
100
AcDbSymbolTableRecord
100
AcDbDimStyleTableRecord
  2
Standard
 70
     0
178
     0
340
11
  0
ENDTAB
  0
TABLE
  2
BLOCK_RECORD
  5
1
330
0
100
AcDbSymbolTable
 70
     8
  0
BLOCK_RECORD
  5
1F
330
1
100
AcDbSymbolTableRecord
100
AcDbBlockTableRecord
  2
*Model_Space
340
22
 70
     0
280
     1
281
     0
  0
BLOCK_RECORD
  5
1B
330
1
100
AcDbSymbolTableRecord
100
AcDbBlockTableRecord
  2
*Paper_Space
340
1E
 70
     0
280
     1
281
     0
  0
BLOCK_RECORD
  5
23
330
1
100
AcDbSymbolTableRecord
100
AcDbBlockTableRecord
  2
*Paper_Space0
340
26
 70
     0
280
     1
281
     0
  0
BLOCK_RECORD
  5
66
330
1
100
AcDbSymbolTableRecord
100
AcDbBlockTableRecord
  2
block 2
340
0
102
{BLKREFS
331
67
102
}
 70
     0
280
     1
281
     0
  0
BLOCK_RECORD
  5
6D
330
1
100
AcDbSymbolTableRecord
100
AcDbBlockTableRecord
  2
block 3
340
0
102
{BLKREFS
331
6E
102
}
 70
     0
280
     1
281
     0
  0
BLOCK_RECORD
  5
76
330
1
100
AcDbSymbolTableRecord
100
AcDbBlockTableRecord
  2
block 4
340
0
102
{BLKREFS
331
77
102
}
 70
     0
280
     1
281
     0
  0
BLOCK_RECORD
  5
7C
330
1
100
AcDbSymbolTableRecord
100
AcDbBlockTableRecord
  2
block 5
340
0
102
{BLKREFS
331
7D
102
}
 70
     0
280
     1
281
     0
  0
BLOCK_RECORD
  5
9E
330
1
100
AcDbSymbolTableRecord
100
AcDbBlockTableRecord
  2
block 6
340
0
102
{BLKREFS
331
9F
102
}
 70
     0
280
     1
281
     0
  0
BLOCK_RECORD
  5
B2
330
1
100
AcDbSymbolTableRecord
100
AcDbBlockTableRecord
  2
block 7
340
0
102
{BLKREFS
331
B3
102
}
 70
     0
280
     1
281
     0
  0
BLOCK_RECORD
  5
DE
330
1
100
AcDbSymbolTableRecord
100
AcDbBlockTableRecord
  2
block 8
340
0
102
{BLKREFS
331
DF
102
}
 70
     0
280
     1
281
     0
  0
ENDTAB
  0
ENDSEC
  0
SECTION
  2
BLOCKS
  0
BLOCK
  5
20
330
1F
100
AcDbEntity
  8
0
100
AcDbBlockBegin
  2
*Model_Space
 70
     0
 10
0.0
 20
0.0
 30
0.0
  3
*Model_Space
  1

  0
ENDBLK
  5
21
330
1F
100
AcDbEntity
  8
0
100
AcDbBlockEnd
  0
BLOCK
  5
1C
330
1B
100
AcDbEntity
 67
     1
  8
0
100
AcDbBlockBegin
  2
*Paper_Space
 70
     0
 10
0.0
 20
0.0
 30
0.0
  3
*Paper_Space
  1

  0
ENDBLK
  5
1D
330
1B
100
AcDbEntity
 67
     1
  8
0
100
AcDbBlockEnd
  0
BLOCK
  5
24
330
23
100
AcDbEntity
  8
0
100
AcDbBlockBegin
  2
*Paper_Space0
 70
     0
 10
0.0
 20
0.0
 30
0.0
  3
*Paper_Space0
  1

  0
ENDBLK
  5
25
330
23
100
AcDbEntity
  8
0
100
AcDbBlockEnd
  0
BLOCK
  5
68
330
66
100
AcDbEntity
  8
0
100
AcDbBlockBegin
  2
block 2
 70
     0
 10
0.0
 20
0.0
 30
0.0
  3
block 2
  1

  0
SPLINE
  5
6A
330
66
100
AcDbEntity
  8
_U+30EC_U+30A4_U+30E4_U+30FC 1
370
     0
100
AcDbSpline
210
0.0
220
0.0
230
1.0
 70
    11
 71
     3
 72
    32
 73
    28
 74
     0
 42
0.0000000001
 43
0.0000000001
 12
1.0
 22
0.0
 32
0.0
 13
1.0
 23
0.0
 33
0.0
 40
0.0
 40
0.0
 40
0.0
 40
0.0
 40
1.0
 40
1.0
 40
1.0
 40
2.0
 40
2.0
 40
2.0
 40
3.0
 40
3.0
 40
3.0
 40
4.0
 40
4.0
 40
4.0
 40
5.0
 40
5.0
 40
5.0
 40
6.0
 40
6.0
 40
6.0
 40
7.0
 40
7.0
 40
7.0
 40
8.0
 40
8.0
 40
8.0
 40
9.0
 40
9.0
 40
9.0
 40
9.0
 10
72.77350801132052
 20
-135.4439290025973
 30
0.0
 10
72.77350801132052
 20
-135.5955132039483
 30
0.0
 10
72.70357257296995
 20
-135.8104871622279
 30
0.0
 10
72.37146536819186
 20
-135.8439045884349
 30
0.0
 10
72.37146536819186
 20
-135.8439045884349
 30
0.0
 10
72.37146536819186
 20
-135.6568359035858
 30
0.0
 10
72.37146536819186
 20
-135.6568359035858
 30
0.0
 10
72.43072101053815
 20
-135.6475341457756
 30
0.0
 10
72.5788601164039
 20
-135.6196288723451
 30
0.0
 10
72.5788601164039
 20
-135.4418619453062
 30
0.0
 10
72.5788601164039
 20
-135.1862358603007
 30
0.0
 10
72.24881996891696
 20
-135.1531629436423
 30
0.0
 10
72.04366453277034
 20
-135.1421386380895
 30
0.0
 10
72.12393525757666
 20
-135.2217203437988
 30
0.0
 10
72.1811238426318
 20
-135.2809759861451
 30
0.0
 10
72.1811238426318
 20
-135.4401393975636
 30
0.0
 10
72.1811238426318
 20
-135.5975802612395
 30
0.0
 10
72.07535941123463
 20
-135.8621635945067
 30
0.0
 10
71.66918265352368
 20
-135.8621635945067
 30
0.0
 10
71.34965004726676
 20
-135.8621635945067
 30
0.0
 10
71.12968070053356
 20
-135.6881862725016
 30
0.0
 10
71.12968070053356
 20
-135.4105115763904
 30
0.0
 10
71.12968070053356
 20
-134.9605821060168
 30
0.0
 10
71.68399656411026
 20
-134.9512803482066
 30
0.0
 10
71.89759248419574
 20
-134.9512803482066
 30
0.0
 10
72.12824162693322
 20
-134.9512803482066
 30
0.0
 10
72.77350801132052
 20
-134.9678168065358
 30
0.0
 10
72.77350801132052
 20
-135.4439290025973
 30
0.0
  0
SPLINE
  5
6B
330
66
100
AcDbEntity
  8
_U+30EC_U+30A4_U+30E4_U+30FC 1
370
     0
100
AcDbSpline
210
0.0
220
0.0
230
1.0
 70
    11
 71
     3
 72
    17
 73
    13
 74
     0
 42
0.0000000001
 43
0.0000000001
 12
1.0
 22
0.0
 32
0.0
 13
1.0
 23
0.0
 33
0.0
 40
0.0
 40
0.0
 40
0.0
 40
0.0
 40
1.0
 40
1.0
 40
1.0
 40
2.0
 40
2.0
 40
2.0
 40
3.0
 40
3.0
 40
3.0
 40
4.0
 40
4.0
 40
4.0
 40
4.0
 10
71.32226153815903
 20
-135.4087890286478
 30
0.0
 10
71.32226153815903
 20
-135.5121418932053
 30
0.0
 10
71.3792778684399
 20
-135.666137661396
 30
0.0
 10
71.66487628416712
 20
-135.666137661396
 30
0.0
 10
71.89121905754803
 20
-135.666137661396
 30
0.0
 10
71.98647594771519
 20
-135.5438367716696
 30
0.0
 10
71.98647594771519
 20
-135.425325486977
 30
0.0
 10
71.98647594771519
 20
-135.1958821276594
 30
0.0
 10
71.777014142212
 20
-135.1624647014524
 30
0.0
 10
71.66074216958482
 20
-135.1624647014524
 30
0.0
 10
71.48504229983708
 20
-135.1624647014524
 30
0.0
 10
71.32226153815903
 20
-135.245491502647
 30
0.0
 10
71.32226153815903
 20
-135.4087890286478
 30
0.0
  0
HATCH
  5
6C
330
66
100
AcDbEntity
  8
_U+30EC_U+30A4_U+30E4_U+30FC 1
 62
   179
420
  2234388
100
AcDbHatch
 10
0.0
 20
0.0
 30
0.0
210
0.0
220
0.0
230
1.0
  2
SOLID
 70
     1
 71
     0
 91
        2
 92
        1
 93
        1
 72
     4
 94
        3
 73
     0
 74
     1
 95
       32
 96
       28
 40
0.0
 40
0.0
 40
0.0
 40
0.0
 40
1.0
 40
1.0
 40
1.0
 40
2.0
 40
2.0
 40
2.0
 40
3.0
 40
3.0
 40
3.0
 40
4.0
 40
4.0
 40
4.0
 40
5.0
 40
5.0
 40
5.0
 40
6.0
 40
6.0
 40
6.0
 40
7.0
 40
7.0
 40
7.0
 40
8.0
 40
8.0
 40
8.0
 40
9.0
 40
9.0
 40
9.0
 40
9.0
 10
72.77350801132052
 20
-135.4439290025973
 10
72.77350801132052
 20
-135.5955132039483
 10
72.70357257296995
 20
-135.8104871622279
 10
72.37146536819186
 20
-135.8439045884349
 10
72.37146536819186
 20
-135.8439045884349
 10
72.37146536819186
 20
-135.6568359035858
 10
72.37146536819186
 20
-135.6568359035858
 10
72.43072101053815
 20
-135.6475341457756
 10
72.5788601164039
 20
-135.6196288723451
 10
72.5788601164039
 20
-135.4418619453062
 10
72.5788601164039
 20
-135.1862358603007
 10
72.24881996891696
 20
-135.1531629436423
 10
72.04366453277034
 20
-135.1421386380895
 10
72.12393525757666
 20
-135.2217203437988
 10
72.1811238426318
 20
-135.2809759861451
 10
72.1811238426318
 20
-135.4401393975636
 10
72.1811238426318
 20
-135.5975802612395
 10
72.07535941123463
 20
-135.8621635945067
 10
71.66918265352368
 20
-135.8621635945067
 10
71.34965004726676
 20
-135.8621635945067
 10
71.12968070053356
 20
-135.6881862725016
 10
71.12968070053356
 20
-135.4105115763904
 10
71.12968070053356
 20
-134.9605821060168
 10
71.68399656411026
 20
-134.9512803482066
 10
71.89759248419574
 20
-134.9512803482066
 10
72.12824162693322
 20
-134.9512803482066
 10
72.77350801132052
 20
-134.9678168065358
 10
72.77350801132052
 20
-135.4439290025973
 97
        0
 97
        0
 92
        1
 93
        1
 72
     4
 94
        3
 73
     0
 74
     1
 95
       17
 96
       13
 40
0.0
 40
0.0
 40
0.0
 40
0.0
 40
1.0
 40
1.0
 40
1.0
 40
2.0
 40
2.0
 40
2.0
 40
3.0
 40
3.0
 40
3.0
 40
4.0
 40
4.0
 40
4.0
 40
4.0
 10
71.32226153815903
 20
-135.4087890286478
 10
71.32226153815903
 20
-135.5121418932053
 10
71.3792778684399
 20
-135.666137661396
 10
71.66487628416712
 20
-135.666137661396
 10
71.89121905754803
 20
-135.666137661396
 10
71.98647594771519
 20
-135.5438367716696
 10
71.98647594771519
 20
-135.425325486977
 10
71.98647594771519
 20
-135.1958821276594
 10
71.777014142212
 20
-135.1624647014524
 10
71.66074216958482
 20
-135.1624647014524
 10
71.48504229983708
 20
-135.1624647014524
 10
71.32226153815903
 20
-135.245491502647
 10
71.32226153815903
 20
-135.4087890286478
 97
        0
 97
        0
 75
     2
 76
     1
 98
        0
  0
ENDBLK
  5
69
330
66
100
AcDbEntity
  8
0
100
AcDbBlockEnd
  0
BLOCK
  5
6F
330
6D
100
AcDbEntity
  8
0
100
AcDbBlockBegin
  2
block 3
 70
     0
 10
0.0
 20
0.0
 30
0.0
  3
block 3
  1

  0
SPLINE
  5
71
330
6D
100
AcDbEntity
  8
_U+30EC_U+30A4_U+30E4_U+30FC 1
370
     0
100
AcDbSpline
210
0.0
220
0.0
230
1.0
 70
    11
 71
     3
 72
    44
 73
    40
 74
     0
 42
0.0000000001
 43
0.0000000001
 12
1.0
 22
0.0
 32
0.0
 13
1.0
 23
0.0
 33
0.0
 40
0.0
 40
0.0
 40
0.0
 40
0.0
 40
1.0
 40
1.0
 40
1.0
 40
2.0
 40
2.0
 40
2.0
 40
3.0
 40
3.0
 40
3.0
 40
4.0
 40
4.0
 40
4.0
 40
5.0
 40
5.0
 40
5.0
 40
6.0
 40
6.0
 40
6.0
 40
7.0
 40
7.0
 40
7.0
 40
8.0
 40
8.0
 40
8.0
 40
9.0
 40
9.0
 40
9.0
 40
10.0
 40
10.0
 40
10.0
 40
11.0
 40
11.0
 40
11.0
 40
12.0
 40
12.0
 40
12.0
 40
13.0
 40
13.0
 40
13.0
 40
13.0
 10
72.14098848022864
 20
-121.3555555252167
 30
0.0
 10
72.2996351273244
 20
-121.5462415603253
 30
0.0
 10
72.37370468025728
 20
-121.6277180685514
 30
0.0
 10
72.51753741676646
 20
-121.6702649977942
 30
0.0
 10
72.51753741676646
 20
-121.6702649977942
 30
0.0
 10
72.51753741676646
 20
-120.9888251108118
 30
0.0
 10
72.51753741676646
 20
-120.9888251108118
 30
0.0
 10
72.51753741676646
 20
-120.9888251108118
 30
0.0
 10
72.72269285291308
 20
-120.9888251108118
 30
0.0
 10
72.72269285291308
 20
-120.9888251108118
 30
0.0
 10
72.72269285291308
 20
-120.9888251108118
 30
0.0
 10
72.72269285291308
 20
-121.8888563063334
 30
0.0
 10
72.72269285291308
 20
-121.8888563063334
 30
0.0
 10
72.36509194154415
 20
-121.8609510329028
 30
0.0
 10
72.28688827402898
 20
-121.8035901930734
 30
0.0
 10
71.98854300500633
 20
-121.4664875998417
 30
0.0
 10
71.78976099550742
 20
-121.2425563933005
 30
0.0
 10
71.72206486922227
 20
-121.1850232986968
 30
0.0
 10
71.5846055593608
 20
-121.1850232986968
 30
0.0
 10
71.46609427466821
 20
-121.1850232986968
 30
0.0
 10
71.33500839145445
 20
-121.2480685460769
 30
0.0
 10
71.33500839145445
 20
-121.4203233203394
 30
0.0
 10
71.33500839145445
 20
-121.6480441319144
 30
0.0
 10
71.56548527941766
 20
-121.6554510872077
 30
0.0
 10
71.6819295068191
 20
-121.6590684374672
 30
0.0
 10
71.6819295068191
 20
-121.6590684374672
 30
0.0
 10
71.6819295068191
 20
-121.8554388801264
 30
0.0
 10
71.6819295068191
 20
-121.8554388801264
 30
0.0
 10
71.55497773818765
 20
-121.8480319248331
 30
0.0
 10
71.44283988014277
 20
-121.838730167023
 30
0.0
 10
71.32432859545017
 20
-121.7684502191239
 30
0.0
 10
71.16361489106326
 20
-121.6721598003111
 30
0.0
 10
71.12968070053356
 20
-121.5092067838588
 30
0.0
 10
71.12968070053356
 20
-121.4072319574954
 30
0.0
 10
71.12968070053356
 20
-121.1646972353338
 30
0.0
 10
71.31382105422016
 20
-120.9833129580354
 30
0.0
 10
71.58667261665195
 20
-120.9833129580354
 30
0.0
 10
71.81508244732402
 20
-120.9833129580354
 30
0.0
 10
71.91464570684774
 20
-121.0851155296246
 30
0.0
 10
72.14098848022864
 20
-121.3555555252167
 30
0.0
  0
HATCH
  5
72
330
6D
100
AcDbEntity
  8
_U+30EC_U+30A4_U+30E4_U+30FC 1
 62
   179
420
  2234388
100
AcDbHatch
 10
0.0
 20
0.0
 30
0.0
210
0.0
220
0.0
230
1.0
  2
SOLID
 70
     1
 71
     0
 91
        1
 92
        1
 93
        1
 72
     4
 94
        3
 73
     0
 74
     1
 95
       44
 96
       40
 40
0.0
 40
0.0
 40
0.0
 40
0.0
 40
1.0
 40
1.0
 40
1.0
 40
2.0
 40
2.0
 40
2.0
 40
3.0
 40
3.0
 40
3.0
 40
4.0
 40
4.0
 40
4.0
 40
5.0
 40
5.0
 40
5.0
 40
6.0
 40
6.0
 40
6.0
 40
7.0
 40
7.0
 40
7.0
 40
8.0
 40
8.0
 40
8.0
 40
9.0
 40
9.0
 40
9.0
 40
10.0
 40
10.0
 40
10.0
 40
11.0
 40
11.0
 40
11.0
 40
12.0
 40
12.0
 40
12.0
 40
13.0
 40
13.0
 40
13.0
 40
13.0
 10
72.14098848022864
 20
-121.3555555252167
 10
72.2996351273244
 20
-121.5462415603253
 10
72.37370468025728
 20
-121.6277180685514
 10
72.51753741676646
 20
-121.6702649977942
 10
72.51753741676646
 20
-121.6702649977942
 10
72.51753741676646
 20
-120.9888251108118
 10
72.51753741676646
 20
-120.9888251108118
 10
72.51753741676646
 20
-120.9888251108118
 10
72.72269285291308
 20
-120.9888251108118
 10
72.72269285291308
 20
-120.9888251108118
 10
72.72269285291308
 20
-120.9888251108118
 10
72.72269285291308
 20
-121.8888563063334
 10
72.72269285291308
 20
-121.8888563063334
 10
72.36509194154415
 20
-121.8609510329028
 10
72.28688827402898
 20
-121.8035901930734
 10
71.98854300500633
 20
-121.4664875998417
 10
71.78976099550742
 20
-121.2425563933005
 10
71.72206486922227
 20
-121.1850232986968
 10
71.5846055593608
 20
-121.1850232986968
 10
71.46609427466821
 20
-121.1850232986968
 10
71.33500839145445
 20
-121.2480685460769
 10
71.33500839145445
 20
-121.4203233203394
 10
71.33500839145445
 20
-121.6480441319144
 10
71.56548527941766
 20
-121.6554510872077
 10
71.6819295068191
 20
-121.6590684374672
 10
71.6819295068191
 20
-121.6590684374672
 10
71.6819295068191
 20
-121.8554388801264
 10
71.6819295068191
 20
-121.8554388801264
 10
71.55497773818765
 20
-121.8480319248331
 10
71.44283988014277
 20
-121.838730167023
 10
71.32432859545017
 20
-121.7684502191239
 10
71.16361489106326
 20
-121.6721598003111
 10
71.12968070053356
 20
-121.5092067838588
 10
71.12968070053356
 20
-121.4072319574954
 10
71.12968070053356
 20
-121.1646972353338
 10
71.31382105422016
 20
-120.9833129580354
 10
71.58667261665195
 20
-120.9833129580354
 10
71.81508244732402
 20
-120.9833129580354
 10
71.91464570684774
 20
-121.0851155296246
 10
72.14098848022864
 20
-121.3555555252167
 97
        0
 97
        0
 75
     2
 76
     1
 98
        0
  0
SPLINE
  5
73
330
6D
100
AcDbEntity
  8
_U+30EC_U+30A4_U+30E4_U+30FC 1
370
     0
100
AcDbSpline
210
0.0
220
0.0
230
1.0
 70
    11
 71
     3
 72
    29
 73
    25
 74
     0
 42
0.0000000001
 43
0.0000000001
 12
1.0
 22
0.0
 32
0.0
 13
1.0
 23
0.0
 33
0.0
 40
0.0
 40
0.0
 40
0.0
 40
0.0
 40
1.0
 40
1.0
 40
1.0
 40
2.0
 40
2.0
 40
2.0
 40
3.0
 40
3.0
 40
3.0
 40
4.0
 40
4.0
 40
4.0
 40
5.0
 40
5.0
 40
5.0
 40
6.0
 40
6.0
 40
6.0
 40
7.0
 40
7.0
 40
7.0
 40
8.0
 40
8.0
 40
8.0
 40
8.0
 10
72.54492592587418
 20
-120.0581325654716
 30
0.0
 10
72.75438773137738
 20
-120.1525281817674
 30
0.0
 10
72.77350801132052
 20
-120.3042846378927
 30
0.0
 10
72.77350801132052
 20
-120.4060872094818
 30
0.0
 10
72.77350801132052
 20
-120.5469916148285
 30
0.0
 10
72.72699922226964
 20
-120.6710150522975
 30
0.0
 10
72.54492592587418
 20
-120.7543863630406
 30
0.0
 10
72.35027803095757
 20
-120.8449923743026
 30
0.0
 10
72.11342771634665
 20
-120.8617010874061
 30
0.0
 10
71.95047469989433
 20
-120.8617010874061
 30
0.0
 10
71.80664196338515
 20
-120.8617010874061
 30
0.0
 10
71.55497773818765
 20
-120.8468871768195
 30
0.0
 10
71.35602347391448
 20
-120.7543863630406
 30
0.0
 10
71.152935095059
 20
-120.6598184919705
 30
0.0
 10
71.12968070053356
 20
-120.519086341398
 30
0.0
 10
71.12968070053356
 20
-120.4060872094818
 30
0.0
 10
71.12968070053356
 20
-120.2672498614263
 30
0.0
 10
71.17412243229327
 20
-120.1413316214404
 30
0.0
 10
71.35602347391448
 20
-120.0581325654716
 30
0.0
 10
71.54860431153993
 20
-119.9709716496948
 30
0.0
 10
71.777014142212
 20
-119.9506455863318
 30
0.0
 10
71.95047469989433
 20
-119.9506455863318
 30
0.0
 10
72.1218682002855
 20
-119.9506455863318
 30
0.0
 10
72.35251734302298
 20
-119.9692491019521
 30
0.0
 10
72.54492592587418
 20
-120.0581325654716
 30
0.0
  0
SPLINE
  5
74
330
6D
100
AcDbEntity
  8
_U+30EC_U+30A4_U+30E4_U+30FC 1
370
     0
100
AcDbSpline
210
0.0
220
0.0
230
1.0
 70
    11
 71
     3
 72
    17
 73
    13
 74
     0
 42
0.0000000001
 43
0.0000000001
 12
1.0
 22
0.0
 32
0.0
 13
1.0
 23
0.0
 33
0.0
 40
0.0
 40
0.0
 40
0.0
 40
0.0
 40
1.0
 40
1.0
 40
1.0
 40
2.0
 40
2.0
 40
2.0
 40
3.0
 40
3.0
 40
3.0
 40
4.0
 40
4.0
 40
4.0
 40
4.0
 10
71.32226153815903
 20
-120.4060872094818
 30
0.0
 10
71.32226153815903
 20
-120.6246785180209
 30
0.0
 10
71.60579289659508
 20
-120.6655028995211
 30
0.0
 10
71.95047469989433
 20
-120.6655028995211
 30
0.0
 10
72.27000730615126
 20
-120.6655028995211
 30
0.0
 10
72.5788601164039
 20
-120.6339802758311
 30
0.0
 10
72.5788601164039
 20
-120.4060872094818
 30
0.0
 10
72.5788601164039
 20
-120.1895629582339
 30
0.0
 10
72.297395815259
 20
-120.147016028991
 30
0.0
 10
71.95047469989433
 20
-120.147016028991
 30
0.0
 10
71.63111434841167
 20
-120.147016028991
 30
0.0
 10
71.32226153815903
 20
-120.1802612004237
 30
0.0
 10
71.32226153815903
 20
-120.4060872094818
 30
0.0
  0
HATCH
  5
75
330
6D
100
AcDbEntity
  8
_U+30EC_U+30A4_U+30E4_U+30FC 1
 62
   179
420
  2234388
100
AcDbHatch
 10
0.0
 20
0.0
 30
0.0
210
0.0
220
0.0
230
1.0
  2
SOLID
 70
     1
 71
     0
 91
        2
 92
        1
 93
        1
 72
     4
 94
        3
 73
     0
 74
     1
 95
       29
 96
       25
 40
0.0
 40
0.0
 40
0.0
 40
0.0
 40
1.0
 40
1.0
 40
1.0
 40
2.0
 40
2.0
 40
2.0
 40
3.0
 40
3.0
 40
3.0
 40
4.0
 40
4.0
 40
4.0
 40
5.0
 40
5.0
 40
5.0
 40
6.0
 40
6.0
 40
6.0
 40
7.0
 40
7.0
 40
7.0
 40
8.0
 40
8.0
 40
8.0
 40
8.0
 10
72.54492592587418
 20
-120.0581325654716
 10
72.75438773137738
 20
-120.1525281817674
 10
72.77350801132052
 20
-120.3042846378927
 10
72.77350801132052
 20
-120.4060872094818
 10
72.77350801132052
 20
-120.5469916148285
 10
72.72699922226964
 20
-120.6710150522975
 10
72.54492592587418
 20
-120.7543863630406
 10
72.35027803095757
 20
-120.8449923743026
 10
72.11342771634665
 20
-120.8617010874061
 10
71.95047469989433
 20
-120.8617010874061
 10
71.80664196338515
 20
-120.8617010874061
 10
71.55497773818765
 20
-120.8468871768195
 10
71.35602347391448
 20
-120.7543863630406
 10
71.152935095059
 20
-120.6598184919705
 10
71.12968070053356
 20
-120.519086341398
 10
71.12968070053356
 20
-120.4060872094818
 10
71.12968070053356
 20
-120.2672498614263
 10
71.17412243229327
 20
-120.1413316214404
 10
71.35602347391448
 20
-120.0581325654716
 10
71.54860431153993
 20
-119.9709716496948
 10
71.777014142212
 20
-119.9506455863318
 10
71.95047469989433
 20
-119.9506455863318
 10
72.1218682002855
 20
-119.9506455863318
 10
72.35251734302298
 20
-119.9692491019521
 10
72.54492592587418
 20
-120.0581325654716
 97
        0
 97
        0
 92
        1
 93
        1
 72
     4
 94
        3
 73
     0
 74
     1
 95
       17
 96
       13
 40
0.0
 40
0.0
 40
0.0
 40
0.0
 40
1.0
 40
1.0
 40
1.0
 40
2.0
 40
2.0
 40
2.0
 40
3.0
 40
3.0
 40
3.0
 40
4.0
 40
4.0
 40
4.0
 40
4.0
 10
71.32226153815903
 20
-120.4060872094818
 10
71.32226153815903
 20
-120.6246785180209
 10
71.60579289659508
 20
-120.6655028995211
 10
71.95047469989433
 20
-120.6655028995211
 10
72.27000730615126
 20
-120.6655028995211
 10
72.5788601164039
 20
-120.6339802758311
 10
72.5788601164039
 20
-120.4060872094818
 10
72.5788601164039
 20
-120.1895629582339
 10
72.297395815259
 20
-120.147016028991
 10
71.95047469989433
 20
-120.147016028991
 10
71.63111434841167
 20
-120.147016028991
 10
71.32226153815903
 20
-120.1802612004237
 10
71.32226153815903
 20
-120.4060872094818
 97
        0
 97
        0
 75
     2
 76
     1
 98
        0
  0
ENDBLK
  5
70
330
6D
100
AcDbEntity
  8
0
100
AcDbBlockEnd
  0
BLOCK
  5
78
330
76
100
AcDbEntity
  8
0
100
AcDbBlockBegin
  2
block 4
 70
     0
 10
0.0
 20
0.0
 30
0.0
  3
block 4
  1

  0
SPLINE
  5
7A
330
76
100
AcDbEntity
  8
_U+30EC_U+30A4_U+30E4_U+30FC 1
370
     0
100
AcDbSpline
210
0.0
220
0.0
230
1.0
 70
    11
 71
     3
 72
    26
 73
    22
 74
     0
 42
0.0000000001
 43
0.0000000001
 12
1.0
 22
0.0
 32
0.0
 13
1.0
 23
0.0
 33
0.0
 40
0.0
 40
0.0
 40
0.0
 40
0.0
 40
1.0
 40
1.0
 40
1.0
 40
2.0
 40
2.0
 40
2.0
 40
3.0
 40
3.0
 40
3.0
 40
4.0
 40
4.0
 40
4.0
 40
5.0
 40
5.0
 40
5.0
 40
6.0
 40
6.0
 40
6.0
 40
7.0
 40
7.0
 40
7.0
 40
7.0
 10
109.0827473685627
 20
-136.6634928043758
 30
0.0
 10
109.0827473685627
 20
-136.6634928043758
 30
0.0
 10
109.0827473685627
 20
-136.8708875525878
 30
0.0
 10
109.0827473685627
 20
-136.8708875525878
 30
0.0
 10
108.7740668130843
 20
-136.8484944319337
 30
0.0
 10
108.2555799425542
 20
-136.680029262705
 30
0.0
 10
107.750184434868
 20
-136.3244954086272
 30
0.0
 10
107.750184434868
 20
-136.3244954086272
 30
0.0
 10
107.750184434868
 20
-137.0576117278884
 30
0.0
 10
107.750184434868
 20
-137.0576117278884
 30
0.0
 10
107.750184434868
 20
-137.0576117278884
 30
0.0
 10
107.5386555720737
 20
-137.0576117278884
 30
0.0
 10
107.5386555720737
 20
-137.0576117278884
 30
0.0
 10
107.5386555720737
 20
-137.0576117278884
 30
0.0
 10
107.5386555720737
 20
-136.1171006604152
 30
0.0
 10
107.5386555720737
 20
-136.1171006604152
 30
0.0
 10
107.5386555720737
 20
-136.1171006604152
 30
0.0
 10
107.750184434868
 20
-136.1171006604152
 30
0.0
 10
107.750184434868
 20
-136.1171006604152
 30
0.0
 10
108.039572455629
 20
-136.4002875093027
 30
0.0
 10
108.632128879092
 20
-136.6338649832026
 30
0.0
 10
109.0827473685627
 20
-136.6634928043758
 30
0.0
  0
HATCH
  5
7B
330
76
100
AcDbEntity
  8
_U+30EC_U+30A4_U+30E4_U+30FC 1
 62
   179
420
  2234388
100
AcDbHatch
 10
0.0
 20
0.0
 30
0.0
210
0.0
220
0.0
230
1.0
  2
SOLID
 70
     1
 71
     0
 91
        1
 92
        1
 93
        1
 72
     4
 94
        3
 73
     0
 74
     1
 95
       26
 96
       22
 40
0.0
 40
0.0
 40
0.0
 40
0.0
 40
1.0
 40
1.0
 40
1.0
 40
2.0
 40
2.0
 40
2.0
 40
3.0
 40
3.0
 40
3.0
 40
4.0
 40
4.0
 40
4.0
 40
5.0
 40
5.0
 40
5.0
 40
6.0
 40
6.0
 40
6.0
 40
7.0
 40
7.0
 40
7.0
 40
7.0
 10
109.0827473685627
 20
-136.6634928043758
 10
109.0827473685627
 20
-136.6634928043758
 10
109.0827473685627
 20
-136.8708875525878
 10
109.0827473685627
 20
-136.8708875525878
 10
108.7740668130843
 20
-136.8484944319337
 10
108.2555799425542
 20
-136.680029262705
 10
107.750184434868
 20
-136.3244954086272
 10
107.750184434868
 20
-136.3244954086272
 10
107.750184434868
 20
-137.0576117278884
 10
107.750184434868
 20
-137.0576117278884
 10
107.750184434868
 20
-137.0576117278884
 10
107.5386555720737
 20
-137.0576117278884
 10
107.5386555720737
 20
-137.0576117278884
 10
107.5386555720737
 20
-137.0576117278884
 10
107.5386555720737
 20
-136.1171006604152
 10
107.5386555720737
 20
-136.1171006604152
 10
107.5386555720737
 20
-136.1171006604152
 10
107.750184434868
 20
-136.1171006604152
 10
107.750184434868
 20
-136.1171006604152
 10
108.039572455629
 20
-136.4002875093027
 10
108.632128879092
 20
-136.6338649832026
 10
109.0827473685627
 20
-136.6634928043758
 97
        0
 97
        0
 75
     2
 76
     1
 98
        0
  0
ENDBLK
  5
79
330
76
100
AcDbEntity
  8
0
100
AcDbBlockEnd
  0
BLOCK
  5
7E
330
7C
100
AcDbEntity
  8
0
100
AcDbBlockBegin
  2
block 5
 70
     0
 10
0.0
 20
0.0
 30
0.0
  3
block 5
  1

  0
SPLINE
  5
80
330
7C
100
AcDbEntity
  8
_U+30EC_U+30A4_U+30E4_U+30FC 1
370
     0
100
AcDbSpline
210
0.0
220
0.0
230
1.0
 70
    11
 71
     3
 72
    26
 73
    22
 74
     0
 42
0.0000000001
 43
0.0000000001
 12
1.0
 22
0.0
 32
0.0
 13
1.0
 23
0.0
 33
0.0
 40
0.0
 40
0.0
 40
0.0
 40
0.0
 40
1.0
 40
1.0
 40
1.0
 40
2.0
 40
2.0
 40
2.0
 40
3.0
 40
3.0
 40
3.0
 40
4.0
 40
4.0
 40
4.0
 40
5.0
 40
5.0
 40
5.0
 40
6.0
 40
6.0
 40
6.0
 40
7.0
 40
7.0
 40
7.0
 40
7.0
 10
109.0827473685627
 20
-130.4967718857786
 30
0.0
 10
109.0827473685627
 20
-130.4967718857786
 30
0.0
 10
107.9782497559916
 20
-130.4967718857786
 30
0.0
 10
107.9782497559916
 20
-130.4967718857786
 30
0.0
 10
107.9782497559916
 20
-130.4967718857786
 30
0.0
 10
107.9782497559916
 20
-130.7854708874425
 30
0.0
 10
107.9782497559916
 20
-130.7854708874425
 30
0.0
 10
107.9782497559916
 20
-130.7854708874425
 30
0.0
 10
107.8301106501258
 20
-130.7854708874425
 30
0.0
 10
107.8301106501258
 20
-130.7854708874425
 30
0.0
 10
107.8156412490878
 20
-130.4947048284874
 30
0.0
 10
107.6526882326354
 20
-130.4540527017615
 30
0.0
 10
107.5386555720737
 20
-130.4278699760736
 30
0.0
 10
107.5386555720737
 20
-130.4278699760736
 30
0.0
 10
107.5386555720737
 20
-130.3004014431193
 30
0.0
 10
107.5386555720737
 20
-130.3004014431193
 30
0.0
 10
107.5386555720737
 20
-130.3004014431193
 30
0.0
 10
109.0827473685627
 20
-130.3004014431193
 30
0.0
 10
109.0827473685627
 20
-130.3004014431193
 30
0.0
 10
109.0827473685627
 20
-130.3004014431193
 30
0.0
 10
109.0827473685627
 20
-130.4967718857786
 30
0.0
 10
109.0827473685627
 20
-130.4967718857786
 30
0.0
  0
HATCH
  5
81
330
7C
100
AcDbEntity
  8
_U+30EC_U+30A4_U+30E4_U+30FC 1
 62
   179
420
  2234388
100
AcDbHatch
 10
0.0
 20
0.0
 30
0.0
210
0.0
220
0.0
230
1.0
  2
SOLID
 70
     1
 71
     0
 91
        1
 92
        1
 93
        1
 72
     4
 94
        3
 73
     0
 74
     1
 95
       26
 96
       22
 40
0.0
 40
0.0
 40
0.0
 40
0.0
 40
1.0
 40
1.0
 40
1.0
 40
2.0
 40
2.0
 40
2.0
 40
3.0
 40
3.0
 40
3.0
 40
4.0
 40
4.0
 40
4.0
 40
5.0
 40
5.0
 40
5.0
 40
6.0
 40
6.0
 40
6.0
 40
7.0
 40
7.0
 40
7.0
 40
7.0
 10
109.0827473685627
 20
-130.4967718857786
 10
109.0827473685627
 20
-130.4967718857786
 10
107.9782497559916
 20
-130.4967718857786
 10
107.9782497559916
 20
-130.4967718857786
 10
107.9782497559916
 20
-130.4967718857786
 10
107.9782497559916
 20
-130.7854708874425
 10
107.9782497559916
 20
-130.7854708874425
 10
107.9782497559916
 20
-130.7854708874425
 10
107.8301106501258
 20
-130.7854708874425
 10
107.8301106501258
 20
-130.7854708874425
 10
107.8156412490878
 20
-130.4947048284874
 10
107.6526882326354
 20
-130.4540527017615
 10
107.5386555720737
 20
-130.4278699760736
 10
107.5386555720737
 20
-130.4278699760736
 10
107.5386555720737
 20
-130.3004014431193
 10
107.5386555720737
 20
-130.3004014431193
 10
107.5386555720737
 20
-130.3004014431193
 10
109.0827473685627
 20
-130.3004014431193
 10
109.0827473685627
 20
-130.3004014431193
 10
109.0827473685627
 20
-130.3004014431193
 10
109.0827473685627
 20
-130.4967718857786
 10
109.0827473685627
 20
-130.4967718857786
 97
        0
 97
        0
 75
     2
 76
     1
 98
        0
  0
ENDBLK
  5
7F
330
7C
100
AcDbEntity
  8
0
100
AcDbBlockEnd
  0
BLOCK
  5
A0
330
9E
100
AcDbEntity
  8
0
100
AcDbBlockBegin
  2
block 6
 70
     0
 10
0.0
 20
0.0
 30
0.0
  3
block 6
  1

  0
SPLINE
  5
A2
330
9E
100
AcDbEntity
  8
_U+30EC_U+30A4_U+30E4_U+30FC 1
370
     0
100
AcDbSpline
210
0.0
220
0.0
230
1.0
 70
    11
 71
     3
 72
    44
 73
    40
 74
     0
 42
0.0000000001
 43
0.0000000001
 12
1.0
 22
0.0
 32
0.0
 13
1.0
 23
0.0
 33
0.0
 40
0.0
 40
0.0
 40
0.0
 40
0.0
 40
1.0
 40
1.0
 40
1.0
 40
2.0
 40
2.0
 40
2.0
 40
3.0
 40
3.0
 40
3.0
 40
4.0
 40
4.0
 40
4.0
 40
5.0
 40
5.0
 40
5.0
 40
6.0
 40
6.0
 40
6.0
 40
7.0
 40
7.0
 40
7.0
 40
8.0
 40
8.0
 40
8.0
 40
9.0
 40
9.0
 40
9.0
 40
10.0
 40
10.0
 40
10.0
 40
11.0
 40
11.0
 40
11.0
 40
12.0
 40
12.0
 40
12.0
 40
13.0
 40
13.0
 40
13.0
 40
13.0
 10
72.68531356689812
 20
-145.1522080800314
 30
0.0
 10
72.66498750353514
 20
-145.1077663482717
 30
0.0
 10
72.6463839879148
 20
-145.0550563873473
 30
0.0
 10
72.64448918539792
 20
-144.8242349898356
 30
0.0
 10
72.6408718351384
 20
-144.581011248577
 30
0.0
 10
72.58902314808539
 20
-144.5114203197749
 30
0.0
 10
72.43347708692636
 20
-144.5114203197749
 30
0.0
 10
72.43347708692636
 20
-144.5114203197749
 30
0.0
 10
72.07604843033168
 20
-144.5114203197749
 30
0.0
 10
72.07604843033168
 20
-144.5114203197749
 30
0.0
 10
72.07604843033168
 20
-144.5114203197749
 30
0.0
 10
72.07604843033168
 20
-145.1522080800314
 30
0.0
 10
72.07604843033168
 20
-145.1522080800314
 30
0.0
 10
72.07604843033168
 20
-145.1522080800314
 30
0.0
 10
71.87054848463653
 20
-145.1522080800314
 30
0.0
 10
71.87054848463653
 20
-145.1522080800314
 30
0.0
 10
71.87054848463653
 20
-145.1522080800314
 30
0.0
 10
71.87054848463653
 20
-143.6081162835424
 30
0.0
 10
71.87054848463653
 20
-143.6081162835424
 30
0.0
 10
71.87054848463653
 20
-143.6081162835424
 30
0.0
 10
72.46121010558262
 20
-143.6081162835424
 30
0.0
 10
72.46121010558262
 20
-143.6081162835424
 30
0.0
 10
72.72975529865784
 20
-143.6081162835424
 30
0.0
 10
72.8759996020067
 20
-143.7789930196108
 30
0.0
 10
72.8759996020067
 20
-144.0353081237134
 30
0.0
 10
72.8759996020067
 20
-144.0859510273466
 30
0.0
 10
72.86859264671341
 20
-144.1682888094441
 30
0.0
 10
72.82966306773008
 20
-144.2489040437989
 30
0.0
 10
72.77781438067707
 20
-144.3526014179049
 30
0.0
 10
72.72045354084767
 20
-144.3715494430738
 30
0.0
 10
72.66671005127778
 20
-144.3884304109515
 30
0.0
 10
72.78711613848725
 20
-144.4308050854201
 30
0.0
 10
72.84637178083355
 20
-144.4797254413106
 30
0.0
 10
72.84998913109307
 20
-144.7946071686625
 30
0.0
 10
72.85377873612684
 20
-145.0653916738031
 30
0.0
 10
72.88530135981688
 20
-145.0970865522674
 30
0.0
 10
72.94455700216317
 20
-145.1522080800314
 30
0.0
 10
72.94455700216317
 20
-145.1522080800314
 30
0.0
 10
72.68531356689812
 20
-145.1522080800314
 30
0.0
 10
72.68531356689812
 20
-145.1522080800314
 30
0.0
  0
SPLINE
  5
A3
330
9E
100
AcDbEntity
  8
_U+30EC_U+30A4_U+30E4_U+30FC 1
370
     0
100
AcDbSpline
210
0.0
220
0.0
230
1.0
 70
    11
 71
     3
 72
    20
 73
    16
 74
     0
 42
0.0000000001
 43
0.0000000001
 12
1.0
 22
0.0
 32
0.0
 13
1.0
 23
0.0
 33
0.0
 40
0.0
 40
0.0
 40
0.0
 40
0.0
 40
1.0
 40
1.0
 40
1.0
 40
2.0
 40
2.0
 40
2.0
 40
3.0
 40
3.0
 40
3.0
 40
4.0
 40
4.0
 40
4.0
 40
5.0
 40
5.0
 40
5.0
 40
5.0
 10
72.46482745584213
 20
-143.8196451463368
 30
0.0
 10
72.46482745584213
 20
-143.8196451463368
 30
0.0
 10
72.07604843033168
 20
-143.8196451463368
 30
0.0
 10
72.07604843033168
 20
-143.8196451463368
 30
0.0
 10
72.07604843033168
 20
-143.8196451463368
 30
0.0
 10
72.07604843033168
 20
-144.2998914569806
 30
0.0
 10
72.07604843033168
 20
-144.2998914569806
 30
0.0
 10
72.07604843033168
 20
-144.2998914569806
 30
0.0
 10
72.46310490809951
 20
-144.2998914569806
 30
0.0
 10
72.46310490809951
 20
-144.2998914569806
 30
0.0
 10
72.55009356910206
 20
-144.2998914569806
 30
0.0
 10
72.66860485379466
 20
-144.223410337208
 30
0.0
 10
72.66860485379466
 20
-144.0521890915911
 30
0.0
 10
72.66860485379466
 20
-143.9739854240759
 30
0.0
 10
72.63897703262151
 20
-143.8196451463368
 30
0.0
 10
72.46482745584213
 20
-143.8196451463368
 30
0.0
  0
HATCH
  5
A4
330
9E
100
AcDbEntity
  8
_U+30EC_U+30A4_U+30E4_U+30FC 1
 62
   179
420
  2234388
100
AcDbHatch
 10
0.0
 20
0.0
 30
0.0
210
0.0
220
0.0
230
1.0
  2
SOLID
 70
     1
 71
     0
 91
        2
 92
        1
 93
        1
 72
     4
 94
        3
 73
     0
 74
     1
 95
       44
 96
       40
 40
0.0
 40
0.0
 40
0.0
 40
0.0
 40
1.0
 40
1.0
 40
1.0
 40
2.0
 40
2.0
 40
2.0
 40
3.0
 40
3.0
 40
3.0
 40
4.0
 40
4.0
 40
4.0
 40
5.0
 40
5.0
 40
5.0
 40
6.0
 40
6.0
 40
6.0
 40
7.0
 40
7.0
 40
7.0
 40
8.0
 40
8.0
 40
8.0
 40
9.0
 40
9.0
 40
9.0
 40
10.0
 40
10.0
 40
10.0
 40
11.0
 40
11.0
 40
11.0
 40
12.0
 40
12.0
 40
12.0
 40
13.0
 40
13.0
 40
13.0
 40
13.0
 10
72.68531356689812
 20
-145.1522080800314
 10
72.66498750353514
 20
-145.1077663482717
 10
72.6463839879148
 20
-145.0550563873473
 10
72.64448918539792
 20
-144.8242349898356
 10
72.6408718351384
 20
-144.581011248577
 10
72.58902314808539
 20
-144.5114203197749
 10
72.43347708692636
 20
-144.5114203197749
 10
72.43347708692636
 20
-144.5114203197749
 10
72.07604843033168
 20
-144.5114203197749
 10
72.07604843033168
 20
-144.5114203197749
 10
72.07604843033168
 20
-144.5114203197749
 10
72.07604843033168
 20
-145.1522080800314
 10
72.07604843033168
 20
-145.1522080800314
 10
72.07604843033168
 20
-145.1522080800314
 10
71.87054848463653
 20
-145.1522080800314
 10
71.87054848463653
 20
-145.1522080800314
 10
71.87054848463653
 20
-145.1522080800314
 10
71.87054848463653
 20
-143.6081162835424
 10
71.87054848463653
 20
-143.6081162835424
 10
71.87054848463653
 20
-143.6081162835424
 10
72.46121010558262
 20
-143.6081162835424
 10
72.46121010558262
 20
-143.6081162835424
 10
72.72975529865784
 20
-143.6081162835424
 10
72.8759996020067
 20
-143.7789930196108
 10
72.8759996020067
 20
-144.0353081237134
 10
72.8759996020067
 20
-144.0859510273466
 10
72.86859264671341
 20
-144.1682888094441
 10
72.82966306773008
 20
-144.2489040437989
 10
72.77781438067707
 20
-144.3526014179049
 10
72.72045354084767
 20
-144.3715494430738
 10
72.66671005127778
 20
-144.3884304109515
 10
72.78711613848725
 20
-144.4308050854201
 10
72.84637178083355
 20
-144.4797254413106
 10
72.84998913109307
 20
-144.7946071686625
 10
72.85377873612684
 20
-145.0653916738031
 10
72.88530135981688
 20
-145.0970865522674
 10
72.94455700216317
 20
-145.1522080800314
 10
72.94455700216317
 20
-145.1522080800314
 10
72.68531356689812
 20
-145.1522080800314
 10
72.68531356689812
 20
-145.1522080800314
 97
        0
 97
        0
 92
        1
 93
        1
 72
     4
 94
        3
 73
     0
 74
     1
 95
       20
 96
       16
 40
0.0
 40
0.0
 40
0.0
 40
0.0
 40
1.0
 40
1.0
 40
1.0
 40
2.0
 40
2.0
 40
2.0
 40
3.0
 40
3.0
 40
3.0
 40
4.0
 40
4.0
 40
4.0
 40
5.0
 40
5.0
 40
5.0
 40
5.0
 10
72.46482745584213
 20
-143.8196451463368
 10
72.46482745584213
 20
-143.8196451463368
 10
72.07604843033168
 20
-143.8196451463368
 10
72.07604843033168
 20
-143.8196451463368
 10
72.07604843033168
 20
-143.8196451463368
 10
72.07604843033168
 20
-144.2998914569806
 10
72.07604843033168
 20
-144.2998914569806
 10
72.07604843033168
 20
-144.2998914569806
 10
72.46310490809951
 20
-144.2998914569806
 10
72.46310490809951
 20
-144.2998914569806
 10
72.55009356910206
 20
-144.2998914569806
 10
72.66860485379466
 20
-144.223410337208
 10
72.66860485379466
 20
-144.0521890915911
 10
72.66860485379466
 20
-143.9739854240759
 10
72.63897703262151
 20
-143.8196451463368
 10
72.46482745584213
 20
-143.8196451463368
 97
        0
 97
        0
 75
     2
 76
     1
 98
        0
  0
SPLINE
  5
A5
330
9E
100
AcDbEntity
  8
_U+30EC_U+30A4_U+30E4_U+30FC 1
370
     0
100
AcDbSpline
210
0.0
220
0.0
230
1.0
 70
    11
 71
     3
 72
    29
 73
    25
 74
     0
 42
0.0000000001
 43
0.0000000001
 12
1.0
 22
0.0
 32
0.0
 13
1.0
 23
0.0
 33
0.0
 40
0.0
 40
0.0
 40
0.0
 40
0.0
 40
1.0
 40
1.0
 40
1.0
 40
2.0
 40
2.0
 40
2.0
 40
3.0
 40
3.0
 40
3.0
 40
4.0
 40
4.0
 40
4.0
 40
5.0
 40
5.0
 40
5.0
 40
6.0
 40
6.0
 40
6.0
 40
7.0
 40
7.0
 40
7.0
 40
8.0
 40
8.0
 40
8.0
 40
8.0
 10
73.85354544594634
 20
-144.9744411529925
 30
0.0
 10
73.75897757487623
 20
-145.1839029584957
 30
0.0
 10
73.60722111875097
 20
-145.2031954932131
 30
0.0
 10
73.50524629238758
 20
-145.2031954932131
 30
0.0
 10
73.36468639658939
 20
-145.2031954932131
 30
0.0
 10
73.24049070434613
 20
-145.1563421946137
 30
0.0
 10
73.15729164837735
 20
-144.9744411529925
 30
0.0
 10
73.06651338234101
 20
-144.7797932580759
 30
0.0
 10
73.04980466923755
 20
-144.5431151982392
 30
0.0
 10
73.04980466923755
 20
-144.3798176722384
 30
0.0
 10
73.04980466923755
 20
-144.2361571905035
 30
0.0
 10
73.06461857982413
 20
-143.9843207105317
 30
0.0
 10
73.15729164837735
 20
-143.7855387010328
 30
0.0
 10
73.2516872646732
 20
-143.5826225769516
 30
0.0
 10
73.39241941524566
 20
-143.5591959276519
 30
0.0
 10
73.50524629238758
 20
-143.5591959276519
 30
0.0
 10
73.64425589521741
 20
-143.5591959276519
 30
0.0
 10
73.77017413520329
 20
-143.6036376594116
 30
0.0
 10
73.85354544594634
 20
-143.7855387010328
 30
0.0
 10
73.9405341069489
 20
-143.9781195386583
 30
0.0
 10
73.96086017031188
 20
-144.2065293693303
 30
0.0
 10
73.96086017031188
 20
-144.3798176722384
 30
0.0
 10
73.96086017031188
 20
-144.5513834274038
 30
0.0
 10
73.94242890946579
 20
-144.7822048249156
 30
0.0
 10
73.85354544594634
 20
-144.9744411529925
 30
0.0
  0
SPLINE
  5
A6
330
9E
100
AcDbEntity
  8
_U+30EC_U+30A4_U+30E4_U+30FC 1
370
     0
100
AcDbSpline
210
0.0
220
0.0
230
1.0
 70
    11
 71
     3
 72
    17
 73
    13
 74
     0
 42
0.0000000001
 43
0.0000000001
 12
1.0
 22
0.0
 32
0.0
 13
1.0
 23
0.0
 33
0.0
 40
0.0
 40
0.0
 40
0.0
 40
0.0
 40
1.0
 40
1.0
 40
1.0
 40
2.0
 40
2.0
 40
2.0
 40
3.0
 40
3.0
 40
3.0
 40
4.0
 40
4.0
 40
4.0
 40
4.0
 10
73.50524629238758
 20
-143.7517767652773
 30
0.0
 10
73.28682723862273
 20
-143.7517767652773
 30
0.0
 10
73.24617511189679
 20
-144.0353081237134
 30
0.0
 10
73.24617511189679
 20
-144.3798176722384
 30
0.0
 10
73.24617511189679
 20
-144.6995225332696
 30
0.0
 10
73.27752548081257
 20
-145.008203088748
 30
0.0
 10
73.50524629238758
 20
-145.008203088748
 30
0.0
 10
73.7219427984098
 20
-145.008203088748
 30
0.0
 10
73.76466198242689
 20
-144.7270832971516
 30
0.0
 10
73.76466198242689
 20
-144.3798176722384
 30
0.0
 10
73.76466198242689
 20
-144.0608018303043
 30
0.0
 10
73.73124455621998
 20
-143.7517767652773
 30
0.0
 10
73.50524629238758
 20
-143.7517767652773
 30
0.0
  0
HATCH
  5
A7
330
9E
100
AcDbEntity
  8
_U+30EC_U+30A4_U+30E4_U+30FC 1
 62
   179
420
  2234388
100
AcDbHatch
 10
0.0
 20
0.0
 30
0.0
210
0.0
220
0.0
230
1.0
  2
SOLID
 70
     1
 71
     0
 91
        2
 92
        1
 93
        1
 72
     4
 94
        3
 73
     0
 74
     1
 95
       29
 96
       25
 40
0.0
 40
0.0
 40
0.0
 40
0.0
 40
1.0
 40
1.0
 40
1.0
 40
2.0
 40
2.0
 40
2.0
 40
3.0
 40
3.0
 40
3.0
 40
4.0
 40
4.0
 40
4.0
 40
5.0
 40
5.0
 40
5.0
 40
6.0
 40
6.0
 40
6.0
 40
7.0
 40
7.0
 40
7.0
 40
8.0
 40
8.0
 40
8.0
 40
8.0
 10
73.85354544594634
 20
-144.9744411529925
 10
73.75897757487623
 20
-145.1839029584957
 10
73.60722111875097
 20
-145.2031954932131
 10
73.50524629238758
 20
-145.2031954932131
 10
73.36468639658939
 20
-145.2031954932131
 10
73.24049070434613
 20
-145.1563421946137
 10
73.15729164837735
 20
-144.9744411529925
 10
73.06651338234101
 20
-144.7797932580759
 10
73.04980466923755
 20
-144.5431151982392
 10
73.04980466923755
 20
-144.3798176722384
 10
73.04980466923755
 20
-144.2361571905035
 10
73.06461857982413
 20
-143.9843207105317
 10
73.15729164837735
 20
-143.7855387010328
 10
73.2516872646732
 20
-143.5826225769516
 10
73.39241941524566
 20
-143.5591959276519
 10
73.50524629238758
 20
-143.5591959276519
 10
73.64425589521741
 20
-143.5591959276519
 10
73.77017413520329
 20
-143.6036376594116
 10
73.85354544594634
 20
-143.7855387010328
 10
73.9405341069489
 20
-143.9781195386583
 10
73.96086017031188
 20
-144.2065293693303
 10
73.96086017031188
 20
-144.3798176722384
 10
73.96086017031188
 20
-144.5513834274038
 10
73.94242890946579
 20
-144.7822048249156
 10
73.85354544594634
 20
-144.9744411529925
 97
        0
 97
        0
 92
        1
 93
        1
 72
     4
 94
        3
 73
     0
 74
     1
 95
       17
 96
       13
 40
0.0
 40
0.0
 40
0.0
 40
0.0
 40
1.0
 40
1.0
 40
1.0
 40
2.0
 40
2.0
 40
2.0
 40
3.0
 40
3.0
 40
3.0
 40
4.0
 40
4.0
 40
4.0
 40
4.0
 10
73.50524629238758
 20
-143.7517767652773
 10
73.28682723862273
 20
-143.7517767652773
 10
73.24617511189679
 20
-144.0353081237134
 10
73.24617511189679
 20
-144.3798176722384
 10
73.24617511189679
 20
-144.6995225332696
 10
73.27752548081257
 20
-145.008203088748
 10
73.50524629238758
 20
-145.008203088748
 10
73.7219427984098
 20
-145.008203088748
 10
73.76466198242689
 20
-144.7270832971516
 10
73.76466198242689
 20
-144.3798176722384
 10
73.76466198242689
 20
-144.0608018303043
 10
73.73124455621998
 20
-143.7517767652773
 10
73.50524629238758
 20
-143.7517767652773
 97
        0
 97
        0
 75
     2
 76
     1
 98
        0
  0
POLYLINE
  5
A8
330
9E
100
AcDbEntity
  8
_U+30EC_U+30A4_U+30E4_U+30FC 1
370
     0
100
AcDb2dPolyline
 66
     1
 10
0.0
 20
0.0
 30
0.0
  0
VERTEX
  5
A9
330
A8
100
AcDbEntity
  8
_U+30EC_U+30A4_U+30E4_U+30FC 1
370
     0
100
AcDbVertex
100
AcDb2dVertex
 10
74.1508571863234
 20
-145.1522080800314
 30
0.0
  0
VERTEX
  5
AA
330
A8
100
AcDbEntity
  8
_U+30EC_U+30A4_U+30E4_U+30FC 1
370
     0
100
AcDbVertex
100
AcDb2dVertex
 10
74.1508571863234
 20
-144.9007161096082
 30
0.0
  0
VERTEX
  5
AB
330
A8
100
AcDbEntity
  8
_U+30EC_U+30A4_U+30E4_U+30FC 1
370
     0
100
AcDbVertex
100
AcDb2dVertex
 10
74.37134329737938
 20
-144.9007161096082
 30
0.0
  0
VERTEX
  5
AC
330
A8
100
AcDbEntity
  8
_U+30EC_U+30A4_U+30E4_U+30FC 1
370
     0
100
AcDbVertex
100
AcDb2dVertex
 10
74.37134329737938
 20
-145.1522080800314
 30
0.0
  0
VERTEX
  5
AD
330
A8
100
AcDbEntity
  8
_U+30EC_U+30A4_U+30E4_U+30FC 1
370
     0
100
AcDbVertex
100
AcDb2dVertex
 10
74.1508571863234
 20
-145.1522080800314
 30
0.0
  0
SEQEND
  5
AE
330
A8
100
AcDbEntity
  8
_U+30EC_U+30A4_U+30E4_U+30FC 1
370
     0
  0
HATCH
  5
AF
330
9E
100
AcDbEntity
  8
_U+30EC_U+30A4_U+30E4_U+30FC 1
 62
   179
420
  2234388
100
AcDbHatch
 10
0.0
 20
0.0
 30
0.0
210
0.0
220
0.0
230
1.0
  2
SOLID
 70
     1
 71
     0
 91
        1
 92
        1
 93
        4
 72
     1
 10
74.1508571863234
 20
-145.1522080800314
 11
74.1508571863234
 21
-144.9007161096082
 72
     1
 10
74.1508571863234
 20
-144.9007161096082
 11
74.37134329737938
 21
-144.9007161096082
 72
     1
 10
74.37134329737938
 20
-144.9007161096082
 11
74.37134329737938
 21
-145.1522080800314
 72
     1
 10
74.37134329737938
 20
-145.1522080800314
 11
74.1508571863234
 21
-145.1522080800314
 97
        0
 75
     2
 76
     1
 98
        0
  0
SPLINE
  5
B0
330
9E
100
AcDbEntity
  8
_U+30EC_U+30A4_U+30E4_U+30FC 1
370
     0
100
AcDbSpline
210
0.0
220
0.0
230
1.0
 70
    11
 71
     3
 72
    53
 73
    49
 74
     0
 42
0.0000000001
 43
0.0000000001
 12
1.0
 22
0.0
 32
0.0
 13
1.0
 23
0.0
 33
0.0
 40
0.0
 40
0.0
 40
0.0
 40
0.0
 40
1.0
 40
1.0
 40
1.0
 40
2.0
 40
2.0
 40
2.0
 40
3.0
 40
3.0
 40
3.0
 40
4.0
 40
4.0
 40
4.0
 40
5.0
 40
5.0
 40
5.0
 40
6.0
 40
6.0
 40
6.0
 40
7.0
 40
7.0
 40
7.0
 40
8.0
 40
8.0
 40
8.0
 40
9.0
 40
9.0
 40
9.0
 40
10.0
 40
10.0
 40
10.0
 40
11.0
 40
11.0
 40
11.0
 40
12.0
 40
12.0
 40
12.0
 40
13.0
 40
13.0
 40
13.0
 40
14.0
 40
14.0
 40
14.0
 40
15.0
 40
15.0
 40
15.0
 40
16.0
 40
16.0
 40
16.0
 40
16.0
 10
74.9995564591147
 20
-145.2031954932131
 30
0.0
 10
74.93099905895822
 20
-145.2031954932131
 30
0.0
 10
74.84211559543878
 20
-145.1859700157868
 30
0.0
 10
74.75323213191933
 20
-145.1225802588582
 30
0.0
 10
74.60147567579408
 20
-145.0123372033302
 30
0.0
 10
74.58287216017374
 20
-144.8814235748908
 30
0.0
 10
74.56616344707027
 20
-144.7735920862025
 30
0.0
 10
74.56616344707027
 20
-144.7735920862025
 30
0.0
 10
74.76063908721262
 20
-144.7735920862025
 30
0.0
 10
74.76063908721262
 20
-144.7735920862025
 30
0.0
 10
74.80887042400612
 20
-144.9723740957014
 30
0.0
 10
74.91980249863117
 20
-145.0020019168745
 30
0.0
 10
75.00145126163159
 20
-145.0020019168745
 30
0.0
 10
75.12357989658369
 20
-145.0020019168745
 30
0.0
 10
75.25690509186286
 20
-144.9027831668993
 30
0.0
 10
75.25690509186286
 20
-144.6698947120964
 30
0.0
 10
75.25690509186286
 20
-144.4139241175424
 30
0.0
 10
75.09946422818695
 20
-144.3439886791918
 30
0.0
 10
74.99387205156404
 20
-144.3439886791918
 30
0.0
 10
74.96613903290778
 20
-144.3439886791918
 30
0.0
 10
74.84211559543878
 20
-144.3439886791918
 30
0.0
 10
74.7644286922464
 20
-144.4731797598887
 30
0.0
 10
74.7644286922464
 20
-144.4731797598887
 30
0.0
 10
74.61060517882999
 20
-144.4542317347198
 30
0.0
 10
74.61060517882999
 20
-144.4542317347198
 30
0.0
 10
74.61060517882999
 20
-144.4542317347198
 30
0.0
 10
74.7161973554529
 20
-143.6081162835424
 30
0.0
 10
74.7161973554529
 20
-143.6081162835424
 30
0.0
 10
74.7161973554529
 20
-143.6081162835424
 30
0.0
 10
75.39763724243532
 20
-143.6081162835424
 30
0.0
 10
75.39763724243532
 20
-143.6081162835424
 30
0.0
 10
75.39763724243532
 20
-143.6081162835424
 30
0.0
 10
75.39763724243532
 20
-143.8024196689105
 30
0.0
 10
75.39763724243532
 20
-143.8024196689105
 30
0.0
 10
75.39763724243532
 20
-143.8024196689105
 30
0.0
 10
74.85882430854224
 20
-143.8024196689105
 30
0.0
 10
74.85882430854224
 20
-143.8024196689105
 30
0.0
 10
74.85882430854224
 20
-143.8024196689105
 30
0.0
 10
74.80129121393857
 20
-144.2254773944992
 30
0.0
 10
74.80129121393857
 20
-144.2254773944992
 30
0.0
 10
74.85503470350847
 20
-144.1917154587437
 30
0.0
 10
74.92738170869872
 20
-144.1517523511149
 30
0.0
 10
75.03107908280474
 20
-144.1517523511149
 30
0.0
 10
75.25328774160334
 20
-144.1517523511149
 30
0.0
 10
75.46068248981538
 20
-144.3377875073183
 30
0.0
 10
75.46068248981538
 20
-144.650602177379
 30
0.0
 10
75.46068248981538
 20
-144.9682399811191
 30
0.0
 10
75.26431204715615
 20
-145.2031954932131
 30
0.0
 10
74.9995564591147
 20
-145.2031954932131
 30
0.0
  0
HATCH
  5
B1
330
9E
100
AcDbEntity
  8
_U+30EC_U+30A4_U+30E4_U+30FC 1
 62
   179
420
  2234388
100
AcDbHatch
 10
0.0
 20
0.0
 30
0.0
210
0.0
220
0.0
230
1.0
  2
SOLID
 70
     1
 71
     0
 91
        1
 92
        1
 93
        1
 72
     4
 94
        3
 73
     0
 74
     1
 95
       53
 96
       49
 40
0.0
 40
0.0
 40
0.0
 40
0.0
 40
1.0
 40
1.0
 40
1.0
 40
2.0
 40
2.0
 40
2.0
 40
3.0
 40
3.0
 40
3.0
 40
4.0
 40
4.0
 40
4.0
 40
5.0
 40
5.0
 40
5.0
 40
6.0
 40
6.0
 40
6.0
 40
7.0
 40
7.0
 40
7.0
 40
8.0
 40
8.0
 40
8.0
 40
9.0
 40
9.0
 40
9.0
 40
10.0
 40
10.0
 40
10.0
 40
11.0
 40
11.0
 40
11.0
 40
12.0
 40
12.0
 40
12.0
 40
13.0
 40
13.0
 40
13.0
 40
14.0
 40
14.0
 40
14.0
 40
15.0
 40
15.0
 40
15.0
 40
16.0
 40
16.0
 40
16.0
 40
16.0
 10
74.9995564591147
 20
-145.2031954932131
 10
74.93099905895822
 20
-145.2031954932131
 10
74.84211559543878
 20
-145.1859700157868
 10
74.75323213191933
 20
-145.1225802588582
 10
74.60147567579408
 20
-145.0123372033302
 10
74.58287216017374
 20
-144.8814235748908
 10
74.56616344707027
 20
-144.7735920862025
 10
74.56616344707027
 20
-144.7735920862025
 10
74.76063908721262
 20
-144.7735920862025
 10
74.76063908721262
 20
-144.7735920862025
 10
74.80887042400612
 20
-144.9723740957014
 10
74.91980249863117
 20
-145.0020019168745
 10
75.00145126163159
 20
-145.0020019168745
 10
75.12357989658369
 20
-145.0020019168745
 10
75.25690509186286
 20
-144.9027831668993
 10
75.25690509186286
 20
-144.6698947120964
 10
75.25690509186286
 20
-144.4139241175424
 10
75.09946422818695
 20
-144.3439886791918
 10
74.99387205156404
 20
-144.3439886791918
 10
74.96613903290778
 20
-144.3439886791918
 10
74.84211559543878
 20
-144.3439886791918
 10
74.7644286922464
 20
-144.4731797598887
 10
74.7644286922464
 20
-144.4731797598887
 10
74.61060517882999
 20
-144.4542317347198
 10
74.61060517882999
 20
-144.4542317347198
 10
74.61060517882999
 20
-144.4542317347198
 10
74.7161973554529
 20
-143.6081162835424
 10
74.7161973554529
 20
-143.6081162835424
 10
74.7161973554529
 20
-143.6081162835424
 10
75.39763724243532
 20
-143.6081162835424
 10
75.39763724243532
 20
-143.6081162835424
 10
75.39763724243532
 20
-143.6081162835424
 10
75.39763724243532
 20
-143.8024196689105
 10
75.39763724243532
 20
-143.8024196689105
 10
75.39763724243532
 20
-143.8024196689105
 10
74.85882430854224
 20
-143.8024196689105
 10
74.85882430854224
 20
-143.8024196689105
 10
74.85882430854224
 20
-143.8024196689105
 10
74.80129121393857
 20
-144.2254773944992
 10
74.80129121393857
 20
-144.2254773944992
 10
74.85503470350847
 20
-144.1917154587437
 10
74.92738170869872
 20
-144.1517523511149
 10
75.03107908280474
 20
-144.1517523511149
 10
75.25328774160334
 20
-144.1517523511149
 10
75.46068248981538
 20
-144.3377875073183
 10
75.46068248981538
 20
-144.650602177379
 10
75.46068248981538
 20
-144.9682399811191
 10
75.26431204715615
 20
-145.2031954932131
 10
74.9995564591147
 20
-145.2031954932131
 97
        0
 97
        0
 75
     2
 76
     1
 98
        0
  0
ENDBLK
  5
A1
330
9E
100
AcDbEntity
  8
0
100
AcDbBlockEnd
  0
BLOCK
  5
B4
330
B2
100
AcDbEntity
  8
0
100
AcDbBlockBegin
  2
block 7
 70
     0
 10
0.0
 20
0.0
 30
0.0
  3
block 7
  1

  0
SPLINE
  5
B6
330
B2
100
AcDbEntity
  8
_U+30EC_U+30A4_U+30E4_U+30FC 1
370
     0
100
AcDbSpline
210
0.0
220
0.0
230
1.0
 70
    11
 71
     3
 72
    44
 73
    40
 74
     0
 42
0.0000000001
 43
0.0000000001
 12
1.0
 22
0.0
 32
0.0
 13
1.0
 23
0.0
 33
0.0
 40
0.0
 40
0.0
 40
0.0
 40
0.0
 40
1.0
 40
1.0
 40
1.0
 40
2.0
 40
2.0
 40
2.0
 40
3.0
 40
3.0
 40
3.0
 40
4.0
 40
4.0
 40
4.0
 40
5.0
 40
5.0
 40
5.0
 40
6.0
 40
6.0
 40
6.0
 40
7.0
 40
7.0
 40
7.0
 40
8.0
 40
8.0
 40
8.0
 40
9.0
 40
9.0
 40
9.0
 40
10.0
 40
10.0
 40
10.0
 40
11.0
 40
11.0
 40
11.0
 40
12.0
 40
12.0
 40
12.0
 40
13.0
 40
13.0
 40
13.0
 40
13.0
 10
89.81088322407506
 20
-145.1522080800314
 30
0.0
 10
89.79055716071208
 20
-145.1077663482717
 30
0.0
 10
89.77195364509174
 20
-145.0550563873473
 30
0.0
 10
89.77005884257485
 20
-144.8242349898356
 30
0.0
 10
89.76644149231534
 20
-144.581011248577
 30
0.0
 10
89.71459280526233
 20
-144.5114203197749
 30
0.0
 10
89.5590467441033
 20
-144.5114203197749
 30
0.0
 10
89.5590467441033
 20
-144.5114203197749
 30
0.0
 10
89.20161808750862
 20
-144.5114203197749
 30
0.0
 10
89.20161808750862
 20
-144.5114203197749
 30
0.0
 10
89.20161808750862
 20
-144.5114203197749
 30
0.0
 10
89.20161808750862
 20
-145.1522080800314
 30
0.0
 10
89.20161808750862
 20
-145.1522080800314
 30
0.0
 10
89.20161808750862
 20
-145.1522080800314
 30
0.0
 10
88.99611814181347
 20
-145.1522080800314
 30
0.0
 10
88.99611814181347
 20
-145.1522080800314
 30
0.0
 10
88.99611814181347
 20
-145.1522080800314
 30
0.0
 10
88.99611814181347
 20
-143.6081162835424
 30
0.0
 10
88.99611814181347
 20
-143.6081162835424
 30
0.0
 10
88.99611814181347
 20
-143.6081162835424
 30
0.0
 10
89.58677976275956
 20
-143.6081162835424
 30
0.0
 10
89.58677976275956
 20
-143.6081162835424
 30
0.0
 10
89.85532495583479
 20
-143.6081162835424
 30
0.0
 10
90.00156925918364
 20
-143.7789930196108
 30
0.0
 10
90.00156925918364
 20
-144.0353081237134
 30
0.0
 10
90.00156925918364
 20
-144.0859510273466
 30
0.0
 10
89.99416230389035
 20
-144.1682888094441
 30
0.0
 10
89.95523272490703
 20
-144.2489040437989
 30
0.0
 10
89.90338403785402
 20
-144.3526014179049
 30
0.0
 10
89.84602319802461
 20
-144.3715494430738
 30
0.0
 10
89.79227970845471
 20
-144.3884304109515
 30
0.0
 10
89.91268579566419
 20
-144.4308050854201
 30
0.0
 10
89.97194143801049
 20
-144.4797254413106
 30
0.0
 10
89.97555878827
 20
-144.7946071686625
 30
0.0
 10
89.97934839330378
 20
-145.0653916738031
 30
0.0
 10
90.01087101699382
 20
-145.0970865522674
 30
0.0
 10
90.0701266593401
 20
-145.1522080800314
 30
0.0
 10
90.0701266593401
 20
-145.1522080800314
 30
0.0
 10
89.81088322407506
 20
-145.1522080800314
 30
0.0
 10
89.81088322407506
 20
-145.1522080800314
 30
0.0
  0
SPLINE
  5
B7
330
B2
100
AcDbEntity
  8
_U+30EC_U+30A4_U+30E4_U+30FC 1
370
     0
100
AcDbSpline
210
0.0
220
0.0
230
1.0
 70
    11
 71
     3
 72
    20
 73
    16
 74
     0
 42
0.0000000001
 43
0.0000000001
 12
1.0
 22
0.0
 32
0.0
 13
1.0
 23
0.0
 33
0.0
 40
0.0
 40
0.0
 40
0.0
 40
0.0
 40
1.0
 40
1.0
 40
1.0
 40
2.0
 40
2.0
 40
2.0
 40
3.0
 40
3.0
 40
3.0
 40
4.0
 40
4.0
 40
4.0
 40
5.0
 40
5.0
 40
5.0
 40
5.0
 10
89.59039711301907
 20
-143.8196451463368
 30
0.0
 10
89.59039711301907
 20
-143.8196451463368
 30
0.0
 10
89.20161808750862
 20
-143.8196451463368
 30
0.0
 10
89.20161808750862
 20
-143.8196451463368
 30
0.0
 10
89.20161808750862
 20
-143.8196451463368
 30
0.0
 10
89.20161808750862
 20
-144.2998914569806
 30
0.0
 10
89.20161808750862
 20
-144.2998914569806
 30
0.0
 10
89.20161808750862
 20
-144.2998914569806
 30
0.0
 10
89.58867456527645
 20
-144.2998914569806
 30
0.0
 10
89.58867456527645
 20
-144.2998914569806
 30
0.0
 10
89.675663226279
 20
-144.2998914569806
 30
0.0
 10
89.7941745109716
 20
-144.223410337208
 30
0.0
 10
89.7941745109716
 20
-144.0521890915911
 30
0.0
 10
89.7941745109716
 20
-143.9739854240759
 30
0.0
 10
89.76454668979845
 20
-143.8196451463368
 30
0.0
 10
89.59039711301907
 20
-143.8196451463368
 30
0.0
  0
HATCH
  5
B8
330
B2
100
AcDbEntity
  8
_U+30EC_U+30A4_U+30E4_U+30FC 1
 62
   179
420
  2234388
100
AcDbHatch
 10
0.0
 20
0.0
 30
0.0
210
0.0
220
0.0
230
1.0
  2
SOLID
 70
     1
 71
     0
 91
        2
 92
        1
 93
        1
 72
     4
 94
        3
 73
     0
 74
     1
 95
       44
 96
       40
 40
0.0
 40
0.0
 40
0.0
 40
0.0
 40
1.0
 40
1.0
 40
1.0
 40
2.0
 40
2.0
 40
2.0
 40
3.0
 40
3.0
 40
3.0
 40
4.0
 40
4.0
 40
4.0
 40
5.0
 40
5.0
 40
5.0
 40
6.0
 40
6.0
 40
6.0
 40
7.0
 40
7.0
 40
7.0
 40
8.0
 40
8.0
 40
8.0
 40
9.0
 40
9.0
 40
9.0
 40
10.0
 40
10.0
 40
10.0
 40
11.0
 40
11.0
 40
11.0
 40
12.0
 40
12.0
 40
12.0
 40
13.0
 40
13.0
 40
13.0
 40
13.0
 10
89.81088322407506
 20
-145.1522080800314
 10
89.79055716071208
 20
-145.1077663482717
 10
89.77195364509174
 20
-145.0550563873473
 10
89.77005884257485
 20
-144.8242349898356
 10
89.76644149231534
 20
-144.581011248577
 10
89.71459280526233
 20
-144.5114203197749
 10
89.5590467441033
 20
-144.5114203197749
 10
89.5590467441033
 20
-144.5114203197749
 10
89.20161808750862
 20
-144.5114203197749
 10
89.20161808750862
 20
-144.5114203197749
 10
89.20161808750862
 20
-144.5114203197749
 10
89.20161808750862
 20
-145.1522080800314
 10
89.20161808750862
 20
-145.1522080800314
 10
89.20161808750862
 20
-145.1522080800314
 10
88.99611814181347
 20
-145.1522080800314
 10
88.99611814181347
 20
-145.1522080800314
 10
88.99611814181347
 20
-145.1522080800314
 10
88.99611814181347
 20
-143.6081162835424
 10
88.99611814181347
 20
-143.6081162835424
 10
88.99611814181347
 20
-143.6081162835424
 10
89.58677976275956
 20
-143.6081162835424
 10
89.58677976275956
 20
-143.6081162835424
 10
89.85532495583479
 20
-143.6081162835424
 10
90.00156925918364
 20
-143.7789930196108
 10
90.00156925918364
 20
-144.0353081237134
 10
90.00156925918364
 20
-144.0859510273466
 10
89.99416230389035
 20
-144.1682888094441
 10
89.95523272490703
 20
-144.2489040437989
 10
89.90338403785402
 20
-144.3526014179049
 10
89.84602319802461
 20
-144.3715494430738
 10
89.79227970845471
 20
-144.3884304109515
 10
89.91268579566419
 20
-144.4308050854201
 10
89.97194143801049
 20
-144.4797254413106
 10
89.97555878827
 20
-144.7946071686625
 10
89.97934839330378
 20
-145.0653916738031
 10
90.01087101699382
 20
-145.0970865522674
 10
90.0701266593401
 20
-145.1522080800314
 10
90.0701266593401
 20
-145.1522080800314
 10
89.81088322407506
 20
-145.1522080800314
 10
89.81088322407506
 20
-145.1522080800314
 97
        0
 97
        0
 92
        1
 93
        1
 72
     4
 94
        3
 73
     0
 74
     1
 95
       20
 96
       16
 40
0.0
 40
0.0
 40
0.0
 40
0.0
 40
1.0
 40
1.0
 40
1.0
 40
2.0
 40
2.0
 40
2.0
 40
3.0
 40
3.0
 40
3.0
 40
4.0
 40
4.0
 40
4.0
 40
5.0
 40
5.0
 40
5.0
 40
5.0
 10
89.59039711301907
 20
-143.8196451463368
 10
89.59039711301907
 20
-143.8196451463368
 10
89.20161808750862
 20
-143.8196451463368
 10
89.20161808750862
 20
-143.8196451463368
 10
89.20161808750862
 20
-143.8196451463368
 10
89.20161808750862
 20
-144.2998914569806
 10
89.20161808750862
 20
-144.2998914569806
 10
89.20161808750862
 20
-144.2998914569806
 10
89.58867456527645
 20
-144.2998914569806
 10
89.58867456527645
 20
-144.2998914569806
 10
89.675663226279
 20
-144.2998914569806
 10
89.7941745109716
 20
-144.223410337208
 10
89.7941745109716
 20
-144.0521890915911
 10
89.7941745109716
 20
-143.9739854240759
 10
89.76454668979845
 20
-143.8196451463368
 10
89.59039711301907
 20
-143.8196451463368
 97
        0
 97
        0
 75
     2
 76
     1
 98
        0
  0
SPLINE
  5
B9
330
B2
100
AcDbEntity
  8
_U+30EC_U+30A4_U+30E4_U+30FC 1
370
     0
100
AcDbSpline
210
0.0
220
0.0
230
1.0
 70
    11
 71
     3
 72
    29
 73
    25
 74
     0
 42
0.0000000001
 43
0.0000000001
 12
1.0
 22
0.0
 32
0.0
 13
1.0
 23
0.0
 33
0.0
 40
0.0
 40
0.0
 40
0.0
 40
0.0
 40
1.0
 40
1.0
 40
1.0
 40
2.0
 40
2.0
 40
2.0
 40
3.0
 40
3.0
 40
3.0
 40
4.0
 40
4.0
 40
4.0
 40
5.0
 40
5.0
 40
5.0
 40
6.0
 40
6.0
 40
6.0
 40
7.0
 40
7.0
 40
7.0
 40
8.0
 40
8.0
 40
8.0
 40
8.0
 10
90.97911510312328
 20
-144.9744411529925
 30
0.0
 10
90.88454723205318
 20
-145.1839029584957
 30
0.0
 10
90.73279077592792
 20
-145.2031954932131
 30
0.0
 10
90.63081594956452
 20
-145.2031954932131
 30
0.0
 10
90.49025605376633
 20
-145.2031954932131
 30
0.0
 10
90.36606036152307
 20
-145.1563421946137
 30
0.0
 10
90.28286130555429
 20
-144.9744411529925
 30
0.0
 10
90.19208303951795
 20
-144.7797932580759
 30
0.0
 10
90.1753743264145
 20
-144.5431151982392
 30
0.0
 10
90.1753743264145
 20
-144.3798176722384
 30
0.0
 10
90.1753743264145
 20
-144.2361571905035
 30
0.0
 10
90.19018823700107
 20
-143.9843207105317
 30
0.0
 10
90.28286130555429
 20
-143.7855387010328
 30
0.0
 10
90.37725692185013
 20
-143.5826225769516
 30
0.0
 10
90.5179890724226
 20
-143.5591959276519
 30
0.0
 10
90.63081594956452
 20
-143.5591959276519
 30
0.0
 10
90.76982555239435
 20
-143.5591959276519
 30
0.0
 10
90.89574379238023
 20
-143.6036376594116
 30
0.0
 10
90.97911510312328
 20
-143.7855387010328
 30
0.0
 10
91.06610376412584
 20
-143.9781195386583
 30
0.0
 10
91.08642982748881
 20
-144.2065293693303
 30
0.0
 10
91.08642982748881
 20
-144.3798176722384
 30
0.0
 10
91.08642982748881
 20
-144.5513834274038
 30
0.0
 10
91.06799856664273
 20
-144.7822048249156
 30
0.0
 10
90.97911510312328
 20
-144.9744411529925
 30
0.0
  0
SPLINE
  5
BA
330
B2
100
AcDbEntity
  8
_U+30EC_U+30A4_U+30E4_U+30FC 1
370
     0
100
AcDbSpline
210
0.0
220
0.0
230
1.0
 70
    11
 71
     3
 72
    17
 73
    13
 74
     0
 42
0.0000000001
 43
0.0000000001
 12
1.0
 22
0.0
 32
0.0
 13
1.0
 23
0.0
 33
0.0
 40
0.0
 40
0.0
 40
0.0
 40
0.0
 40
1.0
 40
1.0
 40
1.0
 40
2.0
 40
2.0
 40
2.0
 40
3.0
 40
3.0
 40
3.0
 40
4.0
 40
4.0
 40
4.0
 40
4.0
 10
90.63081594956452
 20
-143.7517767652773
 30
0.0
 10
90.41239689579969
 20
-143.7517767652773
 30
0.0
 10
90.37174476907373
 20
-144.0353081237134
 30
0.0
 10
90.37174476907373
 20
-144.3798176722384
 30
0.0
 10
90.37174476907373
 20
-144.6995225332696
 30
0.0
 10
90.40309513798951
 20
-145.008203088748
 30
0.0
 10
90.63081594956452
 20
-145.008203088748
 30
0.0
 10
90.84751245558674
 20
-145.008203088748
 30
0.0
 10
90.89023163960384
 20
-144.7270832971516
 30
0.0
 10
90.89023163960384
 20
-144.3798176722384
 30
0.0
 10
90.89023163960384
 20
-144.0608018303043
 30
0.0
 10
90.85681421339692
 20
-143.7517767652773
 30
0.0
 10
90.63081594956452
 20
-143.7517767652773
 30
0.0
  0
HATCH
  5
BB
330
B2
100
AcDbEntity
  8
_U+30EC_U+30A4_U+30E4_U+30FC 1
 62
   179
420
  2234388
100
AcDbHatch
 10
0.0
 20
0.0
 30
0.0
210
0.0
220
0.0
230
1.0
  2
SOLID
 70
     1
 71
     0
 91
        2
 92
        1
 93
        1
 72
     4
 94
        3
 73
     0
 74
     1
 95
       29
 96
       25
 40
0.0
 40
0.0
 40
0.0
 40
0.0
 40
1.0
 40
1.0
 40
1.0
 40
2.0
 40
2.0
 40
2.0
 40
3.0
 40
3.0
 40
3.0
 40
4.0
 40
4.0
 40
4.0
 40
5.0
 40
5.0
 40
5.0
 40
6.0
 40
6.0
 40
6.0
 40
7.0
 40
7.0
 40
7.0
 40
8.0
 40
8.0
 40
8.0
 40
8.0
 10
90.97911510312328
 20
-144.9744411529925
 10
90.88454723205318
 20
-145.1839029584957
 10
90.73279077592792
 20
-145.2031954932131
 10
90.63081594956452
 20
-145.2031954932131
 10
90.49025605376633
 20
-145.2031954932131
 10
90.36606036152307
 20
-145.1563421946137
 10
90.28286130555429
 20
-144.9744411529925
 10
90.19208303951795
 20
-144.7797932580759
 10
90.1753743264145
 20
-144.5431151982392
 10
90.1753743264145
 20
-144.3798176722384
 10
90.1753743264145
 20
-144.2361571905035
 10
90.19018823700107
 20
-143.9843207105317
 10
90.28286130555429
 20
-143.7855387010328
 10
90.37725692185013
 20
-143.5826225769516
 10
90.5179890724226
 20
-143.5591959276519
 10
90.63081594956452
 20
-143.5591959276519
 10
90.76982555239435
 20
-143.5591959276519
 10
90.89574379238023
 20
-143.6036376594116
 10
90.97911510312328
 20
-143.7855387010328
 10
91.06610376412584
 20
-143.9781195386583
 10
91.08642982748881
 20
-144.2065293693303
 10
91.08642982748881
 20
-144.3798176722384
 10
91.08642982748881
 20
-144.5513834274038
 10
91.06799856664273
 20
-144.7822048249156
 10
90.97911510312328
 20
-144.9744411529925
 97
        0
 97
        0
 92
        1
 93
        1
 72
     4
 94
        3
 73
     0
 74
     1
 95
       17
 96
       13
 40
0.0
 40
0.0
 40
0.0
 40
0.0
 40
1.0
 40
1.0
 40
1.0
 40
2.0
 40
2.0
 40
2.0
 40
3.0
 40
3.0
 40
3.0
 40
4.0
 40
4.0
 40
4.0
 40
4.0
 10
90.63081594956452
 20
-143.7517767652773
 10
90.41239689579969
 20
-143.7517767652773
 10
90.37174476907373
 20
-144.0353081237134
 10
90.37174476907373
 20
-144.3798176722384
 10
90.37174476907373
 20
-144.6995225332696
 10
90.40309513798951
 20
-145.008203088748
 10
90.63081594956452
 20
-145.008203088748
 10
90.84751245558674
 20
-145.008203088748
 10
90.89023163960384
 20
-144.7270832971516
 10
90.89023163960384
 20
-144.3798176722384
 10
90.89023163960384
 20
-144.0608018303043
 10
90.85681421339692
 20
-143.7517767652773
 10
90.63081594956452
 20
-143.7517767652773
 97
        0
 97
        0
 75
     2
 76
     1
 98
        0
  0
POLYLINE
  5
BC
330
B2
100
AcDbEntity
  8
_U+30EC_U+30A4_U+30E4_U+30FC 1
370
     0
100
AcDb2dPolyline
 66
     1
 10
0.0
 20
0.0
 30
0.0
  0
VERTEX
  5
BD
330
BC
100
AcDbEntity
  8
_U+30EC_U+30A4_U+30E4_U+30FC 1
370
     0
100
AcDbVertex
100
AcDb2dVertex
 10
91.27642684350035
 20
-145.1522080800314
 30
0.0
  0
VERTEX
  5
BE
330
BC
100
AcDbEntity
  8
_U+30EC_U+30A4_U+30E4_U+30FC 1
370
     0
100
AcDbVertex
100
AcDb2dVertex
 10
91.27642684350035
 20
-144.9007161096082
 30
0.0
  0
VERTEX
  5
BF
330
BC
100
AcDbEntity
  8
_U+30EC_U+30A4_U+30E4_U+30FC 1
370
     0
100
AcDbVertex
100
AcDb2dVertex
 10
91.49691295455634
 20
-144.9007161096082
 30
0.0
  0
VERTEX
  5
C0
330
BC
100
AcDbEntity
  8
_U+30EC_U+30A4_U+30E4_U+30FC 1
370
     0
100
AcDbVertex
100
AcDb2dVertex
 10
91.49691295455634
 20
-145.1522080800314
 30
0.0
  0
VERTEX
  5
C1
330
BC
100
AcDbEntity
  8
_U+30EC_U+30A4_U+30E4_U+30FC 1
370
     0
100
AcDbVertex
100
AcDb2dVertex
 10
91.27642684350035
 20
-145.1522080800314
 30
0.0
  0
SEQEND
  5
C2
330
BC
100
AcDbEntity
  8
_U+30EC_U+30A4_U+30E4_U+30FC 1
370
     0
  0
HATCH
  5
C3
330
B2
100
AcDbEntity
  8
_U+30EC_U+30A4_U+30E4_U+30FC 1
 62
   179
420
  2234388
100
AcDbHatch
 10
0.0
 20
0.0
 30
0.0
210
0.0
220
0.0
230
1.0
  2
SOLID
 70
     1
 71
     0
 91
        1
 92
        1
 93
        4
 72
     1
 10
91.27642684350035
 20
-145.1522080800314
 11
91.27642684350035
 21
-144.9007161096082
 72
     1
 10
91.27642684350035
 20
-144.9007161096082
 11
91.49691295455634
 21
-144.9007161096082
 72
     1
 10
91.49691295455634
 20
-144.9007161096082
 11
91.49691295455634
 21
-145.1522080800314
 72
     1
 10
91.49691295455634
 20
-145.1522080800314
 11
91.27642684350035
 21
-145.1522080800314
 97
        0
 75
     2
 76
     1
 98
        0
  0
SPLINE
  5
C4
330
B2
100
AcDbEntity
  8
_U+30EC_U+30A4_U+30E4_U+30FC 1
370
     0
100
AcDbSpline
210
0.0
220
0.0
230
1.0
 70
    11
 71
     3
 72
    62
 73
    58
 74
     0
 42
0.0000000001
 43
0.0000000001
 12
1.0
 22
0.0
 32
0.0
 13
1.0
 23
0.0
 33
0.0
 40
0.0
 40
0.0
 40
0.0
 40
0.0
 40
1.0
 40
1.0
 40
1.0
 40
2.0
 40
2.0
 40
2.0
 40
3.0
 40
3.0
 40
3.0
 40
4.0
 40
4.0
 40
4.0
 40
5.0
 40
5.0
 40
5.0
 40
6.0
 40
6.0
 40
6.0
 40
7.0
 40
7.0
 40
7.0
 40
8.0
 40
8.0
 40
8.0
 40
9.0
 40
9.0
 40
9.0
 40
10.0
 40
10.0
 40
10.0
 40
11.0
 40
11.0
 40
11.0
 40
12.0
 40
12.0
 40
12.0
 40
13.0
 40
13.0
 40
13.0
 40
14.0
 40
14.0
 40
14.0
 40
15.0
 40
15.0
 40
15.0
 40
16.0
 40
16.0
 40
16.0
 40
17.0
 40
17.0
 40
17.0
 40
18.0
 40
18.0
 40
18.0
 40
19.0
 40
19.0
 40
19.0
 40
19.0
 10
92.13425561932755
 20
-145.2031954932131
 30
0.0
 10
92.0508843085845
 20
-145.2031954932131
 30
0.0
 10
91.86037052825019
 20
-145.1818359012046
 30
0.0
 10
91.75116100136776
 20
-144.995800745001
 30
0.0
 10
91.68639320624507
 20
-144.8834906321819
 30
0.0
 10
91.6826036012113
 20
-144.7842718822067
 30
0.0
 10
91.67881399617752
 20
-144.6995225332696
 30
0.0
 10
91.67881399617752
 20
-144.6995225332696
 30
0.0
 10
91.871394833803
 20
-144.6995225332696
 30
0.0
 10
91.871394833803
 20
-144.6995225332696
 30
0.0
 10
91.87311738154561
 20
-144.7735920862025
 30
0.0
 10
91.88241913935579
 20
-145.008203088748
 30
0.0
 10
92.1308105238423
 20
-145.008203088748
 30
0.0
 10
92.25104435627752
 20
-145.008203088748
 30
0.0
 10
92.38436955155669
 20
-144.9386121599459
 30
0.0
 10
92.38436955155669
 20
-144.7098578197253
 30
0.0
 10
92.38436955155669
 20
-144.5937581018724
 30
0.0
 10
92.35095212534976
 20
-144.5451822555304
 30
0.0
 10
92.32304685191924
 20
-144.5134873770661
 30
0.0
 10
92.25827905679654
 20
-144.4390733145847
 30
0.0
 10
92.15664873998168
 20
-144.4266709708378
 30
0.0
 10
92.10841740318818
 20
-144.4266709708378
 30
0.0
 10
92.09153643531046
 20
-144.4266709708378
 30
0.0
 10
92.06018606639468
 20
-144.4287380281289
 30
0.0
 10
92.03641490754646
 20
-144.4328721427112
 30
0.0
 10
92.03641490754646
 20
-144.4328721427112
 30
0.0
 10
92.03641490754646
 20
-144.2382242477946
 30
0.0
 10
92.03641490754646
 20
-144.2382242477946
 30
0.0
 10
92.06948782420486
 20
-144.2447699292166
 30
0.0
 10
92.10669485544555
 20
-144.2468369865077
 30
0.0
 10
92.11220700822196
 20
-144.2468369865077
 30
0.0
 10
92.1693955932771
 20
-144.2468369865077
 30
0.0
 10
92.34371742483074
 20
-144.2254773944992
 30
0.0
 10
92.34371742483074
 20
-143.988454825114
 30
0.0
 10
92.34371742483074
 20
-143.8110324076236
 30
0.0
 10
92.2286512356234
 20
-143.7559108798596
 30
0.0
 10
92.13253307158493
 20
-143.7559108798596
 30
0.0
 10
91.90102265497613
 20
-143.7559108798596
 30
0.0
 10
91.89378795445711
 20
-143.988454825114
 30
0.0
 10
91.88999834942334
 20
-144.0608018303043
 30
0.0
 10
91.88999834942334
 20
-144.0608018303043
 30
0.0
 10
91.71223142238445
 20
-144.0608018303043
 30
0.0
 10
91.71223142238445
 20
-144.0608018303043
 30
0.0
 10
91.71946612290347
 20
-143.9357448641897
 30
0.0
 10
91.74358179130022
 20
-143.5591959276519
 30
0.0
 10
92.14355737713772
 20
-143.5591959276519
 30
0.0
 10
92.33992781979697
 20
-143.5591959276519
 30
0.0
 10
92.55111217304278
 20
-143.6859754415091
 30
0.0
 10
92.55111217304278
 20
-143.9822536532405
 30
0.0
 10
92.55111217304278
 20
-144.1682888094441
 30
0.0
 10
92.46774086229973
 20
-144.25097110109
 30
0.0
 10
92.38057994652291
 20
-144.3122938007275
 30
0.0
 10
92.43432343609281
 20
-144.3398545646095
 30
0.0
 10
92.59348684751136
 20
-144.4204697989643
 30
0.0
 10
92.59348684751136
 20
-144.6974554759784
 30
0.0
 10
92.59348684751136
 20
-145.0357638526299
 30
0.0
 10
92.37679034148914
 20
-145.2031954932131
 30
0.0
 10
92.13425561932755
 20
-145.2031954932131
 30
0.0
  0
HATCH
  5
C5
330
B2
100
AcDbEntity
  8
_U+30EC_U+30A4_U+30E4_U+30FC 1
 62
   179
420
  2234388
100
AcDbHatch
 10
0.0
 20
0.0
 30
0.0
210
0.0
220
0.0
230
1.0
  2
SOLID
 70
     1
 71
     0
 91
        1
 92
        1
 93
        1
 72
     4
 94
        3
 73
     0
 74
     1
 95
       62
 96
       58
 40
0.0
 40
0.0
 40
0.0
 40
0.0
 40
1.0
 40
1.0
 40
1.0
 40
2.0
 40
2.0
 40
2.0
 40
3.0
 40
3.0
 40
3.0
 40
4.0
 40
4.0
 40
4.0
 40
5.0
 40
5.0
 40
5.0
 40
6.0
 40
6.0
 40
6.0
 40
7.0
 40
7.0
 40
7.0
 40
8.0
 40
8.0
 40
8.0
 40
9.0
 40
9.0
 40
9.0
 40
10.0
 40
10.0
 40
10.0
 40
11.0
 40
11.0
 40
11.0
 40
12.0
 40
12.0
 40
12.0
 40
13.0
 40
13.0
 40
13.0
 40
14.0
 40
14.0
 40
14.0
 40
15.0
 40
15.0
 40
15.0
 40
16.0
 40
16.0
 40
16.0
 40
17.0
 40
17.0
 40
17.0
 40
18.0
 40
18.0
 40
18.0
 40
19.0
 40
19.0
 40
19.0
 40
19.0
 10
92.13425561932755
 20
-145.2031954932131
 10
92.0508843085845
 20
-145.2031954932131
 10
91.86037052825019
 20
-145.1818359012046
 10
91.75116100136776
 20
-144.995800745001
 10
91.68639320624507
 20
-144.8834906321819
 10
91.6826036012113
 20
-144.7842718822067
 10
91.67881399617752
 20
-144.6995225332696
 10
91.67881399617752
 20
-144.6995225332696
 10
91.871394833803
 20
-144.6995225332696
 10
91.871394833803
 20
-144.6995225332696
 10
91.87311738154561
 20
-144.7735920862025
 10
91.88241913935579
 20
-145.008203088748
 10
92.1308105238423
 20
-145.008203088748
 10
92.25104435627752
 20
-145.008203088748
 10
92.38436955155669
 20
-144.9386121599459
 10
92.38436955155669
 20
-144.7098578197253
 10
92.38436955155669
 20
-144.5937581018724
 10
92.35095212534976
 20
-144.5451822555304
 10
92.32304685191924
 20
-144.5134873770661
 10
92.25827905679654
 20
-144.4390733145847
 10
92.15664873998168
 20
-144.4266709708378
 10
92.10841740318818
 20
-144.4266709708378
 10
92.09153643531046
 20
-144.4266709708378
 10
92.06018606639468
 20
-144.4287380281289
 10
92.03641490754646
 20
-144.4328721427112
 10
92.03641490754646
 20
-144.4328721427112
 10
92.03641490754646
 20
-144.2382242477946
 10
92.03641490754646
 20
-144.2382242477946
 10
92.06948782420486
 20
-144.2447699292166
 10
92.10669485544555
 20
-144.2468369865077
 10
92.11220700822196
 20
-144.2468369865077
 10
92.1693955932771
 20
-144.2468369865077
 10
92.34371742483074
 20
-144.2254773944992
 10
92.34371742483074
 20
-143.988454825114
 10
92.34371742483074
 20
-143.8110324076236
 10
92.2286512356234
 20
-143.7559108798596
 10
92.13253307158493
 20
-143.7559108798596
 10
91.90102265497613
 20
-143.7559108798596
 10
91.89378795445711
 20
-143.988454825114
 10
91.88999834942334
 20
-144.0608018303043
 10
91.88999834942334
 20
-144.0608018303043
 10
91.71223142238445
 20
-144.0608018303043
 10
91.71223142238445
 20
-144.0608018303043
 10
91.71946612290347
 20
-143.9357448641897
 10
91.74358179130022
 20
-143.5591959276519
 10
92.14355737713772
 20
-143.5591959276519
 10
92.33992781979697
 20
-143.5591959276519
 10
92.55111217304278
 20
-143.6859754415091
 10
92.55111217304278
 20
-143.9822536532405
 10
92.55111217304278
 20
-144.1682888094441
 10
92.46774086229973
 20
-144.25097110109
 10
92.38057994652291
 20
-144.3122938007275
 10
92.43432343609281
 20
-144.3398545646095
 10
92.59348684751136
 20
-144.4204697989643
 10
92.59348684751136
 20
-144.6974554759784
 10
92.59348684751136
 20
-145.0357638526299
 10
92.37679034148914
 20
-145.2031954932131
 10
92.13425561932755
 20
-145.2031954932131
 97
        0
 97
        0
 75
     2
 76
     1
 98
        0
  0
ENDBLK
  5
B5
330
B2
100
AcDbEntity
  8
0
100
AcDbBlockEnd
  0
BLOCK
  5
E0
330
DE
100
AcDbEntity
  8
0
100
AcDbBlockBegin
  2
block 8
 70
     0
 10
0.0
 20
0.0
 30
0.0
  3
block 8
  1

  0
SPLINE
  5
E2
330
DE
100
AcDbEntity
  8
_U+30EC_U+30A4_U+30E4_U+30FC 1
370
     0
100
AcDbSpline
210
0.0
220
0.0
230
1.0
 70
    11
 71
     3
 72
    26
 73
    22
 74
     0
 42
0.0000000001
 43
0.0000000001
 12
1.0
 22
0.0
 32
0.0
 13
1.0
 23
0.0
 33
0.0
 40
0.0
 40
0.0
 40
0.0
 40
0.0
 40
1.0
 40
1.0
 40
1.0
 40
2.0
 40
2.0
 40
2.0
 40
3.0
 40
3.0
 40
3.0
 40
4.0
 40
4.0
 40
4.0
 40
5.0
 40
5.0
 40
5.0
 40
6.0
 40
6.0
 40
6.0
 40
7.0
 40
7.0
 40
7.0
 40
7.0
 10
100.3825032301127
 20
-136.3000352306819
 30
0.0
 10
100.3825032301127
 20
-136.3000352306819
 30
0.0
 10
100.3825032301127
 20
-135.1958821276594
 30
0.0
 10
100.3825032301127
 20
-135.1958821276594
 30
0.0
 10
100.3825032301127
 20
-135.1958821276594
 30
0.0
 10
100.0524630826258
 20
-135.1958821276594
 30
0.0
 10
100.0524630826258
 20
-135.1958821276594
 30
0.0
 10
100.0524630826258
 20
-135.1958821276594
 30
0.0
 10
100.0524630826258
 20
-135.0477430217936
 30
0.0
 10
100.0524630826258
 20
-135.0477430217936
 30
0.0
 10
100.3845702874039
 20
-135.032929111207
 30
0.0
 10
100.4314235860033
 20
-134.8699760947547
 30
0.0
 10
100.4610514071764
 20
-134.7555989246444
 30
0.0
 10
100.4610514071764
 20
-134.7555989246444
 30
0.0
 10
100.607123455751
 20
-134.7555989246444
 30
0.0
 10
100.607123455751
 20
-134.7555989246444
 30
0.0
 10
100.607123455751
 20
-134.7555989246444
 30
0.0
 10
100.607123455751
 20
-136.3000352306819
 30
0.0
 10
100.607123455751
 20
-136.3000352306819
 30
0.0
 10
100.607123455751
 20
-136.3000352306819
 30
0.0
 10
100.3825032301127
 20
-136.3000352306819
 30
0.0
 10
100.3825032301127
 20
-136.3000352306819
 30
0.0
  0
HATCH
  5
E3
330
DE
100
AcDbEntity
  8
_U+30EC_U+30A4_U+30E4_U+30FC 1
 62
   179
420
  2234388
100
AcDbHatch
 10
0.0
 20
0.0
 30
0.0
210
0.0
220
0.0
230
1.0
  2
SOLID
 70
     1
 71
     0
 91
        1
 92
        1
 93
        1
 72
     4
 94
        3
 73
     0
 74
     1
 95
       26
 96
       22
 40
0.0
 40
0.0
 40
0.0
 40
0.0
 40
1.0
 40
1.0
 40
1.0
 40
2.0
 40
2.0
 40
2.0
 40
3.0
 40
3.0
 40
3.0
 40
4.0
 40
4.0
 40
4.0
 40
5.0
 40
5.0
 40
5.0
 40
6.0
 40
6.0
 40
6.0
 40
7.0
 40
7.0
 40
7.0
 40
7.0
 10
100.3825032301127
 20
-136.3000352306819
 10
100.3825032301127
 20
-136.3000352306819
 10
100.3825032301127
 20
-135.1958821276594
 10
100.3825032301127
 20
-135.1958821276594
 10
100.3825032301127
 20
-135.1958821276594
 10
100.0524630826258
 20
-135.1958821276594
 10
100.0524630826258
 20
-135.1958821276594
 10
100.0524630826258
 20
-135.1958821276594
 10
100.0524630826258
 20
-135.0477430217936
 10
100.0524630826258
 20
-135.0477430217936
 10
100.3845702874039
 20
-135.032929111207
 10
100.4314235860033
 20
-134.8699760947547
 10
100.4610514071764
 20
-134.7555989246444
 10
100.4610514071764
 20
-134.7555989246444
 10
100.607123455751
 20
-134.7555989246444
 10
100.607123455751
 20
-134.7555989246444
 10
100.607123455751
 20
-134.7555989246444
 10
100.607123455751
 20
-136.3000352306819
 10
100.607123455751
 20
-136.3000352306819
 10
100.607123455751
 20
-136.3000352306819
 10
100.3825032301127
 20
-136.3000352306819
 10
100.3825032301127
 20
-136.3000352306819
 97
        0
 97
        0
 75
     2
 76
     1
 98
        0
  0
SPLINE
  5
E4
330
DE
100
AcDbEntity
  8
_U+30EC_U+30A4_U+30E4_U+30FC 1
370
     0
100
AcDbSpline
210
0.0
220
0.0
230
1.0
 70
    11
 71
     3
 72
    29
 73
    25
 74
     0
 42
0.0000000001
 43
0.0000000001
 12
1.0
 22
0.0
 32
0.0
 13
1.0
 23
0.0
 33
0.0
 40
0.0
 40
0.0
 40
0.0
 40
0.0
 40
1.0
 40
1.0
 40
1.0
 40
2.0
 40
2.0
 40
2.0
 40
3.0
 40
3.0
 40
3.0
 40
4.0
 40
4.0
 40
4.0
 40
5.0
 40
5.0
 40
5.0
 40
6.0
 40
6.0
 40
6.0
 40
7.0
 40
7.0
 40
7.0
 40
8.0
 40
8.0
 40
8.0
 40
8.0
 10
102.0058322227624
 20
-136.122268303643
 30
0.0
 10
101.8980007340741
 20
-136.3317301091462
 30
0.0
 10
101.7247124311661
 20
-136.3506781343151
 30
0.0
 10
101.6082682037646
 20
-136.3506781343151
 30
0.0
 10
101.4473822446034
 20
-136.3506781343151
 30
0.0
 10
101.3057888201597
 20
-136.3045138548128
 30
0.0
 10
101.2103596752182
 20
-136.122268303643
 30
0.0
 10
101.1066623011122
 20
-135.9276204087264
 30
0.0
 10
101.0877142759434
 20
-135.6905978393413
 30
0.0
 10
101.0877142759434
 20
-135.5279893324374
 30
0.0
 10
101.0877142759434
 20
-135.383984341154
 30
0.0
 10
101.1045952438211
 20
-135.1324923707308
 30
0.0
 10
101.2103596752182
 20
-134.9333658516833
 30
0.0
 10
101.3181911639066
 20
-134.7301052180536
 30
0.0
 10
101.4790771230677
 20
-134.7070230783024
 30
0.0
 10
101.6082682037646
 20
-134.7070230783024
 30
0.0
 10
101.7667425960861
 20
-134.7070230783024
 30
0.0
 10
101.9107475873695
 20
-134.7514648100621
 30
0.0
 10
102.0058322227624
 20
-134.9333658516833
 30
0.0
 10
102.1050509727376
 20
-135.1259466893088
 30
0.0
 10
102.1284776220373
 20
-135.3543565199809
 30
0.0
 10
102.1284776220373
 20
-135.5279893324374
 30
0.0
 10
102.1284776220373
 20
-135.6992105780544
 30
0.0
 10
102.1074625395773
 20
-135.9296874660176
 30
0.0
 10
102.0058322227624
 20
-136.122268303643
 30
0.0
  0
SPLINE
  5
E5
330
DE
100
AcDbEntity
  8
_U+30EC_U+30A4_U+30E4_U+30FC 1
370
     0
100
AcDbSpline
210
0.0
220
0.0
230
1.0
 70
    11
 71
     3
 72
    17
 73
    13
 74
     0
 42
0.0000000001
 43
0.0000000001
 12
1.0
 22
0.0
 32
0.0
 13
1.0
 23
0.0
 33
0.0
 40
0.0
 40
0.0
 40
0.0
 40
0.0
 40
1.0
 40
1.0
 40
1.0
 40
2.0
 40
2.0
 40
2.0
 40
3.0
 40
3.0
 40
3.0
 40
4.0
 40
4.0
 40
4.0
 40
4.0
 10
101.6082682037646
 20
-134.8996039159279
 30
0.0
 10
101.358498781084
 20
-134.8996039159279
 30
0.0
 10
101.3119899920331
 20
-135.1831352743639
 30
0.0
 10
101.3119899920331
 20
-135.5279893324374
 30
0.0
 10
101.3119899920331
 20
-135.8473496839201
 30
0.0
 10
101.3478189850797
 20
-136.156374748947
 30
0.0
 10
101.6082682037646
 20
-136.156374748947
 30
0.0
 10
101.8556260596055
 20
-136.156374748947
 30
0.0
 10
101.9045464154961
 20
-135.8745659382536
 30
0.0
 10
101.9045464154961
 20
-135.5279893324374
 30
0.0
 10
101.9045464154961
 20
-135.2082844714063
 30
0.0
 10
101.8659613460613
 20
-134.8996039159279
 30
0.0
 10
101.6082682037646
 20
-134.8996039159279
 30
0.0
  0
HATCH
  5
E6
330
DE
100
AcDbEntity
  8
_U+30EC_U+30A4_U+30E4_U+30FC 1
 62
   179
420
  2234388
100
AcDbHatch
 10
0.0
 20
0.0
 30
0.0
210
0.0
220
0.0
230
1.0
  2
SOLID
 70
     1
 71
     0
 91
        2
 92
        1
 93
        1
 72
     4
 94
        3
 73
     0
 74
     1
 95
       29
 96
       25
 40
0.0
 40
0.0
 40
0.0
 40
0.0
 40
1.0
 40
1.0
 40
1.0
 40
2.0
 40
2.0
 40
2.0
 40
3.0
 40
3.0
 40
3.0
 40
4.0
 40
4.0
 40
4.0
 40
5.0
 40
5.0
 40
5.0
 40
6.0
 40
6.0
 40
6.0
 40
7.0
 40
7.0
 40
7.0
 40
8.0
 40
8.0
 40
8.0
 40
8.0
 10
102.0058322227624
 20
-136.122268303643
 10
101.8980007340741
 20
-136.3317301091462
 10
101.7247124311661
 20
-136.3506781343151
 10
101.6082682037646
 20
-136.3506781343151
 10
101.4473822446034
 20
-136.3506781343151
 10
101.3057888201597
 20
-136.3045138548128
 10
101.2103596752182
 20
-136.122268303643
 10
101.1066623011122
 20
-135.9276204087264
 10
101.0877142759434
 20
-135.6905978393413
 10
101.0877142759434
 20
-135.5279893324374
 10
101.0877142759434
 20
-135.383984341154
 10
101.1045952438211
 20
-135.1324923707308
 10
101.2103596752182
 20
-134.9333658516833
 10
101.3181911639066
 20
-134.7301052180536
 10
101.4790771230677
 20
-134.7070230783024
 10
101.6082682037646
 20
-134.7070230783024
 10
101.7667425960861
 20
-134.7070230783024
 10
101.9107475873695
 20
-134.7514648100621
 10
102.0058322227624
 20
-134.9333658516833
 10
102.1050509727376
 20
-135.1259466893088
 10
102.1284776220373
 20
-135.3543565199809
 10
102.1284776220373
 20
-135.5279893324374
 10
102.1284776220373
 20
-135.6992105780544
 10
102.1074625395773
 20
-135.9296874660176
 10
102.0058322227624
 20
-136.122268303643
 97
        0
 97
        0
 92
        1
 93
        1
 72
     4
 94
        3
 73
     0
 74
     1
 95
       17
 96
       13
 40
0.0
 40
0.0
 40
0.0
 40
0.0
 40
1.0
 40
1.0
 40
1.0
 40
2.0
 40
2.0
 40
2.0
 40
3.0
 40
3.0
 40
3.0
 40
4.0
 40
4.0
 40
4.0
 40
4.0
 10
101.6082682037646
 20
-134.8996039159279
 10
101.358498781084
 20
-134.8996039159279
 10
101.3119899920331
 20
-135.1831352743639
 10
101.3119899920331
 20
-135.5279893324374
 10
101.3119899920331
 20
-135.8473496839201
 10
101.3478189850797
 20
-136.156374748947
 10
101.6082682037646
 20
-136.156374748947
 10
101.8556260596055
 20
-136.156374748947
 10
101.9045464154961
 20
-135.8745659382536
 10
101.9045464154961
 20
-135.5279893324374
 10
101.9045464154961
 20
-135.2082844714063
 10
101.8659613460613
 20
-134.8996039159279
 10
101.6082682037646
 20
-134.8996039159279
 97
        0
 97
        0
 75
     2
 76
     1
 98
        0
  0
ENDBLK
  5
E1
330
DE
100
AcDbEntity
  8
0
100
AcDbBlockEnd
  0
ENDSEC
  0
SECTION
  2
ENTITIES
  0
SPLINE
  5
41
330
1F
100
AcDbEntity
  8
_U+30EC_U+30A4_U+30E4_U+30FC 1
 62
   179
420
  2234388
370
    25
100
AcDbSpline
210
0.0
220
0.0
230
1.0
 70
    11
 71
     3
 72
    62
 73
    58
 74
     0
 42
0.0000000001
 43
0.0000000001
 12
1.0
 22
0.0
 32
0.0
 13
1.0
 23
0.0
 33
0.0
 40
0.0
 40
0.0
 40
0.0
 40
0.0
 40
1.0
 40
1.0
 40
1.0
 40
2.0
 40
2.0
 40
2.0
 40
3.0
 40
3.0
 40
3.0
 40
4.0
 40
4.0
 40
4.0
 40
5.0
 40
5.0
 40
5.0
 40
6.0
 40
6.0
 40
6.0
 40
7.0
 40
7.0
 40
7.0
 40
8.0
 40
8.0
 40
8.0
 40
9.0
 40
9.0
 40
9.0
 40
10.0
 40
10.0
 40
10.0
 40
11.0
 40
11.0
 40
11.0
 40
12.0
 40
12.0
 40
12.0
 40
13.0
 40
13.0
 40
13.0
 40
14.0
 40
14.0
 40
14.0
 40
15.0
 40
15.0
 40
15.0
 40
16.0
 40
16.0
 40
16.0
 40
17.0
 40
17.0
 40
17.0
 40
18.0
 40
18.0
 40
18.0
 40
19.0
 40
19.0
 40
19.0
 40
19.0
 10
84.88351700110773
 20
-131.9357844114606
 30
0.0
 10
84.88351700110773
 20
-131.9357844114606
 30
0.0
 10
84.88351700110773
 20
-110.9355230278218
 30
0.0
 10
84.88351700110773
 20
-110.9355230278218
 30
0.0
 10
84.88351700110773
 20
-110.9355230278218
 30
0.0
 10
84.28340673864004
 20
-111.4354091388078
 30
0.0
 10
84.28340673864004
 20
-111.4354091388078
 30
0.0
 10
84.28340673864004
 20
-111.4354091388078
 30
0.0
 10
84.28340673864004
 20
-120.4357227476689
 30
0.0
 10
84.28340673864004
 20
-120.4357227476689
 30
0.0
 10
84.28340673864004
 20
-120.4357227476689
 30
0.0
 10
83.8837800821687
 20
-120.9356088586548
 30
0.0
 10
83.8837800821687
 20
-120.9356088586548
 30
0.0
 10
83.8837800821687
 20
-120.9356088586548
 30
0.0
 10
83.8837800821687
 20
-130.9353419117107
 30
0.0
 10
83.8837800821687
 20
-130.9353419117107
 30
0.0
 10
83.8837800821687
 20
-130.9353419117107
 30
0.0
 10
77.1837541419895
 20
-130.9353419117107
 30
0.0
 10
77.1837541419895
 20
-130.9353419117107
 30
0.0
 10
77.01801914621774
 20
-130.9353419117107
 30
0.0
 10
76.88368331411245
 20
-131.0696796894546
 30
0.0
 10
76.88368331411245
 20
-131.2354146894134
 30
0.0
 10
76.88368331411245
 20
-131.2354146894134
 30
0.0
 10
76.88368331411245
 20
-139.4354166318078
 30
0.0
 10
76.88368331411245
 20
-139.4354166318078
 30
0.0
 10
76.88368331411245
 20
-139.5735644095514
 30
0.0
 10
76.93966720377223
 20
-139.6982713539644
 30
0.0
 10
77.03008609185362
 20
-139.7888999650529
 30
0.0
 10
77.03008609185362
 20
-139.7888999650529
 30
0.0
 10
77.03026053479434
 20
-139.7892174650525
 30
0.0
 10
77.03026053479434
 20
-139.7892174650525
 30
0.0
 10
77.12088914359332
 20
-139.8798460761411
 30
0.0
 10
77.2457724737406
 20
-139.9356555205715
 30
0.0
 10
77.38374385910956
 20
-139.9356555205715
 30
0.0
 10
77.38374385910956
 20
-139.9356555205715
 30
0.0
 10
85.58374559435453
 20
-139.9356555205715
 30
0.0
 10
85.58374559435453
 20
-139.9356555205715
 30
0.0
 10
85.7494453123494
 20
-139.9356555205715
 30
0.0
 10
85.88381836447681
 20
-139.8012824650495
 30
0.0
 10
85.88381836447681
 20
-139.6355827428688
 30
0.0
 10
85.88381836447681
 20
-139.6355827428688
 30
0.0
 10
85.88381836447681
 20
-132.9359094112103
 30
0.0
 10
85.88381836447681
 20
-132.9359094112103
 30
0.0
 10
85.88381836447681
 20
-132.9359094112103
 30
0.0
 10
95.88355116491793
 20
-132.9359094112103
 30
0.0
 10
95.88355116491793
 20
-132.9359094112103
 30
0.0
 10
95.88355116491793
 20
-132.9359094112103
 30
0.0
 10
96.38343726327588
 20
-132.5355771890882
 30
0.0
 10
96.38343726327588
 20
-132.5355771890882
 30
0.0
 10
96.38343726327588
 20
-132.5355771890882
 30
0.0
 10
105.3837506447699
 20
-132.5355771890882
 30
0.0
 10
105.3837506447699
 20
-132.5355771890882
 30
0.0
 10
105.3837506447699
 20
-132.5355771890882
 30
0.0
 10
105.8836367431278
 20
-131.9357844114606
 30
0.0
 10
105.8836367431278
 20
-131.9357844114606
 30
0.0
 10
105.8836367431278
 20
-131.9357844114606
 30
0.0
 10
84.88351700110773
 20
-131.9357844114606
 30
0.0
 10
84.88351700110773
 20
-131.9357844114606
 30
0.0
  0
POLYLINE
  5
42
330
1F
100
AcDbEntity
  8
_U+30EC_U+30A4_U+30E4_U+30FC 1
 62
   179
420
  2234388
370
    25
100
AcDb2dPolyline
 66
     1
 10
0.0
 20
0.0
 30
0.0
  0
VERTEX
  5
43
330
42
100
AcDbEntity
  8
_U+30EC_U+30A4_U+30E4_U+30FC 1
 62
   179
420
  2234388
370
    25
100
AcDbVertex
100
AcDb2dVertex
 10
84.88386977887652
 20
-138.9355305208219
 30
0.0
  0
VERTEX
  5
44
330
42
100
AcDbEntity
  8
_U+30EC_U+30A4_U+30E4_U+30FC 1
 62
   179
420
  2234388
370
    25
100
AcDbVertex
100
AcDb2dVertex
 10
77.88377106857502
 20
-138.9355305208219
 30
0.0
  0
VERTEX
  5
45
330
42
100
AcDbEntity
  8
_U+30EC_U+30A4_U+30E4_U+30FC 1
 62
   179
420
  2234388
370
    25
100
AcDbVertex
100
AcDb2dVertex
 10
77.88377106857502
 20
-131.9351141336826
 30
0.0
  0
VERTEX
  5
46
330
42
100
AcDbEntity
  8
_U+30EC_U+30A4_U+30E4_U+30FC 1
 62
   179
420
  2234388
370
    25
100
AcDbVertex
100
AcDb2dVertex
 10
83.8837800821687
 20
-131.9351141336826
 30
0.0
  0
VERTEX
  5
47
330
42
100
AcDbEntity
  8
_U+30EC_U+30A4_U+30E4_U+30FC 1
 62
   179
420
  2234388
370
    25
100
AcDbVertex
100
AcDb2dVertex
 10
83.8837800821687
 20
-132.9348510778777
 30
0.0
  0
VERTEX
  5
48
330
42
100
AcDbEntity
  8
_U+30EC_U+30A4_U+30E4_U+30FC 1
 62
   179
420
  2234388
370
    25
100
AcDbVertex
100
AcDb2dVertex
 10
83.8840975821606
 20
-132.9348510778777
 30
0.0
  0
VERTEX
  5
49
330
42
100
AcDbEntity
  8
_U+30EC_U+30A4_U+30E4_U+30FC 1
 62
   179
420
  2234388
370
    25
100
AcDbVertex
100
AcDb2dVertex
 10
83.8840975821606
 20
-132.9359094112103
 30
0.0
  0
VERTEX
  5
4A
330
42
100
AcDbEntity
  8
_U+30EC_U+30A4_U+30E4_U+30FC 1
 62
   179
420
  2234388
370
    25
100
AcDbVertex
100
AcDb2dVertex
 10
84.88386977887652
 20
-132.9359094112103
 30
0.0
  0
VERTEX
  5
4B
330
42
100
AcDbEntity
  8
_U+30EC_U+30A4_U+30E4_U+30FC 1
 62
   179
420
  2234388
370
    25
100
AcDbVertex
100
AcDb2dVertex
 10
84.88386977887652
 20
-138.9355305208219
 30
0.0
  0
SEQEND
  5
4C
330
42
100
AcDbEntity
  8
_U+30EC_U+30A4_U+30E4_U+30FC 1
 62
   179
420
  2234388
370
    25
  0
HATCH
  5
4D
330
1F
100
AcDbEntity
  8
_U+30EC_U+30A4_U+30E4_U+30FC 1
 62
     9
420
 12566464
100
AcDbHatch
 10
0.0
 20
0.0
 30
0.0
210
0.0
220
0.0
230
1.0
  2
SOLID
 70
     1
 71
     0
 91
        2
 92
        1
 93
        8
 72
     1
 10
84.88386977887652
 20
-138.9355305208219
 11
77.88377106857502
 21
-138.9355305208219
 72
     1
 10
77.88377106857502
 20
-138.9355305208219
 11
77.88377106857502
 21
-131.9351141336826
 72
     1
 10
77.88377106857502
 20
-131.9351141336826
 11
83.8837800821687
 21
-131.9351141336826
 72
     1
 10
83.8837800821687
 20
-131.9351141336826
 11
83.8837800821687
 21
-132.9348510778777
 72
     1
 10
83.8837800821687
 20
-132.9348510778777
 11
83.8840975821606
 21
-132.9348510778777
 72
     1
 10
83.8840975821606
 20
-132.9348510778777
 11
83.8840975821606
 21
-132.9359094112103
 72
     1
 10
83.8840975821606
 20
-132.9359094112103
 11
84.88386977887652
 21
-132.9359094112103
 72
     1
 10
84.88386977887652
 20
-132.9359094112103
 11
84.88386977887652
 21
-138.9355305208219
 97
        0
 92
        1
 93
        2
 72
     4
 94
        3
 73
     0
 74
     0
 95
       62
 96
       58
 40
0.0
 40
0.0
 40
0.0
 40
0.0
 40
0.3527777776895833
 40
0.3527777776895833
 40
0.3527777776895833
 40
0.7055555553791667
 40
0.7055555553791667
 40
0.7055555553791667
 40
1.05833333306875
 40
1.05833333306875
 40
1.05833333306875
 40
1.411111110758333
 40
1.411111110758333
 40
1.411111110758333
 40
1.763888888447917
 40
1.763888888447917
 40
1.763888888447917
 40
2.1166666661375
 40
2.1166666661375
 40
2.1166666661375
 40
2.469444443827083
 40
2.469444443827083
 40
2.469444443827083
 40
2.822222221516667
 40
2.822222221516667
 40
2.822222221516667
 40
3.17499999920625
 40
3.17499999920625
 40
3.17499999920625
 40
3.527777776895833
 40
3.527777776895833
 40
3.527777776895833
 40
3.880555554585417
 40
3.880555554585417
 40
3.880555554585417
 40
4.233333332275
 40
4.233333332275
 40
4.233333332275
 40
4.586111109964584
 40
4.586111109964584
 40
4.586111109964584
 40
4.938888887654167
 40
4.938888887654167
 40
4.938888887654167
 40
5.29166666534375
 40
5.29166666534375
 40
5.29166666534375
 40
5.644444443033334
 40
5.644444443033334
 40
5.644444443033334
 40
5.997222220722917
 40
5.997222220722917
 40
5.997222220722917
 40
6.349999998412501
 40
6.349999998412501
 40
6.349999998412501
 40
6.702777776102083
 40
6.702777776102083
 40
6.702777776102083
 40
6.702777776102083
 10
84.88351700110773
 20
-131.9357844114606
 10
84.88351700110773
 20
-131.9357844114606
 10
84.88351700110773
 20
-110.9355230278218
 10
84.88351700110773
 20
-110.9355230278218
 10
84.88351700110773
 20
-110.9355230278218
 10
84.28340673864004
 20
-111.4354091388078
 10
84.28340673864004
 20
-111.4354091388078
 10
84.28340673864004
 20
-111.4354091388078
 10
84.28340673864004
 20
-120.4357227476689
 10
84.28340673864004
 20
-120.4357227476689
 10
84.28340673864004
 20
-120.4357227476689
 10
83.8837800821687
 20
-120.9356088586548
 10
83.8837800821687
 20
-120.9356088586548
 10
83.8837800821687
 20
-120.9356088586548
 10
83.8837800821687
 20
-130.9353419117107
 10
83.8837800821687
 20
-130.9353419117107
 10
83.8837800821687
 20
-130.9353419117107
 10
77.1837541419895
 20
-130.9353419117107
 10
77.1837541419895
 20
-130.9353419117107
 10
77.01801914621774
 20
-130.9353419117107
 10
76.88368331411245
 20
-131.0696796894546
 10
76.88368331411245
 20
-131.2354146894134
 10
76.88368331411245
 20
-131.2354146894134
 10
76.88368331411245
 20
-139.4354166318078
 10
76.88368331411245
 20
-139.4354166318078
 10
76.88368331411245
 20
-139.5735644095514
 10
76.93966720377223
 20
-139.6982713539644
 10
77.03008609185362
 20
-139.7888999650529
 10
77.03008609185362
 20
-139.7888999650529
 10
77.03026053479434
 20
-139.7892174650525
 10
77.03026053479434
 20
-139.7892174650525
 10
77.12088914359332
 20
-139.8798460761411
 10
77.2457724737406
 20
-139.9356555205715
 10
77.38374385910956
 20
-139.9356555205715
 10
77.38374385910956
 20
-139.9356555205715
 10
85.58374559435453
 20
-139.9356555205715
 10
85.58374559435453
 20
-139.9356555205715
 10
85.7494453123494
 20
-139.9356555205715
 10
85.88381836447681
 20
-139.8012824650495
 10
85.88381836447681
 20
-139.6355827428688
 10
85.88381836447681
 20
-139.6355827428688
 10
85.88381836447681
 20
-132.9359094112103
 10
85.88381836447681
 20
-132.9359094112103
 10
85.88381836447681
 20
-132.9359094112103
 10
95.88355116491793
 20
-132.9359094112103
 10
95.88355116491793
 20
-132.9359094112103
 10
95.88355116491793
 20
-132.9359094112103
 10
96.38343726327588
 20
-132.5355771890882
 10
96.38343726327588
 20
-132.5355771890882
 10
96.38343726327588
 20
-132.5355771890882
 10
105.3837506447699
 20
-132.5355771890882
 10
105.3837506447699
 20
-132.5355771890882
 10
105.3837506447699
 20
-132.5355771890882
 10
105.8836367431278
 20
-131.9357844114606
 10
105.8836367431278
 20
-131.9357844114606
 10
105.8836367431278
 20
-131.9357844114606
 10
84.88351700110773
 20
-131.9357844114606
 10
84.88351700110773
 20
-131.9357844114606
 97
        0
 72
     1
 10
84.88351700110773
 20
-131.9357844114606
 11
84.88351700110773
 21
-131.9357844114606
 97
        0
 75
     2
 76
     1
 98
        0
  0
POLYLINE
  5
4E
330
1F
100
AcDbEntity
  8
_U+30EC_U+30A4_U+30E4_U+30FC 1
 62
   179
420
  2234388
370
     9
100
AcDb2dPolyline
 66
     1
 10
0.0
 20
0.0
 30
0.0
  0
VERTEX
  5
4F
330
4E
100
AcDbEntity
  8
_U+30EC_U+30A4_U+30E4_U+30FC 1
 62
   179
420
  2234388
370
     9
100
AcDbVertex
100
AcDb2dVertex
 10
73.3646878505331
 20
-139.906022187246
 30
0.0
  0
VERTEX
  5
50
330
4E
100
AcDbEntity
  8
_U+30EC_U+30A4_U+30E4_U+30FC 1
 62
   179
420
  2234388
370
     9
100
AcDbVertex
100
AcDb2dVertex
 10
73.3646878505331
 20
-110.987875250031
 30
0.0
  0
SEQEND
  5
51
330
4E
100
AcDbEntity
  8
_U+30EC_U+30A4_U+30E4_U+30FC 1
 62
   179
420
  2234388
370
     9
  0
POLYLINE
  5
52
330
1F
100
AcDbEntity
  8
_U+30EC_U+30A4_U+30E4_U+30FC 1
 62
   179
420
  2234388
370
     9
100
AcDb2dPolyline
 66
     1
 10
0.0
 20
0.0
 30
0.0
  0
VERTEX
  5
53
330
52
100
AcDbEntity
  8
_U+30EC_U+30A4_U+30E4_U+30FC 1
 62
   179
420
  2234388
370
     9
100
AcDbVertex
100
AcDb2dVertex
 10
75.2198755809811
 20
-139.906022187246
 30
0.0
  0
VERTEX
  5
54
330
52
100
AcDbEntity
  8
_U+30EC_U+30A4_U+30E4_U+30FC 1
 62
   179
420
  2234388
370
     9
100
AcDbVertex
100
AcDb2dVertex
 10
72.46482231793503
 20
-139.906022187246
 30
0.0
  0
SEQEND
  5
55
330
52
100
AcDbEntity
  8
_U+30EC_U+30A4_U+30E4_U+30FC 1
 62
   179
420
  2234388
370
     9
  0
POLYLINE
  5
56
330
1F
100
AcDbEntity
  8
_U+30EC_U+30A4_U+30E4_U+30FC 1
 62
   179
420
  2234388
370
     9
100
AcDb2dPolyline
 66
     1
 10
0.0
 20
0.0
 30
0.0
  0
VERTEX
  5
57
330
56
100
AcDbEntity
  8
_U+30EC_U+30A4_U+30E4_U+30FC 1
 62
   179
420
  2234388
370
     9
100
AcDbVertex
100
AcDb2dVertex
 10
111.0033946680675
 20
-139.9356555205715
 30
0.0
  0
VERTEX
  5
58
330
56
100
AcDbEntity
  8
_U+30EC_U+30A4_U+30E4_U+30FC 1
 62
   179
420
  2234388
370
     9
100
AcDbVertex
100
AcDb2dVertex
 10
89.10877161553474
 20
-139.9356555205715
 30
0.0
  0
SEQEND
  5
59
330
56
100
AcDbEntity
  8
_U+30EC_U+30A4_U+30E4_U+30FC 1
 62
   179
420
  2234388
370
     9
  0
POLYLINE
  5
5A
330
1F
100
AcDbEntity
  8
_U+30EC_U+30A4_U+30E4_U+30FC 1
 62
   179
420
  2234388
370
     9
100
AcDb2dPolyline
 66
     1
 10
0.0
 20
0.0
 30
0.0
  0
VERTEX
  5
5B
330
5A
100
AcDbEntity
  8
_U+30EC_U+30A4_U+30E4_U+30FC 1
 62
   179
420
  2234388
370
     9
100
AcDbVertex
100
AcDb2dVertex
 10
111.0033946680675
 20
-132.9727746889793
 30
0.0
  0
VERTEX
  5
5C
330
5A
100
AcDbEntity
  8
_U+30EC_U+30A4_U+30E4_U+30FC 1
 62
   179
420
  2234388
370
     9
100
AcDbVertex
100
AcDb2dVertex
 10
106.8362072743813
 20
-132.9727746889793
 30
0.0
  0
SEQEND
  5
5D
330
5A
100
AcDbEntity
  8
_U+30EC_U+30A4_U+30E4_U+30FC 1
 62
   179
420
  2234388
370
     9
  0
POLYLINE
  5
5E
330
1F
100
AcDbEntity
  8
_U+30EC_U+30A4_U+30E4_U+30FC 1
 62
   179
420
  2234388
370
     9
100
AcDb2dPolyline
 66
     1
 10
0.0
 20
0.0
 30
0.0
  0
VERTEX
  5
5F
330
5E
100
AcDbEntity
  8
_U+30EC_U+30A4_U+30E4_U+30FC 1
 62
   179
420
  2234388
370
     9
100
AcDbVertex
100
AcDb2dVertex
 10
111.0033946680675
 20
-132.0205216336618
 30
0.0
  0
VERTEX
  5
60
330
5E
100
AcDbEntity
  8
_U+30EC_U+30A4_U+30E4_U+30FC 1
 62
   179
420
  2234388
370
     9
100
AcDbVertex
100
AcDb2dVertex
 10
106.8362072743813
 20
-132.0205216336618
 30
0.0
  0
SEQEND
  5
61
330
5E
100
AcDbEntity
  8
_U+30EC_U+30A4_U+30E4_U+30FC 1
 62
   179
420
  2234388
370
     9
  0
POLYLINE
  5
62
330
1F
100
AcDbEntity
  8
_U+30EC_U+30A4_U+30E4_U+30FC 1
 62
   179
420
  2234388
370
     9
100
AcDb2dPolyline
 66
     1
 10
0.0
 20
0.0
 30
0.0
  0
VERTEX
  5
63
330
62
100
AcDbEntity
  8
_U+30EC_U+30A4_U+30E4_U+30FC 1
 62
   179
420
  2234388
370
     9
100
AcDbVertex
100
AcDb2dVertex
 10
82.38359262044168
 20
-110.9355230278218
 30
0.0
  0
VERTEX
  5
64
330
62
100
AcDbEntity
  8
_U+30EC_U+30A4_U+30E4_U+30FC 1
 62
   179
420
  2234388
370
     9
100
AcDbVertex
100
AcDb2dVertex
 10
72.46482231793503
 20
-110.9355230278218
 30
0.0
  0
SEQEND
  5
65
330
62
100
AcDbEntity
  8
_U+30EC_U+30A4_U+30E4_U+30FC 1
 62
   179
420
  2234388
370
     9
  0
INSERT
  5
67
330
1F
100
AcDbEntity
  8
_U+30EC_U+30A4_U+30E4_U+30FC 1
100
AcDbBlockReference
  2
block 2
 10
0.0
 20
0.0
 30
0.0
  0
INSERT
  5
6E
330
1F
100
AcDbEntity
  8
_U+30EC_U+30A4_U+30E4_U+30FC 1
100
AcDbBlockReference
  2
block 3
 10
0.0
 20
0.0
 30
0.0
  0
INSERT
  5
77
330
1F
100
AcDbEntity
  8
_U+30EC_U+30A4_U+30E4_U+30FC 1
100
AcDbBlockReference
  2
block 4
 10
0.0
 20
0.0
 30
0.0
  0
INSERT
  5
7D
330
1F
100
AcDbEntity
  8
_U+30EC_U+30A4_U+30E4_U+30FC 1
100
AcDbBlockReference
  2
block 5
 10
0.0
 20
0.0
 30
0.0
  0
POLYLINE
  5
82
330
1F
100
AcDbEntity
  8
_U+30EC_U+30A4_U+30E4_U+30FC 1
 62
   179
420
  2234388
370
     9
100
AcDb2dPolyline
 66
     1
 10
0.0
 20
0.0
 30
0.0
  0
VERTEX
  5
83
330
82
100
AcDbEntity
  8
_U+30EC_U+30A4_U+30E4_U+30FC 1
 62
   179
420
  2234388
370
     9
100
AcDbVertex
100
AcDb2dVertex
 10
109.5350983166379
 20
-139.9583744094551
 30
0.0
  0
VERTEX
  5
84
330
82
100
AcDbEntity
  8
_U+30EC_U+30A4_U+30E4_U+30FC 1
 62
   179
420
  2234388
370
     9
100
AcDbVertex
100
AcDb2dVertex
 10
109.5350983166379
 20
-129.4053799676487
 30
0.0
  0
SEQEND
  5
85
330
82
100
AcDbEntity
  8
_U+30EC_U+30A4_U+30E4_U+30FC 1
 62
   179
420
  2234388
370
     9
  0
POLYLINE
  5
86
330
1F
100
AcDbEntity
  8
_U+30EC_U+30A4_U+30E4_U+30FC 1
 62
   179
420
  2234388
370
     9
100
AcDb2dPolyline
 66
     1
 10
0.0
 20
0.0
 30
0.0
  0
VERTEX
  5
87
330
86
100
AcDbEntity
  8
_U+30EC_U+30A4_U+30E4_U+30FC 1
 62
   179
420
  2234388
370
     9
100
AcDbVertex
100
AcDb2dVertex
 10
76.10421889175295
 20
-140.385588298237
 30
0.0
  0
VERTEX
  5
88
330
86
100
AcDbEntity
  8
_U+30EC_U+30A4_U+30E4_U+30FC 1
 62
   179
420
  2234388
370
     9
100
AcDbVertex
100
AcDb2dVertex
 10
76.8838577607516
 20
-139.9356555205715
 30
0.0
  0
SEQEND
  5
89
330
86
100
AcDbEntity
  8
_U+30EC_U+30A4_U+30E4_U+30FC 1
 62
   179
420
  2234388
370
     9
  0
POLYLINE
  5
8A
330
1F
100
AcDbEntity
  8
_U+30EC_U+30A4_U+30E4_U+30FC 1
 62
   179
420
  2234388
370
     9
100
AcDb2dPolyline
 66
     1
 10
0.0
 20
0.0
 30
0.0
  0
VERTEX
  5
8B
330
8A
100
AcDbEntity
  8
_U+30EC_U+30A4_U+30E4_U+30FC 1
 62
   179
420
  2234388
370
     9
100
AcDbVertex
100
AcDb2dVertex
 10
76.43357221668379
 20
-140.7149416314881
 30
0.0
  0
VERTEX
  5
8C
330
8A
100
AcDbEntity
  8
_U+30EC_U+30A4_U+30E4_U+30FC 1
 62
   179
420
  2234388
370
     9
100
AcDbVertex
100
AcDb2dVertex
 10
76.88350498298283
 20
-139.9356555205715
 30
0.0
  0
SEQEND
  5
8D
330
8A
100
AcDbEntity
  8
_U+30EC_U+30A4_U+30E4_U+30FC 1
 62
   179
420
  2234388
370
     9
  0
POLYLINE
  5
8E
330
1F
100
AcDbEntity
  8
_U+30EC_U+30A4_U+30E4_U+30FC 1
 62
   179
420
  2234388
370
     9
100
AcDb2dPolyline
 66
     1
 10
0.0
 20
0.0
 30
0.0
  0
VERTEX
  5
8F
330
8E
100
AcDbEntity
  8
_U+30EC_U+30A4_U+30E4_U+30FC 1
 62
   179
420
  2234388
370
     9
100
AcDbVertex
100
AcDb2dVertex
 10
73.7653375625339
 20
-143.0541405197918
 30
0.0
  0
VERTEX
  5
90
330
8E
100
AcDbEntity
  8
_U+30EC_U+30A4_U+30E4_U+30FC 1
 62
   179
420
  2234388
370
     9
100
AcDbVertex
100
AcDb2dVertex
 10
76.8838577607516
 20
-139.9356555205715
 30
0.0
  0
SEQEND
  5
91
330
8E
100
AcDbEntity
  8
_U+30EC_U+30A4_U+30E4_U+30FC 1
 62
   179
420
  2234388
370
     9
  0
POLYLINE
  5
92
330
1F
100
AcDbEntity
  8
_U+30EC_U+30A4_U+30E4_U+30FC 1
 62
   179
420
  2234388
370
     9
100
AcDb2dPolyline
 66
     1
 10
0.0
 20
0.0
 30
0.0
  0
VERTEX
  5
93
330
92
100
AcDbEntity
  8
_U+30EC_U+30A4_U+30E4_U+30FC 1
 62
   179
420
  2234388
370
     9
100
AcDbVertex
100
AcDb2dVertex
 10
86.66345723347546
 20
-140.385588298237
 30
0.0
  0
VERTEX
  5
94
330
92
100
AcDbEntity
  8
_U+30EC_U+30A4_U+30E4_U+30FC 1
 62
   179
420
  2234388
370
     9
100
AcDbVertex
100
AcDb2dVertex
 10
85.88381836447681
 20
-139.9356555205715
 30
0.0
  0
SEQEND
  5
95
330
92
100
AcDbEntity
  8
_U+30EC_U+30A4_U+30E4_U+30FC 1
 62
   179
420
  2234388
370
     9
  0
POLYLINE
  5
96
330
1F
100
AcDbEntity
  8
_U+30EC_U+30A4_U+30E4_U+30FC 1
 62
   179
420
  2234388
370
     9
100
AcDb2dPolyline
 66
     1
 10
0.0
 20
0.0
 30
0.0
  0
VERTEX
  5
97
330
96
100
AcDbEntity
  8
_U+30EC_U+30A4_U+30E4_U+30FC 1
 62
   179
420
  2234388
370
     9
100
AcDbVertex
100
AcDb2dVertex
 10
86.33410390854462
 20
-140.7149416314881
 30
0.0
  0
VERTEX
  5
98
330
96
100
AcDbEntity
  8
_U+30EC_U+30A4_U+30E4_U+30FC 1
 62
   179
420
  2234388
370
     9
100
AcDbVertex
100
AcDb2dVertex
 10
85.88417114224559
 20
-139.9356555205715
 30
0.0
  0
SEQEND
  5
99
330
96
100
AcDbEntity
  8
_U+30EC_U+30A4_U+30E4_U+30FC 1
 62
   179
420
  2234388
370
     9
  0
POLYLINE
  5
9A
330
1F
100
AcDbEntity
  8
_U+30EC_U+30A4_U+30E4_U+30FC 1
 62
   179
420
  2234388
370
     9
100
AcDb2dPolyline
 66
     1
 10
0.0
 20
0.0
 30
0.0
  0
VERTEX
  5
9B
330
9A
100
AcDbEntity
  8
_U+30EC_U+30A4_U+30E4_U+30FC 1
 62
   179
420
  2234388
370
     9
100
AcDbVertex
100
AcDb2dVertex
 10
89.00230553330498
 20
-143.0541405197918
 30
0.0
  0
VERTEX
  5
9C
330
9A
100
AcDbEntity
  8
_U+30EC_U+30A4_U+30E4_U+30FC 1
 62
   179
420
  2234388
370
     9
100
AcDbVertex
100
AcDb2dVertex
 10
85.88381836447681
 20
-139.9356555205715
 30
0.0
  0
SEQEND
  5
9D
330
9A
100
AcDbEntity
  8
_U+30EC_U+30A4_U+30E4_U+30FC 1
 62
   179
420
  2234388
370
     9
  0
INSERT
  5
9F
330
1F
100
AcDbEntity
  8
_U+30EC_U+30A4_U+30E4_U+30FC 1
100
AcDbBlockReference
  2
block 6
 10
0.0
 20
0.0
 30
0.0
  0
INSERT
  5
B3
330
1F
100
AcDbEntity
  8
_U+30EC_U+30A4_U+30E4_U+30FC 1
100
AcDbBlockReference
  2
block 7
 10
0.0
 20
0.0
 30
0.0
  0
SPLINE
  5
C6
330
1F
100
AcDbEntity
  8
_U+30EC_U+30A4_U+30E4_U+30FC 1
 62
   179
420
  2234388
370
     9
100
AcDbSpline
210
0.0
220
0.0
230
1.0
 70
    11
 71
     3
 72
    17
 73
    13
 74
     0
 42
0.0000000001
 43
0.0000000001
 12
1.0
 22
0.0
 32
0.0
 13
1.0
 23
0.0
 33
0.0
 40
0.0
 40
0.0
 40
0.0
 40
0.0
 40
1.0
 40
1.0
 40
1.0
 40
2.0
 40
2.0
 40
2.0
 40
3.0
 40
3.0
 40
3.0
 40
4.0
 40
4.0
 40
4.0
 40
4.0
 10
73.45873840368922
 20
-110.9596530278155
 30
0.0
 10
73.45873840368922
 20
-110.9045138611628
 30
0.0
 10
73.41393562705447
 20
-110.859711083396
 30
0.0
 10
73.3588317395714
 20
-110.859711083396
 30
0.0
 10
73.30404720389627
 20
-110.859711083396
 30
0.0
 10
73.25927785322234
 20
-110.9045138611628
 30
0.0
 10
73.25927785322234
 20
-110.9596530278155
 30
0.0
 10
73.25927785322234
 20
-111.0154624722463
 30
0.0
 10
73.30404720389627
 20
-111.0602299722348
 30
0.0
 10
73.3588317395714
 20
-111.0602299722348
 30
0.0
 10
73.41393562705447
 20
-111.0602299722348
 30
0.0
 10
73.45873840368922
 20
-111.0154624722463
 30
0.0
 10
73.45873840368922
 20
-110.9596530278155
 30
0.0
  0
SPLINE
  5
C7
330
1F
100
AcDbEntity
  8
_U+30EC_U+30A4_U+30E4_U+30FC 1
 62
   179
420
  2234388
370
     9
100
AcDbSpline
210
0.0
220
0.0
230
1.0
 70
    11
 71
     3
 72
    17
 73
    13
 74
     0
 42
0.0000000001
 43
0.0000000001
 12
1.0
 22
0.0
 32
0.0
 13
1.0
 23
0.0
 33
0.0
 40
0.0
 40
0.0
 40
0.0
 40
0.0
 40
1.0
 40
1.0
 40
1.0
 40
2.0
 40
2.0
 40
2.0
 40
3.0
 40
3.0
 40
3.0
 40
4.0
 40
4.0
 40
4.0
 40
4.0
 10
73.45873840368922
 20
-139.8991430205809
 30
0.0
 10
73.45873840368922
 20
-139.8440038539278
 30
0.0
 10
73.41393562705447
 20
-139.7992363539393
 30
0.0
 10
73.3588317395714
 20
-139.7992363539393
 30
0.0
 10
73.30404720389627
 20
-139.7992363539393
 30
0.0
 10
73.25927785322234
 20
-139.8440038539278
 30
0.0
 10
73.25927785322234
 20
-139.8991430205809
 30
0.0
 10
73.25927785322234
 20
-139.9549524650114
 30
0.0
 10
73.30404720389627
 20
-139.9997199649999
 30
0.0
 10
73.3588317395714
 20
-139.9997199649999
 30
0.0
 10
73.41393562705447
 20
-139.9997199649999
 30
0.0
 10
73.45873840368922
 20
-139.9549524650114
 30
0.0
 10
73.45873840368922
 20
-139.8991430205809
 30
0.0
  0
POLYLINE
  5
C8
330
1F
100
AcDbEntity
  8
_U+30EC_U+30A4_U+30E4_U+30FC 1
 62
   179
420
  2234388
370
     9
100
AcDb2dPolyline
 66
     1
 10
0.0
 20
0.0
 30
0.0
  0
VERTEX
  5
C9
330
C8
100
AcDbEntity
  8
_U+30EC_U+30A4_U+30E4_U+30FC 1
 62
   179
420
  2234388
370
     9
100
AcDbVertex
100
AcDb2dVertex
 10
75.2198755809811
 20
-130.9060613561623
 30
0.0
  0
VERTEX
  5
CA
330
C8
100
AcDbEntity
  8
_U+30EC_U+30A4_U+30E4_U+30FC 1
 62
   179
420
  2234388
370
     9
100
AcDbVertex
100
AcDb2dVertex
 10
72.46482231793503
 20
-130.9060613561623
 30
0.0
  0
SEQEND
  5
CB
330
C8
100
AcDbEntity
  8
_U+30EC_U+30A4_U+30E4_U+30FC 1
 62
   179
420
  2234388
370
     9
  0
SPLINE
  5
CC
330
1F
100
AcDbEntity
  8
_U+30EC_U+30A4_U+30E4_U+30FC 1
 62
   179
420
  2234388
370
     9
100
AcDbSpline
210
0.0
220
0.0
230
1.0
 70
    11
 71
     3
 72
    17
 73
    13
 74
     0
 42
0.0000000001
 43
0.0000000001
 12
1.0
 22
0.0
 32
0.0
 13
1.0
 23
0.0
 33
0.0
 40
0.0
 40
0.0
 40
0.0
 40
0.0
 40
1.0
 40
1.0
 40
1.0
 40
2.0
 40
2.0
 40
2.0
 40
3.0
 40
3.0
 40
3.0
 40
4.0
 40
4.0
 40
4.0
 40
4.0
 10
73.45873840368922
 20
-130.8991469117197
 30
0.0
 10
73.45873840368922
 20
-130.8440430228448
 30
0.0
 10
73.41393562705447
 20
-130.7992402450781
 30
0.0
 10
73.3588317395714
 20
-130.7992402450781
 30
0.0
 10
73.30404720389627
 20
-130.7992402450781
 30
0.0
 10
73.25927785322234
 20
-130.8440430228448
 30
0.0
 10
73.25927785322234
 20
-130.8991469117197
 30
0.0
 10
73.25927785322234
 20
-130.9549563561502
 30
0.0
 10
73.30404720389627
 20
-130.9997591339169
 30
0.0
 10
73.3588317395714
 20
-130.9997591339169
 30
0.0
 10
73.41393562705447
 20
-130.9997591339169
 30
0.0
 10
73.45873840368922
 20
-130.9549563561502
 30
0.0
 10
73.45873840368922
 20
-130.8991469117197
 30
0.0
  0
SPLINE
  5
CD
330
1F
100
AcDbEntity
  8
_U+30EC_U+30A4_U+30E4_U+30FC 1
 62
   179
420
  2234388
370
     9
100
AcDbSpline
210
0.0
220
0.0
230
1.0
 70
    11
 71
     3
 72
    17
 73
    13
 74
     0
 42
0.0000000001
 43
0.0000000001
 12
1.0
 22
0.0
 32
0.0
 13
1.0
 23
0.0
 33
0.0
 40
0.0
 40
0.0
 40
0.0
 40
0.0
 40
1.0
 40
1.0
 40
1.0
 40
2.0
 40
2.0
 40
2.0
 40
3.0
 40
3.0
 40
3.0
 40
4.0
 40
4.0
 40
4.0
 40
4.0
 10
109.6508447025739
 20
-132.0053874669987
 30
0.0
 10
109.6508447025739
 20
-131.9502483003457
 30
0.0
 10
109.6060419259391
 20
-131.9054808003571
 30
0.0
 10
109.5509380384561
 20
-131.9054808003571
 30
0.0
 10
109.4961516509649
 20
-131.9054808003571
 30
0.0
 10
109.451384152107
 20
-131.9502483003457
 30
0.0
 10
109.451384152107
 20
-132.0053874669987
 30
0.0
 10
109.451384152107
 20
-132.0604913558736
 30
0.0
 10
109.4961516509649
 20
-132.1052941336404
 30
0.0
 10
109.5509380384561
 20
-132.1052941336404
 30
0.0
 10
109.6060419259391
 20
-132.1052941336404
 30
0.0
 10
109.6508447025739
 20
-132.0604913558736
 30
0.0
 10
109.6508447025739
 20
-132.0053874669987
 30
0.0
  0
SPLINE
  5
CE
330
1F
100
AcDbEntity
  8
_U+30EC_U+30A4_U+30E4_U+30FC 1
 62
   179
420
  2234388
370
     9
100
AcDbSpline
210
0.0
220
0.0
230
1.0
 70
    11
 71
     3
 72
    17
 73
    13
 74
     0
 42
0.0000000001
 43
0.0000000001
 12
1.0
 22
0.0
 32
0.0
 13
1.0
 23
0.0
 33
0.0
 40
0.0
 40
0.0
 40
0.0
 40
0.0
 40
1.0
 40
1.0
 40
1.0
 40
2.0
 40
2.0
 40
2.0
 40
3.0
 40
3.0
 40
3.0
 40
4.0
 40
4.0
 40
4.0
 40
4.0
 10
109.6508447025739
 20
-132.9755263556451
 30
0.0
 10
109.6508447025739
 20
-132.920387188992
 30
0.0
 10
109.6060419259391
 20
-132.8756196890035
 30
0.0
 10
109.5509380384561
 20
-132.8756196890035
 30
0.0
 10
109.4961516509649
 20
-132.8756196890035
 30
0.0
 10
109.451384152107
 20
-132.920387188992
 30
0.0
 10
109.451384152107
 20
-132.9755263556451
 30
0.0
 10
109.451384152107
 20
-133.03063024452
 30
0.0
 10
109.4961516509649
 20
-133.0754330222867
 30
0.0
 10
109.5509380384561
 20
-133.0754330222867
 30
0.0
 10
109.6060419259391
 20
-133.0754330222867
 30
0.0
 10
109.6508447025739
 20
-133.03063024452
 30
0.0
 10
109.6508447025739
 20
-132.9755263556451
 30
0.0
  0
SPLINE
  5
CF
330
1F
100
AcDbEntity
  8
_U+30EC_U+30A4_U+30E4_U+30FC 1
 62
   179
420
  2234388
370
     9
100
AcDbSpline
210
0.0
220
0.0
230
1.0
 70
    11
 71
     3
 72
    17
 73
    13
 74
     0
 42
0.0000000001
 43
0.0000000001
 12
1.0
 22
0.0
 32
0.0
 13
1.0
 23
0.0
 33
0.0
 40
0.0
 40
0.0
 40
0.0
 40
0.0
 40
1.0
 40
1.0
 40
1.0
 40
2.0
 40
2.0
 40
2.0
 40
3.0
 40
3.0
 40
3.0
 40
4.0
 40
4.0
 40
4.0
 40
4.0
 10
109.6508447025739
 20
-139.9583744094551
 30
0.0
 10
109.6508447025739
 20
-139.9032705205796
 30
0.0
 10
109.6060419259391
 20
-139.8584677428128
 30
0.0
 10
109.5509380384561
 20
-139.8584677428128
 30
0.0
 10
109.4961516509649
 20
-139.8584677428128
 30
0.0
 10
109.451384152107
 20
-139.9032705205796
 30
0.0
 10
109.451384152107
 20
-139.9583744094551
 30
0.0
 10
109.451384152107
 20
-140.0135135761076
 30
0.0
 10
109.4961516509649
 20
-140.0582810760968
 30
0.0
 10
109.5509380384561
 20
-140.0582810760968
 30
0.0
 10
109.6060419259391
 20
-140.0582810760968
 30
0.0
 10
109.6508447025739
 20
-140.0135135761076
 30
0.0
 10
109.6508447025739
 20
-139.9583744094551
 30
0.0
  0
POLYLINE
  5
D0
330
1F
100
AcDbEntity
  8
_U+30EC_U+30A4_U+30E4_U+30FC 1
 62
   179
420
  2234388
370
     9
100
AcDb2dPolyline
 66
     1
 10
0.0
 20
0.0
 30
0.0
  0
VERTEX
  5
D1
330
D0
100
AcDbEntity
  8
_U+30EC_U+30A4_U+30E4_U+30FC 1
 62
   179
420
  2234388
370
     9
100
AcDbVertex
100
AcDb2dVertex
 10
95.88355116491793
 20
-136.8963691324427
 30
0.0
  0
VERTEX
  5
D2
330
D0
100
AcDbEntity
  8
_U+30EC_U+30A4_U+30E4_U+30FC 1
 62
   179
420
  2234388
370
     9
100
AcDbVertex
100
AcDb2dVertex
 10
105.8836367431278
 20
-136.8963691324427
 30
0.0
  0
SEQEND
  5
D3
330
D0
100
AcDbEntity
  8
_U+30EC_U+30A4_U+30E4_U+30FC 1
 62
   179
420
  2234388
370
     9
  0
SPLINE
  5
D4
330
1F
100
AcDbEntity
  8
_U+30EC_U+30A4_U+30E4_U+30FC 1
 62
   179
420
  2234388
370
     9
100
AcDbSpline
210
0.0
220
0.0
230
1.0
 70
    11
 71
     3
 72
    17
 73
    13
 74
     0
 42
0.0000000001
 43
0.0000000001
 12
1.0
 22
0.0
 32
0.0
 13
1.0
 23
0.0
 33
0.0
 40
0.0
 40
0.0
 40
0.0
 40
0.0
 40
1.0
 40
1.0
 40
1.0
 40
2.0
 40
2.0
 40
2.0
 40
3.0
 40
3.0
 40
3.0
 40
4.0
 40
4.0
 40
4.0
 40
4.0
 10
95.98416338457332
 20
-136.8963691324427
 30
0.0
 10
95.98416338457332
 20
-136.8412652435677
 30
0.0
 10
95.93936060793855
 20
-136.796462465801
 30
0.0
 10
95.88355116491793
 20
-136.796462465801
 30
0.0
 10
95.82841199965797
 20
-136.796462465801
 30
0.0
 10
95.7836445008001
 20
-136.8412652435677
 30
0.0
 10
95.7836445008001
 20
-136.8963691324427
 30
0.0
 10
95.7836445008001
 20
-136.9515082990957
 30
0.0
 10
95.82841199965797
 20
-136.9962757990843
 30
0.0
 10
95.88355116491793
 20
-136.9962757990843
 30
0.0
 10
95.93936060793855
 20
-136.9962757990843
 30
0.0
 10
95.98416338457332
 20
-136.9515082990957
 30
0.0
 10
95.98416338457332
 20
-136.8963691324427
 30
0.0
  0
POLYLINE
  5
D5
330
1F
100
AcDbEntity
  8
_U+30EC_U+30A4_U+30E4_U+30FC 1
 62
   179
420
  2234388
370
     9
100
AcDb2dPolyline
 66
     1
 10
0.0
 20
0.0
 30
0.0
  0
VERTEX
  5
D6
330
D5
100
AcDbEntity
  8
_U+30EC_U+30A4_U+30E4_U+30FC 1
 62
   179
420
  2234388
370
     9
100
AcDbVertex
100
AcDb2dVertex
 10
95.88355116491793
 20
-135.4356574661409
 30
0.0
  0
VERTEX
  5
D7
330
D5
100
AcDbEntity
  8
_U+30EC_U+30A4_U+30E4_U+30FC 1
 62
   179
420
  2234388
370
     9
100
AcDbVertex
100
AcDb2dVertex
 10
95.88355116491793
 20
-137.8961413544145
 30
0.0
  0
SEQEND
  5
D8
330
D5
100
AcDbEntity
  8
_U+30EC_U+30A4_U+30E4_U+30FC 1
 62
   179
420
  2234388
370
     9
  0
SPLINE
  5
D9
330
1F
100
AcDbEntity
  8
_U+30EC_U+30A4_U+30E4_U+30FC 1
 62
   179
420
  2234388
370
     9
100
AcDbSpline
210
0.0
220
0.0
230
1.0
 70
    11
 71
     3
 72
    17
 73
    13
 74
     0
 42
0.0000000001
 43
0.0000000001
 12
1.0
 22
0.0
 32
0.0
 13
1.0
 23
0.0
 33
0.0
 40
0.0
 40
0.0
 40
0.0
 40
0.0
 40
1.0
 40
1.0
 40
1.0
 40
2.0
 40
2.0
 40
2.0
 40
3.0
 40
3.0
 40
3.0
 40
4.0
 40
4.0
 40
4.0
 40
4.0
 10
105.9842136850063
 20
-136.8963691324427
 30
0.0
 10
105.9842136850063
 20
-136.8412652435677
 30
0.0
 10
105.9394461861484
 20
-136.796462465801
 30
0.0
 10
105.8836367431278
 20
-136.796462465801
 30
0.0
 10
105.8284975778679
 20
-136.796462465801
 30
0.0
 10
105.78373007901
 20
-136.8412652435677
 30
0.0
 10
105.78373007901
 20
-136.8963691324427
 30
0.0
 10
105.78373007901
 20
-136.9515082990957
 30
0.0
 10
105.8284975778679
 20
-136.9962757990843
 30
0.0
 10
105.8836367431278
 20
-136.9962757990843
 30
0.0
 10
105.9394461861484
 20
-136.9962757990843
 30
0.0
 10
105.9842136850063
 20
-136.9515082990957
 30
0.0
 10
105.9842136850063
 20
-136.8963691324427
 30
0.0
  0
POLYLINE
  5
DA
330
1F
100
AcDbEntity
  8
_U+30EC_U+30A4_U+30E4_U+30FC 1
 62
   179
420
  2234388
370
     9
100
AcDb2dPolyline
 66
     1
 10
0.0
 20
0.0
 30
0.0
  0
VERTEX
  5
DB
330
DA
100
AcDbEntity
  8
_U+30EC_U+30A4_U+30E4_U+30FC 1
 62
   179
420
  2234388
370
     9
100
AcDbVertex
100
AcDb2dVertex
 10
105.8836367431278
 20
-134.435885244169
 30
0.0
  0
VERTEX
  5
DC
330
DA
100
AcDbEntity
  8
_U+30EC_U+30A4_U+30E4_U+30FC 1
 62
   179
420
  2234388
370
     9
100
AcDbVertex
100
AcDb2dVertex
 10
105.8836367431278
 20
-137.8961413544145
 30
0.0
  0
SEQEND
  5
DD
330
DA
100
AcDbEntity
  8
_U+30EC_U+30A4_U+30E4_U+30FC 1
 62
   179
420
  2234388
370
     9
  0
INSERT
  5
DF
330
1F
100
AcDbEntity
  8
_U+30EC_U+30A4_U+30E4_U+30FC 1
100
AcDbBlockReference
  2
block 8
 10
0.0
 20
0.0
 30
0.0
  0
ENDSEC
  0
SECTION
  2
OBJECTS
  0
DICTIONARY
  5
C
330
0
100
AcDbDictionary
281
     1
  3
ACAD_GROUP
350
D
  3
ACAD_LAYOUT
350
1A
  3
ACAD_MATERIAL
350
3B
  3
ACAD_MLEADERSTYLE
350
E8
  3
ACAD_MLINESTYLE
350
17
  3
ACAD_PLOTSETTINGS
350
19
  3
ACAD_PLOTSTYLENAME
350
E
  3
ACAD_TABLESTYLE
350
E7
  3
ACAD_VISUALSTYLE
350
2A
  0
SUN
  5
3F
330
29
100
AcDbSun
 90
        1
290
     0
 63
     7
421
 16777215
 40
1.0
291
     1
 91
  2455826
 92
 54000000
292
     0
 70
     2
 71
   256
280
     1
  0
DICTIONARY
  5
D
102
{ACAD_REACTORS
330
C
102
}
330
C
100
AcDbDictionary
281
     1
  0
DICTIONARY
  5
1A
102
{ACAD_REACTORS
330
C
102
}
330
C
100
AcDbDictionary
281
     1
  3
Layout1
350
1E
  3
Layout2
350
26
  3
Model
350
22
  0
DICTIONARY
  5
3B
102
{ACAD_REACTORS
330
C
102
}
330
C
100
AcDbDictionary
281
     1
  3
ByBlock
350
3D
  3
ByLayer
350
3C
  3
Global
350
3E
  0
DICTIONARY
  5
E8
102
{ACAD_REACTORS
330
C
102
}
330
C
100
AcDbDictionary
281
     1
  0
DICTIONARY
  5
17
102
{ACAD_REACTORS
330
C
102
}
330
C
100
AcDbDictionary
281
     1
  3
Standard
350
18
  0
DICTIONARY
  5
19
102
{ACAD_REACTORS
330
C
102
}
330
C
100
AcDbDictionary
281
     1
  0
ACDBDICTIONARYWDFLT
  5
E
102
{ACAD_REACTORS
330
C
102
}
330
C
100
AcDbDictionary
281
     1
  3
Normal
350
F
100
AcDbDictionaryWithDefault
340
F
  0
DICTIONARY
  5
E7
102
{ACAD_REACTORS
330
C
102
}
330
C
100
AcDbDictionary
281
     1
  0
DICTIONARY
  5
2A
102
{ACAD_REACTORS
330
C
102
}
330
C
100
AcDbDictionary
281
     1
  3
2dWireframe
350
2F
  3
3D Hidden
350
31
  3
3dWireframe
350
30
  3
Basic
350
32
  3
Brighten
350
36
  3
ColorChange
350
3A
  3
Conceptual
350
34
  3
Dim
350
35
  3
Facepattern
350
39
  3
Flat
350
2B
  3
FlatWithEdges
350
2C
  3
Gouraud
350
2D
  3
GouraudWithEdges
350
2E
  3
Linepattern
350
38
  3
Realistic
350
33
  3
Thicken
350
37
  0
LAYOUT
  5
1E
102
{ACAD_REACTORS
330
1A
102
}
330
1A
100
AcDbPlotSettings
  1

  2
none_device
  4

  6

 40
0.0
 41
0.0
 42
0.0
 43
0.0
 44
0.0
 45
0.0
 46
0.0
 47
0.0
 48
0.0
 49
0.0
140
0.0
141
0.0
142
1.0
143
1.0
 70
   688
 72
     0
 73
     0
 74
     5
  7

 75
    16
 76
     0
 77
     2
 78
   300
147
1.0
148
0.0
149
0.0
100
AcDbLayout
  1
Layout1
 70
     1
 71
     1
 10
0.0
 20
0.0
 11
12.0
 21
9.0
 12
0.0
 22
0.0
 32
0.0
 14
1.000000000000000E+20
 24
1.000000000000000E+20
 34
1.000000000000000E+20
 15
-1.000000000000000E+20
 25
-1.000000000000000E+20
 35
-1.000000000000000E+20
146
0.0
 13
0.0
 23
0.0
 33
0.0
 16
1.0
 26
0.0
 36
0.0
 17
0.0
 27
1.0
 37
0.0
 76
     0
330
1B
  0
LAYOUT
  5
26
102
{ACAD_REACTORS
330
1A
102
}
330
1A
100
AcDbPlotSettings
  1

  2
none_device
  4

  6

 40
0.0
 41
0.0
 42
0.0
 43
0.0
 44
0.0
 45
0.0
 46
0.0
 47
0.0
 48
0.0
 49
0.0
140
0.0
141
0.0
142
1.0
143
1.0
 70
   688
 72
     0
 73
     0
 74
     5
  7

 75
    16
 76
     0
 77
     2
 78
   300
147
1.0
148
0.0
149
0.0
100
AcDbLayout
  1
Layout2
 70
     1
 71
     2
 10
0.0
 20
0.0
 11
0.0
 21
0.0
 12
0.0
 22
0.0
 32
0.0
 14
0.0
 24
0.0
 34
0.0
 15
0.0
 25
0.0
 35
0.0
146
0.0
 13
0.0
 23
0.0
 33
0.0
 16
1.0
 26
0.0
 36
0.0
 17
0.0
 27
1.0
 37
0.0
 76
     0
330
23
  0
LAYOUT
  5
22
102
{ACAD_REACTORS
330
1A
102
}
330
1A
100
AcDbPlotSettings
  1

  2
none_device
  4

  6

 40
0.0
 41
0.0
 42
0.0
 43
0.0
 44
0.0
 45
0.0
 46
0.0
 47
0.0
 48
0.0
 49
0.0
140
0.0
141
0.0
142
1.0
143
1.0
 70
  1712
 72
     0
 73
     0
 74
     0
  7

 75
     0
 76
     0
 77
     2
 78
   300
147
1.0
148
0.0
149
0.0
100
AcDbLayout
  1
Model
 70
     1
 71
     0
 10
0.0
 20
0.0
 11
12.0
 21
9.0
 12
0.0
 22
0.0
 32
0.0
 14
1.000000000000000E+20
 24
1.000000000000000E+20
 34
1.000000000000000E+20
 15
-1.000000000000000E+20
 25
-1.000000000000000E+20
 35
-1.000000000000000E+20
146
0.0
 13
0.0
 23
0.0
 33
0.0
 16
1.0
 26
0.0
 36
0.0
 17
0.0
 27
1.0
 37
0.0
 76
     0
330
1F
331
29
  0
MATERIAL
  5
3D
102
{ACAD_REACTORS
330
3B
102
}
330
3B
100
AcDbMaterial
  1
ByBlock
 72
     1
 94
      127
  0
MATERIAL
  5
3C
102
{ACAD_REACTORS
330
3B
102
}
330
3B
100
AcDbMaterial
  1
ByLayer
 72
     1
 94
      127
  0
MATERIAL
  5
3E
102
{ACAD_REACTORS
330
3B
102
}
330
3B
100
AcDbMaterial
  1
Global
 72
     1
 94
      127
  0
MLINESTYLE
  5
18
102
{ACAD_REACTORS
330
17
102
}
330
17
100
AcDbMlineStyle
  2
Standard
 70
     0
  3

 62
   256
 51
90.0
 52
90.0
 71
     2
 49
0.5
 62
   256
  6
BYLAYER
 49
-0.5
 62
   256
  6
BYLAYER
  0
ACDBPLACEHOLDER
  5
F
102
{ACAD_REACTORS
330
E
102
}
330
E
  0
VISUALSTYLE
  5
2F
102
{ACAD_REACTORS
330
2A
102
}
330
2A
100
AcDbVisualStyle
  2
2dWireframe
 70
     4
177
     2
291
     0
 71
     0
176
     1
 72
     2
176
     1
 73
     0
176
     1
 90
        0
176
     1
 40
-0.6
176
     1
 41
-30.0
176
     1
 62
     5
 63
     7
421
 16777215
176
     1
 74
     1
176
     1
 91
        4
176
     1
 64
     7
176
     1
 65
   257
176
     1
 75
     1
176
     1
175
     1
176
     1
 42
1.0
176
     1
 92
        0
176
     1
 66
   257
176
     1
 43
1.0
176
     1
 76
     1
176
     1
 77
     6
176
     1
 78
     2
176
     1
 67
     7
176
     1
 79
     5
176
     1
170
     0
176
     1
171
     0
176
     1
290
     0
176
     1
 93
        1
176
     1
 44
0.0
176
     1
173
     0
176
     1
  0
VISUALSTYLE
  5
31
102
{ACAD_REACTORS
330
2A
102
}
330
2A
100
AcDbVisualStyle
  2
3D Hidden
 70
     6
177
     2
291
     0
 71
     1
176
     1
 72
     2
176
     1
 73
     2
176
     1
 90
        0
176
     1
 40
-0.6
176
     1
 41
-30.0
176
     1
 62
     5
 63
     7
421
 16777215
176
     1
 74
     2
176
     1
 91
        2
176
     1
 64
     7
176
     1
 65
   257
176
     1
 75
     2
176
     1
175
     1
176
     1
 42
40.0
176
     1
 92
        0
176
     1
 66
   257
176
     1
 43
1.0
176
     1
 76
     1
176
     1
 77
     6
176
     1
 78
     2
176
     1
 67
     7
176
     1
 79
     3
176
     1
170
     0
176
     1
171
     0
176
     1
290
     0
176
     1
 93
        1
176
     1
 44
0.0
176
     1
173
     0
176
     1
  0
VISUALSTYLE
  5
30
102
{ACAD_REACTORS
330
2A
102
}
330
2A
100
AcDbVisualStyle
  2
3dWireframe
 70
     5
177
     2
291
     0
 71
     0
176
     1
 72
     2
176
     1
 73
     0
176
     1
 90
        0
176
     1
 40
-0.6
176
     1
 41
-30.0
176
     1
 62
     5
 63
     7
421
 16777215
176
     1
 74
     1
176
     1
 91
        4
176
     1
 64
     7
176
     1
 65
   257
176
     1
 75
     1
176
     1
175
     1
176
     1
 42
1.0
176
     1
 92
        0
176
     1
 66
   257
176
     1
 43
1.0
176
     1
 76
     1
176
     1
 77
     6
176
     1
 78
     2
176
     1
 67
     7
176
     1
 79
     5
176
     1
170
     0
176
     1
171
     0
176
     1
290
     0
176
     1
 93
        1
176
     1
 44
0.0
176
     1
173
     0
176
     1
  0
VISUALSTYLE
  5
32
102
{ACAD_REACTORS
330
2A
102
}
330
2A
100
AcDbVisualStyle
  2
Basic
 70
     7
177
     2
291
     1
 71
     1
176
     1
 72
     0
176
     1
 73
     1
176
     1
 90
        0
176
     1
 40
-0.6
176
     1
 41
-30.0
176
     1
 62
     5
 63
     7
421
 16777215
176
     1
 74
     0
176
     1
 91
        4
176
     1
 64
     7
176
     1
 65
   257
176
     1
 75
     1
176
     1
175
     1
176
     1
 42
1.0
176
     1
 92
        8
176
     1
 66
     7
176
     1
 43
1.0
176
     1
 76
     1
176
     1
 77
     6
176
     1
 78
     2
176
     1
 67
     7
176
     1
 79
     5
176
     1
170
     0
176
     1
171
     0
176
     1
290
     0
176
     1
 93
        1
176
     1
 44
0.0
176
     1
173
     0
176
     1
  0
VISUALSTYLE
  5
36
102
{ACAD_REACTORS
330
2A
102
}
330
2A
100
AcDbVisualStyle
  2
Brighten
 70
    12
177
     2
291
     1
 71
     2
176
     1
 72
     2
176
     1
 73
     0
176
     1
 90
        0
176
     1
 40
-0.6
176
     1
 41
-30.0
176
     1
 62
     5
 63
     7
421
 16777215
176
     1
 74
     1
176
     1
 91
        4
176
     1
 64
     7
176
     1
 65
   257
176
     1
 75
     1
176
     1
175
     1
176
     1
 42
1.0
176
     1
 92
        8
176
     1
 66
     7
176
     1
 43
1.0
176
     1
 76
     1
176
     1
 77
     6
176
     1
 78
     2
176
     1
 67
     7
176
     1
 79
     5
176
     1
170
     0
176
     1
171
     0
176
     1
290
     0
176
     1
 93
        1
176
     1
 44
50.0
176
     1
173
     0
176
     1
  0
VISUALSTYLE
  5
3A
102
{ACAD_REACTORS
330
2A
102
}
330
2A
100
AcDbVisualStyle
  2
ColorChange
 70
    16
177
     2
291
     1
 71
     2
176
     1
 72
     2
176
     1
 73
     3
176
     1
 90
        0
176
     1
 40
-0.6
176
     1
 41
-30.0
176
     1
 62
     5
 63
     8
421
  8421504
176
     1
 74
     1
176
     1
 91
        4
176
     1
 64
     7
176
     1
 65
   257
176
     1
 75
     1
176
     1
175
     1
176
     1
 42
1.0
176
     1
 92
        8
176
     1
 66
     8
424
  8421504
176
     1
 43
1.0
176
     1
 76
     1
176
     1
 77
     6
176
     1
 78
     2
176
     1
 67
     7
176
     1
 79
     5
176
     1
170
     0
176
     1
171
     0
176
     1
290
     0
176
     1
 93
        1
176
     1
 44
0.0
176
     1
173
     0
176
     1
  0
VISUALSTYLE
  5
34
102
{ACAD_REACTORS
330
2A
102
}
330
2A
100
AcDbVisualStyle
  2
Conceptual
 70
     9
177
     2
291
     0
 71
     3
176
     1
 72
     2
176
     1
 73
     0
176
     1
 90
        0
176
     1
 40
-0.6
176
     1
 41
-30.0
176
     1
 62
     5
 63
     7
421
 16777215
176
     1
 74
     2
176
     1
 91
        2
176
     1
 64
     7
176
     1
 65
   257
176
     1
 75
     1
176
     1
175
     1
176
     1
 42
40.0
176
     1
 92
        8
176
     1
 66
     7
176
     1
 43
1.0
176
     1
 76
     1
176
     1
 77
     6
176
     1
 78
     2
176
     1
 67
     7
176
     1
 79
     3
176
     1
170
     0
176
     1
171
     0
176
     1
290
     0
176
     1
 93
        1
176
     1
 44
0.0
176
     1
173
     0
176
     1
  0
VISUALSTYLE
  5
35
102
{ACAD_REACTORS
330
2A
102
}
330
2A
100
AcDbVisualStyle
  2
Dim
 70
    11
177
     2
291
     1
 71
     2
176
     1
 72
     2
176
     1
 73
     0
176
     1
 90
        0
176
     1
 40
-0.6
176
     1
 41
-30.0
176
     1
 62
     5
 63
     7
421
 16777215
176
     1
 74
     1
176
     1
 91
        4
176
     1
 64
     7
176
     1
 65
   257
176
     1
 75
     1
176
     1
175
     1
176
     1
 42
1.0
176
     1
 92
        8
176
     1
 66
     7
176
     1
 43
1.0
176
     1
 76
     1
176
     1
 77
     6
176
     1
 78
     2
176
     1
 67
     7
176
     1
 79
     5
176
     1
170
     0
176
     1
171
     0
176
     1
290
     0
176
     1
 93
        1
176
     1
 44
-50.0
176
     1
173
     0
176
     1
  0
VISUALSTYLE
  5
39
102
{ACAD_REACTORS
330
2A
102
}
330
2A
100
AcDbVisualStyle
  2
Facepattern
 70
    15
177
     2
291
     1
 71
     2
176
     1
 72
     2
176
     1
 73
     0
176
     1
 90
        0
176
     1
 40
-0.6
176
     1
 41
-30.0
176
     1
 62
     5
 63
     7
421
 16777215
176
     1
 74
     1
176
     1
 91
        4
176
     1
 64
     7
176
     1
 65
   257
176
     1
 75
     1
176
     1
175
     1
176
     1
 42
1.0
176
     1
 92
        8
176
     1
 66
     7
176
     1
 43
1.0
176
     1
 76
     1
176
     1
 77
     6
176
     1
 78
     2
176
     1
 67
     7
176
     1
 79
     5
176
     1
170
     0
176
     1
171
     0
176
     1
290
     0
176
     1
 93
        1
176
     1
 44
0.0
176
     1
173
     0
176
     1
  0
VISUALSTYLE
  5
2B
102
{ACAD_REACTORS
330
2A
102
}
330
2A
100
AcDbVisualStyle
  2
Flat
 70
     0
177
     2
291
     1
 71
     2
176
     1
 72
     1
176
     1
 73
     1
176
     1
 90
        2
176
     1
 40
-0.6
176
     1
 41
30.0
176
     1
 62
     5
 63
     7
421
 16777215
176
     1
 74
     0
176
     1
 91
        4
176
     1
 64
     7
176
     1
 65
   257
176
     1
 75
     1
176
     1
175
     1
176
     1
 42
1.0
176
     1
 92
        8
176
     1
 66
     7
176
     1
 43
1.0
176
     1
 76
     1
176
     1
 77
     6
176
     1
 78
     2
176
     1
 67
     7
176
     1
 79
     5
176
     1
170
     0
176
     1
171
     0
176
     1
290
     0
176
     1
 93
       13
176
     1
 44
0.0
176
     1
173
     0
176
     1
  0
VISUALSTYLE
  5
2C
102
{ACAD_REACTORS
330
2A
102
}
330
2A
100
AcDbVisualStyle
  2
FlatWithEdges
 70
     1
177
     2
291
     1
 71
     2
176
     1
 72
     1
176
     1
 73
     1
176
     1
 90
        2
176
     1
 40
-0.6
176
     1
 41
30.0
176
     1
 62
     5
 63
     7
421
 16777215
176
     1
 74
     1
176
     1
 91
        4
176
     1
 64
     7
176
     1
 65
   257
176
     1
 75
     1
176
     1
175
     1
176
     1
 42
1.0
176
     1
 92
        0
176
     1
 66
   257
176
     1
 43
1.0
176
     1
 76
     1
176
     1
 77
     6
176
     1
 78
     2
176
     1
 67
     7
176
     1
 79
     5
176
     1
170
     0
176
     1
171
     0
176
     1
290
     0
176
     1
 93
       13
176
     1
 44
0.0
176
     1
173
     0
176
     1
  0
VISUALSTYLE
  5
2D
102
{ACAD_REACTORS
330
2A
102
}
330
2A
100
AcDbVisualStyle
  2
Gouraud
 70
     2
177
     2
291
     1
 71
     2
176
     1
 72
     2
176
     1
 73
     1
176
     1
 90
        2
176
     1
 40
-0.6
176
     1
 41
30.0
176
     1
 62
     5
 63
     7
421
 16777215
176
     1
 74
     0
176
     1
 91
        4
176
     1
 64
     7
176
     1
 65
   257
176
     1
 75
     1
176
     1
175
     1
176
     1
 42
1.0
176
     1
 92
        0
176
     1
 66
     7
176
     1
 43
1.0
176
     1
 76
     1
176
     1
 77
     6
176
     1
 78
     2
176
     1
 67
     7
176
     1
 79
     5
176
     1
170
     0
176
     1
171
     0
176
     1
290
     0
176
     1
 93
       13
176
     1
 44
0.0
176
     1
173
     0
176
     1
  0
VISUALSTYLE
  5
2E
102
{ACAD_REACTORS
330
2A
102
}
330
2A
100
AcDbVisualStyle
  2
GouraudWithEdges
 70
     3
177
     2
291
     1
 71
     2
176
     1
 72
     2
176
     1
 73
     1
176
     1
 90
        2
176
     1
 40
-0.6
176
     1
 41
30.0
176
     1
 62
     5
 63
     7
421
 16777215
176
     1
 74
     1
176
     1
 91
        4
176
     1
 64
     7
176
     1
 65
   257
176
     1
 75
     1
176
     1
175
     1
176
     1
 42
1.0
176
     1
 92
        0
176
     1
 66
   257
176
     1
 43
1.0
176
     1
 76
     1
176
     1
 77
     6
176
     1
 78
     2
176
     1
 67
     7
176
     1
 79
     5
176
     1
170
     0
176
     1
171
     0
176
     1
290
     0
176
     1
 93
       13
176
     1
 44
0.0
176
     1
173
     0
176
     1
  0
VISUALSTYLE
  5
38
102
{ACAD_REACTORS
330
2A
102
}
330
2A
100
AcDbVisualStyle
  2
Linepattern
 70
    14
177
     2
291
     1
 71
     2
176
     1
 72
     2
176
     1
 73
     0
176
     1
 90
        0
176
     1
 40
-0.6
176
     1
 41
-30.0
176
     1
 62
     5
 63
     7
421
 16777215
176
     1
 74
     1
176
     1
 91
        4
176
     1
 64
     7
176
     1
 65
   257
176
     1
 75
     7
176
     1
175
     7
176
     1
 42
1.0
176
     1
 92
        8
176
     1
 66
     7
176
     1
 43
1.0
176
     1
 76
     1
176
     1
 77
     6
176
     1
 78
     2
176
     1
 67
     7
176
     1
 79
     5
176
     1
170
     0
176
     1
171
     0
176
     1
290
     0
176
     1
 93
        1
176
     1
 44
0.0
176
     1
173
     0
176
     1
  0
VISUALSTYLE
  5
33
102
{ACAD_REACTORS
330
2A
102
}
330
2A
100
AcDbVisualStyle
  2
Realistic
 70
     8
177
     2
291
     0
 71
     2
176
     1
 72
     2
176
     1
 73
     0
176
     1
 90
        0
176
     1
 40
-0.6
176
     1
 41
-30.0
176
     1
 62
     5
 63
     7
421
 16777215
176
     1
 74
     1
176
     1
 91
        0
176
     1
 64
     7
176
     1
 65
   257
176
     1
 75
     1
176
     1
175
     1
176
     1
 42
1.0
176
     1
 92
        8
176
     1
 66
     8
424
  7895160
176
     1
 43
1.0
176
     1
 76
     1
176
     1
 77
     6
176
     1
 78
     2
176
     1
 67
     7
176
     1
 79
     5
176
     1
170
     0
176
     1
171
     0
176
     1
290
     0
176
     1
 93
       13
176
     1
 44
0.0
176
     1
173
     0
176
     1
  0
VISUALSTYLE
  5
37
102
{ACAD_REACTORS
330
2A
102
}
330
2A
100
AcDbVisualStyle
  2
Thicken
 70
    13
177
     2
291
     1
 71
     2
176
     1
 72
     2
176
     1
 73
     0
176
     1
 90
        0
176
     1
 40
-0.6
176
     1
 41
-30.0
176
     1
 62
     5
 63
     7
421
 16777215
176
     1
 74
     1
176
     1
 91
        4
176
     1
 64
     7
176
     1
 65
   257
176
     1
 75
     1
176
     1
175
     1
176
     1
 42
1.0
176
     1
 92
       12
176
     1
 66
     7
176
     1
 43
1.0
176
     1
 76
     1
176
     1
 77
     6
176
     1
 78
     2
176
     1
 67
     7
176
     1
 79
     5
176
     1
170
     0
176
     1
171
     0
176
     1
290
     0
176
     1
 93
        1
176
     1
 44
0.0
176
     1
173
     0
176
     1
  0
ENDSEC
  0
EOF
