  0
SECTION
  2
HEADER
  9
$ACADVER
  1
AC1024
  9
$ACADMAINTVER
 70
     6
  9
$DWGCODEPAGE
  3
UNDEFINED
  9
$INSBASE
 10
0.0
 20
0.0
 30
0.0
  9
$EXTMIN
 10
1.000000000000000E+20
 20
1.000000000000000E+20
 30
1.000000000000000E+20
  9
$EXTMAX
 10
-1.000000000000000E+20
 20
-1.000000000000000E+20
 30
-1.000000000000000E+20
  9
$LIMMIN
 10
0.0
 20
0.0
  9
$LIMMAX
 10
12.0
 20
9.0
  9
$ORTHOMODE
 70
     0
  9
$REGENMODE
 70
     1
  9
$FILLMODE
 70
     1
  9
$QTEXTMODE
 70
     0
  9
$MIRRTEXT
 70
     1
  9
$LTSCALE
 40
1.0
  9
$ATTMODE
 70
     1
  9
$TEXTSIZE
 40
0.2
  9
$TRACEWID
 40
0.05
  9
$TEXTSTYLE
  7
Standard
  9
$CLAYER
  8
0
  9
$CELTYPE
  6
ByLayer
  9
$CECOLOR
 62
   256
  9
$CELTSCALE
 40
1.0
  9
$DISPSILH
 70
     0
  9
$DIMSCALE
 40
1.0
  9
$DIMASZ
 40
0.18
  9
$DIMEXO
 40
0.0625
  9
$DIMDLI
 40
0.38
  9
$DIMRND
 40
0.0
  9
$DIMDLE
 40
0.0
  9
$DIMEXE
 40
0.18
  9
$DIMTP
 40
0.0
  9
$DIMTM
 40
0.0
  9
$DIMTXT
 40
0.18
  9
$DIMCEN
 40
0.09
  9
$DIMTSZ
 40
0.0
  9
$DIMTOL
 70
     0
  9
$DIMLIM
 70
     0
  9
$DIMTIH
 70
     1
  9
$DIMTOH
 70
     1
  9
$DIMSE1
 70
     0
  9
$DIMSE2
 70
     0
  9
$DIMTAD
 70
     0
  9
$DIMZIN
 70
     0
  9
$DIMBLK
  1

  9
$DIMASO
 70
     1
  9
$DIMSHO
 70
     1
  9
$DIMPOST
  1

  9
$DIMAPOST
  1

  9
$DIMALT
 70
     0
  9
$DIMALTD
 70
     2
  9
$DIMALTF
 40
25.4
  9
$DIMLFAC
 40
1.0
  9
$DIMTOFL
 70
     0
  9
$DIMTVP
 40
0.0
  9
$DIMTIX
 70
     0
  9
$DIMSOXD
 70
     0
  9
$DIMSAH
 70
     0
  9
$DIMBLK1
  1

  9
$DIMBLK2
  1

  9
$DIMSTYLE
  2
Standard
  9
$DIMCLRD
 70
     0
  9
$DIMCLRE
 70
     0
  9
$DIMCLRT
 70
     0
  9
$DIMTFAC
 40
1.0
  9
$DIMGAP
 40
0.09
  9
$DIMJUST
 70
     0
  9
$DIMSD1
 70
     0
  9
$DIMSD2
 70
     0
  9
$DIMTOLJ
 70
     1
  9
$DIMTZIN
 70
     0
  9
$DIMALTZ
 70
     0
  9
$DIMALTTZ
 70
     0
  9
$DIMUPT
 70
     0
  9
$DIMDEC
 70
     4
  9
$DIMTDEC
 70
     4
  9
$DIMALTU
 70
     2
  9
$DIMALTTD
 70
     2
  9
$DIMTXSTY
  7
Standard
  9
$DIMAUNIT
 70
     0
  9
$DIMADEC
 70
     0
  9
$DIMALTRND
 40
0.0
  9
$DIMAZIN
 70
     0
  9
$DIMDSEP
 70
    46
  9
$DIMATFIT
 70
     3
  9
$DIMFRAC
 70
     0
  9
$DIMLDRBLK
  1

  9
$DIMLUNIT
 70
     2
  9
$DIMLWD
 70
    -2
  9
$DIMLWE
 70
    -2
  9
$DIMTMOVE
 70
     0
  9
$DIMFXL
 40
1.0
  9
$DIMFXLON
 70
     0
  9
$DIMJOGANG
 40
0.7853981633974483
  9
$DIMTFILL
 70
     0
  9
$DIMTFILLCLR
 70
     0
  9
$DIMARCSYM
 70
     0
  9
$DIMLTYPE
  6

  9
$DIMLTEX1
  6

  9
$DIMLTEX2
  6

  9
$DIMTXTDIRECTION
 70
     0
  9
$LUNITS
 70
     2
  9
$LUPREC
 70
     4
  9
$SKETCHINC
 40
0.1
  9
$FILLETRAD
 40
0.5
  9
$AUNITS
 70
     0
  9
$AUPREC
 70
     0
  9
$MENU
  1
.
  9
$ELEVATION
 40
0.0
  9
$PELEVATION
 40
0.0
  9
$THICKNESS
 40
0.0
  9
$LIMCHECK
 70
     0
  9
$CHAMFERA
 40
0.5
  9
$CHAMFERB
 40
0.5
  9
$CHAMFERC
 40
1.0
  9
$CHAMFERD
 40
0.0
  9
$SKPOLY
 70
     0
  9
$TDCREATE
 40
2457917.62304397
  9
$TDUCREATE
 40
2457917.248043981
  9
$TDUPDATE
 40
2457917.62304397
  9
$TDUUPDATE
 40
2457917.248043981
  9
$TDINDWG
 40
0.0000000116
  9
$TDUSRTIMER
 40
0.0000000116
  9
$USRTIMER
 70
     1
  9
$ANGBASE
 50
0.0
  9
$ANGDIR
 70
     0
  9
$PDMODE
 70
     0
  9
$PDSIZE
 40
0.0
  9
$PLINEWID
 40
0.0
  9
$SPLFRAME
 70
     0
  9
$SPLINETYPE
 70
     6
  9
$SPLINESEGS
 70
     8
  9
$HANDSEED
  5
C3
  9
$SURFTAB1
 70
     6
  9
$SURFTAB2
 70
     6
  9
$SURFTYPE
 70
     6
  9
$SURFU
 70
     6
  9
$SURFV
 70
     6
  9
$UCSBASE
  2

  9
$UCSNAME
  2

  9
$UCSORG
 10
0.0
 20
0.0
 30
0.0
  9
$UCSXDIR
 10
1.0
 20
0.0
 30
0.0
  9
$UCSYDIR
 10
0.0
 20
1.0
 30
0.0
  9
$UCSORTHOREF
  2

  9
$UCSORTHOVIEW
 70
     0
  9
$UCSORGTOP
 10
0.0
 20
0.0
 30
0.0
  9
$UCSORGBOTTOM
 10
0.0
 20
0.0
 30
0.0
  9
$UCSORGLEFT
 10
0.0
 20
0.0
 30
0.0
  9
$UCSORGRIGHT
 10
0.0
 20
0.0
 30
0.0
  9
$UCSORGFRONT
 10
0.0
 20
0.0
 30
0.0
  9
$UCSORGBACK
 10
0.0
 20
0.0
 30
0.0
  9
$PUCSBASE
  2

  9
$PUCSNAME
  2

  9
$PUCSORG
 10
0.0
 20
0.0
 30
0.0
  9
$PUCSXDIR
 10
1.0
 20
0.0
 30
0.0
  9
$PUCSYDIR
 10
0.0
 20
1.0
 30
0.0
  9
$PUCSORTHOREF
  2

  9
$PUCSORTHOVIEW
 70
     0
  9
$PUCSORGTOP
 10
0.0
 20
0.0
 30
0.0
  9
$PUCSORGBOTTOM
 10
0.0
 20
0.0
 30
0.0
  9
$PUCSORGLEFT
 10
0.0
 20
0.0
 30
0.0
  9
$PUCSORGRIGHT
 10
0.0
 20
0.0
 30
0.0
  9
$PUCSORGFRONT
 10
0.0
 20
0.0
 30
0.0
  9
$PUCSORGBACK
 10
0.0
 20
0.0
 30
0.0
  9
$USERI1
 70
     0
  9
$USERI2
 70
     0
  9
$USERI3
 70
     0
  9
$USERI4
 70
     0
  9
$USERI5
 70
     0
  9
$USERR1
 40
0.0
  9
$USERR2
 40
0.0
  9
$USERR3
 40
0.0
  9
$USERR4
 40
0.0
  9
$USERR5
 40
0.0
  9
$WORLDVIEW
 70
     1
  9
$SHADEDGE
 70
     3
  9
$SHADEDIF
 70
    70
  9
$TILEMODE
 70
     1
  9
$MAXACTVP
 70
    64
  9
$PINSBASE
 10
0.0
 20
0.0
 30
0.0
  9
$PLIMCHECK
 70
     0
  9
$PEXTMIN
 10
1.000000000000000E+20
 20
1.000000000000000E+20
 30
1.000000000000000E+20
  9
$PEXTMAX
 10
-1.000000000000000E+20
 20
-1.000000000000000E+20
 30
-1.000000000000000E+20
  9
$PLIMMIN
 10
0.0
 20
0.0
  9
$PLIMMAX
 10
12.0
 20
9.0
  9
$UNITMODE
 70
     0
  9
$VISRETAIN
 70
     1
  9
$PLINEGEN
 70
     0
  9
$PSLTSCALE
 70
     1
  9
$TREEDEPTH
 70
  3020
  9
$CMLSTYLE
  2
Standard
  9
$CMLJUST
 70
     0
  9
$CMLSCALE
 40
1.0
  9
$PROXYGRAPHICS
 70
     1
  9
$MEASUREMENT
 70
     0
  9
$CELWEIGHT
370
    -1
  9
$ENDCAPS
280
     0
  9
$JOINSTYLE
280
     0
  9
$LWDISPLAY
290
     1
  9
$INSUNITS
 70
     1
  9
$HYPERLINKBASE
  1

  9
$STYLESHEET
  1

  9
$XEDIT
290
     1
  9
$CEPSNTYPE
380
     0
  9
$PSTYLEMODE
290
     1
  9
$FINGERPRINTGUID
  2
{F717BB5C-367A-ED9D-EAD2-C9027107997E}
  9
$VERSIONGUID
  2
{FAEB1C32-E019-11D5-929B-00C0DF256EC4}
  9
$EXTNAMES
290
     1
  9
$PSVPSCALE
 40
0.0
  9
$OLESTARTUP
290
     0
  9
$SORTENTS
280
   127
  9
$INDEXCTL
280
     0
  9
$HIDETEXT
280
     1
  9
$XCLIPFRAME
280
     2
  9
$HALOGAP
280
     0
  9
$OBSCOLOR
 70
   257
  9
$OBSLTYPE
280
     0
  9
$INTERSECTIONDISPLAY
280
     0
  9
$INTERSECTIONCOLOR
 70
   257
  9
$DIMASSOC
280
     2
  9
$PROJECTNAME
  1

  9
$CAMERADISPLAY
290
     0
  9
$LENSLENGTH
 40
50.0
  9
$CAMERAHEIGHT
 40
0.0
  9
$STEPSPERSEC
 40
2.0
  9
$STEPSIZE
 40
6.0
  9
$3DDWFPREC
 40
2.0
  9
$PSOLWIDTH
 40
0.25
  9
$PSOLHEIGHT
 40
4.0
  9
$LOFTANG1
 40
1.570796326794897
  9
$LOFTANG2
 40
1.570796326794897
  9
$LOFTMAG1
 40
0.0
  9
$LOFTMAG2
 40
0.0
  9
$LOFTPARAM
 70
     7
  9
$LOFTNORMALS
280
     1
  9
$LATITUDE
 40
37.795
  9
$LONGITUDE
 40
-122.394
  9
$NORTHDIRECTION
 40
0.0
  9
$TIMEZONE
 70
 -8000
  9
$LIGHTGLYPHDISPLAY
280
     1
  9
$TILEMODELIGHTSYNCH
280
     1
  9
$CMATERIAL
347
3C
  9
$SOLIDHIST
280
     1
  9
$SHOWHIST
280
     1
  9
$DWFFRAME
280
     2
  9
$DGNFRAME
280
     2
  9
$REALWORLDSCALE
290
     1
  9
$INTERFERECOLOR
 62
   256
  9
$CSHADOW
280
     0
  9
$SHADOWPLANELOCATION
 40
0.0
  0
ENDSEC
  0
SECTION
  2
CLASSES
  0
CLASS
  1
ACDBDICTIONARYWDFLT
  2
AcDbDictionaryWithDefault
  3
ObjectDBX Classes
 90
        0
 91
        4
280
     0
281
     0
  0
CLASS
  1
VISUALSTYLE
  2
AcDbVisualStyle
  3
ObjectDBX Classes
 90
     4095
 91
        4
280
     0
281
     0
  0
CLASS
  1
MATERIAL
  2
AcDbMaterial
  3
ObjectDBX Classes
 90
     1153
 91
        4
280
     0
281
     0
  0
CLASS
  1
SUN
  2
AcDbSun
  3
SCENEOE
 90
     1024
 91
        4
280
     0
281
     0
  0
ENDSEC
  0
SECTION
  2
TABLES
  0
TABLE
  2
VPORT
  5
8
330
0
100
AcDbSymbolTable
 70
     1
  0
VPORT
  5
29
330
8
100
AcDbSymbolTableRecord
100
AcDbViewportTableRecord
  2
*Active
 70
     0
 10
0.0
 20
0.0
 11
1.0
 21
1.0
 12
0.0
 22
0.0
 13
0.0
 23
0.0
 14
0.5
 24
0.5
 15
0.5
 25
0.5
 16
0.0
 26
0.0
 36
1.0
 17
91.00082462281999
 27
-128.4993055234307
 37
0.0
 40
256.9986110468615
 41
0.7081814508812795
 42
50.0
 43
0.0
 44
0.0
 50
0.0
 51
0.0
 71
     0
 72
   100
 73
     1
 74
     3
 75
     0
 76
     0
 77
     0
 78
     0
281
     0
 65
     1
110
0.0
120
0.0
130
0.0
111
1.0
121
0.0
131
0.0
112
0.0
122
1.0
132
0.0
 79
     0
146
0.0
 60
     3
 61
     5
292
     1
282
     1
141
0.0
142
0.0
 63
   250
361
3F
  0
ENDTAB
  0
TABLE
  2
LTYPE
  5
5
330
0
100
AcDbSymbolTable
 70
     1
  0
LTYPE
  5
14
330
5
100
AcDbSymbolTableRecord
100
AcDbLinetypeTableRecord
  2
ByBlock
 70
     0
  3

 72
    65
 73
     0
 40
0.0
  0
LTYPE
  5
15
330
5
100
AcDbSymbolTableRecord
100
AcDbLinetypeTableRecord
  2
ByLayer
 70
     0
  3

 72
    65
 73
     0
 40
0.0
  0
LTYPE
  5
16
330
5
100
AcDbSymbolTableRecord
100
AcDbLinetypeTableRecord
  2
Continuous
 70
     0
  3
Solid line
 72
    65
 73
     0
 40
0.0
  0
ENDTAB
  0
TABLE
  2
LAYER
  5
2
330
0
100
AcDbSymbolTable
 70
     2
  0
LAYER
  5
10
330
2
100
AcDbSymbolTableRecord
100
AcDbLayerTableRecord
  2
0
 70
     0
 62
     7
  6
Continuous
370
    -3
390
F
347
3E
  0
LAYER
  5
40
330
2
100
AcDbSymbolTableRecord
100
AcDbLayerTableRecord
  2
_U+30EC_U+30A4_U+30E4_U+30FC 1
 70
     0
 62
     7
  6
Continuous
370
    -3
390
F
347
3E
  0
ENDTAB
  0
TABLE
  2
STYLE
  5
3
330
0
100
AcDbSymbolTable
 70
     1
  0
STYLE
  5
11
330
3
100
AcDbSymbolTableRecord
100
AcDbTextStyleTableRecord
  2
Standard
 70
     0
 40
0.0
 41
1.0
 50
0.0
 71
     0
 42
0.2
  3
txt
  4

  0
ENDTAB
  0
TABLE
  2
VIEW
  5
6
330
0
100
AcDbSymbolTable
 70
     0
  0
ENDTAB
  0
TABLE
  2
UCS
  5
7
330
0
100
AcDbSymbolTable
 70
     0
  0
ENDTAB
  0
TABLE
  2
APPID
  5
9
330
0
100
AcDbSymbolTable
 70
     1
  0
APPID
  5
12
330
9
100
AcDbSymbolTableRecord
100
AcDbRegAppTableRecord
  2
ACAD
 70
     0
  0
ENDTAB
  0
TABLE
  2
DIMSTYLE
  5
A
330
0
100
AcDbSymbolTable
 70
     1
100
AcDbDimStyleTable
  0
DIMSTYLE
105
27
330
A
100
AcDbSymbolTableRecord
100
AcDbDimStyleTableRecord
  2
Standard
 70
     0
178
     0
340
11
  0
ENDTAB
  0
TABLE
  2
BLOCK_RECORD
  5
1
330
0
100
AcDbSymbolTable
 70
     6
  0
BLOCK_RECORD
  5
1F
330
1
100
AcDbSymbolTableRecord
100
AcDbBlockTableRecord
  2
*Model_Space
340
22
 70
     0
280
     1
281
     0
  0
BLOCK_RECORD
  5
1B
330
1
100
AcDbSymbolTableRecord
100
AcDbBlockTableRecord
  2
*Paper_Space
340
1E
 70
     0
280
     1
281
     0
  0
BLOCK_RECORD
  5
23
330
1
100
AcDbSymbolTableRecord
100
AcDbBlockTableRecord
  2
*Paper_Space0
340
26
 70
     0
280
     1
281
     0
  0
BLOCK_RECORD
  5
63
330
1
100
AcDbSymbolTableRecord
100
AcDbBlockTableRecord
  2
block 2
340
0
102
{BLKREFS
331
64
102
}
 70
     0
280
     1
281
     0
  0
BLOCK_RECORD
  5
6C
330
1
100
AcDbSymbolTableRecord
100
AcDbBlockTableRecord
  2
block 3
340
0
102
{BLKREFS
331
6D
102
}
 70
     0
280
     1
281
     0
  0
BLOCK_RECORD
  5
8F
330
1
100
AcDbSymbolTableRecord
100
AcDbBlockTableRecord
  2
block 4
340
0
102
{BLKREFS
331
90
102
}
 70
     0
280
     1
281
     0
  0
BLOCK_RECORD
  5
95
330
1
100
AcDbSymbolTableRecord
100
AcDbBlockTableRecord
  2
block 5
340
0
102
{BLKREFS
331
96
102
}
 70
     0
280
     1
281
     0
  0
BLOCK_RECORD
  5
B2
330
1
100
AcDbSymbolTableRecord
100
AcDbBlockTableRecord
  2
block 6
340
0
102
{BLKREFS
331
B3
102
}
 70
     0
280
     1
281
     0
  0
ENDTAB
  0
ENDSEC
  0
SECTION
  2
BLOCKS
  0
BLOCK
  5
20
330
1F
100
AcDbEntity
  8
0
100
AcDbBlockBegin
  2
*Model_Space
 70
     0
 10
0.0
 20
0.0
 30
0.0
  3
*Model_Space
  1

  0
ENDBLK
  5
21
330
1F
100
AcDbEntity
  8
0
100
AcDbBlockEnd
  0
BLOCK
  5
1C
330
1B
100
AcDbEntity
 67
     1
  8
0
100
AcDbBlockBegin
  2
*Paper_Space
 70
     0
 10
0.0
 20
0.0
 30
0.0
  3
*Paper_Space
  1

  0
ENDBLK
  5
1D
330
1B
100
AcDbEntity
 67
     1
  8
0
100
AcDbBlockEnd
  0
BLOCK
  5
24
330
23
100
AcDbEntity
  8
0
100
AcDbBlockBegin
  2
*Paper_Space0
 70
     0
 10
0.0
 20
0.0
 30
0.0
  3
*Paper_Space0
  1

  0
ENDBLK
  5
25
330
23
100
AcDbEntity
  8
0
100
AcDbBlockEnd
  0
BLOCK
  5
65
330
63
100
AcDbEntity
  8
0
100
AcDbBlockBegin
  2
block 2
 70
     0
 10
0.0
 20
0.0
 30
0.0
  3
block 2
  1

  0
SPLINE
  5
67
330
63
100
AcDbEntity
  8
_U+30EC_U+30A4_U+30E4_U+30FC 1
370
     0
100
AcDbSpline
210
0.0
220
0.0
230
1.0
 70
    11
 71
     3
 72
    44
 73
    40
 74
     0
 42
0.0000000001
 43
0.0000000001
 12
1.0
 22
0.0
 32
0.0
 13
1.0
 23
0.0
 33
0.0
 40
0.0
 40
0.0
 40
0.0
 40
0.0
 40
1.0
 40
1.0
 40
1.0
 40
2.0
 40
2.0
 40
2.0
 40
3.0
 40
3.0
 40
3.0
 40
4.0
 40
4.0
 40
4.0
 40
5.0
 40
5.0
 40
5.0
 40
6.0
 40
6.0
 40
6.0
 40
7.0
 40
7.0
 40
7.0
 40
8.0
 40
8.0
 40
8.0
 40
9.0
 40
9.0
 40
9.0
 40
10.0
 40
10.0
 40
10.0
 40
11.0
 40
11.0
 40
11.0
 40
12.0
 40
12.0
 40
12.0
 40
13.0
 40
13.0
 40
13.0
 40
13.0
 10
66.12722980117653
 20
-135.8101426526794
 30
0.0
 10
66.28587644827229
 20
-136.0278726873472
 30
0.0
 10
66.35994600120516
 20
-136.120890265449
 30
0.0
 10
66.50377873771434
 20
-136.1698106213395
 30
0.0
 10
66.50377873771434
 20
-136.1698106213395
 30
0.0
 10
66.50377873771434
 20
-135.391219041673
 30
0.0
 10
66.50377873771434
 20
-135.391219041673
 30
0.0
 10
66.50377873771434
 20
-135.391219041673
 30
0.0
 10
66.70893417386097
 20
-135.391219041673
 30
0.0
 10
66.70893417386097
 20
-135.391219041673
 30
0.0
 10
66.70893417386097
 20
-135.391219041673
 30
0.0
 10
66.70893417386097
 20
-136.4192355344716
 30
0.0
 10
66.70893417386097
 20
-136.4192355344716
 30
0.0
 10
66.35133326249203
 20
-136.3875406560073
 30
0.0
 10
66.27312959497687
 20
-136.3220838417875
 30
0.0
 10
65.97478432595422
 20
-135.9369221665366
 30
0.0
 10
65.7760023164553
 20
-135.6809515719825
 30
0.0
 10
65.70830619017015
 20
-135.6154947577628
 30
0.0
 10
65.57084688030868
 20
-135.6154947577628
 30
0.0
 10
65.45233559561609
 20
-135.6154947577628
 30
0.0
 10
65.32124971240233
 20
-135.6874972534045
 30
0.0
 10
65.32124971240233
 20
-135.8842122056123
 30
0.0
 10
65.32124971240233
 20
-136.1443169147487
 30
0.0
 10
65.55172660036554
 20
-136.1529296534618
 30
0.0
 10
65.66817082776699
 20
-136.1570637680441
 30
0.0
 10
65.66817082776699
 20
-136.1570637680441
 30
0.0
 10
65.66817082776699
 20
-136.3813394841338
 30
0.0
 10
65.66817082776699
 20
-136.3813394841338
 30
0.0
 10
65.54121905913553
 20
-136.3727267454207
 30
0.0
 10
65.42908120109065
 20
-136.3620469494165
 30
0.0
 10
65.31056991639805
 20
-136.2817762246101
 30
0.0
 10
65.14985621201114
 20
-136.1718776786306
 30
0.0
 10
65.11592202148144
 20
-135.9854980128786
 30
0.0
 10
65.11592202148144
 20
-135.8693982950257
 30
0.0
 10
65.11592202148144
 20
-135.5920681084631
 30
0.0
 10
65.30006237516804
 20
-135.3846733602511
 30
0.0
 10
65.57291393759984
 20
-135.3846733602511
 30
0.0
 10
65.8013237682719
 20
-135.3846733602511
 30
0.0
 10
65.90088702779562
 20
-135.5011175876525
 30
0.0
 10
66.12722980117653
 20
-135.8101426526794
 30
0.0
  0
HATCH
  5
68
330
63
100
AcDbEntity
  8
_U+30EC_U+30A4_U+30E4_U+30FC 1
 62
     7
420
 16777215
100
AcDbHatch
 10
0.0
 20
0.0
 30
0.0
210
0.0
220
0.0
230
1.0
  2
SOLID
 70
     1
 71
     0
 91
        1
 92
        1
 93
        1
 72
     4
 94
        3
 73
     0
 74
     1
 95
       44
 96
       40
 40
0.0
 40
0.0
 40
0.0
 40
0.0
 40
1.0
 40
1.0
 40
1.0
 40
2.0
 40
2.0
 40
2.0
 40
3.0
 40
3.0
 40
3.0
 40
4.0
 40
4.0
 40
4.0
 40
5.0
 40
5.0
 40
5.0
 40
6.0
 40
6.0
 40
6.0
 40
7.0
 40
7.0
 40
7.0
 40
8.0
 40
8.0
 40
8.0
 40
9.0
 40
9.0
 40
9.0
 40
10.0
 40
10.0
 40
10.0
 40
11.0
 40
11.0
 40
11.0
 40
12.0
 40
12.0
 40
12.0
 40
13.0
 40
13.0
 40
13.0
 40
13.0
 10
66.12722980117653
 20
-135.8101426526794
 10
66.28587644827229
 20
-136.0278726873472
 10
66.35994600120516
 20
-136.120890265449
 10
66.50377873771434
 20
-136.1698106213395
 10
66.50377873771434
 20
-136.1698106213395
 10
66.50377873771434
 20
-135.391219041673
 10
66.50377873771434
 20
-135.391219041673
 10
66.50377873771434
 20
-135.391219041673
 10
66.70893417386097
 20
-135.391219041673
 10
66.70893417386097
 20
-135.391219041673
 10
66.70893417386097
 20
-135.391219041673
 10
66.70893417386097
 20
-136.4192355344716
 10
66.70893417386097
 20
-136.4192355344716
 10
66.35133326249203
 20
-136.3875406560073
 10
66.27312959497687
 20
-136.3220838417875
 10
65.97478432595422
 20
-135.9369221665366
 10
65.7760023164553
 20
-135.6809515719825
 10
65.70830619017015
 20
-135.6154947577628
 10
65.57084688030868
 20
-135.6154947577628
 10
65.45233559561609
 20
-135.6154947577628
 10
65.32124971240233
 20
-135.6874972534045
 10
65.32124971240233
 20
-135.8842122056123
 10
65.32124971240233
 20
-136.1443169147487
 10
65.55172660036554
 20
-136.1529296534618
 10
65.66817082776699
 20
-136.1570637680441
 10
65.66817082776699
 20
-136.1570637680441
 10
65.66817082776699
 20
-136.3813394841338
 10
65.66817082776699
 20
-136.3813394841338
 10
65.54121905913553
 20
-136.3727267454207
 10
65.42908120109065
 20
-136.3620469494165
 10
65.31056991639805
 20
-136.2817762246101
 10
65.14985621201114
 20
-136.1718776786306
 10
65.11592202148144
 20
-135.9854980128786
 10
65.11592202148144
 20
-135.8693982950257
 10
65.11592202148144
 20
-135.5920681084631
 10
65.30006237516804
 20
-135.3846733602511
 10
65.57291393759984
 20
-135.3846733602511
 10
65.8013237682719
 20
-135.3846733602511
 10
65.90088702779562
 20
-135.5011175876525
 10
66.12722980117653
 20
-135.8101426526794
 97
        0
 97
        0
 75
     2
 76
     1
 98
        0
  0
SPLINE
  5
69
330
63
100
AcDbEntity
  8
_U+30EC_U+30A4_U+30E4_U+30FC 1
370
     0
100
AcDbSpline
210
0.0
220
0.0
230
1.0
 70
    11
 71
     3
 72
    29
 73
    25
 74
     0
 42
0.0000000001
 43
0.0000000001
 12
1.0
 22
0.0
 32
0.0
 13
1.0
 23
0.0
 33
0.0
 40
0.0
 40
0.0
 40
0.0
 40
0.0
 40
1.0
 40
1.0
 40
1.0
 40
2.0
 40
2.0
 40
2.0
 40
3.0
 40
3.0
 40
3.0
 40
4.0
 40
4.0
 40
4.0
 40
5.0
 40
5.0
 40
5.0
 40
6.0
 40
6.0
 40
6.0
 40
7.0
 40
7.0
 40
7.0
 40
8.0
 40
8.0
 40
8.0
 40
8.0
 10
66.53116724682208
 20
-134.3284070844735
 30
0.0
 10
66.74062905232526
 20
-134.4365830827103
 30
0.0
 10
66.7597493322684
 20
-134.6098713856184
 30
0.0
 10
66.7597493322684
 20
-134.7263156130198
 30
0.0
 10
66.7597493322684
 20
-134.887201572181
 30
0.0
 10
66.71324054321752
 20
-135.0287949966248
 30
0.0
 10
66.53116724682208
 20
-135.1238796320176
 30
0.0
 10
66.33651935190545
 20
-135.2275770061237
 30
0.0
 10
66.09966903729453
 20
-135.2468695408411
 30
0.0
 10
65.93671602084221
 20
-135.2468695408411
 30
0.0
 10
65.79288328433303
 20
-135.2468695408411
 30
0.0
 10
65.54121905913553
 20
-135.2296440634148
 30
0.0
 10
65.34226479486236
 20
-135.1238796320176
 30
0.0
 10
65.13917641600688
 20
-135.0160481433293
 30
0.0
 10
65.11592202148144
 20
-134.8551621841682
 30
0.0
 10
65.11592202148144
 20
-134.7263156130198
 30
0.0
 10
65.11592202148144
 20
-134.5674967111498
 30
0.0
 10
65.16036375324116
 20
-134.4238362294149
 30
0.0
 10
65.34226479486236
 20
-134.3284070844735
 30
0.0
 10
65.53484563248782
 20
-134.2291883344983
 30
0.0
 10
65.76325546315988
 20
-134.2057616851986
 30
0.0
 10
65.93671602084221
 20
-134.2057616851986
 30
0.0
 10
66.10810952123339
 20
-134.2057616851986
 30
0.0
 10
66.33875866397086
 20
-134.2271212772071
 30
0.0
 10
66.53116724682208
 20
-134.3284070844735
 30
0.0
  0
SPLINE
  5
6A
330
63
100
AcDbEntity
  8
_U+30EC_U+30A4_U+30E4_U+30FC 1
370
     0
100
AcDbSpline
210
0.0
220
0.0
230
1.0
 70
    11
 71
     3
 72
    17
 73
    13
 74
     0
 42
0.0000000001
 43
0.0000000001
 12
1.0
 22
0.0
 32
0.0
 13
1.0
 23
0.0
 33
0.0
 40
0.0
 40
0.0
 40
0.0
 40
0.0
 40
1.0
 40
1.0
 40
1.0
 40
2.0
 40
2.0
 40
2.0
 40
3.0
 40
3.0
 40
3.0
 40
4.0
 40
4.0
 40
4.0
 40
4.0
 10
65.30850285910691
 20
-134.7263156130198
 30
0.0
 10
65.30850285910691
 20
-134.9760850357004
 30
0.0
 10
65.59203421754296
 20
-135.0225938247513
 30
0.0
 10
65.93671602084221
 20
-135.0225938247513
 30
0.0
 10
66.25624862709914
 20
-135.0225938247513
 30
0.0
 10
66.56510143735179
 20
-134.9864203221562
 30
0.0
 10
66.56510143735179
 20
-134.7263156130198
 30
0.0
 10
66.56510143735179
 20
-134.4786132476304
 30
0.0
 10
66.28363713620688
 20
-134.4300374012883
 30
0.0
 10
65.93671602084221
 20
-134.4300374012883
 30
0.0
 10
65.61735566935955
 20
-134.4300374012883
 30
0.0
 10
65.30850285910691
 20
-134.4682779611746
 30
0.0
 10
65.30850285910691
 20
-134.7263156130198
 30
0.0
  0
HATCH
  5
6B
330
63
100
AcDbEntity
  8
_U+30EC_U+30A4_U+30E4_U+30FC 1
 62
     7
420
 16777215
100
AcDbHatch
 10
0.0
 20
0.0
 30
0.0
210
0.0
220
0.0
230
1.0
  2
SOLID
 70
     1
 71
     0
 91
        2
 92
        1
 93
        1
 72
     4
 94
        3
 73
     0
 74
     1
 95
       29
 96
       25
 40
0.0
 40
0.0
 40
0.0
 40
0.0
 40
1.0
 40
1.0
 40
1.0
 40
2.0
 40
2.0
 40
2.0
 40
3.0
 40
3.0
 40
3.0
 40
4.0
 40
4.0
 40
4.0
 40
5.0
 40
5.0
 40
5.0
 40
6.0
 40
6.0
 40
6.0
 40
7.0
 40
7.0
 40
7.0
 40
8.0
 40
8.0
 40
8.0
 40
8.0
 10
66.53116724682208
 20
-134.3284070844735
 10
66.74062905232526
 20
-134.4365830827103
 10
66.7597493322684
 20
-134.6098713856184
 10
66.7597493322684
 20
-134.7263156130198
 10
66.7597493322684
 20
-134.887201572181
 10
66.71324054321752
 20
-135.0287949966248
 10
66.53116724682208
 20
-135.1238796320176
 10
66.33651935190545
 20
-135.2275770061237
 10
66.09966903729453
 20
-135.2468695408411
 10
65.93671602084221
 20
-135.2468695408411
 10
65.79288328433303
 20
-135.2468695408411
 10
65.54121905913553
 20
-135.2296440634148
 10
65.34226479486236
 20
-135.1238796320176
 10
65.13917641600688
 20
-135.0160481433293
 10
65.11592202148144
 20
-134.8551621841682
 10
65.11592202148144
 20
-134.7263156130198
 10
65.11592202148144
 20
-134.5674967111498
 10
65.16036375324116
 20
-134.4238362294149
 10
65.34226479486236
 20
-134.3284070844735
 10
65.53484563248782
 20
-134.2291883344983
 10
65.76325546315988
 20
-134.2057616851986
 10
65.93671602084221
 20
-134.2057616851986
 10
66.10810952123339
 20
-134.2057616851986
 10
66.33875866397086
 20
-134.2271212772071
 10
66.53116724682208
 20
-134.3284070844735
 97
        0
 97
        0
 92
        1
 93
        1
 72
     4
 94
        3
 73
     0
 74
     1
 95
       17
 96
       13
 40
0.0
 40
0.0
 40
0.0
 40
0.0
 40
1.0
 40
1.0
 40
1.0
 40
2.0
 40
2.0
 40
2.0
 40
3.0
 40
3.0
 40
3.0
 40
4.0
 40
4.0
 40
4.0
 40
4.0
 10
65.30850285910691
 20
-134.7263156130198
 10
65.30850285910691
 20
-134.9760850357004
 10
65.59203421754296
 20
-135.0225938247513
 10
65.93671602084221
 20
-135.0225938247513
 10
66.25624862709914
 20
-135.0225938247513
 10
66.56510143735179
 20
-134.9864203221562
 10
66.56510143735179
 20
-134.7263156130198
 10
66.56510143735179
 20
-134.4786132476304
 10
66.28363713620688
 20
-134.4300374012883
 10
65.93671602084221
 20
-134.4300374012883
 10
65.61735566935955
 20
-134.4300374012883
 10
65.30850285910691
 20
-134.4682779611746
 10
65.30850285910691
 20
-134.7263156130198
 97
        0
 97
        0
 75
     2
 76
     1
 98
        0
  0
ENDBLK
  5
66
330
63
100
AcDbEntity
  8
0
100
AcDbBlockEnd
  0
BLOCK
  5
6E
330
6C
100
AcDbEntity
  8
0
100
AcDbBlockBegin
  2
block 3
 70
     0
 10
0.0
 20
0.0
 30
0.0
  3
block 3
  1

  0
POLYLINE
  5
70
330
6C
100
AcDbEntity
  8
_U+30EC_U+30A4_U+30E4_U+30FC 1
370
     0
100
AcDb2dPolyline
 66
     1
 10
0.0
 20
0.0
 30
0.0
  0
VERTEX
  5
71
330
70
100
AcDbEntity
  8
_U+30EC_U+30A4_U+30E4_U+30FC 1
370
     0
100
AcDbVertex
100
AcDb2dVertex
 10
116.1252115595104
 20
-143.5602294562974
 30
0.0
  0
VERTEX
  5
72
330
70
100
AcDbEntity
  8
_U+30EC_U+30A4_U+30E4_U+30FC 1
370
     0
100
AcDbVertex
100
AcDb2dVertex
 10
116.472132674875
 20
-143.5602294562974
 30
0.0
  0
VERTEX
  5
73
330
70
100
AcDbEntity
  8
_U+30EC_U+30A4_U+30E4_U+30FC 1
370
     0
100
AcDbVertex
100
AcDb2dVertex
 10
116.472132674875
 20
-143.7779594909652
 30
0.0
  0
VERTEX
  5
74
330
70
100
AcDbEntity
  8
_U+30EC_U+30A4_U+30E4_U+30FC 1
370
     0
100
AcDbVertex
100
AcDb2dVertex
 10
116.1252115595104
 20
-143.7779594909652
 30
0.0
  0
VERTEX
  5
75
330
70
100
AcDbEntity
  8
_U+30EC_U+30A4_U+30E4_U+30FC 1
370
     0
100
AcDbVertex
100
AcDb2dVertex
 10
116.1252115595104
 20
-144.4339056713568
 30
0.0
  0
VERTEX
  5
76
330
70
100
AcDbEntity
  8
_U+30EC_U+30A4_U+30E4_U+30FC 1
370
     0
100
AcDbVertex
100
AcDb2dVertex
 10
115.9009358434206
 20
-144.4339056713568
 30
0.0
  0
VERTEX
  5
77
330
70
100
AcDbEntity
  8
_U+30EC_U+30A4_U+30E4_U+30FC 1
370
     0
100
AcDbVertex
100
AcDb2dVertex
 10
114.9276963688375
 20
-143.7548773512141
 30
0.0
  0
VERTEX
  5
78
330
70
100
AcDbEntity
  8
_U+30EC_U+30A4_U+30E4_U+30FC 1
370
     0
100
AcDbVertex
100
AcDb2dVertex
 10
114.9276963688375
 20
-143.5602294562974
 30
0.0
  0
VERTEX
  5
79
330
70
100
AcDbEntity
  8
_U+30EC_U+30A4_U+30E4_U+30FC 1
370
     0
100
AcDbVertex
100
AcDb2dVertex
 10
115.9260850404629
 20
-143.5602294562974
 30
0.0
  0
VERTEX
  5
7A
330
70
100
AcDbEntity
  8
_U+30EC_U+30A4_U+30E4_U+30FC 1
370
     0
100
AcDbVertex
100
AcDb2dVertex
 10
115.9260850404629
 20
-143.3528347080854
 30
0.0
  0
VERTEX
  5
7B
330
70
100
AcDbEntity
  8
_U+30EC_U+30A4_U+30E4_U+30FC 1
370
     0
100
AcDbVertex
100
AcDb2dVertex
 10
116.1252115595104
 20
-143.3528347080854
 30
0.0
  0
VERTEX
  5
7C
330
70
100
AcDbEntity
  8
_U+30EC_U+30A4_U+30E4_U+30FC 1
370
     0
100
AcDbVertex
100
AcDb2dVertex
 10
116.1252115595104
 20
-143.5602294562974
 30
0.0
  0
SEQEND
  5
7D
330
70
100
AcDbEntity
  8
_U+30EC_U+30A4_U+30E4_U+30FC 1
370
     0
  0
POLYLINE
  5
7E
330
6C
100
AcDbEntity
  8
_U+30EC_U+30A4_U+30E4_U+30FC 1
370
     0
100
AcDb2dPolyline
 66
     1
 10
0.0
 20
0.0
 30
0.0
  0
VERTEX
  5
7F
330
7E
100
AcDbEntity
  8
_U+30EC_U+30A4_U+30E4_U+30FC 1
370
     0
100
AcDbVertex
100
AcDb2dVertex
 10
115.2704833696199
 20
-143.7779594909652
 30
0.0
  0
VERTEX
  5
80
330
7E
100
AcDbEntity
  8
_U+30EC_U+30A4_U+30E4_U+30FC 1
370
     0
100
AcDbVertex
100
AcDb2dVertex
 10
115.9260850404629
 20
-144.2351236618579
 30
0.0
  0
VERTEX
  5
81
330
7E
100
AcDbEntity
  8
_U+30EC_U+30A4_U+30E4_U+30FC 1
370
     0
100
AcDbVertex
100
AcDb2dVertex
 10
115.9260850404629
 20
-143.7779594909652
 30
0.0
  0
VERTEX
  5
82
330
7E
100
AcDbEntity
  8
_U+30EC_U+30A4_U+30E4_U+30FC 1
370
     0
100
AcDbVertex
100
AcDb2dVertex
 10
115.2704833696199
 20
-143.7779594909652
 30
0.0
  0
SEQEND
  5
83
330
7E
100
AcDbEntity
  8
_U+30EC_U+30A4_U+30E4_U+30FC 1
370
     0
  0
HATCH
  5
84
330
6C
100
AcDbEntity
  8
_U+30EC_U+30A4_U+30E4_U+30FC 1
 62
     7
420
 16777215
100
AcDbHatch
 10
0.0
 20
0.0
 30
0.0
210
0.0
220
0.0
230
1.0
  2
SOLID
 70
     1
 71
     0
 91
        2
 92
        1
 93
       11
 72
     1
 10
116.1252115595104
 20
-143.5602294562974
 11
116.472132674875
 21
-143.5602294562974
 72
     1
 10
116.472132674875
 20
-143.5602294562974
 11
116.472132674875
 21
-143.7779594909652
 72
     1
 10
116.472132674875
 20
-143.7779594909652
 11
116.1252115595104
 21
-143.7779594909652
 72
     1
 10
116.1252115595104
 20
-143.7779594909652
 11
116.1252115595104
 21
-144.4339056713568
 72
     1
 10
116.1252115595104
 20
-144.4339056713568
 11
115.9009358434206
 21
-144.4339056713568
 72
     1
 10
115.9009358434206
 20
-144.4339056713568
 11
114.9276963688375
 21
-143.7548773512141
 72
     1
 10
114.9276963688375
 20
-143.7548773512141
 11
114.9276963688375
 21
-143.5602294562974
 72
     1
 10
114.9276963688375
 20
-143.5602294562974
 11
115.9260850404629
 21
-143.5602294562974
 72
     1
 10
115.9260850404629
 20
-143.5602294562974
 11
115.9260850404629
 21
-143.3528347080854
 72
     1
 10
115.9260850404629
 20
-143.3528347080854
 11
116.1252115595104
 21
-143.3528347080854
 72
     1
 10
116.1252115595104
 20
-143.3528347080854
 11
116.1252115595104
 21
-143.5602294562974
 97
        0
 92
        1
 93
        3
 72
     1
 10
115.2704833696199
 20
-143.7779594909652
 11
115.9260850404629
 21
-144.2351236618579
 72
     1
 10
115.9260850404629
 20
-144.2351236618579
 11
115.9260850404629
 21
-143.7779594909652
 72
     1
 10
115.9260850404629
 20
-143.7779594909652
 11
115.2704833696199
 21
-143.7779594909652
 97
        0
 75
     2
 76
     1
 98
        0
  0
POLYLINE
  5
85
330
6C
100
AcDbEntity
  8
_U+30EC_U+30A4_U+30E4_U+30FC 1
370
     0
100
AcDb2dPolyline
 66
     1
 10
0.0
 20
0.0
 30
0.0
  0
VERTEX
  5
86
330
85
100
AcDbEntity
  8
_U+30EC_U+30A4_U+30E4_U+30FC 1
370
     0
100
AcDbVertex
100
AcDb2dVertex
 10
116.472132674875
 20
-143.1554307367806
 30
0.0
  0
VERTEX
  5
87
330
85
100
AcDbEntity
  8
_U+30EC_U+30A4_U+30E4_U+30FC 1
370
     0
100
AcDbVertex
100
AcDb2dVertex
 10
116.2202961949033
 20
-143.1554307367806
 30
0.0
  0
VERTEX
  5
88
330
85
100
AcDbEntity
  8
_U+30EC_U+30A4_U+30E4_U+30FC 1
370
     0
100
AcDbVertex
100
AcDb2dVertex
 10
116.2202961949033
 20
-142.9035942568088
 30
0.0
  0
VERTEX
  5
89
330
85
100
AcDbEntity
  8
_U+30EC_U+30A4_U+30E4_U+30FC 1
370
     0
100
AcDbVertex
100
AcDb2dVertex
 10
116.472132674875
 20
-142.9035942568088
 30
0.0
  0
VERTEX
  5
8A
330
85
100
AcDbEntity
  8
_U+30EC_U+30A4_U+30E4_U+30FC 1
370
     0
100
AcDbVertex
100
AcDb2dVertex
 10
116.472132674875
 20
-143.1554307367806
 30
0.0
  0
SEQEND
  5
8B
330
85
100
AcDbEntity
  8
_U+30EC_U+30A4_U+30E4_U+30FC 1
370
     0
  0
HATCH
  5
8C
330
6C
100
AcDbEntity
  8
_U+30EC_U+30A4_U+30E4_U+30FC 1
 62
     7
420
 16777215
100
AcDbHatch
 10
0.0
 20
0.0
 30
0.0
210
0.0
220
0.0
230
1.0
  2
SOLID
 70
     1
 71
     0
 91
        1
 92
        1
 93
        4
 72
     1
 10
116.472132674875
 20
-143.1554307367806
 11
116.2202961949033
 21
-143.1554307367806
 72
     1
 10
116.2202961949033
 20
-143.1554307367806
 11
116.2202961949033
 21
-142.9035942568088
 72
     1
 10
116.2202961949033
 20
-142.9035942568088
 11
116.472132674875
 21
-142.9035942568088
 72
     1
 10
116.472132674875
 20
-142.9035942568088
 11
116.472132674875
 21
-143.1554307367806
 97
        0
 75
     2
 76
     1
 98
        0
  0
SPLINE
  5
8D
330
6C
100
AcDbEntity
  8
_U+30EC_U+30A4_U+30E4_U+30FC 1
370
     0
100
AcDbSpline
210
0.0
220
0.0
230
1.0
 70
    11
 71
     3
 72
    53
 73
    49
 74
     0
 42
0.0000000001
 43
0.0000000001
 12
1.0
 22
0.0
 32
0.0
 13
1.0
 23
0.0
 33
0.0
 40
0.0
 40
0.0
 40
0.0
 40
0.0
 40
1.0
 40
1.0
 40
1.0
 40
2.0
 40
2.0
 40
2.0
 40
3.0
 40
3.0
 40
3.0
 40
4.0
 40
4.0
 40
4.0
 40
5.0
 40
5.0
 40
5.0
 40
6.0
 40
6.0
 40
6.0
 40
7.0
 40
7.0
 40
7.0
 40
8.0
 40
8.0
 40
8.0
 40
9.0
 40
9.0
 40
9.0
 40
10.0
 40
10.0
 40
10.0
 40
11.0
 40
11.0
 40
11.0
 40
12.0
 40
12.0
 40
12.0
 40
13.0
 40
13.0
 40
13.0
 40
14.0
 40
14.0
 40
14.0
 40
15.0
 40
15.0
 40
15.0
 40
16.0
 40
16.0
 40
16.0
 40
16.0
 10
116.5227755785082
 20
-142.1863253767798
 30
0.0
 10
116.5227755785082
 20
-142.264529044295
 30
0.0
 10
116.5058946106305
 20
-142.3661593611099
 30
0.0
 10
116.4425048537019
 20
-142.4677896779247
 30
0.0
 10
116.3326063077224
 20
-142.6410779808328
 30
0.0
 10
116.2013481697344
 20
-142.6624375728414
 30
0.0
 10
116.0935166810461
 20
-142.6813855980102
 30
0.0
 10
116.0935166810461
 20
-142.6813855980102
 30
0.0
 10
116.0935166810461
 20
-142.4591769392116
 30
0.0
 10
116.0935166810461
 20
-142.4591769392116
 30
0.0
 10
116.292298690545
 20
-142.4043999209961
 30
0.0
 10
116.3219265117181
 20
-142.2772758975904
 30
0.0
 10
116.3219265117181
 20
-142.1842583194887
 30
0.0
 10
116.3219265117181
 20
-142.044731952336
 30
0.0
 10
116.2223632521944
 20
-141.892458731888
 30
0.0
 10
115.98981930694
 20
-141.892458731888
 30
0.0
 10
115.733848712386
 20
-141.892458731888
 30
0.0
 10
115.6642577835839
 20
-142.072292716218
 30
0.0
 10
115.6642577835839
 20
-142.1928710582018
 30
0.0
 10
115.6642577835839
 20
-142.2245659366661
 30
0.0
 10
115.6642577835839
 20
-142.3661593611099
 30
0.0
 10
115.7931043547323
 20
-142.4550428246293
 30
0.0
 10
115.7931043547323
 20
-142.4550428246293
 30
0.0
 10
115.7738118200149
 20
-142.630742694377
 30
0.0
 10
115.7738118200149
 20
-142.630742694377
 30
0.0
 10
115.7738118200149
 20
-142.630742694377
 30
0.0
 10
114.9276963688375
 20
-142.5101643523933
 30
0.0
 10
114.9276963688375
 20
-142.5101643523933
 30
0.0
 10
114.9276963688375
 20
-142.5101643523933
 30
0.0
 10
114.9276963688375
 20
-141.7315727727268
 30
0.0
 10
114.9276963688375
 20
-141.7315727727268
 30
0.0
 10
114.9276963688375
 20
-141.7315727727268
 30
0.0
 10
115.1226887733027
 20
-141.7315727727268
 30
0.0
 10
115.1226887733027
 20
-141.7315727727268
 30
0.0
 10
115.1226887733027
 20
-141.7315727727268
 30
0.0
 10
115.1226887733027
 20
-142.347211335941
 30
0.0
 10
115.1226887733027
 20
-142.347211335941
 30
0.0
 10
115.1226887733027
 20
-142.347211335941
 30
0.0
 10
115.5457464988913
 20
-142.4126681501607
 30
0.0
 10
115.5457464988913
 20
-142.4126681501607
 30
0.0
 10
115.5116400535874
 20
-142.3513454505233
 30
0.0
 10
115.47133243641
 20
-142.2690076684258
 30
0.0
 10
115.47133243641
 20
-142.1504963837332
 30
0.0
 10
115.47133243641
 20
-141.8965928464703
 30
0.0
 10
115.657712102162
 20
-141.6595702770851
 30
0.0
 10
115.9708712817712
 20
-141.6595702770851
 30
0.0
 10
116.2881645759627
 20
-141.6595702770851
 30
0.0
 10
116.5227755785082
 20
-141.8838459931749
 30
0.0
 10
116.5227755785082
 20
-142.1863253767798
 30
0.0
  0
HATCH
  5
8E
330
6C
100
AcDbEntity
  8
_U+30EC_U+30A4_U+30E4_U+30FC 1
 62
     7
420
 16777215
100
AcDbHatch
 10
0.0
 20
0.0
 30
0.0
210
0.0
220
0.0
230
1.0
  2
SOLID
 70
     1
 71
     0
 91
        1
 92
        1
 93
        1
 72
     4
 94
        3
 73
     0
 74
     1
 95
       53
 96
       49
 40
0.0
 40
0.0
 40
0.0
 40
0.0
 40
1.0
 40
1.0
 40
1.0
 40
2.0
 40
2.0
 40
2.0
 40
3.0
 40
3.0
 40
3.0
 40
4.0
 40
4.0
 40
4.0
 40
5.0
 40
5.0
 40
5.0
 40
6.0
 40
6.0
 40
6.0
 40
7.0
 40
7.0
 40
7.0
 40
8.0
 40
8.0
 40
8.0
 40
9.0
 40
9.0
 40
9.0
 40
10.0
 40
10.0
 40
10.0
 40
11.0
 40
11.0
 40
11.0
 40
12.0
 40
12.0
 40
12.0
 40
13.0
 40
13.0
 40
13.0
 40
14.0
 40
14.0
 40
14.0
 40
15.0
 40
15.0
 40
15.0
 40
16.0
 40
16.0
 40
16.0
 40
16.0
 10
116.5227755785082
 20
-142.1863253767798
 10
116.5227755785082
 20
-142.264529044295
 10
116.5058946106305
 20
-142.3661593611099
 10
116.4425048537019
 20
-142.4677896779247
 10
116.3326063077224
 20
-142.6410779808328
 10
116.2013481697344
 20
-142.6624375728414
 10
116.0935166810461
 20
-142.6813855980102
 10
116.0935166810461
 20
-142.6813855980102
 10
116.0935166810461
 20
-142.4591769392116
 10
116.0935166810461
 20
-142.4591769392116
 10
116.292298690545
 20
-142.4043999209961
 10
116.3219265117181
 20
-142.2772758975904
 10
116.3219265117181
 20
-142.1842583194887
 10
116.3219265117181
 20
-142.044731952336
 10
116.2223632521944
 20
-141.892458731888
 10
115.98981930694
 20
-141.892458731888
 10
115.733848712386
 20
-141.892458731888
 10
115.6642577835839
 20
-142.072292716218
 10
115.6642577835839
 20
-142.1928710582018
 10
115.6642577835839
 20
-142.2245659366661
 10
115.6642577835839
 20
-142.3661593611099
 10
115.7931043547323
 20
-142.4550428246293
 10
115.7931043547323
 20
-142.4550428246293
 10
115.7738118200149
 20
-142.630742694377
 10
115.7738118200149
 20
-142.630742694377
 10
115.7738118200149
 20
-142.630742694377
 10
114.9276963688375
 20
-142.5101643523933
 10
114.9276963688375
 20
-142.5101643523933
 10
114.9276963688375
 20
-142.5101643523933
 10
114.9276963688375
 20
-141.7315727727268
 10
114.9276963688375
 20
-141.7315727727268
 10
114.9276963688375
 20
-141.7315727727268
 10
115.1226887733027
 20
-141.7315727727268
 10
115.1226887733027
 20
-141.7315727727268
 10
115.1226887733027
 20
-141.7315727727268
 10
115.1226887733027
 20
-142.347211335941
 10
115.1226887733027
 20
-142.347211335941
 10
115.1226887733027
 20
-142.347211335941
 10
115.5457464988913
 20
-142.4126681501607
 10
115.5457464988913
 20
-142.4126681501607
 10
115.5116400535874
 20
-142.3513454505233
 10
115.47133243641
 20
-142.2690076684258
 10
115.47133243641
 20
-142.1504963837332
 10
115.47133243641
 20
-141.8965928464703
 10
115.657712102162
 20
-141.6595702770851
 10
115.9708712817712
 20
-141.6595702770851
 10
116.2881645759627
 20
-141.6595702770851
 10
116.5227755785082
 20
-141.8838459931749
 10
116.5227755785082
 20
-142.1863253767798
 97
        0
 97
        0
 75
     2
 76
     1
 98
        0
  0
ENDBLK
  5
6F
330
6C
100
AcDbEntity
  8
0
100
AcDbBlockEnd
  0
BLOCK
  5
91
330
8F
100
AcDbEntity
  8
0
100
AcDbBlockBegin
  2
block 4
 70
     0
 10
0.0
 20
0.0
 30
0.0
  3
block 4
  1

  0
SPLINE
  5
93
330
8F
100
AcDbEntity
  8
_U+30EC_U+30A4_U+30E4_U+30FC 1
370
     0
100
AcDbSpline
210
0.0
220
0.0
230
1.0
 70
    11
 71
     3
 72
    26
 73
    22
 74
     0
 42
0.0000000001
 43
0.0000000001
 12
1.0
 22
0.0
 32
0.0
 13
1.0
 23
0.0
 33
0.0
 40
0.0
 40
0.0
 40
0.0
 40
0.0
 40
1.0
 40
1.0
 40
1.0
 40
2.0
 40
2.0
 40
2.0
 40
3.0
 40
3.0
 40
3.0
 40
4.0
 40
4.0
 40
4.0
 40
5.0
 40
5.0
 40
5.0
 40
6.0
 40
6.0
 40
6.0
 40
7.0
 40
7.0
 40
7.0
 40
7.0
 10
116.472132674875
 20
-138.6209960590948
 30
0.0
 10
116.472132674875
 20
-138.6209960590948
 30
0.0
 10
115.3679795718525
 20
-138.6209960590948
 30
0.0
 10
115.3679795718525
 20
-138.6209960590948
 30
0.0
 10
115.3679795718525
 20
-138.6209960590948
 30
0.0
 10
115.3679795718525
 20
-138.9510362065817
 30
0.0
 10
115.3679795718525
 20
-138.9510362065817
 30
0.0
 10
115.3679795718525
 20
-138.9510362065817
 30
0.0
 10
115.2198404659867
 20
-138.9510362065817
 30
0.0
 10
115.2198404659867
 20
-138.9510362065817
 30
0.0
 10
115.2050265554001
 20
-138.6189290018036
 30
0.0
 10
115.0420735389478
 20
-138.5724202127527
 30
0.0
 10
114.9276963688375
 20
-138.5427923915796
 30
0.0
 10
114.9276963688375
 20
-138.5427923915796
 30
0.0
 10
114.9276963688375
 20
-138.396720343005
 30
0.0
 10
114.9276963688375
 20
-138.396720343005
 30
0.0
 10
114.9276963688375
 20
-138.396720343005
 30
0.0
 10
116.472132674875
 20
-138.396720343005
 30
0.0
 10
116.472132674875
 20
-138.396720343005
 30
0.0
 10
116.472132674875
 20
-138.396720343005
 30
0.0
 10
116.472132674875
 20
-138.6209960590948
 30
0.0
 10
116.472132674875
 20
-138.6209960590948
 30
0.0
  0
HATCH
  5
94
330
8F
100
AcDbEntity
  8
_U+30EC_U+30A4_U+30E4_U+30FC 1
 62
     7
420
 16777215
100
AcDbHatch
 10
0.0
 20
0.0
 30
0.0
210
0.0
220
0.0
230
1.0
  2
SOLID
 70
     1
 71
     0
 91
        1
 92
        1
 93
        1
 72
     4
 94
        3
 73
     0
 74
     1
 95
       26
 96
       22
 40
0.0
 40
0.0
 40
0.0
 40
0.0
 40
1.0
 40
1.0
 40
1.0
 40
2.0
 40
2.0
 40
2.0
 40
3.0
 40
3.0
 40
3.0
 40
4.0
 40
4.0
 40
4.0
 40
5.0
 40
5.0
 40
5.0
 40
6.0
 40
6.0
 40
6.0
 40
7.0
 40
7.0
 40
7.0
 40
7.0
 10
116.472132674875
 20
-138.6209960590948
 10
116.472132674875
 20
-138.6209960590948
 10
115.3679795718525
 20
-138.6209960590948
 10
115.3679795718525
 20
-138.6209960590948
 10
115.3679795718525
 20
-138.6209960590948
 10
115.3679795718525
 20
-138.9510362065817
 10
115.3679795718525
 20
-138.9510362065817
 10
115.3679795718525
 20
-138.9510362065817
 10
115.2198404659867
 20
-138.9510362065817
 10
115.2198404659867
 20
-138.9510362065817
 10
115.2050265554001
 20
-138.6189290018036
 10
115.0420735389478
 20
-138.5724202127527
 10
114.9276963688375
 20
-138.5427923915796
 10
114.9276963688375
 20
-138.5427923915796
 10
114.9276963688375
 20
-138.396720343005
 10
114.9276963688375
 20
-138.396720343005
 10
114.9276963688375
 20
-138.396720343005
 10
116.472132674875
 20
-138.396720343005
 10
116.472132674875
 20
-138.396720343005
 10
116.472132674875
 20
-138.396720343005
 10
116.472132674875
 20
-138.6209960590948
 10
116.472132674875
 20
-138.6209960590948
 97
        0
 97
        0
 75
     2
 76
     1
 98
        0
  0
ENDBLK
  5
92
330
8F
100
AcDbEntity
  8
0
100
AcDbBlockEnd
  0
BLOCK
  5
97
330
95
100
AcDbEntity
  8
0
100
AcDbBlockBegin
  2
block 5
 70
     0
 10
0.0
 20
0.0
 30
0.0
  3
block 5
  1

  0
SPLINE
  5
99
330
95
100
AcDbEntity
  8
_U+30EC_U+30A4_U+30E4_U+30FC 1
370
     0
100
AcDbSpline
210
0.0
220
0.0
230
1.0
 70
    11
 71
     3
 72
    44
 73
    40
 74
     0
 42
0.0000000001
 43
0.0000000001
 12
1.0
 22
0.0
 32
0.0
 13
1.0
 23
0.0
 33
0.0
 40
0.0
 40
0.0
 40
0.0
 40
0.0
 40
1.0
 40
1.0
 40
1.0
 40
2.0
 40
2.0
 40
2.0
 40
3.0
 40
3.0
 40
3.0
 40
4.0
 40
4.0
 40
4.0
 40
5.0
 40
5.0
 40
5.0
 40
6.0
 40
6.0
 40
6.0
 40
7.0
 40
7.0
 40
7.0
 40
8.0
 40
8.0
 40
8.0
 40
9.0
 40
9.0
 40
9.0
 40
10.0
 40
10.0
 40
10.0
 40
11.0
 40
11.0
 40
11.0
 40
12.0
 40
12.0
 40
12.0
 40
13.0
 40
13.0
 40
13.0
 40
13.0
 10
66.12722980117653
 20
-115.8134304180953
 30
0.0
 10
66.28587644827229
 20
-116.031160452763
 30
0.0
 10
66.35994600120516
 20
-116.1241780308648
 30
0.0
 10
66.50377873771434
 20
-116.1730983867553
 30
0.0
 10
66.50377873771434
 20
-116.1730983867553
 30
0.0
 10
66.50377873771434
 20
-115.3945068070889
 30
0.0
 10
66.50377873771434
 20
-115.3945068070889
 30
0.0
 10
66.50377873771434
 20
-115.3945068070889
 30
0.0
 10
66.70893417386097
 20
-115.3945068070889
 30
0.0
 10
66.70893417386097
 20
-115.3945068070889
 30
0.0
 10
66.70893417386097
 20
-115.3945068070889
 30
0.0
 10
66.70893417386097
 20
-116.4225232998874
 30
0.0
 10
66.70893417386097
 20
-116.4225232998874
 30
0.0
 10
66.35133326249203
 20
-116.3908284214231
 30
0.0
 10
66.27312959497687
 20
-116.3253716072034
 30
0.0
 10
65.97478432595422
 20
-115.9402099319525
 30
0.0
 10
65.7760023164553
 20
-115.6842393373984
 30
0.0
 10
65.70830619017015
 20
-115.6187825231786
 30
0.0
 10
65.57084688030868
 20
-115.6187825231786
 30
0.0
 10
65.45233559561609
 20
-115.6187825231786
 30
0.0
 10
65.32124971240233
 20
-115.6907850188204
 30
0.0
 10
65.32124971240233
 20
-115.8874999710281
 30
0.0
 10
65.32124971240233
 20
-116.1476046801645
 30
0.0
 10
65.55172660036554
 20
-116.1558729093291
 30
0.0
 10
65.66817082776699
 20
-116.1603515334599
 30
0.0
 10
65.66817082776699
 20
-116.1603515334599
 30
0.0
 10
65.66817082776699
 20
-116.3846272495497
 30
0.0
 10
65.66817082776699
 20
-116.3846272495497
 30
0.0
 10
65.54121905913553
 20
-116.3760145108366
 30
0.0
 10
65.42908120109065
 20
-116.3653347148323
 30
0.0
 10
65.31056991639805
 20
-116.285063990026
 30
0.0
 10
65.14985621201114
 20
-116.1751654440465
 30
0.0
 10
65.11592202148144
 20
-115.9887857782945
 30
0.0
 10
65.11592202148144
 20
-115.8726860604416
 30
0.0
 10
65.11592202148144
 20
-115.5953558738789
 30
0.0
 10
65.30006237516804
 20
-115.3879611256669
 30
0.0
 10
65.57291393759984
 20
-115.3879611256669
 30
0.0
 10
65.8013237682719
 20
-115.3879611256669
 30
0.0
 10
65.90088702779562
 20
-115.5044053530683
 30
0.0
 10
66.12722980117653
 20
-115.8134304180953
 30
0.0
  0
HATCH
  5
9A
330
95
100
AcDbEntity
  8
_U+30EC_U+30A4_U+30E4_U+30FC 1
 62
     7
420
 16777215
100
AcDbHatch
 10
0.0
 20
0.0
 30
0.0
210
0.0
220
0.0
230
1.0
  2
SOLID
 70
     1
 71
     0
 91
        1
 92
        1
 93
        1
 72
     4
 94
        3
 73
     0
 74
     1
 95
       44
 96
       40
 40
0.0
 40
0.0
 40
0.0
 40
0.0
 40
1.0
 40
1.0
 40
1.0
 40
2.0
 40
2.0
 40
2.0
 40
3.0
 40
3.0
 40
3.0
 40
4.0
 40
4.0
 40
4.0
 40
5.0
 40
5.0
 40
5.0
 40
6.0
 40
6.0
 40
6.0
 40
7.0
 40
7.0
 40
7.0
 40
8.0
 40
8.0
 40
8.0
 40
9.0
 40
9.0
 40
9.0
 40
10.0
 40
10.0
 40
10.0
 40
11.0
 40
11.0
 40
11.0
 40
12.0
 40
12.0
 40
12.0
 40
13.0
 40
13.0
 40
13.0
 40
13.0
 10
66.12722980117653
 20
-115.8134304180953
 10
66.28587644827229
 20
-116.031160452763
 10
66.35994600120516
 20
-116.1241780308648
 10
66.50377873771434
 20
-116.1730983867553
 10
66.50377873771434
 20
-116.1730983867553
 10
66.50377873771434
 20
-115.3945068070889
 10
66.50377873771434
 20
-115.3945068070889
 10
66.50377873771434
 20
-115.3945068070889
 10
66.70893417386097
 20
-115.3945068070889
 10
66.70893417386097
 20
-115.3945068070889
 10
66.70893417386097
 20
-115.3945068070889
 10
66.70893417386097
 20
-116.4225232998874
 10
66.70893417386097
 20
-116.4225232998874
 10
66.35133326249203
 20
-116.3908284214231
 10
66.27312959497687
 20
-116.3253716072034
 10
65.97478432595422
 20
-115.9402099319525
 10
65.7760023164553
 20
-115.6842393373984
 10
65.70830619017015
 20
-115.6187825231786
 10
65.57084688030868
 20
-115.6187825231786
 10
65.45233559561609
 20
-115.6187825231786
 10
65.32124971240233
 20
-115.6907850188204
 10
65.32124971240233
 20
-115.8874999710281
 10
65.32124971240233
 20
-116.1476046801645
 10
65.55172660036554
 20
-116.1558729093291
 10
65.66817082776699
 20
-116.1603515334599
 10
65.66817082776699
 20
-116.1603515334599
 10
65.66817082776699
 20
-116.3846272495497
 10
65.66817082776699
 20
-116.3846272495497
 10
65.54121905913553
 20
-116.3760145108366
 10
65.42908120109065
 20
-116.3653347148323
 10
65.31056991639805
 20
-116.285063990026
 10
65.14985621201114
 20
-116.1751654440465
 10
65.11592202148144
 20
-115.9887857782945
 10
65.11592202148144
 20
-115.8726860604416
 10
65.11592202148144
 20
-115.5953558738789
 10
65.30006237516804
 20
-115.3879611256669
 10
65.57291393759984
 20
-115.3879611256669
 10
65.8013237682719
 20
-115.3879611256669
 10
65.90088702779562
 20
-115.5044053530683
 10
66.12722980117653
 20
-115.8134304180953
 97
        0
 97
        0
 75
     2
 76
     1
 98
        0
  0
SPLINE
  5
9B
330
95
100
AcDbEntity
  8
_U+30EC_U+30A4_U+30E4_U+30FC 1
370
     0
100
AcDbSpline
210
0.0
220
0.0
230
1.0
 70
    11
 71
     3
 72
    29
 73
    25
 74
     0
 42
0.0000000001
 43
0.0000000001
 12
1.0
 22
0.0
 32
0.0
 13
1.0
 23
0.0
 33
0.0
 40
0.0
 40
0.0
 40
0.0
 40
0.0
 40
1.0
 40
1.0
 40
1.0
 40
2.0
 40
2.0
 40
2.0
 40
3.0
 40
3.0
 40
3.0
 40
4.0
 40
4.0
 40
4.0
 40
5.0
 40
5.0
 40
5.0
 40
6.0
 40
6.0
 40
6.0
 40
7.0
 40
7.0
 40
7.0
 40
8.0
 40
8.0
 40
8.0
 40
8.0
 10
66.53116724682208
 20
-114.3316948498893
 30
0.0
 10
66.74062905232526
 20
-114.4398708481261
 30
0.0
 10
66.7597493322684
 20
-114.6131591510342
 30
0.0
 10
66.7597493322684
 20
-114.7296033784357
 30
0.0
 10
66.7597493322684
 20
-114.8904893375968
 30
0.0
 10
66.71324054321752
 20
-115.0320827620406
 30
0.0
 10
66.53116724682208
 20
-115.1271673974335
 30
0.0
 10
66.33651935190545
 20
-115.2308647715395
 30
0.0
 10
66.09966903729453
 20
-115.2498127967084
 30
0.0
 10
65.93671602084221
 20
-115.2498127967084
 30
0.0
 10
65.79288328433303
 20
-115.2498127967084
 30
0.0
 10
65.54121905913553
 20
-115.2329318288307
 30
0.0
 10
65.34226479486236
 20
-115.1271673974335
 30
0.0
 10
65.13917641600688
 20
-115.0193359087452
 30
0.0
 10
65.11592202148144
 20
-114.858449949584
 30
0.0
 10
65.11592202148144
 20
-114.7296033784357
 30
0.0
 10
65.11592202148144
 20
-114.5707844765656
 30
0.0
 10
65.16036375324116
 20
-114.4271239948307
 30
0.0
 10
65.34226479486236
 20
-114.3316948498893
 30
0.0
 10
65.53484563248782
 20
-114.2324760999141
 30
0.0
 10
65.76325546315988
 20
-114.2090494506144
 30
0.0
 10
65.93671602084221
 20
-114.2090494506144
 30
0.0
 10
66.10810952123339
 20
-114.2090494506144
 30
0.0
 10
66.33875866397086
 20
-114.230409042623
 30
0.0
 10
66.53116724682208
 20
-114.3316948498893
 30
0.0
  0
SPLINE
  5
9C
330
95
100
AcDbEntity
  8
_U+30EC_U+30A4_U+30E4_U+30FC 1
370
     0
100
AcDbSpline
210
0.0
220
0.0
230
1.0
 70
    11
 71
     3
 72
    17
 73
    13
 74
     0
 42
0.0000000001
 43
0.0000000001
 12
1.0
 22
0.0
 32
0.0
 13
1.0
 23
0.0
 33
0.0
 40
0.0
 40
0.0
 40
0.0
 40
0.0
 40
1.0
 40
1.0
 40
1.0
 40
2.0
 40
2.0
 40
2.0
 40
3.0
 40
3.0
 40
3.0
 40
4.0
 40
4.0
 40
4.0
 40
4.0
 10
65.30850285910691
 20
-114.7296033784357
 30
0.0
 10
65.30850285910691
 20
-114.9790282915677
 30
0.0
 10
65.59203421754296
 20
-115.0258815901671
 30
0.0
 10
65.93671602084221
 20
-115.0258815901671
 30
0.0
 10
66.25624862709914
 20
-115.0258815901671
 30
0.0
 10
66.56510143735179
 20
-114.989708087572
 30
0.0
 10
66.56510143735179
 20
-114.7296033784357
 30
0.0
 10
66.56510143735179
 20
-114.4819010130462
 30
0.0
 10
66.28363713620688
 20
-114.4333251667042
 30
0.0
 10
65.93671602084221
 20
-114.4333251667042
 30
0.0
 10
65.61735566935955
 20
-114.4333251667042
 30
0.0
 10
65.30850285910691
 20
-114.4715657265904
 30
0.0
 10
65.30850285910691
 20
-114.7296033784357
 30
0.0
  0
HATCH
  5
9D
330
95
100
AcDbEntity
  8
_U+30EC_U+30A4_U+30E4_U+30FC 1
 62
     7
420
 16777215
100
AcDbHatch
 10
0.0
 20
0.0
 30
0.0
210
0.0
220
0.0
230
1.0
  2
SOLID
 70
     1
 71
     0
 91
        2
 92
        1
 93
        1
 72
     4
 94
        3
 73
     0
 74
     1
 95
       29
 96
       25
 40
0.0
 40
0.0
 40
0.0
 40
0.0
 40
1.0
 40
1.0
 40
1.0
 40
2.0
 40
2.0
 40
2.0
 40
3.0
 40
3.0
 40
3.0
 40
4.0
 40
4.0
 40
4.0
 40
5.0
 40
5.0
 40
5.0
 40
6.0
 40
6.0
 40
6.0
 40
7.0
 40
7.0
 40
7.0
 40
8.0
 40
8.0
 40
8.0
 40
8.0
 10
66.53116724682208
 20
-114.3316948498893
 10
66.74062905232526
 20
-114.4398708481261
 10
66.7597493322684
 20
-114.6131591510342
 10
66.7597493322684
 20
-114.7296033784357
 10
66.7597493322684
 20
-114.8904893375968
 10
66.71324054321752
 20
-115.0320827620406
 10
66.53116724682208
 20
-115.1271673974335
 10
66.33651935190545
 20
-115.2308647715395
 10
66.09966903729453
 20
-115.2498127967084
 10
65.93671602084221
 20
-115.2498127967084
 10
65.79288328433303
 20
-115.2498127967084
 10
65.54121905913553
 20
-115.2329318288307
 10
65.34226479486236
 20
-115.1271673974335
 10
65.13917641600688
 20
-115.0193359087452
 10
65.11592202148144
 20
-114.858449949584
 10
65.11592202148144
 20
-114.7296033784357
 10
65.11592202148144
 20
-114.5707844765656
 10
65.16036375324116
 20
-114.4271239948307
 10
65.34226479486236
 20
-114.3316948498893
 10
65.53484563248782
 20
-114.2324760999141
 10
65.76325546315988
 20
-114.2090494506144
 10
65.93671602084221
 20
-114.2090494506144
 10
66.10810952123339
 20
-114.2090494506144
 10
66.33875866397086
 20
-114.230409042623
 10
66.53116724682208
 20
-114.3316948498893
 97
        0
 97
        0
 92
        1
 93
        1
 72
     4
 94
        3
 73
     0
 74
     1
 95
       17
 96
       13
 40
0.0
 40
0.0
 40
0.0
 40
0.0
 40
1.0
 40
1.0
 40
1.0
 40
2.0
 40
2.0
 40
2.0
 40
3.0
 40
3.0
 40
3.0
 40
4.0
 40
4.0
 40
4.0
 40
4.0
 10
65.30850285910691
 20
-114.7296033784357
 10
65.30850285910691
 20
-114.9790282915677
 10
65.59203421754296
 20
-115.0258815901671
 10
65.93671602084221
 20
-115.0258815901671
 10
66.25624862709914
 20
-115.0258815901671
 10
66.56510143735179
 20
-114.989708087572
 10
66.56510143735179
 20
-114.7296033784357
 10
66.56510143735179
 20
-114.4819010130462
 10
66.28363713620688
 20
-114.4333251667042
 10
65.93671602084221
 20
-114.4333251667042
 10
65.61735566935955
 20
-114.4333251667042
 10
65.30850285910691
 20
-114.4715657265904
 10
65.30850285910691
 20
-114.7296033784357
 97
        0
 97
        0
 75
     2
 76
     1
 98
        0
  0
ENDBLK
  5
98
330
95
100
AcDbEntity
  8
0
100
AcDbBlockEnd
  0
BLOCK
  5
B4
330
B2
100
AcDbEntity
  8
0
100
AcDbBlockBegin
  2
block 6
 70
     0
 10
0.0
 20
0.0
 30
0.0
  3
block 6
  1

  0
SPLINE
  5
B6
330
B2
100
AcDbEntity
  8
_U+30EC_U+30A4_U+30E4_U+30FC 1
370
     0
100
AcDbSpline
210
0.0
220
0.0
230
1.0
 70
    11
 71
     3
 72
    44
 73
    40
 74
     0
 42
0.0000000001
 43
0.0000000001
 12
1.0
 22
0.0
 32
0.0
 13
1.0
 23
0.0
 33
0.0
 40
0.0
 40
0.0
 40
0.0
 40
0.0
 40
1.0
 40
1.0
 40
1.0
 40
2.0
 40
2.0
 40
2.0
 40
3.0
 40
3.0
 40
3.0
 40
4.0
 40
4.0
 40
4.0
 40
5.0
 40
5.0
 40
5.0
 40
6.0
 40
6.0
 40
6.0
 40
7.0
 40
7.0
 40
7.0
 40
8.0
 40
8.0
 40
8.0
 40
9.0
 40
9.0
 40
9.0
 40
10.0
 40
10.0
 40
10.0
 40
11.0
 40
11.0
 40
11.0
 40
12.0
 40
12.0
 40
12.0
 40
13.0
 40
13.0
 40
13.0
 40
13.0
 10
66.80901419770747
 20
-150.7053574927056
 30
0.0
 10
66.78558754840778
 20
-150.6609157609459
 30
0.0
 10
66.76457246594775
 20
-150.6082058000216
 30
0.0
 10
66.76233315388234
 20
-150.3773844025098
 30
0.0
 10
66.75819903930004
 20
-150.1341606612512
 30
0.0
 10
66.69894339695374
 20
-150.0642252229006
 30
0.0
 10
66.52117646991485
 20
-150.0642252229006
 30
0.0
 10
66.52117646991485
 20
-150.0642252229006
 30
0.0
 10
66.11293265491274
 20
-150.0642252229006
 30
0.0
 10
66.11293265491274
 20
-150.0642252229006
 30
0.0
 10
66.11293265491274
 20
-150.0642252229006
 30
0.0
 10
66.11293265491274
 20
-150.7053574927056
 30
0.0
 10
66.11293265491274
 20
-150.7053574927056
 30
0.0
 10
66.11293265491274
 20
-150.7053574927056
 30
0.0
 10
65.87814939759296
 20
-150.7053574927056
 30
0.0
 10
65.87814939759296
 20
-150.7053574927056
 30
0.0
 10
65.87814939759296
 20
-150.7053574927056
 30
0.0
 10
65.87814939759296
 20
-149.1609211866681
 30
0.0
 10
65.87814939759296
 20
-149.1609211866681
 30
0.0
 10
65.87814939759296
 20
-149.1609211866681
 30
0.0
 10
66.55287134837914
 20
-149.1609211866681
 30
0.0
 10
66.55287134837914
 20
-149.1609211866681
 30
0.0
 10
66.85965710134064
 20
-149.1609211866681
 30
0.0
 10
67.02691648714952
 20
-149.3324869418336
 30
0.0
 10
67.02691648714952
 20
-149.5884575363876
 30
0.0
 10
67.02691648714952
 20
-149.6391004400208
 30
0.0
 10
67.0183037484364
 20
-149.7217827316668
 30
0.0
 10
66.97386201667668
 20
-149.8020534564731
 30
0.0
 10
66.91477862910465
 20
-149.9057508305791
 30
0.0
 10
66.84914956011063
 20
-149.924698855748
 30
0.0
 10
66.78782686047319
 20
-149.9415798236257
 30
0.0
 10
66.92528617033466
 20
-149.9839544980943
 30
0.0
 10
66.99298229661981
 20
-150.0325303444363
 30
0.0
 10
66.99728866597637
 20
-150.3477565813367
 30
0.0
 10
67.00142278055867
 20
-150.6185410864773
 30
0.0
 10
67.03742402837953
 20
-150.6502359649416
 30
0.0
 10
67.10512015466469
 20
-150.7053574927056
 30
0.0
 10
67.10512015466469
 20
-150.7053574927056
 30
0.0
 10
66.80901419770747
 20
-150.7053574927056
 30
0.0
 10
66.80901419770747
 20
-150.7053574927056
 30
0.0
  0
SPLINE
  5
B7
330
B2
100
AcDbEntity
  8
_U+30EC_U+30A4_U+30E4_U+30FC 1
370
     0
100
AcDbSpline
210
0.0
220
0.0
230
1.0
 70
    11
 71
     3
 72
    20
 73
    16
 74
     0
 42
0.0000000001
 43
0.0000000001
 12
1.0
 22
0.0
 32
0.0
 13
1.0
 23
0.0
 33
0.0
 40
0.0
 40
0.0
 40
0.0
 40
0.0
 40
1.0
 40
1.0
 40
1.0
 40
2.0
 40
2.0
 40
2.0
 40
3.0
 40
3.0
 40
3.0
 40
4.0
 40
4.0
 40
4.0
 40
5.0
 40
5.0
 40
5.0
 40
5.0
 10
66.55717771773571
 20
-149.3724500494625
 30
0.0
 10
66.55717771773571
 20
-149.3724500494625
 30
0.0
 10
66.11293265491274
 20
-149.3724500494625
 30
0.0
 10
66.11293265491274
 20
-149.3724500494625
 30
0.0
 10
66.11293265491274
 20
-149.3724500494625
 30
0.0
 10
66.11293265491274
 20
-149.8526963601063
 30
0.0
 10
66.11293265491274
 20
-149.8526963601063
 30
0.0
 10
66.11293265491274
 20
-149.8526963601063
 30
0.0
 10
66.55511066044456
 20
-149.8526963601063
 30
0.0
 10
66.55511066044456
 20
-149.8526963601063
 30
0.0
 10
66.65450166519402
 20
-149.8526963601063
 30
0.0
 10
66.78989391776433
 20
-149.7765597498823
 30
0.0
 10
66.78989391776433
 20
-149.6053385042653
 30
0.0
 10
66.78989391776433
 20
-149.5271348367502
 30
0.0
 10
66.75613198200888
 20
-149.3724500494625
 30
0.0
 10
66.55717771773571
 20
-149.3724500494625
 30
0.0
  0
HATCH
  5
B8
330
B2
100
AcDbEntity
  8
_U+30EC_U+30A4_U+30E4_U+30FC 1
 62
     7
420
 16777215
100
AcDbHatch
 10
0.0
 20
0.0
 30
0.0
210
0.0
220
0.0
230
1.0
  2
SOLID
 70
     1
 71
     0
 91
        2
 92
        1
 93
        1
 72
     4
 94
        3
 73
     0
 74
     1
 95
       44
 96
       40
 40
0.0
 40
0.0
 40
0.0
 40
0.0
 40
1.0
 40
1.0
 40
1.0
 40
2.0
 40
2.0
 40
2.0
 40
3.0
 40
3.0
 40
3.0
 40
4.0
 40
4.0
 40
4.0
 40
5.0
 40
5.0
 40
5.0
 40
6.0
 40
6.0
 40
6.0
 40
7.0
 40
7.0
 40
7.0
 40
8.0
 40
8.0
 40
8.0
 40
9.0
 40
9.0
 40
9.0
 40
10.0
 40
10.0
 40
10.0
 40
11.0
 40
11.0
 40
11.0
 40
12.0
 40
12.0
 40
12.0
 40
13.0
 40
13.0
 40
13.0
 40
13.0
 10
66.80901419770747
 20
-150.7053574927056
 10
66.78558754840778
 20
-150.6609157609459
 10
66.76457246594775
 20
-150.6082058000216
 10
66.76233315388234
 20
-150.3773844025098
 10
66.75819903930004
 20
-150.1341606612512
 10
66.69894339695374
 20
-150.0642252229006
 10
66.52117646991485
 20
-150.0642252229006
 10
66.52117646991485
 20
-150.0642252229006
 10
66.11293265491274
 20
-150.0642252229006
 10
66.11293265491274
 20
-150.0642252229006
 10
66.11293265491274
 20
-150.0642252229006
 10
66.11293265491274
 20
-150.7053574927056
 10
66.11293265491274
 20
-150.7053574927056
 10
66.11293265491274
 20
-150.7053574927056
 10
65.87814939759296
 20
-150.7053574927056
 10
65.87814939759296
 20
-150.7053574927056
 10
65.87814939759296
 20
-150.7053574927056
 10
65.87814939759296
 20
-149.1609211866681
 10
65.87814939759296
 20
-149.1609211866681
 10
65.87814939759296
 20
-149.1609211866681
 10
66.55287134837914
 20
-149.1609211866681
 10
66.55287134837914
 20
-149.1609211866681
 10
66.85965710134064
 20
-149.1609211866681
 10
67.02691648714952
 20
-149.3324869418336
 10
67.02691648714952
 20
-149.5884575363876
 10
67.02691648714952
 20
-149.6391004400208
 10
67.0183037484364
 20
-149.7217827316668
 10
66.97386201667668
 20
-149.8020534564731
 10
66.91477862910465
 20
-149.9057508305791
 10
66.84914956011063
 20
-149.924698855748
 10
66.78782686047319
 20
-149.9415798236257
 10
66.92528617033466
 20
-149.9839544980943
 10
66.99298229661981
 20
-150.0325303444363
 10
66.99728866597637
 20
-150.3477565813367
 10
67.00142278055867
 20
-150.6185410864773
 10
67.03742402837953
 20
-150.6502359649416
 10
67.10512015466469
 20
-150.7053574927056
 10
67.10512015466469
 20
-150.7053574927056
 10
66.80901419770747
 20
-150.7053574927056
 10
66.80901419770747
 20
-150.7053574927056
 97
        0
 97
        0
 92
        1
 93
        1
 72
     4
 94
        3
 73
     0
 74
     1
 95
       20
 96
       16
 40
0.0
 40
0.0
 40
0.0
 40
0.0
 40
1.0
 40
1.0
 40
1.0
 40
2.0
 40
2.0
 40
2.0
 40
3.0
 40
3.0
 40
3.0
 40
4.0
 40
4.0
 40
4.0
 40
5.0
 40
5.0
 40
5.0
 40
5.0
 10
66.55717771773571
 20
-149.3724500494625
 10
66.55717771773571
 20
-149.3724500494625
 10
66.11293265491274
 20
-149.3724500494625
 10
66.11293265491274
 20
-149.3724500494625
 10
66.11293265491274
 20
-149.3724500494625
 10
66.11293265491274
 20
-149.8526963601063
 10
66.11293265491274
 20
-149.8526963601063
 10
66.11293265491274
 20
-149.8526963601063
 10
66.55511066044456
 20
-149.8526963601063
 10
66.55511066044456
 20
-149.8526963601063
 10
66.65450166519402
 20
-149.8526963601063
 10
66.78989391776433
 20
-149.7765597498823
 10
66.78989391776433
 20
-149.6053385042653
 10
66.78989391776433
 20
-149.5271348367502
 10
66.75613198200888
 20
-149.3724500494625
 10
66.55717771773571
 20
-149.3724500494625
 97
        0
 97
        0
 75
     2
 76
     1
 98
        0
  0
SPLINE
  5
B9
330
B2
100
AcDbEntity
  8
_U+30EC_U+30A4_U+30E4_U+30FC 1
370
     0
100
AcDbSpline
210
0.0
220
0.0
230
1.0
 70
    11
 71
     3
 72
    26
 73
    22
 74
     0
 42
0.0000000001
 43
0.0000000001
 12
1.0
 22
0.0
 32
0.0
 13
1.0
 23
0.0
 33
0.0
 40
0.0
 40
0.0
 40
0.0
 40
0.0
 40
1.0
 40
1.0
 40
1.0
 40
2.0
 40
2.0
 40
2.0
 40
3.0
 40
3.0
 40
3.0
 40
4.0
 40
4.0
 40
4.0
 40
5.0
 40
5.0
 40
5.0
 40
6.0
 40
6.0
 40
6.0
 40
7.0
 40
7.0
 40
7.0
 40
7.0
 10
67.69612628515931
 20
-150.7053574927056
 30
0.0
 10
67.69612628515931
 20
-150.7053574927056
 30
0.0
 10
67.69612628515931
 20
-149.601204389683
 30
0.0
 10
67.69612628515931
 20
-149.601204389683
 30
0.0
 10
67.69612628515931
 20
-149.601204389683
 30
0.0
 10
67.36608613767237
 20
-149.601204389683
 30
0.0
 10
67.36608613767237
 20
-149.601204389683
 30
0.0
 10
67.36608613767237
 20
-149.601204389683
 30
0.0
 10
67.36608613767237
 20
-149.4530652838173
 30
0.0
 10
67.36608613767237
 20
-149.4530652838173
 30
0.0
 10
67.69819334245045
 20
-149.4382513732307
 30
0.0
 10
67.74470213150133
 20
-149.2752983567784
 30
0.0
 10
67.77432995267448
 20
-149.1609211866681
 30
0.0
 10
67.77432995267448
 20
-149.1609211866681
 30
0.0
 10
67.92040200124907
 20
-149.1609211866681
 30
0.0
 10
67.92040200124907
 20
-149.1609211866681
 30
0.0
 10
67.92040200124907
 20
-149.1609211866681
 30
0.0
 10
67.92040200124907
 20
-150.7053574927056
 30
0.0
 10
67.92040200124907
 20
-150.7053574927056
 30
0.0
 10
67.92040200124907
 20
-150.7053574927056
 30
0.0
 10
67.69612628515931
 20
-150.7053574927056
 30
0.0
 10
67.69612628515931
 20
-150.7053574927056
 30
0.0
  0
HATCH
  5
BA
330
B2
100
AcDbEntity
  8
_U+30EC_U+30A4_U+30E4_U+30FC 1
 62
     7
420
 16777215
100
AcDbHatch
 10
0.0
 20
0.0
 30
0.0
210
0.0
220
0.0
230
1.0
  2
SOLID
 70
     1
 71
     0
 91
        1
 92
        1
 93
        1
 72
     4
 94
        3
 73
     0
 74
     1
 95
       26
 96
       22
 40
0.0
 40
0.0
 40
0.0
 40
0.0
 40
1.0
 40
1.0
 40
1.0
 40
2.0
 40
2.0
 40
2.0
 40
3.0
 40
3.0
 40
3.0
 40
4.0
 40
4.0
 40
4.0
 40
5.0
 40
5.0
 40
5.0
 40
6.0
 40
6.0
 40
6.0
 40
7.0
 40
7.0
 40
7.0
 40
7.0
 10
67.69612628515931
 20
-150.7053574927056
 10
67.69612628515931
 20
-150.7053574927056
 10
67.69612628515931
 20
-149.601204389683
 10
67.69612628515931
 20
-149.601204389683
 10
67.69612628515931
 20
-149.601204389683
 10
67.36608613767237
 20
-149.601204389683
 10
67.36608613767237
 20
-149.601204389683
 10
67.36608613767237
 20
-149.601204389683
 10
67.36608613767237
 20
-149.4530652838173
 10
67.36608613767237
 20
-149.4530652838173
 10
67.69819334245045
 20
-149.4382513732307
 10
67.74470213150133
 20
-149.2752983567784
 10
67.77432995267448
 20
-149.1609211866681
 10
67.77432995267448
 20
-149.1609211866681
 10
67.92040200124907
 20
-149.1609211866681
 10
67.92040200124907
 20
-149.1609211866681
 10
67.92040200124907
 20
-149.1609211866681
 10
67.92040200124907
 20
-150.7053574927056
 10
67.92040200124907
 20
-150.7053574927056
 10
67.92040200124907
 20
-150.7053574927056
 10
67.69612628515931
 20
-150.7053574927056
 10
67.69612628515931
 20
-150.7053574927056
 97
        0
 97
        0
 75
     2
 76
     1
 98
        0
  0
ENDBLK
  5
B5
330
B2
100
AcDbEntity
  8
0
100
AcDbBlockEnd
  0
ENDSEC
  0
SECTION
  2
ENTITIES
  0
SPLINE
  5
41
330
1F
100
AcDbEntity
  8
_U+30EC_U+30A4_U+30E4_U+30FC 1
 62
     7
420
 16777215
370
    25
100
AcDbSpline
210
0.0
220
0.0
230
1.0
 70
    11
 71
     3
 72
    53
 73
    49
 74
     0
 42
0.0000000001
 43
0.0000000001
 12
1.0
 22
0.0
 32
0.0
 13
1.0
 23
0.0
 33
0.0
 40
0.0
 40
0.0
 40
0.0
 40
0.0
 40
1.0
 40
1.0
 40
1.0
 40
2.0
 40
2.0
 40
2.0
 40
3.0
 40
3.0
 40
3.0
 40
4.0
 40
4.0
 40
4.0
 40
5.0
 40
5.0
 40
5.0
 40
6.0
 40
6.0
 40
6.0
 40
7.0
 40
7.0
 40
7.0
 40
8.0
 40
8.0
 40
8.0
 40
9.0
 40
9.0
 40
9.0
 40
10.0
 40
10.0
 40
10.0
 40
11.0
 40
11.0
 40
11.0
 40
12.0
 40
12.0
 40
12.0
 40
13.0
 40
13.0
 40
13.0
 40
14.0
 40
14.0
 40
14.0
 40
15.0
 40
15.0
 40
15.0
 40
16.0
 40
16.0
 40
16.0
 40
16.0
 10
90.80376296118078
 20
-145.4629424636343
 30
0.0
 10
90.80376296118078
 20
-145.4629424636343
 30
0.0
 10
72.31944442636458
 20
-145.4598380191908
 30
0.0
 10
72.31944442636458
 20
-145.4598380191908
 30
0.0
 10
72.31944442636458
 20
-145.4598380191908
 30
0.0
 10
70.803591804761
 20
-145.5776657969387
 30
0.0
 10
70.803591804761
 20
-144.3174730194764
 30
0.0
 10
70.803591804761
 20
-144.3174730194764
 30
0.0
 10
70.803591804761
 20
-125.4628060797455
 30
0.0
 10
70.803591804761
 20
-125.4628060797455
 30
0.0
 10
70.803591804761
 20
-125.4628060797455
 30
0.0
 10
75.30359164784072
 20
-125.4628060797455
 30
0.0
 10
75.30359164784072
 20
-125.4628060797455
 30
0.0
 10
75.30359164784072
 20
-125.4628060797455
 30
0.0
 10
75.30359164784072
 20
-105.4626344180788
 30
0.0
 10
75.30359164784072
 20
-105.4626344180788
 30
0.0
 10
75.30359164784072
 20
-105.4626344180788
 30
0.0
 10
76.30336386981293
 20
-105.4626344180788
 30
0.0
 10
76.30336386981293
 20
-105.4626344180788
 30
0.0
 10
76.30336386981293
 20
-105.4626344180788
 30
0.0
 10
76.30336386981293
 20
-126.4632485794954
 30
0.0
 10
76.30336386981293
 20
-126.4632485794954
 30
0.0
 10
76.30336386981293
 20
-126.4632485794954
 30
0.0
 10
71.80336400147691
 20
-126.4632485794954
 30
0.0
 10
71.80336400147691
 20
-126.4632485794954
 30
0.0
 10
71.80336400147691
 20
-126.4632485794954
 30
0.0
 10
71.80336400147691
 20
-143.6477244085324
 30
0.0
 10
71.80336400147691
 20
-143.6477244085324
 30
0.0
 10
71.80336400147691
 20
-143.6477244085324
 30
0.0
 10
71.73517205877218
 20
-144.4632055194399
 30
0.0
 10
72.43070870769424
 20
-144.4632055194399
 30
0.0
 10
72.43070870769424
 20
-144.4632055194399
 30
0.0
 10
89.8036379866961
 20
-144.4632055194399
 30
0.0
 10
89.8036379866961
 20
-144.4632055194399
 30
0.0
 10
89.8036379866961
 20
-144.4632055194399
 30
0.0
 10
89.8036379866961
 20
-139.96493607612
 30
0.0
 10
89.8036379866961
 20
-139.96493607612
 30
0.0
 10
89.8036379866961
 20
-139.96493607612
 30
0.0
 10
110.8038988398237
 20
-139.96493607612
 30
0.0
 10
110.8038988398237
 20
-139.96493607612
 30
0.0
 10
110.8038988398237
 20
-139.96493607612
 30
0.0
 10
110.8038988398237
 20
-140.9629796869812
 30
0.0
 10
110.8038988398237
 20
-140.9629796869812
 30
0.0
 10
110.8038988398237
 20
-140.9629796869812
 30
0.0
 10
90.80376296118078
 20
-140.9629796869812
 30
0.0
 10
90.80376296118078
 20
-140.9629796869812
 30
0.0
 10
90.80376296118078
 20
-140.9629796869812
 30
0.0
 10
90.80376296118078
 20
-145.4629424636343
 30
0.0
 10
90.80376296118078
 20
-145.4629424636343
 30
0.0
  0
HATCH
  5
42
330
1F
100
AcDbEntity
  8
_U+30EC_U+30A4_U+30E4_U+30FC 1
 62
   253
420
 10855845
100
AcDbHatch
 10
0.0
 20
0.0
 30
0.0
210
0.0
220
0.0
230
1.0
  2
SOLID
 70
     1
 71
     0
 91
        1
 92
        1
 93
        2
 72
     4
 94
        3
 73
     0
 74
     0
 95
       53
 96
       49
 40
0.0
 40
0.0
 40
0.0
 40
0.0
 40
0.3527777776895833
 40
0.3527777776895833
 40
0.3527777776895833
 40
0.7055555553791667
 40
0.7055555553791667
 40
0.7055555553791667
 40
1.05833333306875
 40
1.05833333306875
 40
1.05833333306875
 40
1.411111110758333
 40
1.411111110758333
 40
1.411111110758333
 40
1.763888888447917
 40
1.763888888447917
 40
1.763888888447917
 40
2.1166666661375
 40
2.1166666661375
 40
2.1166666661375
 40
2.469444443827083
 40
2.469444443827083
 40
2.469444443827083
 40
2.822222221516667
 40
2.822222221516667
 40
2.822222221516667
 40
3.17499999920625
 40
3.17499999920625
 40
3.17499999920625
 40
3.527777776895833
 40
3.527777776895833
 40
3.527777776895833
 40
3.880555554585417
 40
3.880555554585417
 40
3.880555554585417
 40
4.233333332275
 40
4.233333332275
 40
4.233333332275
 40
4.586111109964584
 40
4.586111109964584
 40
4.586111109964584
 40
4.938888887654167
 40
4.938888887654167
 40
4.938888887654167
 40
5.29166666534375
 40
5.29166666534375
 40
5.29166666534375
 40
5.644444443033334
 40
5.644444443033334
 40
5.644444443033334
 40
5.644444443033334
 10
90.80376296118078
 20
-145.4629424636343
 10
90.80376296118078
 20
-145.4629424636343
 10
72.31944442636458
 20
-145.4598380191908
 10
72.31944442636458
 20
-145.4598380191908
 10
72.31944442636458
 20
-145.4598380191908
 10
70.803591804761
 20
-145.5776657969387
 10
70.803591804761
 20
-144.3174730194764
 10
70.803591804761
 20
-144.3174730194764
 10
70.803591804761
 20
-125.4628060797455
 10
70.803591804761
 20
-125.4628060797455
 10
70.803591804761
 20
-125.4628060797455
 10
75.30359164784072
 20
-125.4628060797455
 10
75.30359164784072
 20
-125.4628060797455
 10
75.30359164784072
 20
-125.4628060797455
 10
75.30359164784072
 20
-105.4626344180788
 10
75.30359164784072
 20
-105.4626344180788
 10
75.30359164784072
 20
-105.4626344180788
 10
76.30336386981293
 20
-105.4626344180788
 10
76.30336386981293
 20
-105.4626344180788
 10
76.30336386981293
 20
-105.4626344180788
 10
76.30336386981293
 20
-126.4632485794954
 10
76.30336386981293
 20
-126.4632485794954
 10
76.30336386981293
 20
-126.4632485794954
 10
71.80336400147691
 20
-126.4632485794954
 10
71.80336400147691
 20
-126.4632485794954
 10
71.80336400147691
 20
-126.4632485794954
 10
71.80336400147691
 20
-143.6477244085324
 10
71.80336400147691
 20
-143.6477244085324
 10
71.80336400147691
 20
-143.6477244085324
 10
71.73517205877218
 20
-144.4632055194399
 10
72.43070870769424
 20
-144.4632055194399
 10
72.43070870769424
 20
-144.4632055194399
 10
89.8036379866961
 20
-144.4632055194399
 10
89.8036379866961
 20
-144.4632055194399
 10
89.8036379866961
 20
-144.4632055194399
 10
89.8036379866961
 20
-139.96493607612
 10
89.8036379866961
 20
-139.96493607612
 10
89.8036379866961
 20
-139.96493607612
 10
110.8038988398237
 20
-139.96493607612
 10
110.8038988398237
 20
-139.96493607612
 10
110.8038988398237
 20
-139.96493607612
 10
110.8038988398237
 20
-140.9629796869812
 10
110.8038988398237
 20
-140.9629796869812
 10
110.8038988398237
 20
-140.9629796869812
 10
90.80376296118078
 20
-140.9629796869812
 10
90.80376296118078
 20
-140.9629796869812
 10
90.80376296118078
 20
-140.9629796869812
 10
90.80376296118078
 20
-145.4629424636343
 10
90.80376296118078
 20
-145.4629424636343
 97
        0
 72
     1
 10
90.80376296118078
 20
-145.4629424636343
 11
90.80376296118078
 21
-145.4629424636343
 97
        0
 75
     2
 76
     1
 98
        0
  0
POLYLINE
  5
43
330
1F
100
AcDbEntity
  8
_U+30EC_U+30A4_U+30E4_U+30FC 1
 62
     7
420
 16777215
370
     9
100
AcDb2dPolyline
 66
     1
 10
0.0
 20
0.0
 30
0.0
  0
VERTEX
  5
44
330
43
100
AcDbEntity
  8
_U+30EC_U+30A4_U+30E4_U+30FC 1
 62
     7
420
 16777215
370
     9
100
AcDbVertex
100
AcDb2dVertex
 10
67.35092220538455
 20
-145.4598380191908
 30
0.0
  0
VERTEX
  5
45
330
43
100
AcDbEntity
  8
_U+30EC_U+30A4_U+30E4_U+30FC 1
 62
     7
420
 16777215
370
     9
100
AcDbVertex
100
AcDb2dVertex
 10
67.35092220538455
 20
-125.4600544130794
 30
0.0
  0
SEQEND
  5
46
330
43
100
AcDbEntity
  8
_U+30EC_U+30A4_U+30E4_U+30FC 1
 62
     7
420
 16777215
370
     9
  0
POLYLINE
  5
47
330
1F
100
AcDbEntity
  8
_U+30EC_U+30A4_U+30E4_U+30FC 1
 62
     7
420
 16777215
370
     9
100
AcDb2dPolyline
 66
     1
 10
0.0
 20
0.0
 30
0.0
  0
VERTEX
  5
48
330
47
100
AcDbEntity
  8
_U+30EC_U+30A4_U+30E4_U+30FC 1
 62
     7
420
 16777215
370
     9
100
AcDbVertex
100
AcDb2dVertex
 10
67.35092220538455
 20
-125.4631588575232
 30
0.0
  0
VERTEX
  5
49
330
47
100
AcDbEntity
  8
_U+30EC_U+30A4_U+30E4_U+30FC 1
 62
     7
420
 16777215
370
     9
100
AcDbVertex
100
AcDb2dVertex
 10
67.35092220538455
 20
-105.4633399736343
 30
0.0
  0
SEQEND
  5
4A
330
47
100
AcDbEntity
  8
_U+30EC_U+30A4_U+30E4_U+30FC 1
 62
     7
420
 16777215
370
     9
  0
POLYLINE
  5
4B
330
1F
100
AcDbEntity
  8
_U+30EC_U+30A4_U+30E4_U+30FC 1
 62
     7
420
 16777215
370
     9
100
AcDb2dPolyline
 66
     1
 10
0.0
 20
0.0
 30
0.0
  0
VERTEX
  5
4C
330
4B
100
AcDbEntity
  8
_U+30EC_U+30A4_U+30E4_U+30FC 1
 62
     7
420
 16777215
370
     9
100
AcDbVertex
100
AcDb2dVertex
 10
69.20610823440508
 20
-145.4598380191908
 30
0.0
  0
VERTEX
  5
4D
330
4B
100
AcDbEntity
  8
_U+30EC_U+30A4_U+30E4_U+30FC 1
 62
     7
420
 16777215
370
     9
100
AcDbVertex
100
AcDb2dVertex
 10
66.45105497135901
 20
-145.4598380191908
 30
0.0
  0
SEQEND
  5
4E
330
4B
100
AcDbEntity
  8
_U+30EC_U+30A4_U+30E4_U+30FC 1
 62
     7
420
 16777215
370
     9
  0
POLYLINE
  5
4F
330
1F
100
AcDbEntity
  8
_U+30EC_U+30A4_U+30E4_U+30FC 1
 62
     7
420
 16777215
370
     9
100
AcDb2dPolyline
 66
     1
 10
0.0
 20
0.0
 30
0.0
  0
VERTEX
  5
50
330
4F
100
AcDbEntity
  8
_U+30EC_U+30A4_U+30E4_U+30FC 1
 62
     7
420
 16777215
370
     9
100
AcDbVertex
100
AcDb2dVertex
 10
115.9233392647715
 20
-145.4601907969685
 30
0.0
  0
VERTEX
  5
51
330
4F
100
AcDbEntity
  8
_U+30EC_U+30A4_U+30E4_U+30FC 1
 62
     7
420
 16777215
370
     9
100
AcDbVertex
100
AcDb2dVertex
 10
91.96750626482455
 20
-145.4601907969685
 30
0.0
  0
SEQEND
  5
52
330
4F
100
AcDbEntity
  8
_U+30EC_U+30A4_U+30E4_U+30FC 1
 62
     7
420
 16777215
370
     9
  0
POLYLINE
  5
53
330
1F
100
AcDbEntity
  8
_U+30EC_U+30A4_U+30E4_U+30FC 1
 62
     7
420
 16777215
370
     9
100
AcDb2dPolyline
 66
     1
 10
0.0
 20
0.0
 30
0.0
  0
VERTEX
  5
54
330
53
100
AcDbEntity
  8
_U+30EC_U+30A4_U+30E4_U+30FC 1
 62
     7
420
 16777215
370
     9
100
AcDbVertex
100
AcDb2dVertex
 10
115.9233392647715
 20
-140.9553949647613
 30
0.0
  0
VERTEX
  5
55
330
53
100
AcDbEntity
  8
_U+30EC_U+30A4_U+30E4_U+30FC 1
 62
     7
420
 16777215
370
     9
100
AcDbVertex
100
AcDb2dVertex
 10
111.7561518710853
 20
-140.9553949647613
 30
0.0
  0
SEQEND
  5
56
330
53
100
AcDbEntity
  8
_U+30EC_U+30A4_U+30E4_U+30FC 1
 62
     7
420
 16777215
370
     9
  0
POLYLINE
  5
57
330
1F
100
AcDbEntity
  8
_U+30EC_U+30A4_U+30E4_U+30FC 1
 62
     7
420
 16777215
370
     9
100
AcDb2dPolyline
 66
     1
 10
0.0
 20
0.0
 30
0.0
  0
VERTEX
  5
58
330
57
100
AcDbEntity
  8
_U+30EC_U+30A4_U+30E4_U+30FC 1
 62
     7
420
 16777215
370
     9
100
AcDbVertex
100
AcDb2dVertex
 10
115.9233392647715
 20
-139.9580216316774
 30
0.0
  0
VERTEX
  5
59
330
57
100
AcDbEntity
  8
_U+30EC_U+30A4_U+30E4_U+30FC 1
 62
     7
420
 16777215
370
     9
100
AcDbVertex
100
AcDb2dVertex
 10
111.7561518710853
 20
-139.9580216316774
 30
0.0
  0
SEQEND
  5
5A
330
57
100
AcDbEntity
  8
_U+30EC_U+30A4_U+30E4_U+30FC 1
 62
     7
420
 16777215
370
     9
  0
POLYLINE
  5
5B
330
1F
100
AcDbEntity
  8
_U+30EC_U+30A4_U+30E4_U+30FC 1
 62
     7
420
 16777215
370
     9
100
AcDb2dPolyline
 66
     1
 10
0.0
 20
0.0
 30
0.0
  0
VERTEX
  5
5C
330
5B
100
AcDbEntity
  8
_U+30EC_U+30A4_U+30E4_U+30FC 1
 62
     7
420
 16777215
370
     9
100
AcDbVertex
100
AcDb2dVertex
 10
69.0245687945921
 20
-125.4655577464115
 30
0.0
  0
VERTEX
  5
5D
330
5B
100
AcDbEntity
  8
_U+30EC_U+30A4_U+30E4_U+30FC 1
 62
     7
420
 16777215
370
     9
100
AcDbVertex
100
AcDb2dVertex
 10
66.45105497135901
 20
-125.4655577464115
 30
0.0
  0
SEQEND
  5
5E
330
5B
100
AcDbEntity
  8
_U+30EC_U+30A4_U+30E4_U+30FC 1
 62
     7
420
 16777215
370
     9
  0
POLYLINE
  5
5F
330
1F
100
AcDbEntity
  8
_U+30EC_U+30A4_U+30E4_U+30FC 1
 62
     7
420
 16777215
370
     9
100
AcDb2dPolyline
 66
     1
 10
0.0
 20
0.0
 30
0.0
  0
VERTEX
  5
60
330
5F
100
AcDbEntity
  8
_U+30EC_U+30A4_U+30E4_U+30FC 1
 62
     7
420
 16777215
370
     9
100
AcDbVertex
100
AcDb2dVertex
 10
74.65521948427556
 20
-105.4626344180788
 30
0.0
  0
VERTEX
  5
61
330
5F
100
AcDbEntity
  8
_U+30EC_U+30A4_U+30E4_U+30FC 1
 62
     7
420
 16777215
370
     9
100
AcDbVertex
100
AcDb2dVertex
 10
66.45105497135901
 20
-105.4626344180788
 30
0.0
  0
SEQEND
  5
62
330
5F
100
AcDbEntity
  8
_U+30EC_U+30A4_U+30E4_U+30FC 1
 62
     7
420
 16777215
370
     9
  0
INSERT
  5
64
330
1F
100
AcDbEntity
  8
_U+30EC_U+30A4_U+30E4_U+30FC 1
100
AcDbBlockReference
  2
block 2
 10
0.0
 20
0.0
 30
0.0
  0
INSERT
  5
6D
330
1F
100
AcDbEntity
  8
_U+30EC_U+30A4_U+30E4_U+30FC 1
100
AcDbBlockReference
  2
block 3
 10
0.0
 20
0.0
 30
0.0
  0
INSERT
  5
90
330
1F
100
AcDbEntity
  8
_U+30EC_U+30A4_U+30E4_U+30FC 1
100
AcDbBlockReference
  2
block 4
 10
0.0
 20
0.0
 30
0.0
  0
INSERT
  5
96
330
1F
100
AcDbEntity
  8
_U+30EC_U+30A4_U+30E4_U+30FC 1
100
AcDbBlockReference
  2
block 5
 10
0.0
 20
0.0
 30
0.0
  0
POLYLINE
  5
9E
330
1F
100
AcDbEntity
  8
_U+30EC_U+30A4_U+30E4_U+30FC 1
 62
     7
420
 16777215
370
     9
100
AcDb2dPolyline
 66
     1
 10
0.0
 20
0.0
 30
0.0
  0
VERTEX
  5
9F
330
9E
100
AcDbEntity
  8
_U+30EC_U+30A4_U+30E4_U+30FC 1
 62
     7
420
 16777215
370
     9
100
AcDbVertex
100
AcDb2dVertex
 10
114.4550429133419
 20
-145.4605435747463
 30
0.0
  0
VERTEX
  5
A0
330
9E
100
AcDbEntity
  8
_U+30EC_U+30A4_U+30E4_U+30FC 1
 62
     7
420
 16777215
370
     9
100
AcDbVertex
100
AcDb2dVertex
 10
114.4550429133419
 20
-140.9605455203157
 30
0.0
  0
SEQEND
  5
A1
330
9E
100
AcDbEntity
  8
_U+30EC_U+30A4_U+30E4_U+30FC 1
 62
     7
420
 16777215
370
     9
  0
POLYLINE
  5
A2
330
1F
100
AcDbEntity
  8
_U+30EC_U+30A4_U+30E4_U+30FC 1
 62
     7
420
 16777215
370
     9
100
AcDb2dPolyline
 66
     1
 10
0.0
 20
0.0
 30
0.0
  0
VERTEX
  5
A3
330
A2
100
AcDbEntity
  8
_U+30EC_U+30A4_U+30E4_U+30FC 1
 62
     7
420
 16777215
370
     9
100
AcDbVertex
100
AcDb2dVertex
 10
114.4550429133419
 20
-140.958146631427
 30
0.0
  0
VERTEX
  5
A4
330
A2
100
AcDbEntity
  8
_U+30EC_U+30A4_U+30E4_U+30FC 1
 62
     7
420
 16777215
370
     9
100
AcDbVertex
100
AcDb2dVertex
 10
114.4550429133419
 20
-139.9580216316774
 30
0.0
  0
SEQEND
  5
A5
330
A2
100
AcDbEntity
  8
_U+30EC_U+30A4_U+30E4_U+30FC 1
 62
     7
420
 16777215
370
     9
  0
POLYLINE
  5
A6
330
1F
100
AcDbEntity
  8
_U+30EC_U+30A4_U+30E4_U+30FC 1
 62
     7
420
 16777215
370
     9
100
AcDb2dPolyline
 66
     1
 10
0.0
 20
0.0
 30
0.0
  0
VERTEX
  5
A7
330
A6
100
AcDbEntity
  8
_U+30EC_U+30A4_U+30E4_U+30FC 1
 62
     7
420
 16777215
370
     9
100
AcDbVertex
100
AcDb2dVertex
 10
70.09045154517695
 20
-145.9394041301817
 30
0.0
  0
VERTEX
  5
A8
330
A6
100
AcDbEntity
  8
_U+30EC_U+30A4_U+30E4_U+30FC 1
 62
     7
420
 16777215
370
     9
100
AcDbVertex
100
AcDb2dVertex
 10
70.87009041417559
 20
-145.4894713525163
 30
0.0
  0
SEQEND
  5
A9
330
A6
100
AcDbEntity
  8
_U+30EC_U+30A4_U+30E4_U+30FC 1
 62
     7
420
 16777215
370
     9
  0
POLYLINE
  5
AA
330
1F
100
AcDbEntity
  8
_U+30EC_U+30A4_U+30E4_U+30FC 1
 62
     7
420
 16777215
370
     9
100
AcDb2dPolyline
 66
     1
 10
0.0
 20
0.0
 30
0.0
  0
VERTEX
  5
AB
330
AA
100
AcDbEntity
  8
_U+30EC_U+30A4_U+30E4_U+30FC 1
 62
     7
420
 16777215
370
     9
100
AcDbVertex
100
AcDb2dVertex
 10
70.41980487010777
 20
-146.2687574634328
 30
0.0
  0
VERTEX
  5
AC
330
AA
100
AcDbEntity
  8
_U+30EC_U+30A4_U+30E4_U+30FC 1
 62
     7
420
 16777215
370
     9
100
AcDbVertex
100
AcDb2dVertex
 10
70.87009041417559
 20
-145.4894713525163
 30
0.0
  0
SEQEND
  5
AD
330
AA
100
AcDbEntity
  8
_U+30EC_U+30A4_U+30E4_U+30FC 1
 62
     7
420
 16777215
370
     9
  0
POLYLINE
  5
AE
330
1F
100
AcDbEntity
  8
_U+30EC_U+30A4_U+30E4_U+30FC 1
 62
     7
420
 16777215
370
     9
100
AcDb2dPolyline
 66
     1
 10
0.0
 20
0.0
 30
0.0
  0
VERTEX
  5
AF
330
AE
100
AcDbEntity
  8
_U+30EC_U+30A4_U+30E4_U+30FC 1
 62
     7
420
 16777215
370
     9
100
AcDbVertex
100
AcDb2dVertex
 10
67.75160549373476
 20
-148.6079916295147
 30
0.0
  0
VERTEX
  5
B0
330
AE
100
AcDbEntity
  8
_U+30EC_U+30A4_U+30E4_U+30FC 1
 62
     7
420
 16777215
370
     9
100
AcDbVertex
100
AcDb2dVertex
 10
70.87009041417559
 20
-145.4894713525163
 30
0.0
  0
SEQEND
  5
B1
330
AE
100
AcDbEntity
  8
_U+30EC_U+30A4_U+30E4_U+30FC 1
 62
     7
420
 16777215
370
     9
  0
INSERT
  5
B3
330
1F
100
AcDbEntity
  8
_U+30EC_U+30A4_U+30E4_U+30FC 1
100
AcDbBlockReference
  2
block 6
 10
0.0
 20
0.0
 30
0.0
  0
SPLINE
  5
BB
330
1F
100
AcDbEntity
  8
_U+30EC_U+30A4_U+30E4_U+30FC 1
 62
     7
420
 16777215
370
     9
100
AcDbSpline
210
0.0
220
0.0
230
1.0
 70
    11
 71
     3
 72
    17
 73
    13
 74
     0
 42
0.0000000001
 43
0.0000000001
 12
1.0
 22
0.0
 32
0.0
 13
1.0
 23
0.0
 33
0.0
 40
0.0
 40
0.0
 40
0.0
 40
0.0
 40
1.0
 40
1.0
 40
1.0
 40
2.0
 40
2.0
 40
2.0
 40
3.0
 40
3.0
 40
3.0
 40
4.0
 40
4.0
 40
4.0
 40
4.0
 10
67.44497105711322
 20
-105.4629871958566
 30
0.0
 10
67.44497105711322
 20
-105.4078480292035
 30
0.0
 10
67.40020355825533
 20
-105.3630805292149
 30
0.0
 10
67.34506439299538
 20
-105.3630805292149
 30
0.0
 10
67.28996050551231
 20
-105.3630805292149
 30
0.0
 10
67.24515772887754
 20
-105.4078480292035
 30
0.0
 10
67.24515772887754
 20
-105.4629871958566
 30
0.0
 10
67.24515772887754
 20
-105.518796640287
 30
0.0
 10
67.28996050551231
 20
-105.5635994180534
 30
0.0
 10
67.34506439299538
 20
-105.5635994180534
 30
0.0
 10
67.40020355825533
 20
-105.5635994180534
 30
0.0
 10
67.44497105711322
 20
-105.518796640287
 30
0.0
 10
67.44497105711322
 20
-105.4629871958566
 30
0.0
  0
SPLINE
  5
BC
330
1F
100
AcDbEntity
  8
_U+30EC_U+30A4_U+30E4_U+30FC 1
 62
     7
420
 16777215
370
     9
100
AcDbSpline
210
0.0
220
0.0
230
1.0
 70
    11
 71
     3
 72
    17
 73
    13
 74
     0
 42
0.0000000001
 43
0.0000000001
 12
1.0
 22
0.0
 32
0.0
 13
1.0
 23
0.0
 33
0.0
 40
0.0
 40
0.0
 40
0.0
 40
0.0
 40
1.0
 40
1.0
 40
1.0
 40
2.0
 40
2.0
 40
2.0
 40
3.0
 40
3.0
 40
3.0
 40
4.0
 40
4.0
 40
4.0
 40
4.0
 10
67.45015689031425
 20
-125.4593488575242
 30
0.0
 10
67.45015689031425
 20
-125.4042449686489
 30
0.0
 10
67.40535411367948
 20
-125.3594421908822
 30
0.0
 10
67.35025022619641
 20
-125.3594421908822
 30
0.0
 10
67.29511106093646
 20
-125.3594421908822
 30
0.0
 10
67.25034356207858
 20
-125.4042449686489
 30
0.0
 10
67.25034356207858
 20
-125.4593488575242
 30
0.0
 10
67.25034356207858
 20
-125.5148055241769
 30
0.0
 10
67.29511106093646
 20
-125.5596083019436
 30
0.0
 10
67.35025022619641
 20
-125.5596083019436
 30
0.0
 10
67.40535411367948
 20
-125.5596083019436
 30
0.0
 10
67.45015689031425
 20
-125.5148055241769
 30
0.0
 10
67.45015689031425
 20
-125.4593488575242
 30
0.0
  0
SPLINE
  5
BD
330
1F
100
AcDbEntity
  8
_U+30EC_U+30A4_U+30E4_U+30FC 1
 62
     7
420
 16777215
370
     9
100
AcDbSpline
210
0.0
220
0.0
230
1.0
 70
    11
 71
     3
 72
    17
 73
    13
 74
     0
 42
0.0000000001
 43
0.0000000001
 12
1.0
 22
0.0
 32
0.0
 13
1.0
 23
0.0
 33
0.0
 40
0.0
 40
0.0
 40
0.0
 40
0.0
 40
1.0
 40
1.0
 40
1.0
 40
2.0
 40
2.0
 40
2.0
 40
3.0
 40
3.0
 40
3.0
 40
4.0
 40
4.0
 40
4.0
 40
4.0
 10
67.44497105711322
 20
-145.4529588525257
 30
0.0
 10
67.44497105711322
 20
-145.3978549636508
 30
0.0
 10
67.40020355825533
 20
-145.3530521858841
 30
0.0
 10
67.34506439299538
 20
-145.3530521858841
 30
0.0
 10
67.28996050551231
 20
-145.3530521858841
 30
0.0
 10
67.24515772887754
 20
-145.3978549636508
 30
0.0
 10
67.24515772887754
 20
-145.4529588525257
 30
0.0
 10
67.24515772887754
 20
-145.5087682969561
 30
0.0
 10
67.28996050551231
 20
-145.5535710747228
 30
0.0
 10
67.34506439299538
 20
-145.5535710747228
 30
0.0
 10
67.40020355825533
 20
-145.5535710747228
 30
0.0
 10
67.44497105711322
 20
-145.5087682969561
 30
0.0
 10
67.44497105711322
 20
-145.4529588525257
 30
0.0
  0
SPLINE
  5
BE
330
1F
100
AcDbEntity
  8
_U+30EC_U+30A4_U+30E4_U+30FC 1
 62
     7
420
 16777215
370
     9
100
AcDbSpline
210
0.0
220
0.0
230
1.0
 70
    11
 71
     3
 72
    17
 73
    13
 74
     0
 42
0.0000000001
 43
0.0000000001
 12
1.0
 22
0.0
 32
0.0
 13
1.0
 23
0.0
 33
0.0
 40
0.0
 40
0.0
 40
0.0
 40
0.0
 40
1.0
 40
1.0
 40
1.0
 40
2.0
 40
2.0
 40
2.0
 40
3.0
 40
3.0
 40
3.0
 40
4.0
 40
4.0
 40
4.0
 40
4.0
 10
114.5556198552204
 20
-139.9580216316774
 30
0.0
 10
114.5556198552204
 20
-139.9029177428018
 30
0.0
 10
114.5108523563625
 20
-139.8581149650357
 30
0.0
 10
114.4557131911026
 20
-139.8581149650357
 30
0.0
 10
114.4006093036195
 20
-139.8581149650357
 30
0.0
 10
114.3558065269848
 20
-139.9029177428018
 30
0.0
 10
114.3558065269848
 20
-139.9580216316774
 30
0.0
 10
114.3558065269848
 20
-140.0131607983298
 30
0.0
 10
114.4006093036195
 20
-140.057928298319
 30
0.0
 10
114.4557131911026
 20
-140.057928298319
 30
0.0
 10
114.5108523563625
 20
-140.057928298319
 30
0.0
 10
114.5556198552204
 20
-140.0131607983298
 30
0.0
 10
114.5556198552204
 20
-139.9580216316774
 30
0.0
  0
SPLINE
  5
BF
330
1F
100
AcDbEntity
  8
_U+30EC_U+30A4_U+30E4_U+30FC 1
 62
     7
420
 16777215
370
     9
100
AcDbSpline
210
0.0
220
0.0
230
1.0
 70
    11
 71
     3
 72
    17
 73
    13
 74
     0
 42
0.0000000001
 43
0.0000000001
 12
1.0
 22
0.0
 32
0.0
 13
1.0
 23
0.0
 33
0.0
 40
0.0
 40
0.0
 40
0.0
 40
0.0
 40
1.0
 40
1.0
 40
1.0
 40
2.0
 40
2.0
 40
2.0
 40
3.0
 40
3.0
 40
3.0
 40
4.0
 40
4.0
 40
4.0
 40
4.0
 10
114.5556198552204
 20
-140.958146631427
 30
0.0
 10
114.5556198552204
 20
-140.9030427425521
 30
0.0
 10
114.5108523563625
 20
-140.8582399647854
 30
0.0
 10
114.4557131911026
 20
-140.8582399647854
 30
0.0
 10
114.4006093036195
 20
-140.8582399647854
 30
0.0
 10
114.3558065269848
 20
-140.9030427425521
 30
0.0
 10
114.3558065269848
 20
-140.958146631427
 30
0.0
 10
114.3558065269848
 20
-141.0132857980801
 30
0.0
 10
114.4006093036195
 20
-141.0580532980687
 30
0.0
 10
114.4557131911026
 20
-141.0580532980687
 30
0.0
 10
114.5108523563625
 20
-141.0580532980687
 30
0.0
 10
114.5556198552204
 20
-141.0132857980801
 30
0.0
 10
114.5556198552204
 20
-140.958146631427
 30
0.0
  0
SPLINE
  5
C0
330
1F
100
AcDbEntity
  8
_U+30EC_U+30A4_U+30E4_U+30FC 1
 62
     7
420
 16777215
370
     9
100
AcDbSpline
210
0.0
220
0.0
230
1.0
 70
    11
 71
     3
 72
    17
 73
    13
 74
     0
 42
0.0000000001
 43
0.0000000001
 12
1.0
 22
0.0
 32
0.0
 13
1.0
 23
0.0
 33
0.0
 40
0.0
 40
0.0
 40
0.0
 40
0.0
 40
1.0
 40
1.0
 40
1.0
 40
2.0
 40
2.0
 40
2.0
 40
3.0
 40
3.0
 40
3.0
 40
4.0
 40
4.0
 40
4.0
 40
4.0
 10
114.5556198552204
 20
-145.4601907969685
 30
0.0
 10
114.5556198552204
 20
-145.405086908093
 30
0.0
 10
114.5108523563625
 20
-145.3602841303269
 30
0.0
 10
114.4557131911026
 20
-145.3602841303269
 30
0.0
 10
114.4006093036195
 20
-145.3602841303269
 30
0.0
 10
114.3558065269848
 20
-145.405086908093
 30
0.0
 10
114.3558065269848
 20
-145.4601907969685
 30
0.0
 10
114.3558065269848
 20
-145.515329963621
 30
0.0
 10
114.4006093036195
 20
-145.5600974636102
 30
0.0
 10
114.4557131911026
 20
-145.5600974636102
 30
0.0
 10
114.5108523563625
 20
-145.5600974636102
 30
0.0
 10
114.5556198552204
 20
-145.515329963621
 30
0.0
 10
114.5556198552204
 20
-145.4601907969685
 30
0.0
  0
ENDSEC
  0
SECTION
  2
OBJECTS
  0
DICTIONARY
  5
C
330
0
100
AcDbDictionary
281
     1
  3
ACAD_GROUP
350
D
  3
ACAD_LAYOUT
350
1A
  3
ACAD_MATERIAL
350
3B
  3
ACAD_MLEADERSTYLE
350
C2
  3
ACAD_MLINESTYLE
350
17
  3
ACAD_PLOTSETTINGS
350
19
  3
ACAD_PLOTSTYLENAME
350
E
  3
ACAD_TABLESTYLE
350
C1
  3
ACAD_VISUALSTYLE
350
2A
  0
SUN
  5
3F
330
29
100
AcDbSun
 90
        1
290
     0
 63
     7
421
 16777215
 40
1.0
291
     1
 91
  2455826
 92
 54000000
292
     0
 70
     2
 71
   256
280
     1
  0
DICTIONARY
  5
D
102
{ACAD_REACTORS
330
C
102
}
330
C
100
AcDbDictionary
281
     1
  0
DICTIONARY
  5
1A
102
{ACAD_REACTORS
330
C
102
}
330
C
100
AcDbDictionary
281
     1
  3
Layout1
350
1E
  3
Layout2
350
26
  3
Model
350
22
  0
DICTIONARY
  5
3B
102
{ACAD_REACTORS
330
C
102
}
330
C
100
AcDbDictionary
281
     1
  3
ByBlock
350
3D
  3
ByLayer
350
3C
  3
Global
350
3E
  0
DICTIONARY
  5
C2
102
{ACAD_REACTORS
330
C
102
}
330
C
100
AcDbDictionary
281
     1
  0
DICTIONARY
  5
17
102
{ACAD_REACTORS
330
C
102
}
330
C
100
AcDbDictionary
281
     1
  3
Standard
350
18
  0
DICTIONARY
  5
19
102
{ACAD_REACTORS
330
C
102
}
330
C
100
AcDbDictionary
281
     1
  0
ACDBDICTIONARYWDFLT
  5
E
102
{ACAD_REACTORS
330
C
102
}
330
C
100
AcDbDictionary
281
     1
  3
Normal
350
F
100
AcDbDictionaryWithDefault
340
F
  0
DICTIONARY
  5
C1
102
{ACAD_REACTORS
330
C
102
}
330
C
100
AcDbDictionary
281
     1
  0
DICTIONARY
  5
2A
102
{ACAD_REACTORS
330
C
102
}
330
C
100
AcDbDictionary
281
     1
  3
2dWireframe
350
2F
  3
3D Hidden
350
31
  3
3dWireframe
350
30
  3
Basic
350
32
  3
Brighten
350
36
  3
ColorChange
350
3A
  3
Conceptual
350
34
  3
Dim
350
35
  3
Facepattern
350
39
  3
Flat
350
2B
  3
FlatWithEdges
350
2C
  3
Gouraud
350
2D
  3
GouraudWithEdges
350
2E
  3
Linepattern
350
38
  3
Realistic
350
33
  3
Thicken
350
37
  0
LAYOUT
  5
1E
102
{ACAD_REACTORS
330
1A
102
}
330
1A
100
AcDbPlotSettings
  1

  2
none_device
  4

  6

 40
0.0
 41
0.0
 42
0.0
 43
0.0
 44
0.0
 45
0.0
 46
0.0
 47
0.0
 48
0.0
 49
0.0
140
0.0
141
0.0
142
1.0
143
1.0
 70
   688
 72
     0
 73
     0
 74
     5
  7

 75
    16
 76
     0
 77
     2
 78
   300
147
1.0
148
0.0
149
0.0
100
AcDbLayout
  1
Layout1
 70
     1
 71
     1
 10
0.0
 20
0.0
 11
12.0
 21
9.0
 12
0.0
 22
0.0
 32
0.0
 14
1.000000000000000E+20
 24
1.000000000000000E+20
 34
1.000000000000000E+20
 15
-1.000000000000000E+20
 25
-1.000000000000000E+20
 35
-1.000000000000000E+20
146
0.0
 13
0.0
 23
0.0
 33
0.0
 16
1.0
 26
0.0
 36
0.0
 17
0.0
 27
1.0
 37
0.0
 76
     0
330
1B
  0
LAYOUT
  5
26
102
{ACAD_REACTORS
330
1A
102
}
330
1A
100
AcDbPlotSettings
  1

  2
none_device
  4

  6

 40
0.0
 41
0.0
 42
0.0
 43
0.0
 44
0.0
 45
0.0
 46
0.0
 47
0.0
 48
0.0
 49
0.0
140
0.0
141
0.0
142
1.0
143
1.0
 70
   688
 72
     0
 73
     0
 74
     5
  7

 75
    16
 76
     0
 77
     2
 78
   300
147
1.0
148
0.0
149
0.0
100
AcDbLayout
  1
Layout2
 70
     1
 71
     2
 10
0.0
 20
0.0
 11
0.0
 21
0.0
 12
0.0
 22
0.0
 32
0.0
 14
0.0
 24
0.0
 34
0.0
 15
0.0
 25
0.0
 35
0.0
146
0.0
 13
0.0
 23
0.0
 33
0.0
 16
1.0
 26
0.0
 36
0.0
 17
0.0
 27
1.0
 37
0.0
 76
     0
330
23
  0
LAYOUT
  5
22
102
{ACAD_REACTORS
330
1A
102
}
330
1A
100
AcDbPlotSettings
  1

  2
none_device
  4

  6

 40
0.0
 41
0.0
 42
0.0
 43
0.0
 44
0.0
 45
0.0
 46
0.0
 47
0.0
 48
0.0
 49
0.0
140
0.0
141
0.0
142
1.0
143
1.0
 70
  1712
 72
     0
 73
     0
 74
     0
  7

 75
     0
 76
     0
 77
     2
 78
   300
147
1.0
148
0.0
149
0.0
100
AcDbLayout
  1
Model
 70
     1
 71
     0
 10
0.0
 20
0.0
 11
12.0
 21
9.0
 12
0.0
 22
0.0
 32
0.0
 14
1.000000000000000E+20
 24
1.000000000000000E+20
 34
1.000000000000000E+20
 15
-1.000000000000000E+20
 25
-1.000000000000000E+20
 35
-1.000000000000000E+20
146
0.0
 13
0.0
 23
0.0
 33
0.0
 16
1.0
 26
0.0
 36
0.0
 17
0.0
 27
1.0
 37
0.0
 76
     0
330
1F
331
29
  0
MATERIAL
  5
3D
102
{ACAD_REACTORS
330
3B
102
}
330
3B
100
AcDbMaterial
  1
ByBlock
 72
     1
 94
      127
  0
MATERIAL
  5
3C
102
{ACAD_REACTORS
330
3B
102
}
330
3B
100
AcDbMaterial
  1
ByLayer
 72
     1
 94
      127
  0
MATERIAL
  5
3E
102
{ACAD_REACTORS
330
3B
102
}
330
3B
100
AcDbMaterial
  1
Global
 72
     1
 94
      127
  0
MLINESTYLE
  5
18
102
{ACAD_REACTORS
330
17
102
}
330
17
100
AcDbMlineStyle
  2
Standard
 70
     0
  3

 62
   256
 51
90.0
 52
90.0
 71
     2
 49
0.5
 62
   256
  6
BYLAYER
 49
-0.5
 62
   256
  6
BYLAYER
  0
ACDBPLACEHOLDER
  5
F
102
{ACAD_REACTORS
330
E
102
}
330
E
  0
VISUALSTYLE
  5
2F
102
{ACAD_REACTORS
330
2A
102
}
330
2A
100
AcDbVisualStyle
  2
2dWireframe
 70
     4
177
     2
291
     0
 71
     0
176
     1
 72
     2
176
     1
 73
     0
176
     1
 90
        0
176
     1
 40
-0.6
176
     1
 41
-30.0
176
     1
 62
     5
 63
     7
421
 16777215
176
     1
 74
     1
176
     1
 91
        4
176
     1
 64
     7
176
     1
 65
   257
176
     1
 75
     1
176
     1
175
     1
176
     1
 42
1.0
176
     1
 92
        0
176
     1
 66
   257
176
     1
 43
1.0
176
     1
 76
     1
176
     1
 77
     6
176
     1
 78
     2
176
     1
 67
     7
176
     1
 79
     5
176
     1
170
     0
176
     1
171
     0
176
     1
290
     0
176
     1
 93
        1
176
     1
 44
0.0
176
     1
173
     0
176
     1
  0
VISUALSTYLE
  5
31
102
{ACAD_REACTORS
330
2A
102
}
330
2A
100
AcDbVisualStyle
  2
3D Hidden
 70
     6
177
     2
291
     0
 71
     1
176
     1
 72
     2
176
     1
 73
     2
176
     1
 90
        0
176
     1
 40
-0.6
176
     1
 41
-30.0
176
     1
 62
     5
 63
     7
421
 16777215
176
     1
 74
     2
176
     1
 91
        2
176
     1
 64
     7
176
     1
 65
   257
176
     1
 75
     2
176
     1
175
     1
176
     1
 42
40.0
176
     1
 92
        0
176
     1
 66
   257
176
     1
 43
1.0
176
     1
 76
     1
176
     1
 77
     6
176
     1
 78
     2
176
     1
 67
     7
176
     1
 79
     3
176
     1
170
     0
176
     1
171
     0
176
     1
290
     0
176
     1
 93
        1
176
     1
 44
0.0
176
     1
173
     0
176
     1
  0
VISUALSTYLE
  5
30
102
{ACAD_REACTORS
330
2A
102
}
330
2A
100
AcDbVisualStyle
  2
3dWireframe
 70
     5
177
     2
291
     0
 71
     0
176
     1
 72
     2
176
     1
 73
     0
176
     1
 90
        0
176
     1
 40
-0.6
176
     1
 41
-30.0
176
     1
 62
     5
 63
     7
421
 16777215
176
     1
 74
     1
176
     1
 91
        4
176
     1
 64
     7
176
     1
 65
   257
176
     1
 75
     1
176
     1
175
     1
176
     1
 42
1.0
176
     1
 92
        0
176
     1
 66
   257
176
     1
 43
1.0
176
     1
 76
     1
176
     1
 77
     6
176
     1
 78
     2
176
     1
 67
     7
176
     1
 79
     5
176
     1
170
     0
176
     1
171
     0
176
     1
290
     0
176
     1
 93
        1
176
     1
 44
0.0
176
     1
173
     0
176
     1
  0
VISUALSTYLE
  5
32
102
{ACAD_REACTORS
330
2A
102
}
330
2A
100
AcDbVisualStyle
  2
Basic
 70
     7
177
     2
291
     1
 71
     1
176
     1
 72
     0
176
     1
 73
     1
176
     1
 90
        0
176
     1
 40
-0.6
176
     1
 41
-30.0
176
     1
 62
     5
 63
     7
421
 16777215
176
     1
 74
     0
176
     1
 91
        4
176
     1
 64
     7
176
     1
 65
   257
176
     1
 75
     1
176
     1
175
     1
176
     1
 42
1.0
176
     1
 92
        8
176
     1
 66
     7
176
     1
 43
1.0
176
     1
 76
     1
176
     1
 77
     6
176
     1
 78
     2
176
     1
 67
     7
176
     1
 79
     5
176
     1
170
     0
176
     1
171
     0
176
     1
290
     0
176
     1
 93
        1
176
     1
 44
0.0
176
     1
173
     0
176
     1
  0
VISUALSTYLE
  5
36
102
{ACAD_REACTORS
330
2A
102
}
330
2A
100
AcDbVisualStyle
  2
Brighten
 70
    12
177
     2
291
     1
 71
     2
176
     1
 72
     2
176
     1
 73
     0
176
     1
 90
        0
176
     1
 40
-0.6
176
     1
 41
-30.0
176
     1
 62
     5
 63
     7
421
 16777215
176
     1
 74
     1
176
     1
 91
        4
176
     1
 64
     7
176
     1
 65
   257
176
     1
 75
     1
176
     1
175
     1
176
     1
 42
1.0
176
     1
 92
        8
176
     1
 66
     7
176
     1
 43
1.0
176
     1
 76
     1
176
     1
 77
     6
176
     1
 78
     2
176
     1
 67
     7
176
     1
 79
     5
176
     1
170
     0
176
     1
171
     0
176
     1
290
     0
176
     1
 93
        1
176
     1
 44
50.0
176
     1
173
     0
176
     1
  0
VISUALSTYLE
  5
3A
102
{ACAD_REACTORS
330
2A
102
}
330
2A
100
AcDbVisualStyle
  2
ColorChange
 70
    16
177
     2
291
     1
 71
     2
176
     1
 72
     2
176
     1
 73
     3
176
     1
 90
        0
176
     1
 40
-0.6
176
     1
 41
-30.0
176
     1
 62
     5
 63
     8
421
  8421504
176
     1
 74
     1
176
     1
 91
        4
176
     1
 64
     7
176
     1
 65
   257
176
     1
 75
     1
176
     1
175
     1
176
     1
 42
1.0
176
     1
 92
        8
176
     1
 66
     8
424
  8421504
176
     1
 43
1.0
176
     1
 76
     1
176
     1
 77
     6
176
     1
 78
     2
176
     1
 67
     7
176
     1
 79
     5
176
     1
170
     0
176
     1
171
     0
176
     1
290
     0
176
     1
 93
        1
176
     1
 44
0.0
176
     1
173
     0
176
     1
  0
VISUALSTYLE
  5
34
102
{ACAD_REACTORS
330
2A
102
}
330
2A
100
AcDbVisualStyle
  2
Conceptual
 70
     9
177
     2
291
     0
 71
     3
176
     1
 72
     2
176
     1
 73
     0
176
     1
 90
        0
176
     1
 40
-0.6
176
     1
 41
-30.0
176
     1
 62
     5
 63
     7
421
 16777215
176
     1
 74
     2
176
     1
 91
        2
176
     1
 64
     7
176
     1
 65
   257
176
     1
 75
     1
176
     1
175
     1
176
     1
 42
40.0
176
     1
 92
        8
176
     1
 66
     7
176
     1
 43
1.0
176
     1
 76
     1
176
     1
 77
     6
176
     1
 78
     2
176
     1
 67
     7
176
     1
 79
     3
176
     1
170
     0
176
     1
171
     0
176
     1
290
     0
176
     1
 93
        1
176
     1
 44
0.0
176
     1
173
     0
176
     1
  0
VISUALSTYLE
  5
35
102
{ACAD_REACTORS
330
2A
102
}
330
2A
100
AcDbVisualStyle
  2
Dim
 70
    11
177
     2
291
     1
 71
     2
176
     1
 72
     2
176
     1
 73
     0
176
     1
 90
        0
176
     1
 40
-0.6
176
     1
 41
-30.0
176
     1
 62
     5
 63
     7
421
 16777215
176
     1
 74
     1
176
     1
 91
        4
176
     1
 64
     7
176
     1
 65
   257
176
     1
 75
     1
176
     1
175
     1
176
     1
 42
1.0
176
     1
 92
        8
176
     1
 66
     7
176
     1
 43
1.0
176
     1
 76
     1
176
     1
 77
     6
176
     1
 78
     2
176
     1
 67
     7
176
     1
 79
     5
176
     1
170
     0
176
     1
171
     0
176
     1
290
     0
176
     1
 93
        1
176
     1
 44
-50.0
176
     1
173
     0
176
     1
  0
VISUALSTYLE
  5
39
102
{ACAD_REACTORS
330
2A
102
}
330
2A
100
AcDbVisualStyle
  2
Facepattern
 70
    15
177
     2
291
     1
 71
     2
176
     1
 72
     2
176
     1
 73
     0
176
     1
 90
        0
176
     1
 40
-0.6
176
     1
 41
-30.0
176
     1
 62
     5
 63
     7
421
 16777215
176
     1
 74
     1
176
     1
 91
        4
176
     1
 64
     7
176
     1
 65
   257
176
     1
 75
     1
176
     1
175
     1
176
     1
 42
1.0
176
     1
 92
        8
176
     1
 66
     7
176
     1
 43
1.0
176
     1
 76
     1
176
     1
 77
     6
176
     1
 78
     2
176
     1
 67
     7
176
     1
 79
     5
176
     1
170
     0
176
     1
171
     0
176
     1
290
     0
176
     1
 93
        1
176
     1
 44
0.0
176
     1
173
     0
176
     1
  0
VISUALSTYLE
  5
2B
102
{ACAD_REACTORS
330
2A
102
}
330
2A
100
AcDbVisualStyle
  2
Flat
 70
     0
177
     2
291
     1
 71
     2
176
     1
 72
     1
176
     1
 73
     1
176
     1
 90
        2
176
     1
 40
-0.6
176
     1
 41
30.0
176
     1
 62
     5
 63
     7
421
 16777215
176
     1
 74
     0
176
     1
 91
        4
176
     1
 64
     7
176
     1
 65
   257
176
     1
 75
     1
176
     1
175
     1
176
     1
 42
1.0
176
     1
 92
        8
176
     1
 66
     7
176
     1
 43
1.0
176
     1
 76
     1
176
     1
 77
     6
176
     1
 78
     2
176
     1
 67
     7
176
     1
 79
     5
176
     1
170
     0
176
     1
171
     0
176
     1
290
     0
176
     1
 93
       13
176
     1
 44
0.0
176
     1
173
     0
176
     1
  0
VISUALSTYLE
  5
2C
102
{ACAD_REACTORS
330
2A
102
}
330
2A
100
AcDbVisualStyle
  2
FlatWithEdges
 70
     1
177
     2
291
     1
 71
     2
176
     1
 72
     1
176
     1
 73
     1
176
     1
 90
        2
176
     1
 40
-0.6
176
     1
 41
30.0
176
     1
 62
     5
 63
     7
421
 16777215
176
     1
 74
     1
176
     1
 91
        4
176
     1
 64
     7
176
     1
 65
   257
176
     1
 75
     1
176
     1
175
     1
176
     1
 42
1.0
176
     1
 92
        0
176
     1
 66
   257
176
     1
 43
1.0
176
     1
 76
     1
176
     1
 77
     6
176
     1
 78
     2
176
     1
 67
     7
176
     1
 79
     5
176
     1
170
     0
176
     1
171
     0
176
     1
290
     0
176
     1
 93
       13
176
     1
 44
0.0
176
     1
173
     0
176
     1
  0
VISUALSTYLE
  5
2D
102
{ACAD_REACTORS
330
2A
102
}
330
2A
100
AcDbVisualStyle
  2
Gouraud
 70
     2
177
     2
291
     1
 71
     2
176
     1
 72
     2
176
     1
 73
     1
176
     1
 90
        2
176
     1
 40
-0.6
176
     1
 41
30.0
176
     1
 62
     5
 63
     7
421
 16777215
176
     1
 74
     0
176
     1
 91
        4
176
     1
 64
     7
176
     1
 65
   257
176
     1
 75
     1
176
     1
175
     1
176
     1
 42
1.0
176
     1
 92
        0
176
     1
 66
     7
176
     1
 43
1.0
176
     1
 76
     1
176
     1
 77
     6
176
     1
 78
     2
176
     1
 67
     7
176
     1
 79
     5
176
     1
170
     0
176
     1
171
     0
176
     1
290
     0
176
     1
 93
       13
176
     1
 44
0.0
176
     1
173
     0
176
     1
  0
VISUALSTYLE
  5
2E
102
{ACAD_REACTORS
330
2A
102
}
330
2A
100
AcDbVisualStyle
  2
GouraudWithEdges
 70
     3
177
     2
291
     1
 71
     2
176
     1
 72
     2
176
     1
 73
     1
176
     1
 90
        2
176
     1
 40
-0.6
176
     1
 41
30.0
176
     1
 62
     5
 63
     7
421
 16777215
176
     1
 74
     1
176
     1
 91
        4
176
     1
 64
     7
176
     1
 65
   257
176
     1
 75
     1
176
     1
175
     1
176
     1
 42
1.0
176
     1
 92
        0
176
     1
 66
   257
176
     1
 43
1.0
176
     1
 76
     1
176
     1
 77
     6
176
     1
 78
     2
176
     1
 67
     7
176
     1
 79
     5
176
     1
170
     0
176
     1
171
     0
176
     1
290
     0
176
     1
 93
       13
176
     1
 44
0.0
176
     1
173
     0
176
     1
  0
VISUALSTYLE
  5
38
102
{ACAD_REACTORS
330
2A
102
}
330
2A
100
AcDbVisualStyle
  2
Linepattern
 70
    14
177
     2
291
     1
 71
     2
176
     1
 72
     2
176
     1
 73
     0
176
     1
 90
        0
176
     1
 40
-0.6
176
     1
 41
-30.0
176
     1
 62
     5
 63
     7
421
 16777215
176
     1
 74
     1
176
     1
 91
        4
176
     1
 64
     7
176
     1
 65
   257
176
     1
 75
     7
176
     1
175
     7
176
     1
 42
1.0
176
     1
 92
        8
176
     1
 66
     7
176
     1
 43
1.0
176
     1
 76
     1
176
     1
 77
     6
176
     1
 78
     2
176
     1
 67
     7
176
     1
 79
     5
176
     1
170
     0
176
     1
171
     0
176
     1
290
     0
176
     1
 93
        1
176
     1
 44
0.0
176
     1
173
     0
176
     1
  0
VISUALSTYLE
  5
33
102
{ACAD_REACTORS
330
2A
102
}
330
2A
100
AcDbVisualStyle
  2
Realistic
 70
     8
177
     2
291
     0
 71
     2
176
     1
 72
     2
176
     1
 73
     0
176
     1
 90
        0
176
     1
 40
-0.6
176
     1
 41
-30.0
176
     1
 62
     5
 63
     7
421
 16777215
176
     1
 74
     1
176
     1
 91
        0
176
     1
 64
     7
176
     1
 65
   257
176
     1
 75
     1
176
     1
175
     1
176
     1
 42
1.0
176
     1
 92
        8
176
     1
 66
     8
424
  7895160
176
     1
 43
1.0
176
     1
 76
     1
176
     1
 77
     6
176
     1
 78
     2
176
     1
 67
     7
176
     1
 79
     5
176
     1
170
     0
176
     1
171
     0
176
     1
290
     0
176
     1
 93
       13
176
     1
 44
0.0
176
     1
173
     0
176
     1
  0
VISUALSTYLE
  5
37
102
{ACAD_REACTORS
330
2A
102
}
330
2A
100
AcDbVisualStyle
  2
Thicken
 70
    13
177
     2
291
     1
 71
     2
176
     1
 72
     2
176
     1
 73
     0
176
     1
 90
        0
176
     1
 40
-0.6
176
     1
 41
-30.0
176
     1
 62
     5
 63
     7
421
 16777215
176
     1
 74
     1
176
     1
 91
        4
176
     1
 64
     7
176
     1
 65
   257
176
     1
 75
     1
176
     1
175
     1
176
     1
 42
1.0
176
     1
 92
       12
176
     1
 66
     7
176
     1
 43
1.0
176
     1
 76
     1
176
     1
 77
     6
176
     1
 78
     2
176
     1
 67
     7
176
     1
 79
     5
176
     1
170
     0
176
     1
171
     0
176
     1
290
     0
176
     1
 93
        1
176
     1
 44
0.0
176
     1
173
     0
176
     1
  0
ENDSEC
  0
EOF
