  0
SECTION
  2
HEADER
  9
$ACADVER
  1
AC1024
  9
$ACADMAINTVER
 70
     6
  9
$DWGCODEPAGE
  3
UNDEFINED
  9
$INSBASE
 10
0.0
 20
0.0
 30
0.0
  9
$EXTMIN
 10
1.000000000000000E+20
 20
1.000000000000000E+20
 30
1.000000000000000E+20
  9
$EXTMAX
 10
-1.000000000000000E+20
 20
-1.000000000000000E+20
 30
-1.000000000000000E+20
  9
$LIMMIN
 10
0.0
 20
0.0
  9
$LIMMAX
 10
12.0
 20
9.0
  9
$ORTHOMODE
 70
     0
  9
$REGENMODE
 70
     1
  9
$FILLMODE
 70
     1
  9
$QTEXTMODE
 70
     0
  9
$MIRRTEXT
 70
     1
  9
$LTSCALE
 40
1.0
  9
$ATTMODE
 70
     1
  9
$TEXTSIZE
 40
0.2
  9
$TRACEWID
 40
0.05
  9
$TEXTSTYLE
  7
Standard
  9
$CLAYER
  8
0
  9
$CELTYPE
  6
ByLayer
  9
$CECOLOR
 62
   256
  9
$CELTSCALE
 40
1.0
  9
$DISPSILH
 70
     0
  9
$DIMSCALE
 40
1.0
  9
$DIMASZ
 40
0.18
  9
$DIMEXO
 40
0.0625
  9
$DIMDLI
 40
0.38
  9
$DIMRND
 40
0.0
  9
$DIMDLE
 40
0.0
  9
$DIMEXE
 40
0.18
  9
$DIMTP
 40
0.0
  9
$DIMTM
 40
0.0
  9
$DIMTXT
 40
0.18
  9
$DIMCEN
 40
0.09
  9
$DIMTSZ
 40
0.0
  9
$DIMTOL
 70
     0
  9
$DIMLIM
 70
     0
  9
$DIMTIH
 70
     1
  9
$DIMTOH
 70
     1
  9
$DIMSE1
 70
     0
  9
$DIMSE2
 70
     0
  9
$DIMTAD
 70
     0
  9
$DIMZIN
 70
     0
  9
$DIMBLK
  1

  9
$DIMASO
 70
     1
  9
$DIMSHO
 70
     1
  9
$DIMPOST
  1

  9
$DIMAPOST
  1

  9
$DIMALT
 70
     0
  9
$DIMALTD
 70
     2
  9
$DIMALTF
 40
25.4
  9
$DIMLFAC
 40
1.0
  9
$DIMTOFL
 70
     0
  9
$DIMTVP
 40
0.0
  9
$DIMTIX
 70
     0
  9
$DIMSOXD
 70
     0
  9
$DIMSAH
 70
     0
  9
$DIMBLK1
  1

  9
$DIMBLK2
  1

  9
$DIMSTYLE
  2
Standard
  9
$DIMCLRD
 70
     0
  9
$DIMCLRE
 70
     0
  9
$DIMCLRT
 70
     0
  9
$DIMTFAC
 40
1.0
  9
$DIMGAP
 40
0.09
  9
$DIMJUST
 70
     0
  9
$DIMSD1
 70
     0
  9
$DIMSD2
 70
     0
  9
$DIMTOLJ
 70
     1
  9
$DIMTZIN
 70
     0
  9
$DIMALTZ
 70
     0
  9
$DIMALTTZ
 70
     0
  9
$DIMUPT
 70
     0
  9
$DIMDEC
 70
     4
  9
$DIMTDEC
 70
     4
  9
$DIMALTU
 70
     2
  9
$DIMALTTD
 70
     2
  9
$DIMTXSTY
  7
Standard
  9
$DIMAUNIT
 70
     0
  9
$DIMADEC
 70
     0
  9
$DIMALTRND
 40
0.0
  9
$DIMAZIN
 70
     0
  9
$DIMDSEP
 70
    46
  9
$DIMATFIT
 70
     3
  9
$DIMFRAC
 70
     0
  9
$DIMLDRBLK
  1

  9
$DIMLUNIT
 70
     2
  9
$DIMLWD
 70
    -2
  9
$DIMLWE
 70
    -2
  9
$DIMTMOVE
 70
     0
  9
$DIMFXL
 40
1.0
  9
$DIMFXLON
 70
     0
  9
$DIMJOGANG
 40
0.7853981633974483
  9
$DIMTFILL
 70
     0
  9
$DIMTFILLCLR
 70
     0
  9
$DIMARCSYM
 70
     0
  9
$DIMLTYPE
  6

  9
$DIMLTEX1
  6

  9
$DIMLTEX2
  6

  9
$DIMTXTDIRECTION
 70
     0
  9
$LUNITS
 70
     2
  9
$LUPREC
 70
     4
  9
$SKETCHINC
 40
0.1
  9
$FILLETRAD
 40
0.5
  9
$AUNITS
 70
     0
  9
$AUPREC
 70
     0
  9
$MENU
  1
.
  9
$ELEVATION
 40
0.0
  9
$PELEVATION
 40
0.0
  9
$THICKNESS
 40
0.0
  9
$LIMCHECK
 70
     0
  9
$CHAMFERA
 40
0.5
  9
$CHAMFERB
 40
0.5
  9
$CHAMFERC
 40
1.0
  9
$CHAMFERD
 40
0.0
  9
$SKPOLY
 70
     0
  9
$TDCREATE
 40
2457917.623032396
  9
$TDUCREATE
 40
2457917.248032407
  9
$TDUPDATE
 40
2457917.623032396
  9
$TDUUPDATE
 40
2457917.248032407
  9
$TDINDWG
 40
0.0000000116
  9
$TDUSRTIMER
 40
0.0000000116
  9
$USRTIMER
 70
     1
  9
$ANGBASE
 50
0.0
  9
$ANGDIR
 70
     0
  9
$PDMODE
 70
     0
  9
$PDSIZE
 40
0.0
  9
$PLINEWID
 40
0.0
  9
$SPLFRAME
 70
     0
  9
$SPLINETYPE
 70
     6
  9
$SPLINESEGS
 70
     8
  9
$HANDSEED
  5
F0
  9
$SURFTAB1
 70
     6
  9
$SURFTAB2
 70
     6
  9
$SURFTYPE
 70
     6
  9
$SURFU
 70
     6
  9
$SURFV
 70
     6
  9
$UCSBASE
  2

  9
$UCSNAME
  2

  9
$UCSORG
 10
0.0
 20
0.0
 30
0.0
  9
$UCSXDIR
 10
1.0
 20
0.0
 30
0.0
  9
$UCSYDIR
 10
0.0
 20
1.0
 30
0.0
  9
$UCSORTHOREF
  2

  9
$UCSORTHOVIEW
 70
     0
  9
$UCSORGTOP
 10
0.0
 20
0.0
 30
0.0
  9
$UCSORGBOTTOM
 10
0.0
 20
0.0
 30
0.0
  9
$UCSORGLEFT
 10
0.0
 20
0.0
 30
0.0
  9
$UCSORGRIGHT
 10
0.0
 20
0.0
 30
0.0
  9
$UCSORGFRONT
 10
0.0
 20
0.0
 30
0.0
  9
$UCSORGBACK
 10
0.0
 20
0.0
 30
0.0
  9
$PUCSBASE
  2

  9
$PUCSNAME
  2

  9
$PUCSORG
 10
0.0
 20
0.0
 30
0.0
  9
$PUCSXDIR
 10
1.0
 20
0.0
 30
0.0
  9
$PUCSYDIR
 10
0.0
 20
1.0
 30
0.0
  9
$PUCSORTHOREF
  2

  9
$PUCSORTHOVIEW
 70
     0
  9
$PUCSORGTOP
 10
0.0
 20
0.0
 30
0.0
  9
$PUCSORGBOTTOM
 10
0.0
 20
0.0
 30
0.0
  9
$PUCSORGLEFT
 10
0.0
 20
0.0
 30
0.0
  9
$PUCSORGRIGHT
 10
0.0
 20
0.0
 30
0.0
  9
$PUCSORGFRONT
 10
0.0
 20
0.0
 30
0.0
  9
$PUCSORGBACK
 10
0.0
 20
0.0
 30
0.0
  9
$USERI1
 70
     0
  9
$USERI2
 70
     0
  9
$USERI3
 70
     0
  9
$USERI4
 70
     0
  9
$USERI5
 70
     0
  9
$USERR1
 40
0.0
  9
$USERR2
 40
0.0
  9
$USERR3
 40
0.0
  9
$USERR4
 40
0.0
  9
$USERR5
 40
0.0
  9
$WORLDVIEW
 70
     1
  9
$SHADEDGE
 70
     3
  9
$SHADEDIF
 70
    70
  9
$TILEMODE
 70
     1
  9
$MAXACTVP
 70
    64
  9
$PINSBASE
 10
0.0
 20
0.0
 30
0.0
  9
$PLIMCHECK
 70
     0
  9
$PEXTMIN
 10
1.000000000000000E+20
 20
1.000000000000000E+20
 30
1.000000000000000E+20
  9
$PEXTMAX
 10
-1.000000000000000E+20
 20
-1.000000000000000E+20
 30
-1.000000000000000E+20
  9
$PLIMMIN
 10
0.0
 20
0.0
  9
$PLIMMAX
 10
12.0
 20
9.0
  9
$UNITMODE
 70
     0
  9
$VISRETAIN
 70
     1
  9
$PLINEGEN
 70
     0
  9
$PSLTSCALE
 70
     1
  9
$TREEDEPTH
 70
  3020
  9
$CMLSTYLE
  2
Standard
  9
$CMLJUST
 70
     0
  9
$CMLSCALE
 40
1.0
  9
$PROXYGRAPHICS
 70
     1
  9
$MEASUREMENT
 70
     0
  9
$CELWEIGHT
370
    -1
  9
$ENDCAPS
280
     0
  9
$JOINSTYLE
280
     0
  9
$LWDISPLAY
290
     1
  9
$INSUNITS
 70
     1
  9
$HYPERLINKBASE
  1

  9
$STYLESHEET
  1

  9
$XEDIT
290
     1
  9
$CEPSNTYPE
380
     0
  9
$PSTYLEMODE
290
     1
  9
$FINGERPRINTGUID
  2
{E7FBF1C4-65AB-F902-4A83-250C26FA677C}
  9
$VERSIONGUID
  2
{FAEB1C32-E019-11D5-929B-00C0DF256EC4}
  9
$EXTNAMES
290
     1
  9
$PSVPSCALE
 40
0.0
  9
$OLESTARTUP
290
     0
  9
$SORTENTS
280
   127
  9
$INDEXCTL
280
     0
  9
$HIDETEXT
280
     1
  9
$XCLIPFRAME
280
     2
  9
$HALOGAP
280
     0
  9
$OBSCOLOR
 70
   257
  9
$OBSLTYPE
280
     0
  9
$INTERSECTIONDISPLAY
280
     0
  9
$INTERSECTIONCOLOR
 70
   257
  9
$DIMASSOC
280
     2
  9
$PROJECTNAME
  1

  9
$CAMERADISPLAY
290
     0
  9
$LENSLENGTH
 40
50.0
  9
$CAMERAHEIGHT
 40
0.0
  9
$STEPSPERSEC
 40
2.0
  9
$STEPSIZE
 40
6.0
  9
$3DDWFPREC
 40
2.0
  9
$PSOLWIDTH
 40
0.25
  9
$PSOLHEIGHT
 40
4.0
  9
$LOFTANG1
 40
1.570796326794897
  9
$LOFTANG2
 40
1.570796326794897
  9
$LOFTMAG1
 40
0.0
  9
$LOFTMAG2
 40
0.0
  9
$LOFTPARAM
 70
     7
  9
$LOFTNORMALS
280
     1
  9
$LATITUDE
 40
37.795
  9
$LONGITUDE
 40
-122.394
  9
$NORTHDIRECTION
 40
0.0
  9
$TIMEZONE
 70
 -8000
  9
$LIGHTGLYPHDISPLAY
280
     1
  9
$TILEMODELIGHTSYNCH
280
     1
  9
$CMATERIAL
347
3C
  9
$SOLIDHIST
280
     1
  9
$SHOWHIST
280
     1
  9
$DWFFRAME
280
     2
  9
$DGNFRAME
280
     2
  9
$REALWORLDSCALE
290
     1
  9
$INTERFERECOLOR
 62
   256
  9
$CSHADOW
280
     0
  9
$SHADOWPLANELOCATION
 40
0.0
  0
ENDSEC
  0
SECTION
  2
CLASSES
  0
CLASS
  1
ACDBDICTIONARYWDFLT
  2
AcDbDictionaryWithDefault
  3
ObjectDBX Classes
 90
        0
 91
        4
280
     0
281
     0
  0
CLASS
  1
VISUALSTYLE
  2
AcDbVisualStyle
  3
ObjectDBX Classes
 90
     4095
 91
        4
280
     0
281
     0
  0
CLASS
  1
MATERIAL
  2
AcDbMaterial
  3
ObjectDBX Classes
 90
     1153
 91
        4
280
     0
281
     0
  0
CLASS
  1
SUN
  2
AcDbSun
  3
SCENEOE
 90
     1024
 91
        4
280
     0
281
     0
  0
ENDSEC
  0
SECTION
  2
TABLES
  0
TABLE
  2
VPORT
  5
8
330
0
100
AcDbSymbolTable
 70
     1
  0
VPORT
  5
29
330
8
100
AcDbSymbolTableRecord
100
AcDbViewportTableRecord
  2
*Active
 70
     0
 10
0.0
 20
0.0
 11
1.0
 21
1.0
 12
0.0
 22
0.0
 13
0.0
 23
0.0
 14
0.5
 24
0.5
 15
0.5
 25
0.5
 16
0.0
 26
0.0
 36
1.0
 17
91.00082462281999
 27
-128.4993055234307
 37
0.0
 40
256.9986110468615
 41
0.7081814508812795
 42
50.0
 43
0.0
 44
0.0
 50
0.0
 51
0.0
 71
     0
 72
   100
 73
     1
 74
     3
 75
     0
 76
     0
 77
     0
 78
     0
281
     0
 65
     1
110
0.0
120
0.0
130
0.0
111
1.0
121
0.0
131
0.0
112
0.0
122
1.0
132
0.0
 79
     0
146
0.0
 60
     3
 61
     5
292
     1
282
     1
141
0.0
142
0.0
 63
   250
361
3F
  0
ENDTAB
  0
TABLE
  2
LTYPE
  5
5
330
0
100
AcDbSymbolTable
 70
     1
  0
LTYPE
  5
14
330
5
100
AcDbSymbolTableRecord
100
AcDbLinetypeTableRecord
  2
ByBlock
 70
     0
  3

 72
    65
 73
     0
 40
0.0
  0
LTYPE
  5
15
330
5
100
AcDbSymbolTableRecord
100
AcDbLinetypeTableRecord
  2
ByLayer
 70
     0
  3

 72
    65
 73
     0
 40
0.0
  0
LTYPE
  5
16
330
5
100
AcDbSymbolTableRecord
100
AcDbLinetypeTableRecord
  2
Continuous
 70
     0
  3
Solid line
 72
    65
 73
     0
 40
0.0
  0
ENDTAB
  0
TABLE
  2
LAYER
  5
2
330
0
100
AcDbSymbolTable
 70
     2
  0
LAYER
  5
10
330
2
100
AcDbSymbolTableRecord
100
AcDbLayerTableRecord
  2
0
 70
     0
 62
     7
  6
Continuous
370
    -3
390
F
347
3E
  0
LAYER
  5
40
330
2
100
AcDbSymbolTableRecord
100
AcDbLayerTableRecord
  2
_U+30EC_U+30A4_U+30E4_U+30FC 1
 70
     0
 62
     7
  6
Continuous
370
    -3
390
F
347
3E
  0
ENDTAB
  0
TABLE
  2
STYLE
  5
3
330
0
100
AcDbSymbolTable
 70
     1
  0
STYLE
  5
11
330
3
100
AcDbSymbolTableRecord
100
AcDbTextStyleTableRecord
  2
Standard
 70
     0
 40
0.0
 41
1.0
 50
0.0
 71
     0
 42
0.2
  3
txt
  4

  0
ENDTAB
  0
TABLE
  2
VIEW
  5
6
330
0
100
AcDbSymbolTable
 70
     0
  0
ENDTAB
  0
TABLE
  2
UCS
  5
7
330
0
100
AcDbSymbolTable
 70
     0
  0
ENDTAB
  0
TABLE
  2
APPID
  5
9
330
0
100
AcDbSymbolTable
 70
     1
  0
APPID
  5
12
330
9
100
AcDbSymbolTableRecord
100
AcDbRegAppTableRecord
  2
ACAD
 70
     0
  0
ENDTAB
  0
TABLE
  2
DIMSTYLE
  5
A
330
0
100
AcDbSymbolTable
 70
     1
100
AcDbDimStyleTable
  0
DIMSTYLE
105
27
330
A
100
AcDbSymbolTableRecord
100
AcDbDimStyleTableRecord
  2
Standard
 70
     0
178
     0
340
11
  0
ENDTAB
  0
TABLE
  2
BLOCK_RECORD
  5
1
330
0
100
AcDbSymbolTable
 70
     8
  0
BLOCK_RECORD
  5
1F
330
1
100
AcDbSymbolTableRecord
100
AcDbBlockTableRecord
  2
*Model_Space
340
22
 70
     0
280
     1
281
     0
  0
BLOCK_RECORD
  5
1B
330
1
100
AcDbSymbolTableRecord
100
AcDbBlockTableRecord
  2
*Paper_Space
340
1E
 70
     0
280
     1
281
     0
  0
BLOCK_RECORD
  5
23
330
1
100
AcDbSymbolTableRecord
100
AcDbBlockTableRecord
  2
*Paper_Space0
340
26
 70
     0
280
     1
281
     0
  0
BLOCK_RECORD
  5
47
330
1
100
AcDbSymbolTableRecord
100
AcDbBlockTableRecord
  2
block 2
340
0
102
{BLKREFS
331
48
102
}
 70
     0
280
     1
281
     0
  0
BLOCK_RECORD
  5
54
330
1
100
AcDbSymbolTableRecord
100
AcDbBlockTableRecord
  2
block 3
340
0
102
{BLKREFS
331
55
102
}
 70
     0
280
     1
281
     0
  0
BLOCK_RECORD
  5
71
330
1
100
AcDbSymbolTableRecord
100
AcDbBlockTableRecord
  2
block 4
340
0
102
{BLKREFS
331
72
102
}
 70
     0
280
     1
281
     0
  0
BLOCK_RECORD
  5
7A
330
1
100
AcDbSymbolTableRecord
100
AcDbBlockTableRecord
  2
block 5
340
0
102
{BLKREFS
331
7B
102
}
 70
     0
280
     1
281
     0
  0
BLOCK_RECORD
  5
8F
330
1
100
AcDbSymbolTableRecord
100
AcDbBlockTableRecord
  2
block 6
340
0
102
{BLKREFS
331
90
102
}
 70
     0
280
     1
281
     0
  0
BLOCK_RECORD
  5
AF
330
1
100
AcDbSymbolTableRecord
100
AcDbBlockTableRecord
  2
block 7
340
0
102
{BLKREFS
331
B0
102
}
 70
     0
280
     1
281
     0
  0
BLOCK_RECORD
  5
D2
330
1
100
AcDbSymbolTableRecord
100
AcDbBlockTableRecord
  2
block 8
340
0
102
{BLKREFS
331
D3
102
}
 70
     0
280
     1
281
     0
  0
ENDTAB
  0
ENDSEC
  0
SECTION
  2
BLOCKS
  0
BLOCK
  5
20
330
1F
100
AcDbEntity
  8
0
100
AcDbBlockBegin
  2
*Model_Space
 70
     0
 10
0.0
 20
0.0
 30
0.0
  3
*Model_Space
  1

  0
ENDBLK
  5
21
330
1F
100
AcDbEntity
  8
0
100
AcDbBlockEnd
  0
BLOCK
  5
1C
330
1B
100
AcDbEntity
 67
     1
  8
0
100
AcDbBlockBegin
  2
*Paper_Space
 70
     0
 10
0.0
 20
0.0
 30
0.0
  3
*Paper_Space
  1

  0
ENDBLK
  5
1D
330
1B
100
AcDbEntity
 67
     1
  8
0
100
AcDbBlockEnd
  0
BLOCK
  5
24
330
23
100
AcDbEntity
  8
0
100
AcDbBlockBegin
  2
*Paper_Space0
 70
     0
 10
0.0
 20
0.0
 30
0.0
  3
*Paper_Space0
  1

  0
ENDBLK
  5
25
330
23
100
AcDbEntity
  8
0
100
AcDbBlockEnd
  0
BLOCK
  5
49
330
47
100
AcDbEntity
  8
0
100
AcDbBlockBegin
  2
block 2
 70
     0
 10
0.0
 20
0.0
 30
0.0
  3
block 2
  1

  0
SPLINE
  5
4B
330
47
100
AcDbEntity
  8
_U+30EC_U+30A4_U+30E4_U+30FC 1
370
     0
100
AcDbSpline
210
0.0
220
0.0
230
1.0
 70
    11
 71
     3
 72
    26
 73
    22
 74
     0
 42
0.0000000001
 43
0.0000000001
 12
1.0
 22
0.0
 32
0.0
 13
1.0
 23
0.0
 33
0.0
 40
0.0
 40
0.0
 40
0.0
 40
0.0
 40
1.0
 40
1.0
 40
1.0
 40
2.0
 40
2.0
 40
2.0
 40
3.0
 40
3.0
 40
3.0
 40
4.0
 40
4.0
 40
4.0
 40
5.0
 40
5.0
 40
5.0
 40
6.0
 40
6.0
 40
6.0
 40
7.0
 40
7.0
 40
7.0
 40
7.0
 10
85.893809657346
 20
-148.7571559957968
 30
0.0
 10
85.893809657346
 20
-148.7571559957968
 30
0.0
 10
85.893809657346
 20
-147.6526583832257
 30
0.0
 10
85.893809657346
 20
-147.6526583832257
 30
0.0
 10
85.893809657346
 20
-147.6526583832257
 30
0.0
 10
85.56376950985906
 20
-147.6526583832257
 30
0.0
 10
85.56376950985906
 20
-147.6526583832257
 30
0.0
 10
85.56376950985906
 20
-147.6526583832257
 30
0.0
 10
85.56376950985906
 20
-147.5048637869085
 30
0.0
 10
85.56376950985906
 20
-147.5048637869085
 30
0.0
 10
85.89587671463714
 20
-147.4900498763219
 30
0.0
 10
85.94238550368802
 20
-147.3270968598696
 30
0.0
 10
85.97201332486117
 20
-147.2130641993079
 30
0.0
 10
85.97201332486117
 20
-147.2130641993079
 30
0.0
 10
86.11808537343576
 20
-147.2130641993079
 30
0.0
 10
86.11808537343576
 20
-147.2130641993079
 30
0.0
 10
86.11808537343576
 20
-147.2130641993079
 30
0.0
 10
86.11808537343576
 20
-148.7571559957968
 30
0.0
 10
86.11808537343576
 20
-148.7571559957968
 30
0.0
 10
86.11808537343576
 20
-148.7571559957968
 30
0.0
 10
85.893809657346
 20
-148.7571559957968
 30
0.0
 10
85.893809657346
 20
-148.7571559957968
 30
0.0
  0
HATCH
  5
4C
330
47
100
AcDbEntity
  8
_U+30EC_U+30A4_U+30E4_U+30FC 1
 62
     7
420
 16777215
100
AcDbHatch
 10
0.0
 20
0.0
 30
0.0
210
0.0
220
0.0
230
1.0
  2
SOLID
 70
     1
 71
     0
 91
        1
 92
        1
 93
        1
 72
     4
 94
        3
 73
     0
 74
     1
 95
       26
 96
       22
 40
0.0
 40
0.0
 40
0.0
 40
0.0
 40
1.0
 40
1.0
 40
1.0
 40
2.0
 40
2.0
 40
2.0
 40
3.0
 40
3.0
 40
3.0
 40
4.0
 40
4.0
 40
4.0
 40
5.0
 40
5.0
 40
5.0
 40
6.0
 40
6.0
 40
6.0
 40
7.0
 40
7.0
 40
7.0
 40
7.0
 10
85.893809657346
 20
-148.7571559957968
 10
85.893809657346
 20
-148.7571559957968
 10
85.893809657346
 20
-147.6526583832257
 10
85.893809657346
 20
-147.6526583832257
 10
85.893809657346
 20
-147.6526583832257
 10
85.56376950985906
 20
-147.6526583832257
 10
85.56376950985906
 20
-147.6526583832257
 10
85.56376950985906
 20
-147.6526583832257
 10
85.56376950985906
 20
-147.5048637869085
 10
85.56376950985906
 20
-147.5048637869085
 10
85.89587671463714
 20
-147.4900498763219
 10
85.94238550368802
 20
-147.3270968598696
 10
85.97201332486117
 20
-147.2130641993079
 10
85.97201332486117
 20
-147.2130641993079
 10
86.11808537343576
 20
-147.2130641993079
 10
86.11808537343576
 20
-147.2130641993079
 10
86.11808537343576
 20
-147.2130641993079
 10
86.11808537343576
 20
-148.7571559957968
 10
86.11808537343576
 20
-148.7571559957968
 10
86.11808537343576
 20
-148.7571559957968
 10
85.893809657346
 20
-148.7571559957968
 10
85.893809657346
 20
-148.7571559957968
 97
        0
 97
        0
 75
     2
 76
     1
 98
        0
  0
SPLINE
  5
4D
330
47
100
AcDbEntity
  8
_U+30EC_U+30A4_U+30E4_U+30FC 1
370
     0
100
AcDbSpline
210
0.0
220
0.0
230
1.0
 70
    11
 71
     3
 72
    29
 73
    25
 74
     0
 42
0.0000000001
 43
0.0000000001
 12
1.0
 22
0.0
 32
0.0
 13
1.0
 23
0.0
 33
0.0
 40
0.0
 40
0.0
 40
0.0
 40
0.0
 40
1.0
 40
1.0
 40
1.0
 40
2.0
 40
2.0
 40
2.0
 40
3.0
 40
3.0
 40
3.0
 40
4.0
 40
4.0
 40
4.0
 40
5.0
 40
5.0
 40
5.0
 40
6.0
 40
6.0
 40
6.0
 40
7.0
 40
7.0
 40
7.0
 40
8.0
 40
8.0
 40
8.0
 40
8.0
 10
87.51696639522146
 20
-148.5793890687579
 30
0.0
 10
87.40913490653314
 20
-148.7888508742611
 30
0.0
 10
87.23567434885081
 20
-148.8081434089785
 30
0.0
 10
87.11923012144936
 20
-148.8081434089785
 30
0.0
 10
86.95851641706246
 20
-148.8081434089785
 30
0.0
 10
86.81675073784443
 20
-148.7612901103791
 30
0.0
 10
86.72149384767727
 20
-148.5793890687579
 30
0.0
 10
86.61796872834552
 20
-148.3847411738413
 30
0.0
 10
86.59884844840238
 20
-148.1480631140047
 30
0.0
 10
86.59884844840238
 20
-147.9847655880038
 30
0.0
 10
86.59884844840238
 20
-147.8411051062689
 30
0.0
 10
86.6157294162801
 20
-147.5892686262971
 30
0.0
 10
86.72149384767727
 20
-147.3904866167982
 30
0.0
 10
86.82949759113986
 20
-147.187570492717
 30
0.0
 10
86.99021129552676
 20
-147.1641438434173
 30
0.0
 10
87.11923012144936
 20
-147.1641438434173
 30
0.0
 10
87.27787676854511
 20
-147.1641438434173
 30
0.0
 10
87.4217095050543
 20
-147.208585575177
 30
0.0
 10
87.51696639522146
 20
-147.3904866167982
 30
0.0
 10
87.61635739997091
 20
-147.5830674544237
 30
0.0
 10
87.63961179449635
 20
-147.8114772850957
 30
0.0
 10
87.63961179449635
 20
-147.9847655880038
 30
0.0
 10
87.63961179449635
 20
-148.1563313431693
 30
0.0
 10
87.61859671203632
 20
-148.387152740681
 30
0.0
 10
87.51696639522146
 20
-148.5793890687579
 30
0.0
  0
SPLINE
  5
4E
330
47
100
AcDbEntity
  8
_U+30EC_U+30A4_U+30E4_U+30FC 1
370
     0
100
AcDbSpline
210
0.0
220
0.0
230
1.0
 70
    11
 71
     3
 72
    17
 73
    13
 74
     0
 42
0.0000000001
 43
0.0000000001
 12
1.0
 22
0.0
 32
0.0
 13
1.0
 23
0.0
 33
0.0
 40
0.0
 40
0.0
 40
0.0
 40
0.0
 40
1.0
 40
1.0
 40
1.0
 40
2.0
 40
2.0
 40
2.0
 40
3.0
 40
3.0
 40
3.0
 40
4.0
 40
4.0
 40
4.0
 40
4.0
 10
87.11923012144936
 20
-147.3567246810428
 30
0.0
 10
86.86963295354302
 20
-147.3567246810428
 30
0.0
 10
86.82312416449214
 20
-147.6402560394788
 30
0.0
 10
86.82312416449214
 20
-147.9847655880038
 30
0.0
 10
86.82312416449214
 20
-148.304470449035
 30
0.0
 10
86.859125412313
 20
-148.6131510045134
 30
0.0
 10
87.11923012144936
 20
-148.6131510045134
 30
0.0
 10
87.36676023206456
 20
-148.6131510045134
 30
0.0
 10
87.41550833318085
 20
-148.332031212917
 30
0.0
 10
87.41550833318085
 20
-147.9847655880038
 30
0.0
 10
87.41550833318085
 20
-147.6657497460697
 30
0.0
 10
87.37744002806883
 20
-147.3567246810428
 30
0.0
 10
87.11923012144936
 20
-147.3567246810428
 30
0.0
  0
HATCH
  5
4F
330
47
100
AcDbEntity
  8
_U+30EC_U+30A4_U+30E4_U+30FC 1
 62
     7
420
 16777215
100
AcDbHatch
 10
0.0
 20
0.0
 30
0.0
210
0.0
220
0.0
230
1.0
  2
SOLID
 70
     1
 71
     0
 91
        2
 92
        1
 93
        1
 72
     4
 94
        3
 73
     0
 74
     1
 95
       29
 96
       25
 40
0.0
 40
0.0
 40
0.0
 40
0.0
 40
1.0
 40
1.0
 40
1.0
 40
2.0
 40
2.0
 40
2.0
 40
3.0
 40
3.0
 40
3.0
 40
4.0
 40
4.0
 40
4.0
 40
5.0
 40
5.0
 40
5.0
 40
6.0
 40
6.0
 40
6.0
 40
7.0
 40
7.0
 40
7.0
 40
8.0
 40
8.0
 40
8.0
 40
8.0
 10
87.51696639522146
 20
-148.5793890687579
 10
87.40913490653314
 20
-148.7888508742611
 10
87.23567434885081
 20
-148.8081434089785
 10
87.11923012144936
 20
-148.8081434089785
 10
86.95851641706246
 20
-148.8081434089785
 10
86.81675073784443
 20
-148.7612901103791
 10
86.72149384767727
 20
-148.5793890687579
 10
86.61796872834552
 20
-148.3847411738413
 10
86.59884844840238
 20
-148.1480631140047
 10
86.59884844840238
 20
-147.9847655880038
 10
86.59884844840238
 20
-147.8411051062689
 10
86.6157294162801
 20
-147.5892686262971
 10
86.72149384767727
 20
-147.3904866167982
 10
86.82949759113986
 20
-147.187570492717
 10
86.99021129552676
 20
-147.1641438434173
 10
87.11923012144936
 20
-147.1641438434173
 10
87.27787676854511
 20
-147.1641438434173
 10
87.4217095050543
 20
-147.208585575177
 10
87.51696639522146
 20
-147.3904866167982
 10
87.61635739997091
 20
-147.5830674544237
 10
87.63961179449635
 20
-147.8114772850957
 10
87.63961179449635
 20
-147.9847655880038
 10
87.63961179449635
 20
-148.1563313431693
 10
87.61859671203632
 20
-148.387152740681
 10
87.51696639522146
 20
-148.5793890687579
 97
        0
 97
        0
 92
        1
 93
        1
 72
     4
 94
        3
 73
     0
 74
     1
 95
       17
 96
       13
 40
0.0
 40
0.0
 40
0.0
 40
0.0
 40
1.0
 40
1.0
 40
1.0
 40
2.0
 40
2.0
 40
2.0
 40
3.0
 40
3.0
 40
3.0
 40
4.0
 40
4.0
 40
4.0
 40
4.0
 10
87.11923012144936
 20
-147.3567246810428
 10
86.86963295354302
 20
-147.3567246810428
 10
86.82312416449214
 20
-147.6402560394788
 10
86.82312416449214
 20
-147.9847655880038
 10
86.82312416449214
 20
-148.304470449035
 10
86.859125412313
 20
-148.6131510045134
 10
87.11923012144936
 20
-148.6131510045134
 10
87.36676023206456
 20
-148.6131510045134
 10
87.41550833318085
 20
-148.332031212917
 10
87.41550833318085
 20
-147.9847655880038
 10
87.41550833318085
 20
-147.6657497460697
 10
87.37744002806883
 20
-147.3567246810428
 10
87.11923012144936
 20
-147.3567246810428
 97
        0
 97
        0
 75
     2
 76
     1
 98
        0
  0
ENDBLK
  5
4A
330
47
100
AcDbEntity
  8
0
100
AcDbBlockEnd
  0
BLOCK
  5
56
330
54
100
AcDbEntity
  8
0
100
AcDbBlockBegin
  2
block 3
 70
     0
 10
0.0
 20
0.0
 30
0.0
  3
block 3
  1

  0
SPLINE
  5
58
330
54
100
AcDbEntity
  8
_U+30EC_U+30A4_U+30E4_U+30FC 1
370
     0
100
AcDbSpline
210
0.0
220
0.0
230
1.0
 70
    11
 71
     3
 72
    26
 73
    22
 74
     0
 42
0.0000000001
 43
0.0000000001
 12
1.0
 22
0.0
 32
0.0
 13
1.0
 23
0.0
 33
0.0
 40
0.0
 40
0.0
 40
0.0
 40
0.0
 40
1.0
 40
1.0
 40
1.0
 40
2.0
 40
2.0
 40
2.0
 40
3.0
 40
3.0
 40
3.0
 40
4.0
 40
4.0
 40
4.0
 40
5.0
 40
5.0
 40
5.0
 40
6.0
 40
6.0
 40
6.0
 40
7.0
 40
7.0
 40
7.0
 40
7.0
 10
75.97331269802056
 20
-148.7571559957968
 30
0.0
 10
75.97331269802056
 20
-148.7571559957968
 30
0.0
 10
75.97331269802056
 20
-147.6526583832257
 30
0.0
 10
75.97331269802056
 20
-147.6526583832257
 30
0.0
 10
75.97331269802056
 20
-147.6526583832257
 30
0.0
 10
75.64327255053362
 20
-147.6526583832257
 30
0.0
 10
75.64327255053362
 20
-147.6526583832257
 30
0.0
 10
75.64327255053362
 20
-147.6526583832257
 30
0.0
 10
75.64327255053362
 20
-147.5048637869085
 30
0.0
 10
75.64327255053362
 20
-147.5048637869085
 30
0.0
 10
75.97537975531172
 20
-147.4900498763219
 30
0.0
 10
76.02188854436258
 20
-147.3270968598696
 30
0.0
 10
76.05151636553573
 20
-147.2130641993079
 30
0.0
 10
76.05151636553573
 20
-147.2130641993079
 30
0.0
 10
76.19758841411033
 20
-147.2130641993079
 30
0.0
 10
76.19758841411033
 20
-147.2130641993079
 30
0.0
 10
76.19758841411033
 20
-147.2130641993079
 30
0.0
 10
76.19758841411033
 20
-148.7571559957968
 30
0.0
 10
76.19758841411033
 20
-148.7571559957968
 30
0.0
 10
76.19758841411033
 20
-148.7571559957968
 30
0.0
 10
75.97331269802056
 20
-148.7571559957968
 30
0.0
 10
75.97331269802056
 20
-148.7571559957968
 30
0.0
  0
HATCH
  5
59
330
54
100
AcDbEntity
  8
_U+30EC_U+30A4_U+30E4_U+30FC 1
 62
     7
420
 16777215
100
AcDbHatch
 10
0.0
 20
0.0
 30
0.0
210
0.0
220
0.0
230
1.0
  2
SOLID
 70
     1
 71
     0
 91
        1
 92
        1
 93
        1
 72
     4
 94
        3
 73
     0
 74
     1
 95
       26
 96
       22
 40
0.0
 40
0.0
 40
0.0
 40
0.0
 40
1.0
 40
1.0
 40
1.0
 40
2.0
 40
2.0
 40
2.0
 40
3.0
 40
3.0
 40
3.0
 40
4.0
 40
4.0
 40
4.0
 40
5.0
 40
5.0
 40
5.0
 40
6.0
 40
6.0
 40
6.0
 40
7.0
 40
7.0
 40
7.0
 40
7.0
 10
75.97331269802056
 20
-148.7571559957968
 10
75.97331269802056
 20
-148.7571559957968
 10
75.97331269802056
 20
-147.6526583832257
 10
75.97331269802056
 20
-147.6526583832257
 10
75.97331269802056
 20
-147.6526583832257
 10
75.64327255053362
 20
-147.6526583832257
 10
75.64327255053362
 20
-147.6526583832257
 10
75.64327255053362
 20
-147.6526583832257
 10
75.64327255053362
 20
-147.5048637869085
 10
75.64327255053362
 20
-147.5048637869085
 10
75.97537975531172
 20
-147.4900498763219
 10
76.02188854436258
 20
-147.3270968598696
 10
76.05151636553573
 20
-147.2130641993079
 10
76.05151636553573
 20
-147.2130641993079
 10
76.19758841411033
 20
-147.2130641993079
 10
76.19758841411033
 20
-147.2130641993079
 10
76.19758841411033
 20
-147.2130641993079
 10
76.19758841411033
 20
-148.7571559957968
 10
76.19758841411033
 20
-148.7571559957968
 10
76.19758841411033
 20
-148.7571559957968
 10
75.97331269802056
 20
-148.7571559957968
 10
75.97331269802056
 20
-148.7571559957968
 97
        0
 97
        0
 75
     2
 76
     1
 98
        0
  0
SPLINE
  5
5A
330
54
100
AcDbEntity
  8
_U+30EC_U+30A4_U+30E4_U+30FC 1
370
     0
100
AcDbSpline
210
0.0
220
0.0
230
1.0
 70
    11
 71
     3
 72
    29
 73
    25
 74
     0
 42
0.0000000001
 43
0.0000000001
 12
1.0
 22
0.0
 32
0.0
 13
1.0
 23
0.0
 33
0.0
 40
0.0
 40
0.0
 40
0.0
 40
0.0
 40
1.0
 40
1.0
 40
1.0
 40
2.0
 40
2.0
 40
2.0
 40
3.0
 40
3.0
 40
3.0
 40
4.0
 40
4.0
 40
4.0
 40
5.0
 40
5.0
 40
5.0
 40
6.0
 40
6.0
 40
6.0
 40
7.0
 40
7.0
 40
7.0
 40
8.0
 40
8.0
 40
8.0
 40
8.0
 10
77.59646943589603
 20
-148.5793890687579
 30
0.0
 10
77.4886379472077
 20
-148.7888508742611
 30
0.0
 10
77.31517738952537
 20
-148.8081434089785
 30
0.0
 10
77.19873316212393
 20
-148.8081434089785
 30
0.0
 10
77.03801945773702
 20
-148.8081434089785
 30
0.0
 10
76.896253778519
 20
-148.7612901103791
 30
0.0
 10
76.80099688835183
 20
-148.5793890687579
 30
0.0
 10
76.69747176902008
 20
-148.3847411738413
 30
0.0
 10
76.67835148907695
 20
-148.1480631140047
 30
0.0
 10
76.67835148907695
 20
-147.9847655880038
 30
0.0
 10
76.67835148907695
 20
-147.8411051062689
 30
0.0
 10
76.69523245695467
 20
-147.5892686262971
 30
0.0
 10
76.80099688835183
 20
-147.3904866167982
 30
0.0
 10
76.90900063181442
 20
-147.187570492717
 30
0.0
 10
77.06971433620133
 20
-147.1641438434173
 30
0.0
 10
77.19873316212393
 20
-147.1641438434173
 30
0.0
 10
77.35737980921968
 20
-147.1641438434173
 30
0.0
 10
77.50121254572886
 20
-147.208585575177
 30
0.0
 10
77.59646943589603
 20
-147.3904866167982
 30
0.0
 10
77.69586044064549
 20
-147.5830674544237
 30
0.0
 10
77.71911483517091
 20
-147.8114772850957
 30
0.0
 10
77.71911483517091
 20
-147.9847655880038
 30
0.0
 10
77.71911483517091
 20
-148.1563313431693
 30
0.0
 10
77.69809975271089
 20
-148.387152740681
 30
0.0
 10
77.59646943589603
 20
-148.5793890687579
 30
0.0
  0
SPLINE
  5
5B
330
54
100
AcDbEntity
  8
_U+30EC_U+30A4_U+30E4_U+30FC 1
370
     0
100
AcDbSpline
210
0.0
220
0.0
230
1.0
 70
    11
 71
     3
 72
    17
 73
    13
 74
     0
 42
0.0000000001
 43
0.0000000001
 12
1.0
 22
0.0
 32
0.0
 13
1.0
 23
0.0
 33
0.0
 40
0.0
 40
0.0
 40
0.0
 40
0.0
 40
1.0
 40
1.0
 40
1.0
 40
2.0
 40
2.0
 40
2.0
 40
3.0
 40
3.0
 40
3.0
 40
4.0
 40
4.0
 40
4.0
 40
4.0
 10
77.19873316212393
 20
-147.3567246810428
 30
0.0
 10
76.94913599421758
 20
-147.3567246810428
 30
0.0
 10
76.90262720516671
 20
-147.6402560394788
 30
0.0
 10
76.90262720516671
 20
-147.9847655880038
 30
0.0
 10
76.90262720516671
 20
-148.304470449035
 30
0.0
 10
76.93862845298757
 20
-148.6131510045134
 30
0.0
 10
77.19873316212393
 20
-148.6131510045134
 30
0.0
 10
77.44626327273913
 20
-148.6131510045134
 30
0.0
 10
77.49501137385542
 20
-148.332031212917
 30
0.0
 10
77.49501137385542
 20
-147.9847655880038
 30
0.0
 10
77.49501137385542
 20
-147.6657497460697
 30
0.0
 10
77.45677081396914
 20
-147.3567246810428
 30
0.0
 10
77.19873316212393
 20
-147.3567246810428
 30
0.0
  0
HATCH
  5
5C
330
54
100
AcDbEntity
  8
_U+30EC_U+30A4_U+30E4_U+30FC 1
 62
     7
420
 16777215
100
AcDbHatch
 10
0.0
 20
0.0
 30
0.0
210
0.0
220
0.0
230
1.0
  2
SOLID
 70
     1
 71
     0
 91
        2
 92
        1
 93
        1
 72
     4
 94
        3
 73
     0
 74
     1
 95
       29
 96
       25
 40
0.0
 40
0.0
 40
0.0
 40
0.0
 40
1.0
 40
1.0
 40
1.0
 40
2.0
 40
2.0
 40
2.0
 40
3.0
 40
3.0
 40
3.0
 40
4.0
 40
4.0
 40
4.0
 40
5.0
 40
5.0
 40
5.0
 40
6.0
 40
6.0
 40
6.0
 40
7.0
 40
7.0
 40
7.0
 40
8.0
 40
8.0
 40
8.0
 40
8.0
 10
77.59646943589603
 20
-148.5793890687579
 10
77.4886379472077
 20
-148.7888508742611
 10
77.31517738952537
 20
-148.8081434089785
 10
77.19873316212393
 20
-148.8081434089785
 10
77.03801945773702
 20
-148.8081434089785
 10
76.896253778519
 20
-148.7612901103791
 10
76.80099688835183
 20
-148.5793890687579
 10
76.69747176902008
 20
-148.3847411738413
 10
76.67835148907695
 20
-148.1480631140047
 10
76.67835148907695
 20
-147.9847655880038
 10
76.67835148907695
 20
-147.8411051062689
 10
76.69523245695467
 20
-147.5892686262971
 10
76.80099688835183
 20
-147.3904866167982
 10
76.90900063181442
 20
-147.187570492717
 10
77.06971433620133
 20
-147.1641438434173
 10
77.19873316212393
 20
-147.1641438434173
 10
77.35737980921968
 20
-147.1641438434173
 10
77.50121254572886
 20
-147.208585575177
 10
77.59646943589603
 20
-147.3904866167982
 10
77.69586044064549
 20
-147.5830674544237
 10
77.71911483517091
 20
-147.8114772850957
 10
77.71911483517091
 20
-147.9847655880038
 10
77.71911483517091
 20
-148.1563313431693
 10
77.69809975271089
 20
-148.387152740681
 10
77.59646943589603
 20
-148.5793890687579
 97
        0
 97
        0
 92
        1
 93
        1
 72
     4
 94
        3
 73
     0
 74
     1
 95
       17
 96
       13
 40
0.0
 40
0.0
 40
0.0
 40
0.0
 40
1.0
 40
1.0
 40
1.0
 40
2.0
 40
2.0
 40
2.0
 40
3.0
 40
3.0
 40
3.0
 40
4.0
 40
4.0
 40
4.0
 40
4.0
 10
77.19873316212393
 20
-147.3567246810428
 10
76.94913599421758
 20
-147.3567246810428
 10
76.90262720516671
 20
-147.6402560394788
 10
76.90262720516671
 20
-147.9847655880038
 10
76.90262720516671
 20
-148.304470449035
 10
76.93862845298757
 20
-148.6131510045134
 10
77.19873316212393
 20
-148.6131510045134
 10
77.44626327273913
 20
-148.6131510045134
 10
77.49501137385542
 20
-148.332031212917
 10
77.49501137385542
 20
-147.9847655880038
 10
77.49501137385542
 20
-147.6657497460697
 10
77.45677081396914
 20
-147.3567246810428
 10
77.19873316212393
 20
-147.3567246810428
 97
        0
 97
        0
 75
     2
 76
     1
 98
        0
  0
ENDBLK
  5
57
330
54
100
AcDbEntity
  8
0
100
AcDbBlockEnd
  0
BLOCK
  5
73
330
71
100
AcDbEntity
  8
0
100
AcDbBlockBegin
  2
block 4
 70
     0
 10
0.0
 20
0.0
 30
0.0
  3
block 4
  1

  0
SPLINE
  5
75
330
71
100
AcDbEntity
  8
_U+30EC_U+30A4_U+30E4_U+30FC 1
370
     0
100
AcDbSpline
210
0.0
220
0.0
230
1.0
 70
    11
 71
     3
 72
    44
 73
    40
 74
     0
 42
0.0000000001
 43
0.0000000001
 12
1.0
 22
0.0
 32
0.0
 13
1.0
 23
0.0
 33
0.0
 40
0.0
 40
0.0
 40
0.0
 40
0.0
 40
1.0
 40
1.0
 40
1.0
 40
2.0
 40
2.0
 40
2.0
 40
3.0
 40
3.0
 40
3.0
 40
4.0
 40
4.0
 40
4.0
 40
5.0
 40
5.0
 40
5.0
 40
6.0
 40
6.0
 40
6.0
 40
7.0
 40
7.0
 40
7.0
 40
8.0
 40
8.0
 40
8.0
 40
9.0
 40
9.0
 40
9.0
 40
10.0
 40
10.0
 40
10.0
 40
11.0
 40
11.0
 40
11.0
 40
12.0
 40
12.0
 40
12.0
 40
13.0
 40
13.0
 40
13.0
 40
13.0
 10
66.32652857499824
 20
-135.4294596015593
 30
0.0
 10
66.48517522209399
 20
-135.6471896362271
 30
0.0
 10
66.55924477502685
 20
-135.7402072143288
 30
0.0
 10
66.70307751153604
 20
-135.7891275702194
 30
0.0
 10
66.70307751153604
 20
-135.7891275702194
 30
0.0
 10
66.70307751153604
 20
-135.0105359905529
 30
0.0
 10
66.70307751153604
 20
-135.0105359905529
 30
0.0
 10
66.70307751153604
 20
-135.0105359905529
 30
0.0
 10
66.90823294768266
 20
-135.0105359905529
 30
0.0
 10
66.90823294768266
 20
-135.0105359905529
 30
0.0
 10
66.90823294768266
 20
-135.0105359905529
 30
0.0
 10
66.90823294768266
 20
-136.0385524833515
 30
0.0
 10
66.90823294768266
 20
-136.0385524833515
 30
0.0
 10
66.55063203631373
 20
-136.0068576048872
 30
0.0
 10
66.47242836879856
 20
-135.9414007906674
 30
0.0
 10
66.17408309977593
 20
-135.5562391154165
 30
0.0
 10
65.97530109027701
 20
-135.3002685208624
 30
0.0
 10
65.90760496399186
 20
-135.2348117066427
 30
0.0
 10
65.77014565413039
 20
-135.2348117066427
 30
0.0
 10
65.65163436943779
 20
-135.2348117066427
 30
0.0
 10
65.52054848622403
 20
-135.3068142022844
 30
0.0
 10
65.52054848622403
 20
-135.5031846449436
 30
0.0
 10
65.52054848622403
 20
-135.7636338636285
 30
0.0
 10
65.75102537418725
 20
-135.7719020927931
 30
0.0
 10
65.8674696015887
 20
-135.776380716924
 30
0.0
 10
65.8674696015887
 20
-135.776380716924
 30
0.0
 10
65.8674696015887
 20
-136.0006564330137
 30
0.0
 10
65.8674696015887
 20
-136.0006564330137
 30
0.0
 10
65.74051783295724
 20
-135.9920436943006
 30
0.0
 10
65.62837997491235
 20
-135.9813638982963
 30
0.0
 10
65.50986869021976
 20
-135.90109317349
 30
0.0
 10
65.34915498583285
 20
-135.7911946275105
 30
0.0
 10
65.31522079530315
 20
-135.605159471307
 30
0.0
 10
65.31522079530315
 20
-135.4887152439056
 30
0.0
 10
65.31522079530315
 20
-135.211385057343
 30
0.0
 10
65.49936114898975
 20
-135.0043348186795
 30
0.0
 10
65.77221271142153
 20
-135.0043348186795
 30
0.0
 10
66.0006225420936
 20
-135.0043348186795
 30
0.0
 10
66.10018580161731
 20
-135.1204345365324
 30
0.0
 10
66.32652857499824
 20
-135.4294596015593
 30
0.0
  0
HATCH
  5
76
330
71
100
AcDbEntity
  8
_U+30EC_U+30A4_U+30E4_U+30FC 1
 62
     7
420
 16777215
100
AcDbHatch
 10
0.0
 20
0.0
 30
0.0
210
0.0
220
0.0
230
1.0
  2
SOLID
 70
     1
 71
     0
 91
        1
 92
        1
 93
        1
 72
     4
 94
        3
 73
     0
 74
     1
 95
       44
 96
       40
 40
0.0
 40
0.0
 40
0.0
 40
0.0
 40
1.0
 40
1.0
 40
1.0
 40
2.0
 40
2.0
 40
2.0
 40
3.0
 40
3.0
 40
3.0
 40
4.0
 40
4.0
 40
4.0
 40
5.0
 40
5.0
 40
5.0
 40
6.0
 40
6.0
 40
6.0
 40
7.0
 40
7.0
 40
7.0
 40
8.0
 40
8.0
 40
8.0
 40
9.0
 40
9.0
 40
9.0
 40
10.0
 40
10.0
 40
10.0
 40
11.0
 40
11.0
 40
11.0
 40
12.0
 40
12.0
 40
12.0
 40
13.0
 40
13.0
 40
13.0
 40
13.0
 10
66.32652857499824
 20
-135.4294596015593
 10
66.48517522209399
 20
-135.6471896362271
 10
66.55924477502685
 20
-135.7402072143288
 10
66.70307751153604
 20
-135.7891275702194
 10
66.70307751153604
 20
-135.7891275702194
 10
66.70307751153604
 20
-135.0105359905529
 10
66.70307751153604
 20
-135.0105359905529
 10
66.70307751153604
 20
-135.0105359905529
 10
66.90823294768266
 20
-135.0105359905529
 10
66.90823294768266
 20
-135.0105359905529
 10
66.90823294768266
 20
-135.0105359905529
 10
66.90823294768266
 20
-136.0385524833515
 10
66.90823294768266
 20
-136.0385524833515
 10
66.55063203631373
 20
-136.0068576048872
 10
66.47242836879856
 20
-135.9414007906674
 10
66.17408309977593
 20
-135.5562391154165
 10
65.97530109027701
 20
-135.3002685208624
 10
65.90760496399186
 20
-135.2348117066427
 10
65.77014565413039
 20
-135.2348117066427
 10
65.65163436943779
 20
-135.2348117066427
 10
65.52054848622403
 20
-135.3068142022844
 10
65.52054848622403
 20
-135.5031846449436
 10
65.52054848622403
 20
-135.7636338636285
 10
65.75102537418725
 20
-135.7719020927931
 10
65.8674696015887
 20
-135.776380716924
 10
65.8674696015887
 20
-135.776380716924
 10
65.8674696015887
 20
-136.0006564330137
 10
65.8674696015887
 20
-136.0006564330137
 10
65.74051783295724
 20
-135.9920436943006
 10
65.62837997491235
 20
-135.9813638982963
 10
65.50986869021976
 20
-135.90109317349
 10
65.34915498583285
 20
-135.7911946275105
 10
65.31522079530315
 20
-135.605159471307
 10
65.31522079530315
 20
-135.4887152439056
 10
65.31522079530315
 20
-135.211385057343
 10
65.49936114898975
 20
-135.0043348186795
 10
65.77221271142153
 20
-135.0043348186795
 10
66.0006225420936
 20
-135.0043348186795
 10
66.10018580161731
 20
-135.1204345365324
 10
66.32652857499824
 20
-135.4294596015593
 97
        0
 97
        0
 75
     2
 76
     1
 98
        0
  0
SPLINE
  5
77
330
71
100
AcDbEntity
  8
_U+30EC_U+30A4_U+30E4_U+30FC 1
370
     0
100
AcDbSpline
210
0.0
220
0.0
230
1.0
 70
    11
 71
     3
 72
    29
 73
    25
 74
     0
 42
0.0000000001
 43
0.0000000001
 12
1.0
 22
0.0
 32
0.0
 13
1.0
 23
0.0
 33
0.0
 40
0.0
 40
0.0
 40
0.0
 40
0.0
 40
1.0
 40
1.0
 40
1.0
 40
2.0
 40
2.0
 40
2.0
 40
3.0
 40
3.0
 40
3.0
 40
4.0
 40
4.0
 40
4.0
 40
5.0
 40
5.0
 40
5.0
 40
6.0
 40
6.0
 40
6.0
 40
7.0
 40
7.0
 40
7.0
 40
8.0
 40
8.0
 40
8.0
 40
8.0
 10
66.73046602064377
 20
-133.9480685429019
 30
0.0
 10
66.93992782614697
 20
-134.0555555220417
 30
0.0
 10
66.95904810609011
 20
-134.2291883344983
 30
0.0
 10
66.95904810609011
 20
-134.3456325618997
 30
0.0
 10
66.95904810609011
 20
-134.5061740115123
 30
0.0
 10
66.91253931703923
 20
-134.6481119455046
 30
0.0
 10
66.73046602064377
 20
-134.7431965808975
 30
0.0
 10
66.53581812572716
 20
-134.8468939550036
 30
0.0
 10
66.29896781111623
 20
-134.8658419801724
 30
0.0
 10
66.13601479466392
 20
-134.8658419801724
 30
0.0
 10
65.99218205815474
 20
-134.8658419801724
 30
0.0
 10
65.74051783295724
 20
-134.8493055218432
 30
0.0
 10
65.54156356868405
 20
-134.7431965808975
 30
0.0
 10
65.33847518982859
 20
-134.6353650922092
 30
0.0
 10
65.31522079530315
 20
-134.474479133048
 30
0.0
 10
65.31522079530315
 20
-134.3456325618997
 30
0.0
 10
65.31522079530315
 20
-134.1871581695782
 30
0.0
 10
65.35966252706287
 20
-134.0431531782948
 30
0.0
 10
65.54156356868405
 20
-133.9480685429019
 30
0.0
 10
65.73414440630953
 20
-133.8485052833782
 30
0.0
 10
65.96255423698159
 20
-133.825423143627
 30
0.0
 10
66.13601479466392
 20
-133.825423143627
 30
0.0
 10
66.3074082950551
 20
-133.825423143627
 30
0.0
 10
66.53805743779257
 20
-133.8460937165385
 30
0.0
 10
66.73046602064377
 20
-133.9480685429019
 30
0.0
  0
SPLINE
  5
78
330
71
100
AcDbEntity
  8
_U+30EC_U+30A4_U+30E4_U+30FC 1
370
     0
100
AcDbSpline
210
0.0
220
0.0
230
1.0
 70
    11
 71
     3
 72
    17
 73
    13
 74
     0
 42
0.0000000001
 43
0.0000000001
 12
1.0
 22
0.0
 32
0.0
 13
1.0
 23
0.0
 33
0.0
 40
0.0
 40
0.0
 40
0.0
 40
0.0
 40
1.0
 40
1.0
 40
1.0
 40
2.0
 40
2.0
 40
2.0
 40
3.0
 40
3.0
 40
3.0
 40
4.0
 40
4.0
 40
4.0
 40
4.0
 10
65.5078016329286
 20
-134.3456325618997
 30
0.0
 10
65.5078016329286
 20
-134.5950574750318
 30
0.0
 10
65.79133299136467
 20
-134.6419107736312
 30
0.0
 10
66.13601479466392
 20
-134.6419107736312
 30
0.0
 10
66.45554740092084
 20
-134.6419107736312
 30
0.0
 10
66.76440021117348
 20
-134.6057372710361
 30
0.0
 10
66.76440021117348
 20
-134.3456325618997
 30
0.0
 10
66.76440021117348
 20
-134.0982747060588
 30
0.0
 10
66.48293591002857
 20
-134.0493543501682
 30
0.0
 10
66.13601479466392
 20
-134.0493543501682
 30
0.0
 10
65.81665444318125
 20
-134.0493543501682
 30
0.0
 10
65.5078016329286
 20
-134.0875949100545
 30
0.0
 10
65.5078016329286
 20
-134.3456325618997
 30
0.0
  0
HATCH
  5
79
330
71
100
AcDbEntity
  8
_U+30EC_U+30A4_U+30E4_U+30FC 1
 62
     7
420
 16777215
100
AcDbHatch
 10
0.0
 20
0.0
 30
0.0
210
0.0
220
0.0
230
1.0
  2
SOLID
 70
     1
 71
     0
 91
        2
 92
        1
 93
        1
 72
     4
 94
        3
 73
     0
 74
     1
 95
       29
 96
       25
 40
0.0
 40
0.0
 40
0.0
 40
0.0
 40
1.0
 40
1.0
 40
1.0
 40
2.0
 40
2.0
 40
2.0
 40
3.0
 40
3.0
 40
3.0
 40
4.0
 40
4.0
 40
4.0
 40
5.0
 40
5.0
 40
5.0
 40
6.0
 40
6.0
 40
6.0
 40
7.0
 40
7.0
 40
7.0
 40
8.0
 40
8.0
 40
8.0
 40
8.0
 10
66.73046602064377
 20
-133.9480685429019
 10
66.93992782614697
 20
-134.0555555220417
 10
66.95904810609011
 20
-134.2291883344983
 10
66.95904810609011
 20
-134.3456325618997
 10
66.95904810609011
 20
-134.5061740115123
 10
66.91253931703923
 20
-134.6481119455046
 10
66.73046602064377
 20
-134.7431965808975
 10
66.53581812572716
 20
-134.8468939550036
 10
66.29896781111623
 20
-134.8658419801724
 10
66.13601479466392
 20
-134.8658419801724
 10
65.99218205815474
 20
-134.8658419801724
 10
65.74051783295724
 20
-134.8493055218432
 10
65.54156356868405
 20
-134.7431965808975
 10
65.33847518982859
 20
-134.6353650922092
 10
65.31522079530315
 20
-134.474479133048
 10
65.31522079530315
 20
-134.3456325618997
 10
65.31522079530315
 20
-134.1871581695782
 10
65.35966252706287
 20
-134.0431531782948
 10
65.54156356868405
 20
-133.9480685429019
 10
65.73414440630953
 20
-133.8485052833782
 10
65.96255423698159
 20
-133.825423143627
 10
66.13601479466392
 20
-133.825423143627
 10
66.3074082950551
 20
-133.825423143627
 10
66.53805743779257
 20
-133.8460937165385
 10
66.73046602064377
 20
-133.9480685429019
 97
        0
 97
        0
 92
        1
 93
        1
 72
     4
 94
        3
 73
     0
 74
     1
 95
       17
 96
       13
 40
0.0
 40
0.0
 40
0.0
 40
0.0
 40
1.0
 40
1.0
 40
1.0
 40
2.0
 40
2.0
 40
2.0
 40
3.0
 40
3.0
 40
3.0
 40
4.0
 40
4.0
 40
4.0
 40
4.0
 10
65.5078016329286
 20
-134.3456325618997
 10
65.5078016329286
 20
-134.5950574750318
 10
65.79133299136467
 20
-134.6419107736312
 10
66.13601479466392
 20
-134.6419107736312
 10
66.45554740092084
 20
-134.6419107736312
 10
66.76440021117348
 20
-134.6057372710361
 10
66.76440021117348
 20
-134.3456325618997
 10
66.76440021117348
 20
-134.0982747060588
 10
66.48293591002857
 20
-134.0493543501682
 10
66.13601479466392
 20
-134.0493543501682
 10
65.81665444318125
 20
-134.0493543501682
 10
65.5078016329286
 20
-134.0875949100545
 10
65.5078016329286
 20
-134.3456325618997
 97
        0
 97
        0
 75
     2
 76
     1
 98
        0
  0
ENDBLK
  5
74
330
71
100
AcDbEntity
  8
0
100
AcDbBlockEnd
  0
BLOCK
  5
7C
330
7A
100
AcDbEntity
  8
0
100
AcDbBlockBegin
  2
block 5
 70
     0
 10
0.0
 20
0.0
 30
0.0
  3
block 5
  1

  0
SPLINE
  5
7E
330
7A
100
AcDbEntity
  8
_U+30EC_U+30A4_U+30E4_U+30FC 1
370
     0
100
AcDbSpline
210
0.0
220
0.0
230
1.0
 70
    11
 71
     3
 72
    44
 73
    40
 74
     0
 42
0.0000000001
 43
0.0000000001
 12
1.0
 22
0.0
 32
0.0
 13
1.0
 23
0.0
 33
0.0
 40
0.0
 40
0.0
 40
0.0
 40
0.0
 40
1.0
 40
1.0
 40
1.0
 40
2.0
 40
2.0
 40
2.0
 40
3.0
 40
3.0
 40
3.0
 40
4.0
 40
4.0
 40
4.0
 40
5.0
 40
5.0
 40
5.0
 40
6.0
 40
6.0
 40
6.0
 40
7.0
 40
7.0
 40
7.0
 40
8.0
 40
8.0
 40
8.0
 40
9.0
 40
9.0
 40
9.0
 40
10.0
 40
10.0
 40
10.0
 40
11.0
 40
11.0
 40
11.0
 40
12.0
 40
12.0
 40
12.0
 40
13.0
 40
13.0
 40
13.0
 40
13.0
 10
66.32652857499824
 20
-115.7350544958058
 30
0.0
 10
66.48517522209399
 20
-115.9529567852479
 30
0.0
 10
66.55924477502685
 20
-116.0461466181239
 30
0.0
 10
66.70307751153604
 20
-116.0947224644659
 30
0.0
 10
66.70307751153604
 20
-116.0947224644659
 30
0.0
 10
66.70307751153604
 20
-115.3163031395737
 30
0.0
 10
66.70307751153604
 20
-115.3163031395737
 30
0.0
 10
66.70307751153604
 20
-115.3163031395737
 30
0.0
 10
66.90823294768266
 20
-115.3163031395737
 30
0.0
 10
66.90823294768266
 20
-115.3163031395737
 30
0.0
 10
66.90823294768266
 20
-115.3163031395737
 30
0.0
 10
66.90823294768266
 20
-116.3443196323723
 30
0.0
 10
66.90823294768266
 20
-116.3443196323723
 30
0.0
 10
66.55063203631373
 20
-116.312624753908
 30
0.0
 10
66.47242836879856
 20
-116.2471679396882
 30
0.0
 10
66.17408309977593
 20
-115.8620062644373
 30
0.0
 10
65.97530109027701
 20
-115.6060356698832
 30
0.0
 10
65.90760496399186
 20
-115.5405788556635
 30
0.0
 10
65.77014565413039
 20
-115.5405788556635
 30
0.0
 10
65.65163436943779
 20
-115.5405788556635
 30
0.0
 10
65.52037623144977
 20
-115.6124090965309
 30
0.0
 10
65.52037623144977
 20
-115.8091240487387
 30
0.0
 10
65.52037623144977
 20
-116.0694010126493
 30
0.0
 10
65.75102537418725
 20
-116.0778414965882
 30
0.0
 10
65.8674696015887
 20
-116.0821478659447
 30
0.0
 10
65.8674696015887
 20
-116.0821478659447
 30
0.0
 10
65.8674696015887
 20
-116.3062513272602
 30
0.0
 10
65.8674696015887
 20
-116.3062513272602
 30
0.0
 10
65.74051783295724
 20
-116.2978108433214
 30
0.0
 10
65.62837997491235
 20
-116.2873033020914
 30
0.0
 10
65.50986869021976
 20
-116.2068603225108
 30
0.0
 10
65.34915498583285
 20
-116.0969617765313
 30
0.0
 10
65.31522079530315
 20
-115.9107543655536
 30
0.0
 10
65.31522079530315
 20
-115.7943101381521
 30
0.0
 10
65.31522079530315
 20
-115.5171522063638
 30
0.0
 10
65.49936114898975
 20
-115.309929712926
 30
0.0
 10
65.77221271142153
 20
-115.309929712926
 30
0.0
 10
66.0006225420936
 20
-115.309929712926
 30
0.0
 10
66.10018580161731
 20
-115.4262016855532
 30
0.0
 10
66.32652857499824
 20
-115.7350544958058
 30
0.0
  0
HATCH
  5
7F
330
7A
100
AcDbEntity
  8
_U+30EC_U+30A4_U+30E4_U+30FC 1
 62
     7
420
 16777215
100
AcDbHatch
 10
0.0
 20
0.0
 30
0.0
210
0.0
220
0.0
230
1.0
  2
SOLID
 70
     1
 71
     0
 91
        1
 92
        1
 93
        1
 72
     4
 94
        3
 73
     0
 74
     1
 95
       44
 96
       40
 40
0.0
 40
0.0
 40
0.0
 40
0.0
 40
1.0
 40
1.0
 40
1.0
 40
2.0
 40
2.0
 40
2.0
 40
3.0
 40
3.0
 40
3.0
 40
4.0
 40
4.0
 40
4.0
 40
5.0
 40
5.0
 40
5.0
 40
6.0
 40
6.0
 40
6.0
 40
7.0
 40
7.0
 40
7.0
 40
8.0
 40
8.0
 40
8.0
 40
9.0
 40
9.0
 40
9.0
 40
10.0
 40
10.0
 40
10.0
 40
11.0
 40
11.0
 40
11.0
 40
12.0
 40
12.0
 40
12.0
 40
13.0
 40
13.0
 40
13.0
 40
13.0
 10
66.32652857499824
 20
-115.7350544958058
 10
66.48517522209399
 20
-115.9529567852479
 10
66.55924477502685
 20
-116.0461466181239
 10
66.70307751153604
 20
-116.0947224644659
 10
66.70307751153604
 20
-116.0947224644659
 10
66.70307751153604
 20
-115.3163031395737
 10
66.70307751153604
 20
-115.3163031395737
 10
66.70307751153604
 20
-115.3163031395737
 10
66.90823294768266
 20
-115.3163031395737
 10
66.90823294768266
 20
-115.3163031395737
 10
66.90823294768266
 20
-115.3163031395737
 10
66.90823294768266
 20
-116.3443196323723
 10
66.90823294768266
 20
-116.3443196323723
 10
66.55063203631373
 20
-116.312624753908
 10
66.47242836879856
 20
-116.2471679396882
 10
66.17408309977593
 20
-115.8620062644373
 10
65.97530109027701
 20
-115.6060356698832
 10
65.90760496399186
 20
-115.5405788556635
 10
65.77014565413039
 20
-115.5405788556635
 10
65.65163436943779
 20
-115.5405788556635
 10
65.52037623144977
 20
-115.6124090965309
 10
65.52037623144977
 20
-115.8091240487387
 10
65.52037623144977
 20
-116.0694010126493
 10
65.75102537418725
 20
-116.0778414965882
 10
65.8674696015887
 20
-116.0821478659447
 10
65.8674696015887
 20
-116.0821478659447
 10
65.8674696015887
 20
-116.3062513272602
 10
65.8674696015887
 20
-116.3062513272602
 10
65.74051783295724
 20
-116.2978108433214
 10
65.62837997491235
 20
-116.2873033020914
 10
65.50986869021976
 20
-116.2068603225108
 10
65.34915498583285
 20
-116.0969617765313
 10
65.31522079530315
 20
-115.9107543655536
 10
65.31522079530315
 20
-115.7943101381521
 10
65.31522079530315
 20
-115.5171522063638
 10
65.49936114898975
 20
-115.309929712926
 10
65.77221271142153
 20
-115.309929712926
 10
66.0006225420936
 20
-115.309929712926
 10
66.10018580161731
 20
-115.4262016855532
 10
66.32652857499824
 20
-115.7350544958058
 97
        0
 97
        0
 75
     2
 76
     1
 98
        0
  0
SPLINE
  5
80
330
7A
100
AcDbEntity
  8
_U+30EC_U+30A4_U+30E4_U+30FC 1
370
     0
100
AcDbSpline
210
0.0
220
0.0
230
1.0
 70
    11
 71
     3
 72
    29
 73
    25
 74
     0
 42
0.0000000001
 43
0.0000000001
 12
1.0
 22
0.0
 32
0.0
 13
1.0
 23
0.0
 33
0.0
 40
0.0
 40
0.0
 40
0.0
 40
0.0
 40
1.0
 40
1.0
 40
1.0
 40
2.0
 40
2.0
 40
2.0
 40
3.0
 40
3.0
 40
3.0
 40
4.0
 40
4.0
 40
4.0
 40
5.0
 40
5.0
 40
5.0
 40
6.0
 40
6.0
 40
6.0
 40
7.0
 40
7.0
 40
7.0
 40
8.0
 40
8.0
 40
8.0
 40
8.0
 10
66.73046602064377
 20
-114.2536634371484
 30
0.0
 10
66.93992782614697
 20
-114.3614949258367
 30
0.0
 10
66.95904810609011
 20
-114.534955483519
 30
0.0
 10
66.95904810609011
 20
-114.6513997109205
 30
0.0
 10
66.95904810609011
 20
-114.8121134153074
 30
0.0
 10
66.91253931703923
 20
-114.9538790945254
 30
0.0
 10
66.73046602064377
 20
-115.0491359846926
 30
0.0
 10
66.53599038050142
 20
-115.1526611040243
 30
0.0
 10
66.29896781111623
 20
-115.1717813839675
 30
0.0
 10
66.13601479466392
 20
-115.1717813839675
 30
0.0
 10
65.99218205815474
 20
-115.1717813839675
 30
0.0
 10
65.74051783295724
 20
-115.1549004160897
 30
0.0
 10
65.54156356868405
 20
-115.0491359846926
 30
0.0
 10
65.33847518982859
 20
-114.94113224123
 30
0.0
 10
65.31522079530315
 20
-114.7804185368431
 30
0.0
 10
65.31522079530315
 20
-114.6513997109205
 30
0.0
 10
65.31522079530315
 20
-114.4927530638247
 30
0.0
 10
65.35966252706287
 20
-114.3489203273156
 30
0.0
 10
65.54156356868405
 20
-114.2536634371484
 30
0.0
 10
65.73414440630953
 20
-114.1542724323989
 30
0.0
 10
65.96255423698159
 20
-114.1310180378735
 30
0.0
 10
66.13601479466392
 20
-114.1310180378735
 30
0.0
 10
66.3074082950551
 20
-114.1310180378735
 30
0.0
 10
66.53805743779257
 20
-114.1520331203335
 30
0.0
 10
66.73046602064377
 20
-114.2536634371484
 30
0.0
  0
SPLINE
  5
81
330
7A
100
AcDbEntity
  8
_U+30EC_U+30A4_U+30E4_U+30FC 1
370
     0
100
AcDbSpline
210
0.0
220
0.0
230
1.0
 70
    11
 71
     3
 72
    17
 73
    13
 74
     0
 42
0.0000000001
 43
0.0000000001
 12
1.0
 22
0.0
 32
0.0
 13
1.0
 23
0.0
 33
0.0
 40
0.0
 40
0.0
 40
0.0
 40
0.0
 40
1.0
 40
1.0
 40
1.0
 40
2.0
 40
2.0
 40
2.0
 40
3.0
 40
3.0
 40
3.0
 40
4.0
 40
4.0
 40
4.0
 40
4.0
 10
65.5078016329286
 20
-114.6513997109205
 30
0.0
 10
65.5078016329286
 20
-114.9009968788268
 30
0.0
 10
65.79116073659041
 20
-114.9475056678777
 30
0.0
 10
66.13601479466392
 20
-114.9475056678777
 30
0.0
 10
66.45554740092084
 20
-114.9475056678777
 30
0.0
 10
66.76440021117348
 20
-114.9115044200569
 30
0.0
 10
66.76440021117348
 20
-114.6513997109205
 30
0.0
 10
66.76440021117348
 20
-114.4038696003053
 30
0.0
 10
66.48293591002857
 20
-114.355121499189
 30
0.0
 10
66.13601479466392
 20
-114.355121499189
 30
0.0
 10
65.81665444318125
 20
-114.355121499189
 30
0.0
 10
65.5078016329286
 20
-114.3933620590753
 30
0.0
 10
65.5078016329286
 20
-114.6513997109205
 30
0.0
  0
HATCH
  5
82
330
7A
100
AcDbEntity
  8
_U+30EC_U+30A4_U+30E4_U+30FC 1
 62
     7
420
 16777215
100
AcDbHatch
 10
0.0
 20
0.0
 30
0.0
210
0.0
220
0.0
230
1.0
  2
SOLID
 70
     1
 71
     0
 91
        2
 92
        1
 93
        1
 72
     4
 94
        3
 73
     0
 74
     1
 95
       29
 96
       25
 40
0.0
 40
0.0
 40
0.0
 40
0.0
 40
1.0
 40
1.0
 40
1.0
 40
2.0
 40
2.0
 40
2.0
 40
3.0
 40
3.0
 40
3.0
 40
4.0
 40
4.0
 40
4.0
 40
5.0
 40
5.0
 40
5.0
 40
6.0
 40
6.0
 40
6.0
 40
7.0
 40
7.0
 40
7.0
 40
8.0
 40
8.0
 40
8.0
 40
8.0
 10
66.73046602064377
 20
-114.2536634371484
 10
66.93992782614697
 20
-114.3614949258367
 10
66.95904810609011
 20
-114.534955483519
 10
66.95904810609011
 20
-114.6513997109205
 10
66.95904810609011
 20
-114.8121134153074
 10
66.91253931703923
 20
-114.9538790945254
 10
66.73046602064377
 20
-115.0491359846926
 10
66.53599038050142
 20
-115.1526611040243
 10
66.29896781111623
 20
-115.1717813839675
 10
66.13601479466392
 20
-115.1717813839675
 10
65.99218205815474
 20
-115.1717813839675
 10
65.74051783295724
 20
-115.1549004160897
 10
65.54156356868405
 20
-115.0491359846926
 10
65.33847518982859
 20
-114.94113224123
 10
65.31522079530315
 20
-114.7804185368431
 10
65.31522079530315
 20
-114.6513997109205
 10
65.31522079530315
 20
-114.4927530638247
 10
65.35966252706287
 20
-114.3489203273156
 10
65.54156356868405
 20
-114.2536634371484
 10
65.73414440630953
 20
-114.1542724323989
 10
65.96255423698159
 20
-114.1310180378735
 10
66.13601479466392
 20
-114.1310180378735
 10
66.3074082950551
 20
-114.1310180378735
 10
66.53805743779257
 20
-114.1520331203335
 10
66.73046602064377
 20
-114.2536634371484
 97
        0
 97
        0
 92
        1
 93
        1
 72
     4
 94
        3
 73
     0
 74
     1
 95
       17
 96
       13
 40
0.0
 40
0.0
 40
0.0
 40
0.0
 40
1.0
 40
1.0
 40
1.0
 40
2.0
 40
2.0
 40
2.0
 40
3.0
 40
3.0
 40
3.0
 40
4.0
 40
4.0
 40
4.0
 40
4.0
 10
65.5078016329286
 20
-114.6513997109205
 10
65.5078016329286
 20
-114.9009968788268
 10
65.79116073659041
 20
-114.9475056678777
 10
66.13601479466392
 20
-114.9475056678777
 10
66.45554740092084
 20
-114.9475056678777
 10
66.76440021117348
 20
-114.9115044200569
 10
66.76440021117348
 20
-114.6513997109205
 10
66.76440021117348
 20
-114.4038696003053
 10
66.48293591002857
 20
-114.355121499189
 10
66.13601479466392
 20
-114.355121499189
 10
65.81665444318125
 20
-114.355121499189
 10
65.5078016329286
 20
-114.3933620590753
 10
65.5078016329286
 20
-114.6513997109205
 97
        0
 97
        0
 75
     2
 76
     1
 98
        0
  0
ENDBLK
  5
7D
330
7A
100
AcDbEntity
  8
0
100
AcDbBlockEnd
  0
BLOCK
  5
91
330
8F
100
AcDbEntity
  8
0
100
AcDbBlockBegin
  2
block 6
 70
     0
 10
0.0
 20
0.0
 30
0.0
  3
block 6
  1

  0
SPLINE
  5
93
330
8F
100
AcDbEntity
  8
_U+30EC_U+30A4_U+30E4_U+30FC 1
370
     0
100
AcDbSpline
210
0.0
220
0.0
230
1.0
 70
    11
 71
     3
 72
    44
 73
    40
 74
     0
 42
0.0000000001
 43
0.0000000001
 12
1.0
 22
0.0
 32
0.0
 13
1.0
 23
0.0
 33
0.0
 40
0.0
 40
0.0
 40
0.0
 40
0.0
 40
1.0
 40
1.0
 40
1.0
 40
2.0
 40
2.0
 40
2.0
 40
3.0
 40
3.0
 40
3.0
 40
4.0
 40
4.0
 40
4.0
 40
5.0
 40
5.0
 40
5.0
 40
6.0
 40
6.0
 40
6.0
 40
7.0
 40
7.0
 40
7.0
 40
8.0
 40
8.0
 40
8.0
 40
9.0
 40
9.0
 40
9.0
 40
10.0
 40
10.0
 40
10.0
 40
11.0
 40
11.0
 40
11.0
 40
12.0
 40
12.0
 40
12.0
 40
13.0
 40
13.0
 40
13.0
 40
13.0
 10
81.77003036150194
 20
-131.3490885088294
 30
0.0
 10
81.74660371220224
 20
-131.3046467770697
 30
0.0
 10
81.72558862974222
 20
-131.2519368161454
 30
0.0
 10
81.7233493176768
 20
-131.0211154186336
 30
0.0
 10
81.7192152030945
 20
-130.777891677375
 30
0.0
 10
81.6599595607482
 20
-130.7083007485729
 30
0.0
 10
81.48219263370932
 20
-130.7083007485729
 30
0.0
 10
81.48219263370932
 20
-130.7083007485729
 30
0.0
 10
81.07394881870721
 20
-130.7083007485729
 30
0.0
 10
81.07394881870721
 20
-130.7083007485729
 30
0.0
 10
81.07394881870721
 20
-130.7083007485729
 30
0.0
 10
81.07394881870721
 20
-131.3490885088294
 30
0.0
 10
81.07394881870721
 20
-131.3490885088294
 30
0.0
 10
81.07394881870721
 20
-131.3490885088294
 30
0.0
 10
80.83916556138743
 20
-131.3490885088294
 30
0.0
 10
80.83916556138743
 20
-131.3490885088294
 30
0.0
 10
80.83916556138743
 20
-131.3490885088294
 30
0.0
 10
80.83916556138743
 20
-129.8049967123404
 30
0.0
 10
80.83916556138743
 20
-129.8049967123404
 30
0.0
 10
80.83916556138743
 20
-129.8049967123404
 30
0.0
 10
81.51405976694788
 20
-129.8049967123404
 30
0.0
 10
81.51405976694788
 20
-129.8049967123404
 30
0.0
 10
81.82067326513511
 20
-129.8049967123404
 30
0.0
 10
81.98776039616973
 20
-129.9758734484088
 30
0.0
 10
81.98776039616973
 20
-130.2321885525114
 30
0.0
 10
81.98776039616973
 20
-130.2828314561446
 30
0.0
 10
81.97931991223086
 20
-130.3651692382421
 30
0.0
 10
81.93487818047115
 20
-130.4457844725969
 30
0.0
 10
81.87579479289911
 20
-130.5494818467029
 30
0.0
 10
81.8101657239051
 20
-130.5684298718718
 30
0.0
 10
81.74884302426766
 20
-130.5853108397495
 30
0.0
 10
81.88630233412913
 20
-130.6276855142181
 30
0.0
 10
81.95399846041428
 20
-130.6766058701086
 30
0.0
 10
81.95830482977084
 20
-130.9914875974605
 30
0.0
 10
81.96243894435314
 20
-131.2622721026011
 30
0.0
 10
81.998440192174
 20
-131.2939669810654
 30
0.0
 10
82.06613631845916
 20
-131.3490885088294
 30
0.0
 10
82.06613631845916
 20
-131.3490885088294
 30
0.0
 10
81.77003036150194
 20
-131.3490885088294
 30
0.0
 10
81.77003036150194
 20
-131.3490885088294
 30
0.0
  0
SPLINE
  5
94
330
8F
100
AcDbEntity
  8
_U+30EC_U+30A4_U+30E4_U+30FC 1
370
     0
100
AcDbSpline
210
0.0
220
0.0
230
1.0
 70
    11
 71
     3
 72
    20
 73
    16
 74
     0
 42
0.0000000001
 43
0.0000000001
 12
1.0
 22
0.0
 32
0.0
 13
1.0
 23
0.0
 33
0.0
 40
0.0
 40
0.0
 40
0.0
 40
0.0
 40
1.0
 40
1.0
 40
1.0
 40
2.0
 40
2.0
 40
2.0
 40
3.0
 40
3.0
 40
3.0
 40
4.0
 40
4.0
 40
4.0
 40
5.0
 40
5.0
 40
5.0
 40
5.0
 10
81.51819388153018
 20
-130.0165255751348
 30
0.0
 10
81.51819388153018
 20
-130.0165255751348
 30
0.0
 10
81.07394881870721
 20
-130.0165255751348
 30
0.0
 10
81.07394881870721
 20
-130.0165255751348
 30
0.0
 10
81.07394881870721
 20
-130.0165255751348
 30
0.0
 10
81.07394881870721
 20
-130.4967718857786
 30
0.0
 10
81.07394881870721
 20
-130.4967718857786
 30
0.0
 10
81.07394881870721
 20
-130.4967718857786
 30
0.0
 10
81.51612682423902
 20
-130.4967718857786
 30
0.0
 10
81.51612682423902
 20
-130.4967718857786
 30
0.0
 10
81.61551782898849
 20
-130.4967718857786
 30
0.0
 10
81.7509100815588
 20
-130.420290766006
 30
0.0
 10
81.7509100815588
 20
-130.2490695203891
 30
0.0
 10
81.7509100815588
 20
-130.170865852874
 30
0.0
 10
81.7169758910291
 20
-130.0165255751348
 30
0.0
 10
81.51819388153018
 20
-130.0165255751348
 30
0.0
  0
HATCH
  5
95
330
8F
100
AcDbEntity
  8
_U+30EC_U+30A4_U+30E4_U+30FC 1
 62
     7
420
 16777215
100
AcDbHatch
 10
0.0
 20
0.0
 30
0.0
210
0.0
220
0.0
230
1.0
  2
SOLID
 70
     1
 71
     0
 91
        2
 92
        1
 93
        1
 72
     4
 94
        3
 73
     0
 74
     1
 95
       44
 96
       40
 40
0.0
 40
0.0
 40
0.0
 40
0.0
 40
1.0
 40
1.0
 40
1.0
 40
2.0
 40
2.0
 40
2.0
 40
3.0
 40
3.0
 40
3.0
 40
4.0
 40
4.0
 40
4.0
 40
5.0
 40
5.0
 40
5.0
 40
6.0
 40
6.0
 40
6.0
 40
7.0
 40
7.0
 40
7.0
 40
8.0
 40
8.0
 40
8.0
 40
9.0
 40
9.0
 40
9.0
 40
10.0
 40
10.0
 40
10.0
 40
11.0
 40
11.0
 40
11.0
 40
12.0
 40
12.0
 40
12.0
 40
13.0
 40
13.0
 40
13.0
 40
13.0
 10
81.77003036150194
 20
-131.3490885088294
 10
81.74660371220224
 20
-131.3046467770697
 10
81.72558862974222
 20
-131.2519368161454
 10
81.7233493176768
 20
-131.0211154186336
 10
81.7192152030945
 20
-130.777891677375
 10
81.6599595607482
 20
-130.7083007485729
 10
81.48219263370932
 20
-130.7083007485729
 10
81.48219263370932
 20
-130.7083007485729
 10
81.07394881870721
 20
-130.7083007485729
 10
81.07394881870721
 20
-130.7083007485729
 10
81.07394881870721
 20
-130.7083007485729
 10
81.07394881870721
 20
-131.3490885088294
 10
81.07394881870721
 20
-131.3490885088294
 10
81.07394881870721
 20
-131.3490885088294
 10
80.83916556138743
 20
-131.3490885088294
 10
80.83916556138743
 20
-131.3490885088294
 10
80.83916556138743
 20
-131.3490885088294
 10
80.83916556138743
 20
-129.8049967123404
 10
80.83916556138743
 20
-129.8049967123404
 10
80.83916556138743
 20
-129.8049967123404
 10
81.51405976694788
 20
-129.8049967123404
 10
81.51405976694788
 20
-129.8049967123404
 10
81.82067326513511
 20
-129.8049967123404
 10
81.98776039616973
 20
-129.9758734484088
 10
81.98776039616973
 20
-130.2321885525114
 10
81.98776039616973
 20
-130.2828314561446
 10
81.97931991223086
 20
-130.3651692382421
 10
81.93487818047115
 20
-130.4457844725969
 10
81.87579479289911
 20
-130.5494818467029
 10
81.8101657239051
 20
-130.5684298718718
 10
81.74884302426766
 20
-130.5853108397495
 10
81.88630233412913
 20
-130.6276855142181
 10
81.95399846041428
 20
-130.6766058701086
 10
81.95830482977084
 20
-130.9914875974605
 10
81.96243894435314
 20
-131.2622721026011
 10
81.998440192174
 20
-131.2939669810654
 10
82.06613631845916
 20
-131.3490885088294
 10
82.06613631845916
 20
-131.3490885088294
 10
81.77003036150194
 20
-131.3490885088294
 10
81.77003036150194
 20
-131.3490885088294
 97
        0
 97
        0
 92
        1
 93
        1
 72
     4
 94
        3
 73
     0
 74
     1
 95
       20
 96
       16
 40
0.0
 40
0.0
 40
0.0
 40
0.0
 40
1.0
 40
1.0
 40
1.0
 40
2.0
 40
2.0
 40
2.0
 40
3.0
 40
3.0
 40
3.0
 40
4.0
 40
4.0
 40
4.0
 40
5.0
 40
5.0
 40
5.0
 40
5.0
 10
81.51819388153018
 20
-130.0165255751348
 10
81.51819388153018
 20
-130.0165255751348
 10
81.07394881870721
 20
-130.0165255751348
 10
81.07394881870721
 20
-130.0165255751348
 10
81.07394881870721
 20
-130.0165255751348
 10
81.07394881870721
 20
-130.4967718857786
 10
81.07394881870721
 20
-130.4967718857786
 10
81.07394881870721
 20
-130.4967718857786
 10
81.51612682423902
 20
-130.4967718857786
 10
81.51612682423902
 20
-130.4967718857786
 10
81.61551782898849
 20
-130.4967718857786
 10
81.7509100815588
 20
-130.420290766006
 10
81.7509100815588
 20
-130.2490695203891
 10
81.7509100815588
 20
-130.170865852874
 10
81.7169758910291
 20
-130.0165255751348
 10
81.51819388153018
 20
-130.0165255751348
 97
        0
 97
        0
 75
     2
 76
     1
 98
        0
  0
SPLINE
  5
96
330
8F
100
AcDbEntity
  8
_U+30EC_U+30A4_U+30E4_U+30FC 1
370
     0
100
AcDbSpline
210
0.0
220
0.0
230
1.0
 70
    11
 71
     3
 72
    26
 73
    22
 74
     0
 42
0.0000000001
 43
0.0000000001
 12
1.0
 22
0.0
 32
0.0
 13
1.0
 23
0.0
 33
0.0
 40
0.0
 40
0.0
 40
0.0
 40
0.0
 40
1.0
 40
1.0
 40
1.0
 40
2.0
 40
2.0
 40
2.0
 40
3.0
 40
3.0
 40
3.0
 40
4.0
 40
4.0
 40
4.0
 40
5.0
 40
5.0
 40
5.0
 40
6.0
 40
6.0
 40
6.0
 40
7.0
 40
7.0
 40
7.0
 40
7.0
 10
82.65714244895378
 20
-131.3490885088294
 30
0.0
 10
82.65714244895378
 20
-131.3490885088294
 30
0.0
 10
82.65714244895378
 20
-130.2445908962583
 30
0.0
 10
82.65714244895378
 20
-130.2445908962583
 30
0.0
 10
82.65714244895378
 20
-130.2445908962583
 30
0.0
 10
82.32710230146684
 20
-130.2445908962583
 30
0.0
 10
82.32710230146684
 20
-130.2445908962583
 30
0.0
 10
82.32710230146684
 20
-130.2445908962583
 30
0.0
 10
82.32710230146684
 20
-130.0967962999411
 30
0.0
 10
82.32710230146684
 20
-130.0967962999411
 30
0.0
 10
82.65920950624492
 20
-130.0819823893545
 30
0.0
 10
82.7057182952958
 20
-129.9190293729022
 30
0.0
 10
82.73534611646895
 20
-129.8049967123404
 30
0.0
 10
82.73534611646895
 20
-129.8049967123404
 30
0.0
 10
82.88141816504354
 20
-129.8049967123404
 30
0.0
 10
82.88141816504354
 20
-129.8049967123404
 30
0.0
 10
82.88141816504354
 20
-129.8049967123404
 30
0.0
 10
82.88141816504354
 20
-131.3490885088294
 30
0.0
 10
82.88141816504354
 20
-131.3490885088294
 30
0.0
 10
82.88141816504354
 20
-131.3490885088294
 30
0.0
 10
82.65714244895378
 20
-131.3490885088294
 30
0.0
 10
82.65714244895378
 20
-131.3490885088294
 30
0.0
  0
HATCH
  5
97
330
8F
100
AcDbEntity
  8
_U+30EC_U+30A4_U+30E4_U+30FC 1
 62
     7
420
 16777215
100
AcDbHatch
 10
0.0
 20
0.0
 30
0.0
210
0.0
220
0.0
230
1.0
  2
SOLID
 70
     1
 71
     0
 91
        1
 92
        1
 93
        1
 72
     4
 94
        3
 73
     0
 74
     1
 95
       26
 96
       22
 40
0.0
 40
0.0
 40
0.0
 40
0.0
 40
1.0
 40
1.0
 40
1.0
 40
2.0
 40
2.0
 40
2.0
 40
3.0
 40
3.0
 40
3.0
 40
4.0
 40
4.0
 40
4.0
 40
5.0
 40
5.0
 40
5.0
 40
6.0
 40
6.0
 40
6.0
 40
7.0
 40
7.0
 40
7.0
 40
7.0
 10
82.65714244895378
 20
-131.3490885088294
 10
82.65714244895378
 20
-131.3490885088294
 10
82.65714244895378
 20
-130.2445908962583
 10
82.65714244895378
 20
-130.2445908962583
 10
82.65714244895378
 20
-130.2445908962583
 10
82.32710230146684
 20
-130.2445908962583
 10
82.32710230146684
 20
-130.2445908962583
 10
82.32710230146684
 20
-130.2445908962583
 10
82.32710230146684
 20
-130.0967962999411
 10
82.32710230146684
 20
-130.0967962999411
 10
82.65920950624492
 20
-130.0819823893545
 10
82.7057182952958
 20
-129.9190293729022
 10
82.73534611646895
 20
-129.8049967123404
 10
82.73534611646895
 20
-129.8049967123404
 10
82.88141816504354
 20
-129.8049967123404
 10
82.88141816504354
 20
-129.8049967123404
 10
82.88141816504354
 20
-129.8049967123404
 10
82.88141816504354
 20
-131.3490885088294
 10
82.88141816504354
 20
-131.3490885088294
 10
82.88141816504354
 20
-131.3490885088294
 10
82.65714244895378
 20
-131.3490885088294
 10
82.65714244895378
 20
-131.3490885088294
 97
        0
 97
        0
 75
     2
 76
     1
 98
        0
  0
SPLINE
  5
98
330
8F
100
AcDbEntity
  8
_U+30EC_U+30A4_U+30E4_U+30FC 1
370
     0
100
AcDbSpline
210
0.0
220
0.0
230
1.0
 70
    11
 71
     3
 72
    29
 73
    25
 74
     0
 42
0.0000000001
 43
0.0000000001
 12
1.0
 22
0.0
 32
0.0
 13
1.0
 23
0.0
 33
0.0
 40
0.0
 40
0.0
 40
0.0
 40
0.0
 40
1.0
 40
1.0
 40
1.0
 40
2.0
 40
2.0
 40
2.0
 40
3.0
 40
3.0
 40
3.0
 40
4.0
 40
4.0
 40
4.0
 40
5.0
 40
5.0
 40
5.0
 40
6.0
 40
6.0
 40
6.0
 40
7.0
 40
7.0
 40
7.0
 40
8.0
 40
8.0
 40
8.0
 40
8.0
 10
84.28029918682924
 20
-131.1713215817905
 30
0.0
 10
84.17246769814092
 20
-131.3807833872937
 30
0.0
 10
83.99900714045859
 20
-131.4000759220111
 30
0.0
 10
83.88256291305714
 20
-131.4000759220111
 30
0.0
 10
83.72184920867024
 20
-131.4000759220111
 30
0.0
 10
83.58008352945221
 20
-131.3532226234117
 30
0.0
 10
83.48482663928505
 20
-131.1713215817905
 30
0.0
 10
83.38130151995328
 20
-130.9766736868739
 30
0.0
 10
83.36218124001016
 20
-130.7399956270372
 30
0.0
 10
83.36218124001016
 20
-130.5766981010364
 30
0.0
 10
83.36218124001016
 20
-130.4330376193015
 30
0.0
 10
83.37906220788788
 20
-130.1812011393297
 30
0.0
 10
83.48482663928505
 20
-129.9824191298308
 30
0.0
 10
83.59283038274764
 20
-129.7795030057496
 30
0.0
 10
83.75354408713453
 20
-129.7560763564499
 30
0.0
 10
83.88256291305714
 20
-129.7560763564499
 30
0.0
 10
84.0412095601529
 20
-129.7560763564499
 30
0.0
 10
84.18504229666208
 20
-129.8005180882096
 30
0.0
 10
84.28029918682924
 20
-129.9824191298308
 30
0.0
 10
84.37969019157869
 20
-130.1749999674562
 30
0.0
 10
84.40294458610413
 20
-130.4034097981283
 30
0.0
 10
84.40294458610413
 20
-130.5766981010364
 30
0.0
 10
84.40294458610413
 20
-130.7482638562018
 30
0.0
 10
84.3819295036441
 20
-130.9790852537136
 30
0.0
 10
84.28029918682924
 20
-131.1713215817905
 30
0.0
  0
SPLINE
  5
99
330
8F
100
AcDbEntity
  8
_U+30EC_U+30A4_U+30E4_U+30FC 1
370
     0
100
AcDbSpline
210
0.0
220
0.0
230
1.0
 70
    11
 71
     3
 72
    17
 73
    13
 74
     0
 42
0.0000000001
 43
0.0000000001
 12
1.0
 22
0.0
 32
0.0
 13
1.0
 23
0.0
 33
0.0
 40
0.0
 40
0.0
 40
0.0
 40
0.0
 40
1.0
 40
1.0
 40
1.0
 40
2.0
 40
2.0
 40
2.0
 40
3.0
 40
3.0
 40
3.0
 40
4.0
 40
4.0
 40
4.0
 40
4.0
 10
83.88256291305714
 20
-129.9486571940753
 30
0.0
 10
83.63296574515078
 20
-129.9486571940753
 30
0.0
 10
83.58645695609992
 20
-130.2321885525114
 30
0.0
 10
83.58645695609992
 20
-130.5766981010364
 30
0.0
 10
83.58645695609992
 20
-130.8964029620676
 30
0.0
 10
83.62245820392077
 20
-131.2050835175459
 30
0.0
 10
83.88256291305714
 20
-131.2050835175459
 30
0.0
 10
84.13009302367234
 20
-131.2050835175459
 30
0.0
 10
84.17884112478863
 20
-130.9239637259496
 30
0.0
 10
84.17884112478863
 20
-130.5766981010364
 30
0.0
 10
84.17884112478863
 20
-130.2576822591022
 30
0.0
 10
84.14060056490236
 20
-129.9486571940753
 30
0.0
 10
83.88256291305714
 20
-129.9486571940753
 30
0.0
  0
HATCH
  5
9A
330
8F
100
AcDbEntity
  8
_U+30EC_U+30A4_U+30E4_U+30FC 1
 62
     7
420
 16777215
100
AcDbHatch
 10
0.0
 20
0.0
 30
0.0
210
0.0
220
0.0
230
1.0
  2
SOLID
 70
     1
 71
     0
 91
        2
 92
        1
 93
        1
 72
     4
 94
        3
 73
     0
 74
     1
 95
       29
 96
       25
 40
0.0
 40
0.0
 40
0.0
 40
0.0
 40
1.0
 40
1.0
 40
1.0
 40
2.0
 40
2.0
 40
2.0
 40
3.0
 40
3.0
 40
3.0
 40
4.0
 40
4.0
 40
4.0
 40
5.0
 40
5.0
 40
5.0
 40
6.0
 40
6.0
 40
6.0
 40
7.0
 40
7.0
 40
7.0
 40
8.0
 40
8.0
 40
8.0
 40
8.0
 10
84.28029918682924
 20
-131.1713215817905
 10
84.17246769814092
 20
-131.3807833872937
 10
83.99900714045859
 20
-131.4000759220111
 10
83.88256291305714
 20
-131.4000759220111
 10
83.72184920867024
 20
-131.4000759220111
 10
83.58008352945221
 20
-131.3532226234117
 10
83.48482663928505
 20
-131.1713215817905
 10
83.38130151995328
 20
-130.9766736868739
 10
83.36218124001016
 20
-130.7399956270372
 10
83.36218124001016
 20
-130.5766981010364
 10
83.36218124001016
 20
-130.4330376193015
 10
83.37906220788788
 20
-130.1812011393297
 10
83.48482663928505
 20
-129.9824191298308
 10
83.59283038274764
 20
-129.7795030057496
 10
83.75354408713453
 20
-129.7560763564499
 10
83.88256291305714
 20
-129.7560763564499
 10
84.0412095601529
 20
-129.7560763564499
 10
84.18504229666208
 20
-129.8005180882096
 10
84.28029918682924
 20
-129.9824191298308
 10
84.37969019157869
 20
-130.1749999674562
 10
84.40294458610413
 20
-130.4034097981283
 10
84.40294458610413
 20
-130.5766981010364
 10
84.40294458610413
 20
-130.7482638562018
 10
84.3819295036441
 20
-130.9790852537136
 10
84.28029918682924
 20
-131.1713215817905
 97
        0
 97
        0
 92
        1
 93
        1
 72
     4
 94
        3
 73
     0
 74
     1
 95
       17
 96
       13
 40
0.0
 40
0.0
 40
0.0
 40
0.0
 40
1.0
 40
1.0
 40
1.0
 40
2.0
 40
2.0
 40
2.0
 40
3.0
 40
3.0
 40
3.0
 40
4.0
 40
4.0
 40
4.0
 40
4.0
 10
83.88256291305714
 20
-129.9486571940753
 10
83.63296574515078
 20
-129.9486571940753
 10
83.58645695609992
 20
-130.2321885525114
 10
83.58645695609992
 20
-130.5766981010364
 10
83.58645695609992
 20
-130.8964029620676
 10
83.62245820392077
 20
-131.2050835175459
 10
83.88256291305714
 20
-131.2050835175459
 10
84.13009302367234
 20
-131.2050835175459
 10
84.17884112478863
 20
-130.9239637259496
 10
84.17884112478863
 20
-130.5766981010364
 10
84.17884112478863
 20
-130.2576822591022
 10
84.14060056490236
 20
-129.9486571940753
 10
83.88256291305714
 20
-129.9486571940753
 97
        0
 97
        0
 75
     2
 76
     1
 98
        0
  0
ENDBLK
  5
92
330
8F
100
AcDbEntity
  8
0
100
AcDbBlockEnd
  0
BLOCK
  5
B1
330
AF
100
AcDbEntity
  8
0
100
AcDbBlockBegin
  2
block 7
 70
     0
 10
0.0
 20
0.0
 30
0.0
  3
block 7
  1

  0
POLYLINE
  5
B3
330
AF
100
AcDbEntity
  8
_U+30EC_U+30A4_U+30E4_U+30FC 1
370
     0
100
AcDb2dPolyline
 66
     1
 10
0.0
 20
0.0
 30
0.0
  0
VERTEX
  5
B4
330
B3
100
AcDbEntity
  8
_U+30EC_U+30A4_U+30E4_U+30FC 1
370
     0
100
AcDbVertex
100
AcDb2dVertex
 10
114.7988497976892
 20
-143.51992183912
 30
0.0
  0
VERTEX
  5
B5
330
B3
100
AcDbEntity
  8
_U+30EC_U+30A4_U+30E4_U+30FC 1
370
     0
100
AcDbVertex
100
AcDb2dVertex
 10
115.1454264035053
 20
-143.51992183912
 30
0.0
  0
VERTEX
  5
B6
330
B3
100
AcDbEntity
  8
_U+30EC_U+30A4_U+30E4_U+30FC 1
370
     0
100
AcDbVertex
100
AcDb2dVertex
 10
115.1454264035053
 20
-143.7379963833363
 30
0.0
  0
VERTEX
  5
B7
330
B3
100
AcDbEntity
  8
_U+30EC_U+30A4_U+30E4_U+30FC 1
370
     0
100
AcDbVertex
100
AcDb2dVertex
 10
114.7988497976892
 20
-143.7379963833363
 30
0.0
  0
VERTEX
  5
B8
330
B3
100
AcDbEntity
  8
_U+30EC_U+30A4_U+30E4_U+30FC 1
370
     0
100
AcDbVertex
100
AcDb2dVertex
 10
114.7988497976892
 20
-144.3935980541794
 30
0.0
  0
VERTEX
  5
B9
330
B3
100
AcDbEntity
  8
_U+30EC_U+30A4_U+30E4_U+30FC 1
370
     0
100
AcDbVertex
100
AcDb2dVertex
 10
114.5742295720509
 20
-144.3935980541794
 30
0.0
  0
VERTEX
  5
BA
330
B3
100
AcDbEntity
  8
_U+30EC_U+30A4_U+30E4_U+30FC 1
370
     0
100
AcDbVertex
100
AcDb2dVertex
 10
113.6013346070163
 20
-143.7149142435852
 30
0.0
  0
VERTEX
  5
BB
330
B3
100
AcDbEntity
  8
_U+30EC_U+30A4_U+30E4_U+30FC 1
370
     0
100
AcDbVertex
100
AcDb2dVertex
 10
113.6013346070163
 20
-143.51992183912
 30
0.0
  0
VERTEX
  5
BC
330
B3
100
AcDbEntity
  8
_U+30EC_U+30A4_U+30E4_U+30FC 1
370
     0
100
AcDbVertex
100
AcDb2dVertex
 10
114.5997232786417
 20
-143.51992183912
 30
0.0
  0
VERTEX
  5
BD
330
B3
100
AcDbEntity
  8
_U+30EC_U+30A4_U+30E4_U+30FC 1
370
     0
100
AcDbVertex
100
AcDb2dVertex
 10
114.5997232786417
 20
-143.312527090908
 30
0.0
  0
VERTEX
  5
BE
330
B3
100
AcDbEntity
  8
_U+30EC_U+30A4_U+30E4_U+30FC 1
370
     0
100
AcDbVertex
100
AcDb2dVertex
 10
114.7988497976892
 20
-143.312527090908
 30
0.0
  0
VERTEX
  5
BF
330
B3
100
AcDbEntity
  8
_U+30EC_U+30A4_U+30E4_U+30FC 1
370
     0
100
AcDbVertex
100
AcDb2dVertex
 10
114.7988497976892
 20
-143.51992183912
 30
0.0
  0
SEQEND
  5
C0
330
B3
100
AcDbEntity
  8
_U+30EC_U+30A4_U+30E4_U+30FC 1
370
     0
  0
POLYLINE
  5
C1
330
AF
100
AcDbEntity
  8
_U+30EC_U+30A4_U+30E4_U+30FC 1
370
     0
100
AcDb2dPolyline
 66
     1
 10
0.0
 20
0.0
 30
0.0
  0
VERTEX
  5
C2
330
C1
100
AcDbEntity
  8
_U+30EC_U+30A4_U+30E4_U+30FC 1
370
     0
100
AcDbVertex
100
AcDb2dVertex
 10
113.9437770982502
 20
-143.7379963833363
 30
0.0
  0
VERTEX
  5
C3
330
C1
100
AcDbEntity
  8
_U+30EC_U+30A4_U+30E4_U+30FC 1
370
     0
100
AcDbVertex
100
AcDb2dVertex
 10
114.5997232786417
 20
-144.1948160446805
 30
0.0
  0
VERTEX
  5
C4
330
C1
100
AcDbEntity
  8
_U+30EC_U+30A4_U+30E4_U+30FC 1
370
     0
100
AcDbVertex
100
AcDb2dVertex
 10
114.5997232786417
 20
-143.7379963833363
 30
0.0
  0
VERTEX
  5
C5
330
C1
100
AcDbEntity
  8
_U+30EC_U+30A4_U+30E4_U+30FC 1
370
     0
100
AcDbVertex
100
AcDb2dVertex
 10
113.9437770982502
 20
-143.7379963833363
 30
0.0
  0
SEQEND
  5
C6
330
C1
100
AcDbEntity
  8
_U+30EC_U+30A4_U+30E4_U+30FC 1
370
     0
  0
HATCH
  5
C7
330
AF
100
AcDbEntity
  8
_U+30EC_U+30A4_U+30E4_U+30FC 1
 62
     7
420
 16777215
100
AcDbHatch
 10
0.0
 20
0.0
 30
0.0
210
0.0
220
0.0
230
1.0
  2
SOLID
 70
     1
 71
     0
 91
        2
 92
        1
 93
       11
 72
     1
 10
114.7988497976892
 20
-143.51992183912
 11
115.1454264035053
 21
-143.51992183912
 72
     1
 10
115.1454264035053
 20
-143.51992183912
 11
115.1454264035053
 21
-143.7379963833363
 72
     1
 10
115.1454264035053
 20
-143.7379963833363
 11
114.7988497976892
 21
-143.7379963833363
 72
     1
 10
114.7988497976892
 20
-143.7379963833363
 11
114.7988497976892
 21
-144.3935980541794
 72
     1
 10
114.7988497976892
 20
-144.3935980541794
 11
114.5742295720509
 21
-144.3935980541794
 72
     1
 10
114.5742295720509
 20
-144.3935980541794
 11
113.6013346070163
 21
-143.7149142435852
 72
     1
 10
113.6013346070163
 20
-143.7149142435852
 11
113.6013346070163
 21
-143.51992183912
 72
     1
 10
113.6013346070163
 20
-143.51992183912
 11
114.5997232786417
 21
-143.51992183912
 72
     1
 10
114.5997232786417
 20
-143.51992183912
 11
114.5997232786417
 21
-143.312527090908
 72
     1
 10
114.5997232786417
 20
-143.312527090908
 11
114.7988497976892
 21
-143.312527090908
 72
     1
 10
114.7988497976892
 20
-143.312527090908
 11
114.7988497976892
 21
-143.51992183912
 97
        0
 92
        1
 93
        3
 72
     1
 10
113.9437770982502
 20
-143.7379963833363
 11
114.5997232786417
 21
-144.1948160446805
 72
     1
 10
114.5997232786417
 20
-144.1948160446805
 11
114.5997232786417
 21
-143.7379963833363
 72
     1
 10
114.5997232786417
 20
-143.7379963833363
 11
113.9437770982502
 21
-143.7379963833363
 97
        0
 75
     2
 76
     1
 98
        0
  0
POLYLINE
  5
C8
330
AF
100
AcDbEntity
  8
_U+30EC_U+30A4_U+30E4_U+30FC 1
370
     0
100
AcDb2dPolyline
 66
     1
 10
0.0
 20
0.0
 30
0.0
  0
VERTEX
  5
C9
330
C8
100
AcDbEntity
  8
_U+30EC_U+30A4_U+30E4_U+30FC 1
370
     0
100
AcDbVertex
100
AcDb2dVertex
 10
115.1454264035053
 20
-143.1154676291517
 30
0.0
  0
VERTEX
  5
CA
330
C8
100
AcDbEntity
  8
_U+30EC_U+30A4_U+30E4_U+30FC 1
370
     0
100
AcDbVertex
100
AcDb2dVertex
 10
114.8939344330821
 20
-143.1154676291517
 30
0.0
  0
VERTEX
  5
CB
330
C8
100
AcDbEntity
  8
_U+30EC_U+30A4_U+30E4_U+30FC 1
370
     0
100
AcDbVertex
100
AcDb2dVertex
 10
114.8939344330821
 20
-142.8636311491799
 30
0.0
  0
VERTEX
  5
CC
330
C8
100
AcDbEntity
  8
_U+30EC_U+30A4_U+30E4_U+30FC 1
370
     0
100
AcDbVertex
100
AcDb2dVertex
 10
115.1454264035053
 20
-142.8636311491799
 30
0.0
  0
VERTEX
  5
CD
330
C8
100
AcDbEntity
  8
_U+30EC_U+30A4_U+30E4_U+30FC 1
370
     0
100
AcDbVertex
100
AcDb2dVertex
 10
115.1454264035053
 20
-143.1154676291517
 30
0.0
  0
SEQEND
  5
CE
330
C8
100
AcDbEntity
  8
_U+30EC_U+30A4_U+30E4_U+30FC 1
370
     0
  0
HATCH
  5
CF
330
AF
100
AcDbEntity
  8
_U+30EC_U+30A4_U+30E4_U+30FC 1
 62
     7
420
 16777215
100
AcDbHatch
 10
0.0
 20
0.0
 30
0.0
210
0.0
220
0.0
230
1.0
  2
SOLID
 70
     1
 71
     0
 91
        1
 92
        1
 93
        4
 72
     1
 10
115.1454264035053
 20
-143.1154676291517
 11
114.8939344330821
 21
-143.1154676291517
 72
     1
 10
114.8939344330821
 20
-143.1154676291517
 11
114.8939344330821
 21
-142.8636311491799
 72
     1
 10
114.8939344330821
 20
-142.8636311491799
 11
115.1454264035053
 21
-142.8636311491799
 72
     1
 10
115.1454264035053
 20
-142.8636311491799
 11
115.1454264035053
 21
-143.1154676291517
 97
        0
 75
     2
 76
     1
 98
        0
  0
SPLINE
  5
D0
330
AF
100
AcDbEntity
  8
_U+30EC_U+30A4_U+30E4_U+30FC 1
370
     0
100
AcDbSpline
210
0.0
220
0.0
230
1.0
 70
    11
 71
     3
 72
    53
 73
    49
 74
     0
 42
0.0000000001
 43
0.0000000001
 12
1.0
 22
0.0
 32
0.0
 13
1.0
 23
0.0
 33
0.0
 40
0.0
 40
0.0
 40
0.0
 40
0.0
 40
1.0
 40
1.0
 40
1.0
 40
2.0
 40
2.0
 40
2.0
 40
3.0
 40
3.0
 40
3.0
 40
4.0
 40
4.0
 40
4.0
 40
5.0
 40
5.0
 40
5.0
 40
6.0
 40
6.0
 40
6.0
 40
7.0
 40
7.0
 40
7.0
 40
8.0
 40
8.0
 40
8.0
 40
9.0
 40
9.0
 40
9.0
 40
10.0
 40
10.0
 40
10.0
 40
11.0
 40
11.0
 40
11.0
 40
12.0
 40
12.0
 40
12.0
 40
13.0
 40
13.0
 40
13.0
 40
14.0
 40
14.0
 40
14.0
 40
15.0
 40
15.0
 40
15.0
 40
16.0
 40
16.0
 40
16.0
 40
16.0
 10
115.196413816687
 20
-142.1460177596024
 30
0.0
 10
115.196413816687
 20
-142.2245659366661
 30
0.0
 10
115.1795328488093
 20
-142.3258517439324
 30
0.0
 10
115.1157985823322
 20
-142.4274820607473
 30
0.0
 10
115.0059000363527
 20
-142.6007703636554
 30
0.0
 10
114.8746418983647
 20
-142.6221299556639
 30
0.0
 10
114.7671549192249
 20
-142.6410779808328
 30
0.0
 10
114.7671549192249
 20
-142.6410779808328
 30
0.0
 10
114.7671549192249
 20
-142.4188693220342
 30
0.0
 10
114.7671549192249
 20
-142.4188693220342
 30
0.0
 10
114.9655924191753
 20
-142.3637477942702
 30
0.0
 10
114.9952202403484
 20
-142.236968280413
 30
0.0
 10
114.9952202403484
 20
-142.1439507023112
 30
0.0
 10
114.9952202403484
 20
-142.0044243351586
 30
0.0
 10
114.8960014903732
 20
-141.8518066051621
 30
0.0
 10
114.6631130355703
 20
-141.8518066051621
 30
0.0
 10
114.4074869505648
 20
-141.8518066051621
 30
0.0
 10
114.3375515122142
 20
-142.0316405894921
 30
0.0
 10
114.3375515122142
 20
-142.1522189314758
 30
0.0
 10
114.3375515122142
 20
-142.1839138099402
 30
0.0
 10
114.3375515122142
 20
-142.3258517439324
 30
0.0
 10
114.4667425929111
 20
-142.4147352074519
 30
0.0
 10
114.4667425929111
 20
-142.4147352074519
 30
0.0
 10
114.4474500581937
 20
-142.5904350771996
 30
0.0
 10
114.4474500581937
 20
-142.5904350771996
 30
0.0
 10
114.4474500581937
 20
-142.5904350771996
 30
0.0
 10
113.6013346070163
 20
-142.4698567352159
 30
0.0
 10
113.6013346070163
 20
-142.4698567352159
 30
0.0
 10
113.6013346070163
 20
-142.4698567352159
 30
0.0
 10
113.6013346070163
 20
-141.6912651555494
 30
0.0
 10
113.6013346070163
 20
-141.6912651555494
 30
0.0
 10
113.6013346070163
 20
-141.6912651555494
 30
0.0
 10
113.795982501933
 20
-141.6912651555494
 30
0.0
 10
113.795982501933
 20
-141.6912651555494
 30
0.0
 10
113.795982501933
 20
-141.6912651555494
 30
0.0
 10
113.795982501933
 20
-142.3069037187636
 30
0.0
 10
113.795982501933
 20
-142.3069037187636
 30
0.0
 10
113.795982501933
 20
-142.3069037187636
 30
0.0
 10
114.2190402275216
 20
-142.3723605329833
 30
0.0
 10
114.2190402275216
 20
-142.3723605329833
 30
0.0
 10
114.1849337822177
 20
-142.3110378333459
 30
0.0
 10
114.1449706745888
 20
-142.2287000512484
 30
0.0
 10
114.1449706745888
 20
-142.1101887665558
 30
0.0
 10
114.1449706745888
 20
-141.8562852292929
 30
0.0
 10
114.3310058307923
 20
-141.6192626599077
 30
0.0
 10
114.6441650104015
 20
-141.6192626599077
 30
0.0
 10
114.961458304593
 20
-141.6192626599077
 30
0.0
 10
115.196413816687
 20
-141.8435383759975
 30
0.0
 10
115.196413816687
 20
-142.1460177596024
 30
0.0
  0
HATCH
  5
D1
330
AF
100
AcDbEntity
  8
_U+30EC_U+30A4_U+30E4_U+30FC 1
 62
     7
420
 16777215
100
AcDbHatch
 10
0.0
 20
0.0
 30
0.0
210
0.0
220
0.0
230
1.0
  2
SOLID
 70
     1
 71
     0
 91
        1
 92
        1
 93
        1
 72
     4
 94
        3
 73
     0
 74
     1
 95
       53
 96
       49
 40
0.0
 40
0.0
 40
0.0
 40
0.0
 40
1.0
 40
1.0
 40
1.0
 40
2.0
 40
2.0
 40
2.0
 40
3.0
 40
3.0
 40
3.0
 40
4.0
 40
4.0
 40
4.0
 40
5.0
 40
5.0
 40
5.0
 40
6.0
 40
6.0
 40
6.0
 40
7.0
 40
7.0
 40
7.0
 40
8.0
 40
8.0
 40
8.0
 40
9.0
 40
9.0
 40
9.0
 40
10.0
 40
10.0
 40
10.0
 40
11.0
 40
11.0
 40
11.0
 40
12.0
 40
12.0
 40
12.0
 40
13.0
 40
13.0
 40
13.0
 40
14.0
 40
14.0
 40
14.0
 40
15.0
 40
15.0
 40
15.0
 40
16.0
 40
16.0
 40
16.0
 40
16.0
 10
115.196413816687
 20
-142.1460177596024
 10
115.196413816687
 20
-142.2245659366661
 10
115.1795328488093
 20
-142.3258517439324
 10
115.1157985823322
 20
-142.4274820607473
 10
115.0059000363527
 20
-142.6007703636554
 10
114.8746418983647
 20
-142.6221299556639
 10
114.7671549192249
 20
-142.6410779808328
 10
114.7671549192249
 20
-142.6410779808328
 10
114.7671549192249
 20
-142.4188693220342
 10
114.7671549192249
 20
-142.4188693220342
 10
114.9655924191753
 20
-142.3637477942702
 10
114.9952202403484
 20
-142.236968280413
 10
114.9952202403484
 20
-142.1439507023112
 10
114.9952202403484
 20
-142.0044243351586
 10
114.8960014903732
 20
-141.8518066051621
 10
114.6631130355703
 20
-141.8518066051621
 10
114.4074869505648
 20
-141.8518066051621
 10
114.3375515122142
 20
-142.0316405894921
 10
114.3375515122142
 20
-142.1522189314758
 10
114.3375515122142
 20
-142.1839138099402
 10
114.3375515122142
 20
-142.3258517439324
 10
114.4667425929111
 20
-142.4147352074519
 10
114.4667425929111
 20
-142.4147352074519
 10
114.4474500581937
 20
-142.5904350771996
 10
114.4474500581937
 20
-142.5904350771996
 10
114.4474500581937
 20
-142.5904350771996
 10
113.6013346070163
 20
-142.4698567352159
 10
113.6013346070163
 20
-142.4698567352159
 10
113.6013346070163
 20
-142.4698567352159
 10
113.6013346070163
 20
-141.6912651555494
 10
113.6013346070163
 20
-141.6912651555494
 10
113.6013346070163
 20
-141.6912651555494
 10
113.795982501933
 20
-141.6912651555494
 10
113.795982501933
 20
-141.6912651555494
 10
113.795982501933
 20
-141.6912651555494
 10
113.795982501933
 20
-142.3069037187636
 10
113.795982501933
 20
-142.3069037187636
 10
113.795982501933
 20
-142.3069037187636
 10
114.2190402275216
 20
-142.3723605329833
 10
114.2190402275216
 20
-142.3723605329833
 10
114.1849337822177
 20
-142.3110378333459
 10
114.1449706745888
 20
-142.2287000512484
 10
114.1449706745888
 20
-142.1101887665558
 10
114.1449706745888
 20
-141.8562852292929
 10
114.3310058307923
 20
-141.6192626599077
 10
114.6441650104015
 20
-141.6192626599077
 10
114.961458304593
 20
-141.6192626599077
 10
115.196413816687
 20
-141.8435383759975
 10
115.196413816687
 20
-142.1460177596024
 97
        0
 97
        0
 75
     2
 76
     1
 98
        0
  0
ENDBLK
  5
B2
330
AF
100
AcDbEntity
  8
0
100
AcDbBlockEnd
  0
BLOCK
  5
D4
330
D2
100
AcDbEntity
  8
0
100
AcDbBlockBegin
  2
block 8
 70
     0
 10
0.0
 20
0.0
 30
0.0
  3
block 8
  1

  0
SPLINE
  5
D6
330
D2
100
AcDbEntity
  8
_U+30EC_U+30A4_U+30E4_U+30FC 1
370
     0
100
AcDbSpline
210
0.0
220
0.0
230
1.0
 70
    11
 71
     3
 72
    26
 73
    22
 74
     0
 42
0.0000000001
 43
0.0000000001
 12
1.0
 22
0.0
 32
0.0
 13
1.0
 23
0.0
 33
0.0
 40
0.0
 40
0.0
 40
0.0
 40
0.0
 40
1.0
 40
1.0
 40
1.0
 40
2.0
 40
2.0
 40
2.0
 40
3.0
 40
3.0
 40
3.0
 40
4.0
 40
4.0
 40
4.0
 40
5.0
 40
5.0
 40
5.0
 40
6.0
 40
6.0
 40
6.0
 40
7.0
 40
7.0
 40
7.0
 40
7.0
 10
115.1454264035053
 20
-138.873177048615
 30
0.0
 10
115.1454264035053
 20
-138.873177048615
 30
0.0
 10
114.0412733004827
 20
-138.873177048615
 30
0.0
 10
114.0412733004827
 20
-138.873177048615
 30
0.0
 10
114.0412733004827
 20
-138.873177048615
 30
0.0
 10
114.0412733004827
 20
-139.203217196102
 30
0.0
 10
114.0412733004827
 20
-139.203217196102
 30
0.0
 10
114.0412733004827
 20
-139.203217196102
 30
0.0
 10
113.893134194617
 20
-139.203217196102
 30
0.0
 10
113.893134194617
 20
-139.203217196102
 30
0.0
 10
113.8783202840304
 20
-138.8711099913239
 30
0.0
 10
113.7157117771266
 20
-138.8249457118216
 30
0.0
 10
113.6013346070163
 20
-138.7953178906484
 30
0.0
 10
113.6013346070163
 20
-138.7953178906484
 30
0.0
 10
113.6013346070163
 20
-138.6492458420738
 30
0.0
 10
113.6013346070163
 20
-138.6492458420738
 30
0.0
 10
113.6013346070163
 20
-138.6492458420738
 30
0.0
 10
115.1454264035053
 20
-138.6492458420738
 30
0.0
 10
115.1454264035053
 20
-138.6492458420738
 30
0.0
 10
115.1454264035053
 20
-138.6492458420738
 30
0.0
 10
115.1454264035053
 20
-138.873177048615
 30
0.0
 10
115.1454264035053
 20
-138.873177048615
 30
0.0
  0
HATCH
  5
D7
330
D2
100
AcDbEntity
  8
_U+30EC_U+30A4_U+30E4_U+30FC 1
 62
     7
420
 16777215
100
AcDbHatch
 10
0.0
 20
0.0
 30
0.0
210
0.0
220
0.0
230
1.0
  2
SOLID
 70
     1
 71
     0
 91
        1
 92
        1
 93
        1
 72
     4
 94
        3
 73
     0
 74
     1
 95
       26
 96
       22
 40
0.0
 40
0.0
 40
0.0
 40
0.0
 40
1.0
 40
1.0
 40
1.0
 40
2.0
 40
2.0
 40
2.0
 40
3.0
 40
3.0
 40
3.0
 40
4.0
 40
4.0
 40
4.0
 40
5.0
 40
5.0
 40
5.0
 40
6.0
 40
6.0
 40
6.0
 40
7.0
 40
7.0
 40
7.0
 40
7.0
 10
115.1454264035053
 20
-138.873177048615
 10
115.1454264035053
 20
-138.873177048615
 10
114.0412733004827
 20
-138.873177048615
 10
114.0412733004827
 20
-138.873177048615
 10
114.0412733004827
 20
-138.873177048615
 10
114.0412733004827
 20
-139.203217196102
 10
114.0412733004827
 20
-139.203217196102
 10
114.0412733004827
 20
-139.203217196102
 10
113.893134194617
 20
-139.203217196102
 10
113.893134194617
 20
-139.203217196102
 10
113.8783202840304
 20
-138.8711099913239
 10
113.7157117771266
 20
-138.8249457118216
 10
113.6013346070163
 20
-138.7953178906484
 10
113.6013346070163
 20
-138.7953178906484
 10
113.6013346070163
 20
-138.6492458420738
 10
113.6013346070163
 20
-138.6492458420738
 10
113.6013346070163
 20
-138.6492458420738
 10
115.1454264035053
 20
-138.6492458420738
 10
115.1454264035053
 20
-138.6492458420738
 10
115.1454264035053
 20
-138.6492458420738
 10
115.1454264035053
 20
-138.873177048615
 10
115.1454264035053
 20
-138.873177048615
 97
        0
 97
        0
 75
     2
 76
     1
 98
        0
  0
ENDBLK
  5
D5
330
D2
100
AcDbEntity
  8
0
100
AcDbBlockEnd
  0
ENDSEC
  0
SECTION
  2
ENTITIES
  0
SPLINE
  5
41
330
1F
100
AcDbEntity
  8
_U+30EC_U+30A4_U+30E4_U+30FC 1
 62
     7
420
 16777215
370
    25
100
AcDbSpline
210
0.0
220
0.0
230
1.0
 70
    11
 71
     3
 72
    53
 73
    49
 74
     0
 42
0.0000000001
 43
0.0000000001
 12
1.0
 22
0.0
 32
0.0
 13
1.0
 23
0.0
 33
0.0
 40
0.0
 40
0.0
 40
0.0
 40
0.0
 40
1.0
 40
1.0
 40
1.0
 40
2.0
 40
2.0
 40
2.0
 40
3.0
 40
3.0
 40
3.0
 40
4.0
 40
4.0
 40
4.0
 40
5.0
 40
5.0
 40
5.0
 40
6.0
 40
6.0
 40
6.0
 40
7.0
 40
7.0
 40
7.0
 40
8.0
 40
8.0
 40
8.0
 40
9.0
 40
9.0
 40
9.0
 40
10.0
 40
10.0
 40
10.0
 40
11.0
 40
11.0
 40
11.0
 40
12.0
 40
12.0
 40
12.0
 40
13.0
 40
13.0
 40
13.0
 40
14.0
 40
14.0
 40
14.0
 40
15.0
 40
15.0
 40
15.0
 40
16.0
 40
16.0
 40
16.0
 40
16.0
 10
81.67218097192463
 20
-144.23993246394
 30
0.0
 10
81.67218097192463
 20
-144.23993246394
 30
0.0
 10
90.67231796453423
 20
-144.23993246394
 30
0.0
 10
90.67231796453423
 20
-144.23993246394
 30
0.0
 10
90.67231796453423
 20
-144.23993246394
 30
0.0
 10
90.67231796453423
 20
-139.739264131732
 30
0.0
 10
90.67231796453423
 20
-139.739264131732
 30
0.0
 10
90.67231796453423
 20
-139.739264131732
 30
0.0
 10
111.6720849287855
 20
-139.739264131732
 30
0.0
 10
111.6720849287855
 20
-139.739264131732
 30
0.0
 10
111.6720849287855
 20
-139.739264131732
 30
0.0
 10
111.6720849287855
 20
-140.7393891314817
 30
0.0
 10
111.6720849287855
 20
-140.7393891314817
 30
0.0
 10
111.6720849287855
 20
-140.7393891314817
 30
0.0
 10
91.67226655013452
 20
-140.7393891314817
 30
0.0
 10
91.67226655013452
 20
-140.7393891314817
 30
0.0
 10
91.67226655013452
 20
-140.7393891314817
 30
0.0
 10
91.67226655013452
 20
-145.2397046859125
 30
0.0
 10
91.67226655013452
 20
-145.2397046859125
 30
0.0
 10
91.67226655013452
 20
-145.2397046859125
 30
0.0
 10
81.67218097192463
 20
-145.2397046859125
 30
0.0
 10
81.67218097192463
 20
-145.2397046859125
 30
0.0
 10
76.14919998096262
 20
-145.2397046859125
 30
0.0
 10
71.6720972043042
 20
-140.7624607981424
 30
0.0
 10
71.6720972043042
 20
-135.239971632857
 30
0.0
 10
71.6720972043042
 20
-135.239971632857
 30
0.0
 10
71.6720972043042
 20
-125.2397446909123
 30
0.0
 10
71.6720972043042
 20
-125.2397446909123
 30
0.0
 10
71.6720972043042
 20
-125.2397446909123
 30
0.0
 10
76.171740556697
 20
-125.2397446909123
 30
0.0
 10
76.171740556697
 20
-125.2397446909123
 30
0.0
 10
76.171740556697
 20
-125.2397446909123
 30
0.0
 10
76.171740556697
 20
-105.2397494181345
 30
0.0
 10
76.171740556697
 20
-105.2397494181345
 30
0.0
 10
76.171740556697
 20
-105.2397494181345
 30
0.0
 10
77.1716891422973
 20
-105.2397494181345
 30
0.0
 10
77.1716891422973
 20
-105.2397494181345
 30
0.0
 10
77.1716891422973
 20
-105.2397494181345
 30
0.0
 10
77.1716891422973
 20
-126.2396580239955
 30
0.0
 10
77.1716891422973
 20
-126.2396580239955
 30
0.0
 10
77.1716891422973
 20
-126.2396580239955
 30
0.0
 10
72.67204397931503
 20
-126.2396580239955
 30
0.0
 10
72.67204397931503
 20
-126.2396580239955
 30
0.0
 10
72.67204397931503
 20
-126.2396580239955
 30
0.0
 10
72.67222220405417
 20
-135.239971632857
 30
0.0
 10
72.67222220405417
 20
-135.239971632857
 30
0.0
 10
72.67222220405417
 20
-140.2105752427251
 30
0.0
 10
76.70161276540105
 20
-144.23993246394
 30
0.0
 10
81.67218097192463
 20
-144.23993246394
 30
0.0
  0
HATCH
  5
42
330
1F
100
AcDbEntity
  8
_U+30EC_U+30A4_U+30E4_U+30FC 1
 62
   253
420
 10855845
100
AcDbHatch
 10
0.0
 20
0.0
 30
0.0
210
0.0
220
0.0
230
1.0
  2
SOLID
 70
     1
 71
     0
 91
        1
 92
        1
 93
        1
 72
     4
 94
        3
 73
     0
 74
     1
 95
       53
 96
       49
 40
0.0
 40
0.0
 40
0.0
 40
0.0
 40
1.0
 40
1.0
 40
1.0
 40
2.0
 40
2.0
 40
2.0
 40
3.0
 40
3.0
 40
3.0
 40
4.0
 40
4.0
 40
4.0
 40
5.0
 40
5.0
 40
5.0
 40
6.0
 40
6.0
 40
6.0
 40
7.0
 40
7.0
 40
7.0
 40
8.0
 40
8.0
 40
8.0
 40
9.0
 40
9.0
 40
9.0
 40
10.0
 40
10.0
 40
10.0
 40
11.0
 40
11.0
 40
11.0
 40
12.0
 40
12.0
 40
12.0
 40
13.0
 40
13.0
 40
13.0
 40
14.0
 40
14.0
 40
14.0
 40
15.0
 40
15.0
 40
15.0
 40
16.0
 40
16.0
 40
16.0
 40
16.0
 10
81.67218097192463
 20
-144.23993246394
 10
81.67218097192463
 20
-144.23993246394
 10
90.67231796453423
 20
-144.23993246394
 10
90.67231796453423
 20
-144.23993246394
 10
90.67231796453423
 20
-144.23993246394
 10
90.67231796453423
 20
-139.739264131732
 10
90.67231796453423
 20
-139.739264131732
 10
90.67231796453423
 20
-139.739264131732
 10
111.6720849287855
 20
-139.739264131732
 10
111.6720849287855
 20
-139.739264131732
 10
111.6720849287855
 20
-139.739264131732
 10
111.6720849287855
 20
-140.7393891314817
 10
111.6720849287855
 20
-140.7393891314817
 10
111.6720849287855
 20
-140.7393891314817
 10
91.67226655013452
 20
-140.7393891314817
 10
91.67226655013452
 20
-140.7393891314817
 10
91.67226655013452
 20
-140.7393891314817
 10
91.67226655013452
 20
-145.2397046859125
 10
91.67226655013452
 20
-145.2397046859125
 10
91.67226655013452
 20
-145.2397046859125
 10
81.67218097192463
 20
-145.2397046859125
 10
81.67218097192463
 20
-145.2397046859125
 10
76.14919998096262
 20
-145.2397046859125
 10
71.6720972043042
 20
-140.7624607981424
 10
71.6720972043042
 20
-135.239971632857
 10
71.6720972043042
 20
-135.239971632857
 10
71.6720972043042
 20
-125.2397446909123
 10
71.6720972043042
 20
-125.2397446909123
 10
71.6720972043042
 20
-125.2397446909123
 10
76.171740556697
 20
-125.2397446909123
 10
76.171740556697
 20
-125.2397446909123
 10
76.171740556697
 20
-125.2397446909123
 10
76.171740556697
 20
-105.2397494181345
 10
76.171740556697
 20
-105.2397494181345
 10
76.171740556697
 20
-105.2397494181345
 10
77.1716891422973
 20
-105.2397494181345
 10
77.1716891422973
 20
-105.2397494181345
 10
77.1716891422973
 20
-105.2397494181345
 10
77.1716891422973
 20
-126.2396580239955
 10
77.1716891422973
 20
-126.2396580239955
 10
77.1716891422973
 20
-126.2396580239955
 10
72.67204397931503
 20
-126.2396580239955
 10
72.67204397931503
 20
-126.2396580239955
 10
72.67204397931503
 20
-126.2396580239955
 10
72.67222220405417
 20
-135.239971632857
 10
72.67222220405417
 20
-135.239971632857
 10
72.67222220405417
 20
-140.2105752427251
 10
76.70161276540105
 20
-144.23993246394
 10
81.67218097192463
 20
-144.23993246394
 97
        0
 97
        0
 75
     2
 76
     1
 98
        0
  0
POLYLINE
  5
43
330
1F
100
AcDbEntity
  8
_U+30EC_U+30A4_U+30E4_U+30FC 1
 62
     7
420
 16777215
370
     9
100
AcDb2dPolyline
 66
     1
 10
0.0
 20
0.0
 30
0.0
  0
VERTEX
  5
44
330
43
100
AcDbEntity
  8
_U+30EC_U+30A4_U+30E4_U+30FC 1
 62
     7
420
 16777215
370
     9
100
AcDbVertex
100
AcDb2dVertex
 10
71.6720972043042
 20
-149.4992141292918
 30
0.0
  0
VERTEX
  5
45
330
43
100
AcDbEntity
  8
_U+30EC_U+30A4_U+30E4_U+30FC 1
 62
     7
420
 16777215
370
     9
100
AcDbVertex
100
AcDb2dVertex
 10
91.57751044144085
 20
-149.4992141292918
 30
0.0
  0
SEQEND
  5
46
330
43
100
AcDbEntity
  8
_U+30EC_U+30A4_U+30E4_U+30FC 1
 62
     7
420
 16777215
370
     9
  0
INSERT
  5
48
330
1F
100
AcDbEntity
  8
_U+30EC_U+30A4_U+30E4_U+30FC 1
100
AcDbBlockReference
  2
block 2
 10
0.0
 20
0.0
 30
0.0
  0
POLYLINE
  5
50
330
1F
100
AcDbEntity
  8
_U+30EC_U+30A4_U+30E4_U+30FC 1
 62
     7
420
 16777215
370
     9
100
AcDb2dPolyline
 66
     1
 10
0.0
 20
0.0
 30
0.0
  0
VERTEX
  5
51
330
50
100
AcDbEntity
  8
_U+30EC_U+30A4_U+30E4_U+30FC 1
 62
     7
420
 16777215
370
     9
100
AcDbVertex
100
AcDb2dVertex
 10
81.67235736080902
 20
-151.4394919065845
 30
0.0
  0
VERTEX
  5
52
330
50
100
AcDbEntity
  8
_U+30EC_U+30A4_U+30E4_U+30FC 1
 62
     7
420
 16777215
370
     9
100
AcDbVertex
100
AcDb2dVertex
 10
81.67235736080902
 20
-148.4567557962191
 30
0.0
  0
SEQEND
  5
53
330
50
100
AcDbEntity
  8
_U+30EC_U+30A4_U+30E4_U+30FC 1
 62
     7
420
 16777215
370
     9
  0
INSERT
  5
55
330
1F
100
AcDbEntity
  8
_U+30EC_U+30A4_U+30E4_U+30FC 1
100
AcDbBlockReference
  2
block 3
 10
0.0
 20
0.0
 30
0.0
  0
POLYLINE
  5
5D
330
1F
100
AcDbEntity
  8
_U+30EC_U+30A4_U+30E4_U+30FC 1
 62
     7
420
 16777215
370
     9
100
AcDb2dPolyline
 66
     1
 10
0.0
 20
0.0
 30
0.0
  0
VERTEX
  5
5E
330
5D
100
AcDbEntity
  8
_U+30EC_U+30A4_U+30E4_U+30FC 1
 62
     7
420
 16777215
370
     9
100
AcDbVertex
100
AcDb2dVertex
 10
67.65116966296377
 20
-125.0891791353943
 30
0.0
  0
VERTEX
  5
5F
330
5D
100
AcDbEntity
  8
_U+30EC_U+30A4_U+30E4_U+30FC 1
 62
     7
420
 16777215
370
     9
100
AcDbVertex
100
AcDb2dVertex
 10
67.65116966296377
 20
-105.4019919180939
 30
0.0
  0
SEQEND
  5
60
330
5D
100
AcDbEntity
  8
_U+30EC_U+30A4_U+30E4_U+30FC 1
 62
     7
420
 16777215
370
     9
  0
POLYLINE
  5
61
330
1F
100
AcDbEntity
  8
_U+30EC_U+30A4_U+30E4_U+30FC 1
 62
     7
420
 16777215
370
     9
100
AcDb2dPolyline
 66
     1
 10
0.0
 20
0.0
 30
0.0
  0
VERTEX
  5
62
330
61
100
AcDbEntity
  8
_U+30EC_U+30A4_U+30E4_U+30FC 1
 62
     7
420
 16777215
370
     9
100
AcDbVertex
100
AcDb2dVertex
 10
67.65116966296377
 20
-145.2741710747929
 30
0.0
  0
VERTEX
  5
63
330
61
100
AcDbEntity
  8
_U+30EC_U+30A4_U+30E4_U+30FC 1
 62
     7
420
 16777215
370
     9
100
AcDbVertex
100
AcDb2dVertex
 10
67.65116966296377
 20
-125.0891791353943
 30
0.0
  0
SEQEND
  5
64
330
61
100
AcDbEntity
  8
_U+30EC_U+30A4_U+30E4_U+30FC 1
 62
     7
420
 16777215
370
     9
  0
POLYLINE
  5
65
330
1F
100
AcDbEntity
  8
_U+30EC_U+30A4_U+30E4_U+30FC 1
 62
     7
420
 16777215
370
     9
100
AcDb2dPolyline
 66
     1
 10
0.0
 20
0.0
 30
0.0
  0
VERTEX
  5
66
330
65
100
AcDbEntity
  8
_U+30EC_U+30A4_U+30E4_U+30FC 1
 62
     7
420
 16777215
370
     9
100
AcDbVertex
100
AcDb2dVertex
 10
78.18850050524517
 20
-145.2362827414688
 30
0.0
  0
VERTEX
  5
67
330
65
100
AcDbEntity
  8
_U+30EC_U+30A4_U+30E4_U+30FC 1
 62
     7
420
 16777215
370
     9
100
AcDbVertex
100
AcDb2dVertex
 10
66.17856942275515
 20
-145.2362827414688
 30
0.0
  0
SEQEND
  5
68
330
65
100
AcDbEntity
  8
_U+30EC_U+30A4_U+30E4_U+30FC 1
 62
     7
420
 16777215
370
     9
  0
POLYLINE
  5
69
330
1F
100
AcDbEntity
  8
_U+30EC_U+30A4_U+30E4_U+30FC 1
 62
     7
420
 16777215
370
     9
100
AcDb2dPolyline
 66
     1
 10
0.0
 20
0.0
 30
0.0
  0
VERTEX
  5
6A
330
69
100
AcDbEntity
  8
_U+30EC_U+30A4_U+30E4_U+30FC 1
 62
     7
420
 16777215
370
     9
100
AcDbVertex
100
AcDb2dVertex
 10
71.06182513150625
 20
-125.2397446909123
 30
0.0
  0
VERTEX
  5
6B
330
69
100
AcDbEntity
  8
_U+30EC_U+30A4_U+30E4_U+30FC 1
 62
     7
420
 16777215
370
     9
100
AcDbVertex
100
AcDb2dVertex
 10
66.05693331681896
 20
-125.2397446909123
 30
0.0
  0
SEQEND
  5
6C
330
69
100
AcDbEntity
  8
_U+30EC_U+30A4_U+30E4_U+30FC 1
 62
     7
420
 16777215
370
     9
  0
POLYLINE
  5
6D
330
1F
100
AcDbEntity
  8
_U+30EC_U+30A4_U+30E4_U+30FC 1
 62
     7
420
 16777215
370
     9
100
AcDb2dPolyline
 66
     1
 10
0.0
 20
0.0
 30
0.0
  0
VERTEX
  5
6E
330
6D
100
AcDbEntity
  8
_U+30EC_U+30A4_U+30E4_U+30FC 1
 62
     7
420
 16777215
370
     9
100
AcDbVertex
100
AcDb2dVertex
 10
75.02179086381244
 20
-105.2397494181345
 30
0.0
  0
VERTEX
  5
6F
330
6D
100
AcDbEntity
  8
_U+30EC_U+30A4_U+30E4_U+30FC 1
 62
     7
420
 16777215
370
     9
100
AcDbVertex
100
AcDb2dVertex
 10
66.05710803696499
 20
-105.2397494181345
 30
0.0
  0
SEQEND
  5
70
330
6D
100
AcDbEntity
  8
_U+30EC_U+30A4_U+30E4_U+30FC 1
 62
     7
420
 16777215
370
     9
  0
INSERT
  5
72
330
1F
100
AcDbEntity
  8
_U+30EC_U+30A4_U+30E4_U+30FC 1
100
AcDbBlockReference
  2
block 4
 10
0.0
 20
0.0
 30
0.0
  0
INSERT
  5
7B
330
1F
100
AcDbEntity
  8
_U+30EC_U+30A4_U+30E4_U+30FC 1
100
AcDbBlockReference
  2
block 5
 10
0.0
 20
0.0
 30
0.0
  0
POLYLINE
  5
83
330
1F
100
AcDbEntity
  8
_U+30EC_U+30A4_U+30E4_U+30FC 1
 62
     7
420
 16777215
370
     9
100
AcDb2dPolyline
 66
     1
 10
0.0
 20
0.0
 30
0.0
  0
VERTEX
  5
84
330
83
100
AcDbEntity
  8
_U+30EC_U+30A4_U+30E4_U+30FC 1
 62
     7
420
 16777215
370
     9
100
AcDbVertex
100
AcDb2dVertex
 10
74.74789420413346
 20
-142.454700519942
 30
0.0
  0
VERTEX
  5
85
330
83
100
AcDbEntity
  8
_U+30EC_U+30A4_U+30E4_U+30FC 1
 62
     7
420
 16777215
370
     9
100
AcDbVertex
100
AcDb2dVertex
 10
75.65100529220429
 20
-141.9331185756276
 30
0.0
  0
SEQEND
  5
86
330
83
100
AcDbEntity
  8
_U+30EC_U+30A4_U+30E4_U+30FC 1
 62
     7
420
 16777215
370
     9
  0
POLYLINE
  5
87
330
1F
100
AcDbEntity
  8
_U+30EC_U+30A4_U+30E4_U+30FC 1
 62
     7
420
 16777215
370
     9
100
AcDb2dPolyline
 66
     1
 10
0.0
 20
0.0
 30
0.0
  0
VERTEX
  5
88
330
87
100
AcDbEntity
  8
_U+30EC_U+30A4_U+30E4_U+30FC 1
 62
     7
420
 16777215
370
     9
100
AcDbVertex
100
AcDb2dVertex
 10
74.74789420413346
 20
-142.454700519942
 30
0.0
  0
VERTEX
  5
89
330
87
100
AcDbEntity
  8
_U+30EC_U+30A4_U+30E4_U+30FC 1
 62
     7
420
 16777215
370
     9
100
AcDbVertex
100
AcDb2dVertex
 10
88.93548717551114
 20
-127.7413977458424
 30
0.0
  0
SEQEND
  5
8A
330
87
100
AcDbEntity
  8
_U+30EC_U+30A4_U+30E4_U+30FC 1
 62
     7
420
 16777215
370
     9
  0
POLYLINE
  5
8B
330
1F
100
AcDbEntity
  8
_U+30EC_U+30A4_U+30E4_U+30FC 1
 62
     7
420
 16777215
370
     9
100
AcDb2dPolyline
 66
     1
 10
0.0
 20
0.0
 30
0.0
  0
VERTEX
  5
8C
330
8B
100
AcDbEntity
  8
_U+30EC_U+30A4_U+30E4_U+30FC 1
 62
     7
420
 16777215
370
     9
100
AcDbVertex
100
AcDb2dVertex
 10
74.74789420413346
 20
-142.454700519942
 30
0.0
  0
VERTEX
  5
8D
330
8B
100
AcDbEntity
  8
_U+30EC_U+30A4_U+30E4_U+30FC 1
 62
     7
420
 16777215
370
     9
100
AcDbVertex
100
AcDb2dVertex
 10
75.26965252415563
 20
-141.5520832979453
 30
0.0
  0
SEQEND
  5
8E
330
8B
100
AcDbEntity
  8
_U+30EC_U+30A4_U+30E4_U+30FC 1
 62
     7
420
 16777215
370
     9
  0
INSERT
  5
90
330
1F
100
AcDbEntity
  8
_U+30EC_U+30A4_U+30E4_U+30FC 1
100
AcDbBlockReference
  2
block 6
 10
0.0
 20
0.0
 30
0.0
  0
POLYLINE
  5
9B
330
1F
100
AcDbEntity
  8
_U+30EC_U+30A4_U+30E4_U+30FC 1
 62
     7
420
 16777215
370
     9
100
AcDb2dPolyline
 66
     1
 10
0.0
 20
0.0
 30
0.0
  0
VERTEX
  5
9C
330
9B
100
AcDbEntity
  8
_U+30EC_U+30A4_U+30E4_U+30FC 1
 62
     7
420
 16777215
370
     9
100
AcDbVertex
100
AcDb2dVertex
 10
115.8888728767619
 20
-140.7390363537039
 30
0.0
  0
VERTEX
  5
9D
330
9B
100
AcDbEntity
  8
_U+30EC_U+30A4_U+30E4_U+30FC 1
 62
     7
420
 16777215
370
     9
100
AcDbVertex
100
AcDb2dVertex
 10
115.8888728767619
 20
-139.798178020606
 30
0.0
  0
SEQEND
  5
9E
330
9B
100
AcDbEntity
  8
_U+30EC_U+30A4_U+30E4_U+30FC 1
 62
     7
420
 16777215
370
     9
  0
POLYLINE
  5
9F
330
1F
100
AcDbEntity
  8
_U+30EC_U+30A4_U+30E4_U+30FC 1
 62
     7
420
 16777215
370
     9
100
AcDb2dPolyline
 66
     1
 10
0.0
 20
0.0
 30
0.0
  0
VERTEX
  5
A0
330
9F
100
AcDbEntity
  8
_U+30EC_U+30A4_U+30E4_U+30FC 1
 62
     7
420
 16777215
370
     9
100
AcDbVertex
100
AcDb2dVertex
 10
115.8882055265836
 20
-145.2390344081345
 30
0.0
  0
VERTEX
  5
A1
330
9F
100
AcDbEntity
  8
_U+30EC_U+30A4_U+30E4_U+30FC 1
 62
     7
420
 16777215
370
     9
100
AcDbVertex
100
AcDb2dVertex
 10
115.8882055265836
 20
-140.7390363537039
 30
0.0
  0
SEQEND
  5
A2
330
9F
100
AcDbEntity
  8
_U+30EC_U+30A4_U+30E4_U+30FC 1
 62
     7
420
 16777215
370
     9
  0
POLYLINE
  5
A3
330
1F
100
AcDbEntity
  8
_U+30EC_U+30A4_U+30E4_U+30FC 1
 62
     7
420
 16777215
370
     9
100
AcDb2dPolyline
 66
     1
 10
0.0
 20
0.0
 30
0.0
  0
VERTEX
  5
A4
330
A3
100
AcDbEntity
  8
_U+30EC_U+30A4_U+30E4_U+30FC 1
 62
     7
420
 16777215
370
     9
100
AcDbVertex
100
AcDb2dVertex
 10
117.2407172867179
 20
-145.2397046859125
 30
0.0
  0
VERTEX
  5
A5
330
A3
100
AcDbEntity
  8
_U+30EC_U+30A4_U+30E4_U+30FC 1
 62
     7
420
 16777215
370
     9
100
AcDbVertex
100
AcDb2dVertex
 10
92.82225152079596
 20
-145.2397046859125
 30
0.0
  0
SEQEND
  5
A6
330
A3
100
AcDbEntity
  8
_U+30EC_U+30A4_U+30E4_U+30FC 1
 62
     7
420
 16777215
370
     9
  0
POLYLINE
  5
A7
330
1F
100
AcDbEntity
  8
_U+30EC_U+30A4_U+30E4_U+30FC 1
 62
     7
420
 16777215
370
     9
100
AcDb2dPolyline
 66
     1
 10
0.0
 20
0.0
 30
0.0
  0
VERTEX
  5
A8
330
A7
100
AcDbEntity
  8
_U+30EC_U+30A4_U+30E4_U+30FC 1
 62
     7
420
 16777215
370
     9
100
AcDbVertex
100
AcDb2dVertex
 10
117.2407172867179
 20
-140.7393891314817
 30
0.0
  0
VERTEX
  5
A9
330
A7
100
AcDbEntity
  8
_U+30EC_U+30A4_U+30E4_U+30FC 1
 62
     7
420
 16777215
370
     9
100
AcDbVertex
100
AcDb2dVertex
 10
112.8220346216701
 20
-140.7393891314817
 30
0.0
  0
SEQEND
  5
AA
330
A7
100
AcDbEntity
  8
_U+30EC_U+30A4_U+30E4_U+30FC 1
 62
     7
420
 16777215
370
     9
  0
POLYLINE
  5
AB
330
1F
100
AcDbEntity
  8
_U+30EC_U+30A4_U+30E4_U+30FC 1
 62
     7
420
 16777215
370
     9
100
AcDb2dPolyline
 66
     1
 10
0.0
 20
0.0
 30
0.0
  0
VERTEX
  5
AC
330
AB
100
AcDbEntity
  8
_U+30EC_U+30A4_U+30E4_U+30FC 1
 62
     7
420
 16777215
370
     9
100
AcDbVertex
100
AcDb2dVertex
 10
117.2407172867179
 20
-139.798178020606
 30
0.0
  0
VERTEX
  5
AD
330
AB
100
AcDbEntity
  8
_U+30EC_U+30A4_U+30E4_U+30FC 1
 62
     7
420
 16777215
370
     9
100
AcDbVertex
100
AcDb2dVertex
 10
112.8220346216701
 20
-139.798178020606
 30
0.0
  0
SEQEND
  5
AE
330
AB
100
AcDbEntity
  8
_U+30EC_U+30A4_U+30E4_U+30FC 1
 62
     7
420
 16777215
370
     9
  0
INSERT
  5
B0
330
1F
100
AcDbEntity
  8
_U+30EC_U+30A4_U+30E4_U+30FC 1
100
AcDbBlockReference
  2
block 7
 10
0.0
 20
0.0
 30
0.0
  0
INSERT
  5
D3
330
1F
100
AcDbEntity
  8
_U+30EC_U+30A4_U+30E4_U+30FC 1
100
AcDbBlockReference
  2
block 8
 10
0.0
 20
0.0
 30
0.0
  0
SPLINE
  5
D8
330
1F
100
AcDbEntity
  8
_U+30EC_U+30A4_U+30E4_U+30FC 1
 62
     7
420
 16777215
370
     9
100
AcDbSpline
210
0.0
220
0.0
230
1.0
 70
    11
 71
     3
 72
    17
 73
    13
 74
     0
 42
0.0000000001
 43
0.0000000001
 12
1.0
 22
0.0
 32
0.0
 13
1.0
 23
0.0
 33
0.0
 40
0.0
 40
0.0
 40
0.0
 40
0.0
 40
1.0
 40
1.0
 40
1.0
 40
2.0
 40
2.0
 40
2.0
 40
3.0
 40
3.0
 40
3.0
 40
4.0
 40
4.0
 40
4.0
 40
4.0
 10
67.75555831639448
 20
-105.2705821959047
 30
0.0
 10
67.75555831639448
 20
-105.2156194181405
 30
0.0
 10
67.71075553862777
 20
-105.1711694181515
 30
0.0
 10
67.65529716285846
 20
-105.1711694181515
 30
0.0
 10
67.60068887198865
 20
-105.1711694181515
 30
0.0
 10
67.55591966539379
 20
-105.2156194181405
 30
0.0
 10
67.55591966539379
 20
-105.2705821959047
 30
0.0
 10
67.55591966539379
 20
-105.3258624736685
 30
0.0
 10
67.60068887198865
 20
-105.3708416403241
 30
0.0
 10
67.65529716285846
 20
-105.3708416403241
 30
0.0
 10
67.71075553862777
 20
-105.3708416403241
 30
0.0
 10
67.75555831639448
 20
-105.3258624736685
 30
0.0
 10
67.75555831639448
 20
-105.2705821959047
 30
0.0
  0
SPLINE
  5
D9
330
1F
100
AcDbEntity
  8
_U+30EC_U+30A4_U+30E4_U+30FC 1
 62
     7
420
 16777215
370
     9
100
AcDbSpline
210
0.0
220
0.0
230
1.0
 70
    11
 71
     3
 72
    17
 73
    13
 74
     0
 42
0.0000000001
 43
0.0000000001
 12
1.0
 22
0.0
 32
0.0
 13
1.0
 23
0.0
 33
0.0
 40
0.0
 40
0.0
 40
0.0
 40
0.0
 40
1.0
 40
1.0
 40
1.0
 40
2.0
 40
2.0
 40
2.0
 40
3.0
 40
3.0
 40
3.0
 40
4.0
 40
4.0
 40
4.0
 40
4.0
 10
67.77241938209265
 20
-125.2381924686905
 30
0.0
 10
67.77241938209265
 20
-125.1832296909263
 30
0.0
 10
67.72765188323476
 20
-125.1382858020489
 30
0.0
 10
67.67251271797481
 20
-125.1382858020489
 30
0.0
 10
67.61758521937612
 20
-125.1382858020489
 30
0.0
 10
67.57278244274137
 20
-125.1832296909263
 30
0.0
 10
67.57278244274137
 20
-125.2381924686905
 30
0.0
 10
67.57278244274137
 20
-125.2940019131209
 30
0.0
 10
67.61758521937612
 20
-125.3380991353321
 30
0.0
 10
67.67251271797481
 20
-125.3380991353321
 30
0.0
 10
67.72765188323476
 20
-125.3380991353321
 30
0.0
 10
67.77241938209265
 20
-125.2940019131209
 30
0.0
 10
67.77241938209265
 20
-125.2381924686905
 30
0.0
  0
SPLINE
  5
DA
330
1F
100
AcDbEntity
  8
_U+30EC_U+30A4_U+30E4_U+30FC 1
 62
     7
420
 16777215
370
     9
100
AcDbSpline
210
0.0
220
0.0
230
1.0
 70
    11
 71
     3
 72
    17
 73
    13
 74
     0
 42
0.0000000001
 43
0.0000000001
 12
1.0
 22
0.0
 32
0.0
 13
1.0
 23
0.0
 33
0.0
 40
0.0
 40
0.0
 40
0.0
 40
0.0
 40
1.0
 40
1.0
 40
1.0
 40
2.0
 40
2.0
 40
2.0
 40
3.0
 40
3.0
 40
3.0
 40
4.0
 40
4.0
 40
4.0
 40
4.0
 10
67.74469104946672
 20
-145.2349069081359
 30
0.0
 10
67.74469104946672
 20
-145.1797677414828
 30
0.0
 10
67.70027632837761
 20
-145.1356705192716
 30
0.0
 10
67.64478609419984
 20
-145.1356705192716
 30
0.0
 10
67.58950410898143
 20
-145.1356705192716
 30
0.0
 10
67.54505411011544
 20
-145.1797677414828
 30
0.0
 10
67.54505411011544
 20
-145.2349069081359
 30
0.0
 10
67.54505411011544
 20
-145.2907163525663
 30
0.0
 10
67.58950410898143
 20
-145.3354838525549
 30
0.0
 10
67.64478609419984
 20
-145.3354838525549
 30
0.0
 10
67.70027632837761
 20
-145.3354838525549
 30
0.0
 10
67.74469104946672
 20
-145.2907163525663
 30
0.0
 10
67.74469104946672
 20
-145.2349069081359
 30
0.0
  0
SPLINE
  5
DB
330
1F
100
AcDbEntity
  8
_U+30EC_U+30A4_U+30E4_U+30FC 1
 62
     7
420
 16777215
370
     9
100
AcDbSpline
210
0.0
220
0.0
230
1.0
 70
    11
 71
     3
 72
    17
 73
    13
 74
     0
 42
0.0000000001
 43
0.0000000001
 12
1.0
 22
0.0
 32
0.0
 13
1.0
 23
0.0
 33
0.0
 40
0.0
 40
0.0
 40
0.0
 40
0.0
 40
1.0
 40
1.0
 40
1.0
 40
2.0
 40
2.0
 40
2.0
 40
3.0
 40
3.0
 40
3.0
 40
4.0
 40
4.0
 40
4.0
 40
4.0
 10
71.78787705742756
 20
-149.4875019070725
 30
0.0
 10
71.78787705742756
 20
-149.4323980181976
 30
0.0
 10
71.7430742807928
 20
-149.3875952404309
 30
0.0
 10
71.68761942652249
 20
-149.3875952404309
 30
0.0
 10
71.63300761693417
 20
-149.3875952404309
 30
0.0
 10
71.58820484029941
 20
-149.4323980181976
 30
0.0
 10
71.58820484029941
 20
-149.4875019070725
 30
0.0
 10
71.58820484029941
 20
-149.5426410737256
 30
0.0
 10
71.63300761693417
 20
-149.5874085737142
 30
0.0
 10
71.68761942652249
 20
-149.5874085737142
 30
0.0
 10
71.7430742807928
 20
-149.5874085737142
 30
0.0
 10
71.78787705742756
 20
-149.5426410737256
 30
0.0
 10
71.78787705742756
 20
-149.4875019070725
 30
0.0
  0
SPLINE
  5
DC
330
1F
100
AcDbEntity
  8
_U+30EC_U+30A4_U+30E4_U+30FC 1
 62
     7
420
 16777215
370
     9
100
AcDbSpline
210
0.0
220
0.0
230
1.0
 70
    11
 71
     3
 72
    17
 73
    13
 74
     0
 42
0.0000000001
 43
0.0000000001
 12
1.0
 22
0.0
 32
0.0
 13
1.0
 23
0.0
 33
0.0
 40
0.0
 40
0.0
 40
0.0
 40
0.0
 40
1.0
 40
1.0
 40
1.0
 40
2.0
 40
2.0
 40
2.0
 40
3.0
 40
3.0
 40
3.0
 40
4.0
 40
4.0
 40
4.0
 40
4.0
 10
91.76010821456016
 20
-149.4806227404075
 30
0.0
 10
91.76010821456016
 20
-149.5360794070602
 30
0.0
 10
91.71534071570228
 20
-149.5808821848269
 30
0.0
 10
91.66020155044232
 20
-149.5808821848269
 30
0.0
 10
91.60509997709862
 20
-149.5808821848269
 30
0.0
 10
91.56029719933188
 20
-149.5360794070602
 30
0.0
 10
91.56029719933188
 20
-149.4806227404075
 30
0.0
 10
91.56029719933188
 20
-149.4255188515326
 30
0.0
 10
91.60509997709862
 20
-149.3807160737658
 30
0.0
 10
91.66020155044232
 20
-149.3807160737658
 30
0.0
 10
91.71534071570228
 20
-149.3807160737658
 30
0.0
 10
91.76010821456016
 20
-149.4255188515326
 30
0.0
 10
91.76010821456016
 20
-149.4806227404075
 30
0.0
  0
HATCH
  5
DD
330
1F
100
AcDbEntity
  8
_U+30EC_U+30A4_U+30E4_U+30FC 1
 62
     7
420
 16777215
100
AcDbHatch
 10
0.0
 20
0.0
 30
0.0
210
0.0
220
0.0
230
1.0
  2
SOLID
 70
     1
 71
     0
 91
        1
 92
        1
 93
        1
 72
     4
 94
        3
 73
     0
 74
     1
 95
       17
 96
       13
 40
0.0
 40
0.0
 40
0.0
 40
0.0
 40
1.0
 40
1.0
 40
1.0
 40
2.0
 40
2.0
 40
2.0
 40
3.0
 40
3.0
 40
3.0
 40
4.0
 40
4.0
 40
4.0
 40
4.0
 10
91.76010821456016
 20
-149.4806227404075
 10
91.76010821456016
 20
-149.5360794070602
 10
91.71534071570228
 20
-149.5808821848269
 10
91.66020155044232
 20
-149.5808821848269
 10
91.60509997709862
 20
-149.5808821848269
 10
91.56029719933188
 20
-149.5360794070602
 10
91.56029719933188
 20
-149.4806227404075
 10
91.56029719933188
 20
-149.4255188515326
 10
91.60509997709862
 20
-149.3807160737658
 10
91.66020155044232
 20
-149.3807160737658
 10
91.71534071570228
 20
-149.3807160737658
 10
91.76010821456016
 20
-149.4255188515326
 10
91.76010821456016
 20
-149.4806227404075
 97
        0
 97
        0
 75
     2
 76
     1
 98
        0
  0
SPLINE
  5
DE
330
1F
100
AcDbEntity
  8
_U+30EC_U+30A4_U+30E4_U+30FC 1
 62
     7
420
 16777215
370
     9
100
AcDbSpline
210
0.0
220
0.0
230
1.0
 70
    11
 71
     3
 72
    17
 73
    13
 74
     0
 42
0.0000000001
 43
0.0000000001
 12
1.0
 22
0.0
 32
0.0
 13
1.0
 23
0.0
 33
0.0
 40
0.0
 40
0.0
 40
0.0
 40
0.0
 40
1.0
 40
1.0
 40
1.0
 40
2.0
 40
2.0
 40
2.0
 40
3.0
 40
3.0
 40
3.0
 40
4.0
 40
4.0
 40
4.0
 40
4.0
 10
115.988109263119
 20
-145.2307441303591
 30
0.0
 10
115.988109263119
 20
-145.2862360747893
 30
0.0
 10
115.9433064864843
 20
-145.3310035747785
 30
0.0
 10
115.8882055265836
 20
-145.3310035747785
 30
0.0
 10
115.8330634337412
 20
-145.3310035747785
 30
0.0
 10
115.7882959348834
 20
-145.2862360747893
 30
0.0
 10
115.7882959348834
 20
-145.2307441303591
 30
0.0
 10
115.7882959348834
 20
-145.1756402414841
 30
0.0
 10
115.8330634337412
 20
-145.1308374637174
 30
0.0
 10
115.8882055265836
 20
-145.1308374637174
 30
0.0
 10
115.9433064864843
 20
-145.1308374637174
 30
0.0
 10
115.988109263119
 20
-145.1756402414841
 30
0.0
 10
115.988109263119
 20
-145.2307441303591
 30
0.0
  0
HATCH
  5
DF
330
1F
100
AcDbEntity
  8
_U+30EC_U+30A4_U+30E4_U+30FC 1
 62
     7
420
 16777215
100
AcDbHatch
 10
0.0
 20
0.0
 30
0.0
210
0.0
220
0.0
230
1.0
  2
SOLID
 70
     1
 71
     0
 91
        1
 92
        1
 93
        1
 72
     4
 94
        3
 73
     0
 74
     1
 95
       17
 96
       13
 40
0.0
 40
0.0
 40
0.0
 40
0.0
 40
1.0
 40
1.0
 40
1.0
 40
2.0
 40
2.0
 40
2.0
 40
3.0
 40
3.0
 40
3.0
 40
4.0
 40
4.0
 40
4.0
 40
4.0
 10
115.988109263119
 20
-145.2307441303591
 10
115.988109263119
 20
-145.2862360747893
 10
115.9433064864843
 20
-145.3310035747785
 10
115.8882055265836
 20
-145.3310035747785
 10
115.8330634337412
 20
-145.3310035747785
 10
115.7882959348834
 20
-145.2862360747893
 10
115.7882959348834
 20
-145.2307441303591
 10
115.7882959348834
 20
-145.1756402414841
 10
115.8330634337412
 20
-145.1308374637174
 10
115.8882055265836
 20
-145.1308374637174
 10
115.9433064864843
 20
-145.1308374637174
 10
115.988109263119
 20
-145.1756402414841
 10
115.988109263119
 20
-145.2307441303591
 97
        0
 97
        0
 75
     2
 76
     1
 98
        0
  0
SPLINE
  5
E0
330
1F
100
AcDbEntity
  8
_U+30EC_U+30A4_U+30E4_U+30FC 1
 62
     7
420
 16777215
370
     9
100
AcDbSpline
210
0.0
220
0.0
230
1.0
 70
    11
 71
     3
 72
    17
 73
    13
 74
     0
 42
0.0000000001
 43
0.0000000001
 12
1.0
 22
0.0
 32
0.0
 13
1.0
 23
0.0
 33
0.0
 40
0.0
 40
0.0
 40
0.0
 40
0.0
 40
1.0
 40
1.0
 40
1.0
 40
2.0
 40
2.0
 40
2.0
 40
3.0
 40
3.0
 40
3.0
 40
4.0
 40
4.0
 40
4.0
 40
4.0
 10
115.988109263119
 20
-140.7390363537039
 30
0.0
 10
115.988109263119
 20
-140.7944930203572
 30
0.0
 10
115.9433064864843
 20
-140.8392957981233
 30
0.0
 10
115.8882055265836
 20
-140.8392957981233
 30
0.0
 10
115.8330634337412
 20
-140.8392957981233
 30
0.0
 10
115.7882959348834
 20
-140.7944930203572
 30
0.0
 10
115.7882959348834
 20
-140.7390363537039
 30
0.0
 10
115.7882959348834
 20
-140.683932464829
 30
0.0
 10
115.8330634337412
 20
-140.6391296870623
 30
0.0
 10
115.8882055265836
 20
-140.6391296870623
 30
0.0
 10
115.9433064864843
 20
-140.6391296870623
 30
0.0
 10
115.988109263119
 20
-140.683932464829
 30
0.0
 10
115.988109263119
 20
-140.7390363537039
 30
0.0
  0
HATCH
  5
E1
330
1F
100
AcDbEntity
  8
_U+30EC_U+30A4_U+30E4_U+30FC 1
 62
     7
420
 16777215
100
AcDbHatch
 10
0.0
 20
0.0
 30
0.0
210
0.0
220
0.0
230
1.0
  2
SOLID
 70
     1
 71
     0
 91
        1
 92
        1
 93
        1
 72
     4
 94
        3
 73
     0
 74
     1
 95
       17
 96
       13
 40
0.0
 40
0.0
 40
0.0
 40
0.0
 40
1.0
 40
1.0
 40
1.0
 40
2.0
 40
2.0
 40
2.0
 40
3.0
 40
3.0
 40
3.0
 40
4.0
 40
4.0
 40
4.0
 40
4.0
 10
115.988109263119
 20
-140.7390363537039
 10
115.988109263119
 20
-140.7944930203572
 10
115.9433064864843
 20
-140.8392957981233
 10
115.8882055265836
 20
-140.8392957981233
 10
115.8330634337412
 20
-140.8392957981233
 10
115.7882959348834
 20
-140.7944930203572
 10
115.7882959348834
 20
-140.7390363537039
 10
115.7882959348834
 20
-140.683932464829
 10
115.8330634337412
 20
-140.6391296870623
 10
115.8882055265836
 20
-140.6391296870623
 10
115.9433064864843
 20
-140.6391296870623
 10
115.988109263119
 20
-140.683932464829
 10
115.988109263119
 20
-140.7390363537039
 97
        0
 97
        0
 75
     2
 76
     1
 98
        0
  0
SPLINE
  5
E2
330
1F
100
AcDbEntity
  8
_U+30EC_U+30A4_U+30E4_U+30FC 1
 62
     7
420
 16777215
370
     9
100
AcDbSpline
210
0.0
220
0.0
230
1.0
 70
    11
 71
     3
 72
    17
 73
    13
 74
     0
 42
0.0000000001
 43
0.0000000001
 12
1.0
 22
0.0
 32
0.0
 13
1.0
 23
0.0
 33
0.0
 40
0.0
 40
0.0
 40
0.0
 40
0.0
 40
1.0
 40
1.0
 40
1.0
 40
2.0
 40
2.0
 40
2.0
 40
3.0
 40
3.0
 40
3.0
 40
4.0
 40
4.0
 40
4.0
 40
4.0
 10
115.988109263119
 20
-139.7978252428282
 30
0.0
 10
115.988109263119
 20
-139.8533171872591
 30
0.0
 10
115.9433064864843
 20
-139.8980846872476
 30
0.0
 10
115.8882055265836
 20
-139.8980846872476
 30
0.0
 10
115.8330634337412
 20
-139.8980846872476
 30
0.0
 10
115.7882959348834
 20
-139.8533171872591
 30
0.0
 10
115.7882959348834
 20
-139.7978252428282
 30
0.0
 10
115.7882959348834
 20
-139.7427213539533
 30
0.0
 10
115.8330634337412
 20
-139.6979185761866
 30
0.0
 10
115.8882055265836
 20
-139.6979185761866
 30
0.0
 10
115.9433064864843
 20
-139.6979185761866
 30
0.0
 10
115.988109263119
 20
-139.7427213539533
 30
0.0
 10
115.988109263119
 20
-139.7978252428282
 30
0.0
  0
HATCH
  5
E3
330
1F
100
AcDbEntity
  8
_U+30EC_U+30A4_U+30E4_U+30FC 1
 62
     7
420
 16777215
100
AcDbHatch
 10
0.0
 20
0.0
 30
0.0
210
0.0
220
0.0
230
1.0
  2
SOLID
 70
     1
 71
     0
 91
        1
 92
        1
 93
        1
 72
     4
 94
        3
 73
     0
 74
     1
 95
       17
 96
       13
 40
0.0
 40
0.0
 40
0.0
 40
0.0
 40
1.0
 40
1.0
 40
1.0
 40
2.0
 40
2.0
 40
2.0
 40
3.0
 40
3.0
 40
3.0
 40
4.0
 40
4.0
 40
4.0
 40
4.0
 10
115.988109263119
 20
-139.7978252428282
 10
115.988109263119
 20
-139.8533171872591
 10
115.9433064864843
 20
-139.8980846872476
 10
115.8882055265836
 20
-139.8980846872476
 10
115.8330634337412
 20
-139.8980846872476
 10
115.7882959348834
 20
-139.8533171872591
 10
115.7882959348834
 20
-139.7978252428282
 10
115.7882959348834
 20
-139.7427213539533
 10
115.8330634337412
 20
-139.6979185761866
 10
115.8882055265836
 20
-139.6979185761866
 10
115.9433064864843
 20
-139.6979185761866
 10
115.988109263119
 20
-139.7427213539533
 10
115.988109263119
 20
-139.7978252428282
 97
        0
 97
        0
 75
     2
 76
     1
 98
        0
  0
SPLINE
  5
E4
330
1F
100
AcDbEntity
  8
_U+30EC_U+30A4_U+30E4_U+30FC 1
 62
     7
420
 16777215
370
     9
100
AcDbSpline
210
0.0
220
0.0
230
1.0
 70
    11
 71
     3
 72
    17
 73
    13
 74
     0
 42
0.0000000001
 43
0.0000000001
 12
1.0
 22
0.0
 32
0.0
 13
1.0
 23
0.0
 33
0.0
 40
0.0
 40
0.0
 40
0.0
 40
0.0
 40
1.0
 40
1.0
 40
1.0
 40
2.0
 40
2.0
 40
2.0
 40
3.0
 40
3.0
 40
3.0
 40
4.0
 40
4.0
 40
4.0
 40
4.0
 10
81.76175124741728
 20
-149.4806227404075
 30
0.0
 10
81.76175124741728
 20
-149.5360794070602
 30
0.0
 10
81.7169837485594
 20
-149.5808821848269
 30
0.0
 10
81.66184458329944
 20
-149.5808821848269
 30
0.0
 10
81.60656430693199
 20
-149.5808821848269
 30
0.0
 10
81.56176153029722
 20
-149.5360794070602
 30
0.0
 10
81.56176153029722
 20
-149.4806227404075
 30
0.0
 10
81.56176153029722
 20
-149.4255188515326
 30
0.0
 10
81.60656430693199
 20
-149.3807160737658
 30
0.0
 10
81.66184458329944
 20
-149.3807160737658
 30
0.0
 10
81.7169837485594
 20
-149.3807160737658
 30
0.0
 10
81.76175124741728
 20
-149.4255188515326
 30
0.0
 10
81.76175124741728
 20
-149.4806227404075
 30
0.0
  0
HATCH
  5
E5
330
1F
100
AcDbEntity
  8
_U+30EC_U+30A4_U+30E4_U+30FC 1
 62
     7
420
 16777215
100
AcDbHatch
 10
0.0
 20
0.0
 30
0.0
210
0.0
220
0.0
230
1.0
  2
SOLID
 70
     1
 71
     0
 91
        1
 92
        1
 93
        1
 72
     4
 94
        3
 73
     0
 74
     1
 95
       17
 96
       13
 40
0.0
 40
0.0
 40
0.0
 40
0.0
 40
1.0
 40
1.0
 40
1.0
 40
2.0
 40
2.0
 40
2.0
 40
3.0
 40
3.0
 40
3.0
 40
4.0
 40
4.0
 40
4.0
 40
4.0
 10
81.76175124741728
 20
-149.4806227404075
 10
81.76175124741728
 20
-149.5360794070602
 10
81.7169837485594
 20
-149.5808821848269
 10
81.66184458329944
 20
-149.5808821848269
 10
81.60656430693199
 20
-149.5808821848269
 10
81.56176153029722
 20
-149.5360794070602
 10
81.56176153029722
 20
-149.4806227404075
 10
81.56176153029722
 20
-149.4255188515326
 10
81.60656430693199
 20
-149.3807160737658
 10
81.66184458329944
 20
-149.3807160737658
 10
81.7169837485594
 20
-149.3807160737658
 10
81.76175124741728
 20
-149.4255188515326
 10
81.76175124741728
 20
-149.4806227404075
 97
        0
 97
        0
 75
     2
 76
     1
 98
        0
  0
POLYLINE
  5
E6
330
1F
100
AcDbEntity
  8
_U+30EC_U+30A4_U+30E4_U+30FC 1
 62
     7
420
 16777215
370
     9
100
AcDb2dPolyline
 66
     1
 10
0.0
 20
0.0
 30
0.0
  0
VERTEX
  5
E7
330
E6
100
AcDbEntity
  8
_U+30EC_U+30A4_U+30E4_U+30FC 1
 62
     7
420
 16777215
370
     9
100
AcDbVertex
100
AcDb2dVertex
 10
71.6720972043042
 20
-151.6489713509768
 30
0.0
  0
VERTEX
  5
E8
330
E6
100
AcDbEntity
  8
_U+30EC_U+30A4_U+30E4_U+30FC 1
 62
     7
420
 16777215
370
     9
100
AcDbVertex
100
AcDb2dVertex
 10
71.6720972043042
 20
-138.7398446875372
 30
0.0
  0
SEQEND
  5
E9
330
E6
100
AcDbEntity
  8
_U+30EC_U+30A4_U+30E4_U+30FC 1
 62
     7
420
 16777215
370
     9
  0
POLYLINE
  5
EA
330
1F
100
AcDbEntity
  8
_U+30EC_U+30A4_U+30E4_U+30FC 1
 62
     7
420
 16777215
370
     9
100
AcDb2dPolyline
 66
     1
 10
0.0
 20
0.0
 30
0.0
  0
VERTEX
  5
EB
330
EA
100
AcDbEntity
  8
_U+30EC_U+30A4_U+30E4_U+30FC 1
 62
     7
420
 16777215
370
     9
100
AcDbVertex
100
AcDb2dVertex
 10
91.67226655013452
 20
-151.4394919065845
 30
0.0
  0
VERTEX
  5
EC
330
EA
100
AcDbEntity
  8
_U+30EC_U+30A4_U+30E4_U+30FC 1
 62
     7
420
 16777215
370
     9
100
AcDbVertex
100
AcDb2dVertex
 10
91.67226655013452
 20
-148.4567557962191
 30
0.0
  0
SEQEND
  5
ED
330
EA
100
AcDbEntity
  8
_U+30EC_U+30A4_U+30E4_U+30FC 1
 62
     7
420
 16777215
370
     9
  0
ENDSEC
  0
SECTION
  2
OBJECTS
  0
DICTIONARY
  5
C
330
0
100
AcDbDictionary
281
     1
  3
ACAD_GROUP
350
D
  3
ACAD_LAYOUT
350
1A
  3
ACAD_MATERIAL
350
3B
  3
ACAD_MLEADERSTYLE
350
EF
  3
ACAD_MLINESTYLE
350
17
  3
ACAD_PLOTSETTINGS
350
19
  3
ACAD_PLOTSTYLENAME
350
E
  3
ACAD_TABLESTYLE
350
EE
  3
ACAD_VISUALSTYLE
350
2A
  0
SUN
  5
3F
330
29
100
AcDbSun
 90
        1
290
     0
 63
     7
421
 16777215
 40
1.0
291
     1
 91
  2455826
 92
 54000000
292
     0
 70
     2
 71
   256
280
     1
  0
DICTIONARY
  5
D
102
{ACAD_REACTORS
330
C
102
}
330
C
100
AcDbDictionary
281
     1
  0
DICTIONARY
  5
1A
102
{ACAD_REACTORS
330
C
102
}
330
C
100
AcDbDictionary
281
     1
  3
Layout1
350
1E
  3
Layout2
350
26
  3
Model
350
22
  0
DICTIONARY
  5
3B
102
{ACAD_REACTORS
330
C
102
}
330
C
100
AcDbDictionary
281
     1
  3
ByBlock
350
3D
  3
ByLayer
350
3C
  3
Global
350
3E
  0
DICTIONARY
  5
EF
102
{ACAD_REACTORS
330
C
102
}
330
C
100
AcDbDictionary
281
     1
  0
DICTIONARY
  5
17
102
{ACAD_REACTORS
330
C
102
}
330
C
100
AcDbDictionary
281
     1
  3
Standard
350
18
  0
DICTIONARY
  5
19
102
{ACAD_REACTORS
330
C
102
}
330
C
100
AcDbDictionary
281
     1
  0
ACDBDICTIONARYWDFLT
  5
E
102
{ACAD_REACTORS
330
C
102
}
330
C
100
AcDbDictionary
281
     1
  3
Normal
350
F
100
AcDbDictionaryWithDefault
340
F
  0
DICTIONARY
  5
EE
102
{ACAD_REACTORS
330
C
102
}
330
C
100
AcDbDictionary
281
     1
  0
DICTIONARY
  5
2A
102
{ACAD_REACTORS
330
C
102
}
330
C
100
AcDbDictionary
281
     1
  3
2dWireframe
350
2F
  3
3D Hidden
350
31
  3
3dWireframe
350
30
  3
Basic
350
32
  3
Brighten
350
36
  3
ColorChange
350
3A
  3
Conceptual
350
34
  3
Dim
350
35
  3
Facepattern
350
39
  3
Flat
350
2B
  3
FlatWithEdges
350
2C
  3
Gouraud
350
2D
  3
GouraudWithEdges
350
2E
  3
Linepattern
350
38
  3
Realistic
350
33
  3
Thicken
350
37
  0
LAYOUT
  5
1E
102
{ACAD_REACTORS
330
1A
102
}
330
1A
100
AcDbPlotSettings
  1

  2
none_device
  4

  6

 40
0.0
 41
0.0
 42
0.0
 43
0.0
 44
0.0
 45
0.0
 46
0.0
 47
0.0
 48
0.0
 49
0.0
140
0.0
141
0.0
142
1.0
143
1.0
 70
   688
 72
     0
 73
     0
 74
     5
  7

 75
    16
 76
     0
 77
     2
 78
   300
147
1.0
148
0.0
149
0.0
100
AcDbLayout
  1
Layout1
 70
     1
 71
     1
 10
0.0
 20
0.0
 11
12.0
 21
9.0
 12
0.0
 22
0.0
 32
0.0
 14
1.000000000000000E+20
 24
1.000000000000000E+20
 34
1.000000000000000E+20
 15
-1.000000000000000E+20
 25
-1.000000000000000E+20
 35
-1.000000000000000E+20
146
0.0
 13
0.0
 23
0.0
 33
0.0
 16
1.0
 26
0.0
 36
0.0
 17
0.0
 27
1.0
 37
0.0
 76
     0
330
1B
  0
LAYOUT
  5
26
102
{ACAD_REACTORS
330
1A
102
}
330
1A
100
AcDbPlotSettings
  1

  2
none_device
  4

  6

 40
0.0
 41
0.0
 42
0.0
 43
0.0
 44
0.0
 45
0.0
 46
0.0
 47
0.0
 48
0.0
 49
0.0
140
0.0
141
0.0
142
1.0
143
1.0
 70
   688
 72
     0
 73
     0
 74
     5
  7

 75
    16
 76
     0
 77
     2
 78
   300
147
1.0
148
0.0
149
0.0
100
AcDbLayout
  1
Layout2
 70
     1
 71
     2
 10
0.0
 20
0.0
 11
0.0
 21
0.0
 12
0.0
 22
0.0
 32
0.0
 14
0.0
 24
0.0
 34
0.0
 15
0.0
 25
0.0
 35
0.0
146
0.0
 13
0.0
 23
0.0
 33
0.0
 16
1.0
 26
0.0
 36
0.0
 17
0.0
 27
1.0
 37
0.0
 76
     0
330
23
  0
LAYOUT
  5
22
102
{ACAD_REACTORS
330
1A
102
}
330
1A
100
AcDbPlotSettings
  1

  2
none_device
  4

  6

 40
0.0
 41
0.0
 42
0.0
 43
0.0
 44
0.0
 45
0.0
 46
0.0
 47
0.0
 48
0.0
 49
0.0
140
0.0
141
0.0
142
1.0
143
1.0
 70
  1712
 72
     0
 73
     0
 74
     0
  7

 75
     0
 76
     0
 77
     2
 78
   300
147
1.0
148
0.0
149
0.0
100
AcDbLayout
  1
Model
 70
     1
 71
     0
 10
0.0
 20
0.0
 11
12.0
 21
9.0
 12
0.0
 22
0.0
 32
0.0
 14
1.000000000000000E+20
 24
1.000000000000000E+20
 34
1.000000000000000E+20
 15
-1.000000000000000E+20
 25
-1.000000000000000E+20
 35
-1.000000000000000E+20
146
0.0
 13
0.0
 23
0.0
 33
0.0
 16
1.0
 26
0.0
 36
0.0
 17
0.0
 27
1.0
 37
0.0
 76
     0
330
1F
331
29
  0
MATERIAL
  5
3D
102
{ACAD_REACTORS
330
3B
102
}
330
3B
100
AcDbMaterial
  1
ByBlock
 72
     1
 94
      127
  0
MATERIAL
  5
3C
102
{ACAD_REACTORS
330
3B
102
}
330
3B
100
AcDbMaterial
  1
ByLayer
 72
     1
 94
      127
  0
MATERIAL
  5
3E
102
{ACAD_REACTORS
330
3B
102
}
330
3B
100
AcDbMaterial
  1
Global
 72
     1
 94
      127
  0
MLINESTYLE
  5
18
102
{ACAD_REACTORS
330
17
102
}
330
17
100
AcDbMlineStyle
  2
Standard
 70
     0
  3

 62
   256
 51
90.0
 52
90.0
 71
     2
 49
0.5
 62
   256
  6
BYLAYER
 49
-0.5
 62
   256
  6
BYLAYER
  0
ACDBPLACEHOLDER
  5
F
102
{ACAD_REACTORS
330
E
102
}
330
E
  0
VISUALSTYLE
  5
2F
102
{ACAD_REACTORS
330
2A
102
}
330
2A
100
AcDbVisualStyle
  2
2dWireframe
 70
     4
177
     2
291
     0
 71
     0
176
     1
 72
     2
176
     1
 73
     0
176
     1
 90
        0
176
     1
 40
-0.6
176
     1
 41
-30.0
176
     1
 62
     5
 63
     7
421
 16777215
176
     1
 74
     1
176
     1
 91
        4
176
     1
 64
     7
176
     1
 65
   257
176
     1
 75
     1
176
     1
175
     1
176
     1
 42
1.0
176
     1
 92
        0
176
     1
 66
   257
176
     1
 43
1.0
176
     1
 76
     1
176
     1
 77
     6
176
     1
 78
     2
176
     1
 67
     7
176
     1
 79
     5
176
     1
170
     0
176
     1
171
     0
176
     1
290
     0
176
     1
 93
        1
176
     1
 44
0.0
176
     1
173
     0
176
     1
  0
VISUALSTYLE
  5
31
102
{ACAD_REACTORS
330
2A
102
}
330
2A
100
AcDbVisualStyle
  2
3D Hidden
 70
     6
177
     2
291
     0
 71
     1
176
     1
 72
     2
176
     1
 73
     2
176
     1
 90
        0
176
     1
 40
-0.6
176
     1
 41
-30.0
176
     1
 62
     5
 63
     7
421
 16777215
176
     1
 74
     2
176
     1
 91
        2
176
     1
 64
     7
176
     1
 65
   257
176
     1
 75
     2
176
     1
175
     1
176
     1
 42
40.0
176
     1
 92
        0
176
     1
 66
   257
176
     1
 43
1.0
176
     1
 76
     1
176
     1
 77
     6
176
     1
 78
     2
176
     1
 67
     7
176
     1
 79
     3
176
     1
170
     0
176
     1
171
     0
176
     1
290
     0
176
     1
 93
        1
176
     1
 44
0.0
176
     1
173
     0
176
     1
  0
VISUALSTYLE
  5
30
102
{ACAD_REACTORS
330
2A
102
}
330
2A
100
AcDbVisualStyle
  2
3dWireframe
 70
     5
177
     2
291
     0
 71
     0
176
     1
 72
     2
176
     1
 73
     0
176
     1
 90
        0
176
     1
 40
-0.6
176
     1
 41
-30.0
176
     1
 62
     5
 63
     7
421
 16777215
176
     1
 74
     1
176
     1
 91
        4
176
     1
 64
     7
176
     1
 65
   257
176
     1
 75
     1
176
     1
175
     1
176
     1
 42
1.0
176
     1
 92
        0
176
     1
 66
   257
176
     1
 43
1.0
176
     1
 76
     1
176
     1
 77
     6
176
     1
 78
     2
176
     1
 67
     7
176
     1
 79
     5
176
     1
170
     0
176
     1
171
     0
176
     1
290
     0
176
     1
 93
        1
176
     1
 44
0.0
176
     1
173
     0
176
     1
  0
VISUALSTYLE
  5
32
102
{ACAD_REACTORS
330
2A
102
}
330
2A
100
AcDbVisualStyle
  2
Basic
 70
     7
177
     2
291
     1
 71
     1
176
     1
 72
     0
176
     1
 73
     1
176
     1
 90
        0
176
     1
 40
-0.6
176
     1
 41
-30.0
176
     1
 62
     5
 63
     7
421
 16777215
176
     1
 74
     0
176
     1
 91
        4
176
     1
 64
     7
176
     1
 65
   257
176
     1
 75
     1
176
     1
175
     1
176
     1
 42
1.0
176
     1
 92
        8
176
     1
 66
     7
176
     1
 43
1.0
176
     1
 76
     1
176
     1
 77
     6
176
     1
 78
     2
176
     1
 67
     7
176
     1
 79
     5
176
     1
170
     0
176
     1
171
     0
176
     1
290
     0
176
     1
 93
        1
176
     1
 44
0.0
176
     1
173
     0
176
     1
  0
VISUALSTYLE
  5
36
102
{ACAD_REACTORS
330
2A
102
}
330
2A
100
AcDbVisualStyle
  2
Brighten
 70
    12
177
     2
291
     1
 71
     2
176
     1
 72
     2
176
     1
 73
     0
176
     1
 90
        0
176
     1
 40
-0.6
176
     1
 41
-30.0
176
     1
 62
     5
 63
     7
421
 16777215
176
     1
 74
     1
176
     1
 91
        4
176
     1
 64
     7
176
     1
 65
   257
176
     1
 75
     1
176
     1
175
     1
176
     1
 42
1.0
176
     1
 92
        8
176
     1
 66
     7
176
     1
 43
1.0
176
     1
 76
     1
176
     1
 77
     6
176
     1
 78
     2
176
     1
 67
     7
176
     1
 79
     5
176
     1
170
     0
176
     1
171
     0
176
     1
290
     0
176
     1
 93
        1
176
     1
 44
50.0
176
     1
173
     0
176
     1
  0
VISUALSTYLE
  5
3A
102
{ACAD_REACTORS
330
2A
102
}
330
2A
100
AcDbVisualStyle
  2
ColorChange
 70
    16
177
     2
291
     1
 71
     2
176
     1
 72
     2
176
     1
 73
     3
176
     1
 90
        0
176
     1
 40
-0.6
176
     1
 41
-30.0
176
     1
 62
     5
 63
     8
421
  8421504
176
     1
 74
     1
176
     1
 91
        4
176
     1
 64
     7
176
     1
 65
   257
176
     1
 75
     1
176
     1
175
     1
176
     1
 42
1.0
176
     1
 92
        8
176
     1
 66
     8
424
  8421504
176
     1
 43
1.0
176
     1
 76
     1
176
     1
 77
     6
176
     1
 78
     2
176
     1
 67
     7
176
     1
 79
     5
176
     1
170
     0
176
     1
171
     0
176
     1
290
     0
176
     1
 93
        1
176
     1
 44
0.0
176
     1
173
     0
176
     1
  0
VISUALSTYLE
  5
34
102
{ACAD_REACTORS
330
2A
102
}
330
2A
100
AcDbVisualStyle
  2
Conceptual
 70
     9
177
     2
291
     0
 71
     3
176
     1
 72
     2
176
     1
 73
     0
176
     1
 90
        0
176
     1
 40
-0.6
176
     1
 41
-30.0
176
     1
 62
     5
 63
     7
421
 16777215
176
     1
 74
     2
176
     1
 91
        2
176
     1
 64
     7
176
     1
 65
   257
176
     1
 75
     1
176
     1
175
     1
176
     1
 42
40.0
176
     1
 92
        8
176
     1
 66
     7
176
     1
 43
1.0
176
     1
 76
     1
176
     1
 77
     6
176
     1
 78
     2
176
     1
 67
     7
176
     1
 79
     3
176
     1
170
     0
176
     1
171
     0
176
     1
290
     0
176
     1
 93
        1
176
     1
 44
0.0
176
     1
173
     0
176
     1
  0
VISUALSTYLE
  5
35
102
{ACAD_REACTORS
330
2A
102
}
330
2A
100
AcDbVisualStyle
  2
Dim
 70
    11
177
     2
291
     1
 71
     2
176
     1
 72
     2
176
     1
 73
     0
176
     1
 90
        0
176
     1
 40
-0.6
176
     1
 41
-30.0
176
     1
 62
     5
 63
     7
421
 16777215
176
     1
 74
     1
176
     1
 91
        4
176
     1
 64
     7
176
     1
 65
   257
176
     1
 75
     1
176
     1
175
     1
176
     1
 42
1.0
176
     1
 92
        8
176
     1
 66
     7
176
     1
 43
1.0
176
     1
 76
     1
176
     1
 77
     6
176
     1
 78
     2
176
     1
 67
     7
176
     1
 79
     5
176
     1
170
     0
176
     1
171
     0
176
     1
290
     0
176
     1
 93
        1
176
     1
 44
-50.0
176
     1
173
     0
176
     1
  0
VISUALSTYLE
  5
39
102
{ACAD_REACTORS
330
2A
102
}
330
2A
100
AcDbVisualStyle
  2
Facepattern
 70
    15
177
     2
291
     1
 71
     2
176
     1
 72
     2
176
     1
 73
     0
176
     1
 90
        0
176
     1
 40
-0.6
176
     1
 41
-30.0
176
     1
 62
     5
 63
     7
421
 16777215
176
     1
 74
     1
176
     1
 91
        4
176
     1
 64
     7
176
     1
 65
   257
176
     1
 75
     1
176
     1
175
     1
176
     1
 42
1.0
176
     1
 92
        8
176
     1
 66
     7
176
     1
 43
1.0
176
     1
 76
     1
176
     1
 77
     6
176
     1
 78
     2
176
     1
 67
     7
176
     1
 79
     5
176
     1
170
     0
176
     1
171
     0
176
     1
290
     0
176
     1
 93
        1
176
     1
 44
0.0
176
     1
173
     0
176
     1
  0
VISUALSTYLE
  5
2B
102
{ACAD_REACTORS
330
2A
102
}
330
2A
100
AcDbVisualStyle
  2
Flat
 70
     0
177
     2
291
     1
 71
     2
176
     1
 72
     1
176
     1
 73
     1
176
     1
 90
        2
176
     1
 40
-0.6
176
     1
 41
30.0
176
     1
 62
     5
 63
     7
421
 16777215
176
     1
 74
     0
176
     1
 91
        4
176
     1
 64
     7
176
     1
 65
   257
176
     1
 75
     1
176
     1
175
     1
176
     1
 42
1.0
176
     1
 92
        8
176
     1
 66
     7
176
     1
 43
1.0
176
     1
 76
     1
176
     1
 77
     6
176
     1
 78
     2
176
     1
 67
     7
176
     1
 79
     5
176
     1
170
     0
176
     1
171
     0
176
     1
290
     0
176
     1
 93
       13
176
     1
 44
0.0
176
     1
173
     0
176
     1
  0
VISUALSTYLE
  5
2C
102
{ACAD_REACTORS
330
2A
102
}
330
2A
100
AcDbVisualStyle
  2
FlatWithEdges
 70
     1
177
     2
291
     1
 71
     2
176
     1
 72
     1
176
     1
 73
     1
176
     1
 90
        2
176
     1
 40
-0.6
176
     1
 41
30.0
176
     1
 62
     5
 63
     7
421
 16777215
176
     1
 74
     1
176
     1
 91
        4
176
     1
 64
     7
176
     1
 65
   257
176
     1
 75
     1
176
     1
175
     1
176
     1
 42
1.0
176
     1
 92
        0
176
     1
 66
   257
176
     1
 43
1.0
176
     1
 76
     1
176
     1
 77
     6
176
     1
 78
     2
176
     1
 67
     7
176
     1
 79
     5
176
     1
170
     0
176
     1
171
     0
176
     1
290
     0
176
     1
 93
       13
176
     1
 44
0.0
176
     1
173
     0
176
     1
  0
VISUALSTYLE
  5
2D
102
{ACAD_REACTORS
330
2A
102
}
330
2A
100
AcDbVisualStyle
  2
Gouraud
 70
     2
177
     2
291
     1
 71
     2
176
     1
 72
     2
176
     1
 73
     1
176
     1
 90
        2
176
     1
 40
-0.6
176
     1
 41
30.0
176
     1
 62
     5
 63
     7
421
 16777215
176
     1
 74
     0
176
     1
 91
        4
176
     1
 64
     7
176
     1
 65
   257
176
     1
 75
     1
176
     1
175
     1
176
     1
 42
1.0
176
     1
 92
        0
176
     1
 66
     7
176
     1
 43
1.0
176
     1
 76
     1
176
     1
 77
     6
176
     1
 78
     2
176
     1
 67
     7
176
     1
 79
     5
176
     1
170
     0
176
     1
171
     0
176
     1
290
     0
176
     1
 93
       13
176
     1
 44
0.0
176
     1
173
     0
176
     1
  0
VISUALSTYLE
  5
2E
102
{ACAD_REACTORS
330
2A
102
}
330
2A
100
AcDbVisualStyle
  2
GouraudWithEdges
 70
     3
177
     2
291
     1
 71
     2
176
     1
 72
     2
176
     1
 73
     1
176
     1
 90
        2
176
     1
 40
-0.6
176
     1
 41
30.0
176
     1
 62
     5
 63
     7
421
 16777215
176
     1
 74
     1
176
     1
 91
        4
176
     1
 64
     7
176
     1
 65
   257
176
     1
 75
     1
176
     1
175
     1
176
     1
 42
1.0
176
     1
 92
        0
176
     1
 66
   257
176
     1
 43
1.0
176
     1
 76
     1
176
     1
 77
     6
176
     1
 78
     2
176
     1
 67
     7
176
     1
 79
     5
176
     1
170
     0
176
     1
171
     0
176
     1
290
     0
176
     1
 93
       13
176
     1
 44
0.0
176
     1
173
     0
176
     1
  0
VISUALSTYLE
  5
38
102
{ACAD_REACTORS
330
2A
102
}
330
2A
100
AcDbVisualStyle
  2
Linepattern
 70
    14
177
     2
291
     1
 71
     2
176
     1
 72
     2
176
     1
 73
     0
176
     1
 90
        0
176
     1
 40
-0.6
176
     1
 41
-30.0
176
     1
 62
     5
 63
     7
421
 16777215
176
     1
 74
     1
176
     1
 91
        4
176
     1
 64
     7
176
     1
 65
   257
176
     1
 75
     7
176
     1
175
     7
176
     1
 42
1.0
176
     1
 92
        8
176
     1
 66
     7
176
     1
 43
1.0
176
     1
 76
     1
176
     1
 77
     6
176
     1
 78
     2
176
     1
 67
     7
176
     1
 79
     5
176
     1
170
     0
176
     1
171
     0
176
     1
290
     0
176
     1
 93
        1
176
     1
 44
0.0
176
     1
173
     0
176
     1
  0
VISUALSTYLE
  5
33
102
{ACAD_REACTORS
330
2A
102
}
330
2A
100
AcDbVisualStyle
  2
Realistic
 70
     8
177
     2
291
     0
 71
     2
176
     1
 72
     2
176
     1
 73
     0
176
     1
 90
        0
176
     1
 40
-0.6
176
     1
 41
-30.0
176
     1
 62
     5
 63
     7
421
 16777215
176
     1
 74
     1
176
     1
 91
        0
176
     1
 64
     7
176
     1
 65
   257
176
     1
 75
     1
176
     1
175
     1
176
     1
 42
1.0
176
     1
 92
        8
176
     1
 66
     8
424
  7895160
176
     1
 43
1.0
176
     1
 76
     1
176
     1
 77
     6
176
     1
 78
     2
176
     1
 67
     7
176
     1
 79
     5
176
     1
170
     0
176
     1
171
     0
176
     1
290
     0
176
     1
 93
       13
176
     1
 44
0.0
176
     1
173
     0
176
     1
  0
VISUALSTYLE
  5
37
102
{ACAD_REACTORS
330
2A
102
}
330
2A
100
AcDbVisualStyle
  2
Thicken
 70
    13
177
     2
291
     1
 71
     2
176
     1
 72
     2
176
     1
 73
     0
176
     1
 90
        0
176
     1
 40
-0.6
176
     1
 41
-30.0
176
     1
 62
     5
 63
     7
421
 16777215
176
     1
 74
     1
176
     1
 91
        4
176
     1
 64
     7
176
     1
 65
   257
176
     1
 75
     1
176
     1
175
     1
176
     1
 42
1.0
176
     1
 92
       12
176
     1
 66
     7
176
     1
 43
1.0
176
     1
 76
     1
176
     1
 77
     6
176
     1
 78
     2
176
     1
 67
     7
176
     1
 79
     5
176
     1
170
     0
176
     1
171
     0
176
     1
290
     0
176
     1
 93
        1
176
     1
 44
0.0
176
     1
173
     0
176
     1
  0
ENDSEC
  0
EOF
