  0
SECTION
  2
HEADER
  9
$ACADVER
  1
AC1024
  9
$ACADMAINTVER
 70
     6
  9
$DWGCODEPAGE
  3
UNDEFINED
  9
$INSBASE
 10
0.0
 20
0.0
 30
0.0
  9
$EXTMIN
 10
1.000000000000000E+20
 20
1.000000000000000E+20
 30
1.000000000000000E+20
  9
$EXTMAX
 10
-1.000000000000000E+20
 20
-1.000000000000000E+20
 30
-1.000000000000000E+20
  9
$LIMMIN
 10
0.0
 20
0.0
  9
$LIMMAX
 10
12.0
 20
9.0
  9
$ORTHOMODE
 70
     0
  9
$REGENMODE
 70
     1
  9
$FILLMODE
 70
     1
  9
$QTEXTMODE
 70
     0
  9
$MIRRTEXT
 70
     1
  9
$LTSCALE
 40
1.0
  9
$ATTMODE
 70
     1
  9
$TEXTSIZE
 40
0.2
  9
$TRACEWID
 40
0.05
  9
$TEXTSTYLE
  7
Standard
  9
$CLAYER
  8
0
  9
$CELTYPE
  6
ByLayer
  9
$CECOLOR
 62
   256
  9
$CELTSCALE
 40
1.0
  9
$DISPSILH
 70
     0
  9
$DIMSCALE
 40
1.0
  9
$DIMASZ
 40
0.18
  9
$DIMEXO
 40
0.0625
  9
$DIMDLI
 40
0.38
  9
$DIMRND
 40
0.0
  9
$DIMDLE
 40
0.0
  9
$DIMEXE
 40
0.18
  9
$DIMTP
 40
0.0
  9
$DIMTM
 40
0.0
  9
$DIMTXT
 40
0.18
  9
$DIMCEN
 40
0.09
  9
$DIMTSZ
 40
0.0
  9
$DIMTOL
 70
     0
  9
$DIMLIM
 70
     0
  9
$DIMTIH
 70
     1
  9
$DIMTOH
 70
     1
  9
$DIMSE1
 70
     0
  9
$DIMSE2
 70
     0
  9
$DIMTAD
 70
     0
  9
$DIMZIN
 70
     0
  9
$DIMBLK
  1

  9
$DIMASO
 70
     1
  9
$DIMSHO
 70
     1
  9
$DIMPOST
  1

  9
$DIMAPOST
  1

  9
$DIMALT
 70
     0
  9
$DIMALTD
 70
     2
  9
$DIMALTF
 40
25.4
  9
$DIMLFAC
 40
1.0
  9
$DIMTOFL
 70
     0
  9
$DIMTVP
 40
0.0
  9
$DIMTIX
 70
     0
  9
$DIMSOXD
 70
     0
  9
$DIMSAH
 70
     0
  9
$DIMBLK1
  1

  9
$DIMBLK2
  1

  9
$DIMSTYLE
  2
Standard
  9
$DIMCLRD
 70
     0
  9
$DIMCLRE
 70
     0
  9
$DIMCLRT
 70
     0
  9
$DIMTFAC
 40
1.0
  9
$DIMGAP
 40
0.09
  9
$DIMJUST
 70
     0
  9
$DIMSD1
 70
     0
  9
$DIMSD2
 70
     0
  9
$DIMTOLJ
 70
     1
  9
$DIMTZIN
 70
     0
  9
$DIMALTZ
 70
     0
  9
$DIMALTTZ
 70
     0
  9
$DIMUPT
 70
     0
  9
$DIMDEC
 70
     4
  9
$DIMTDEC
 70
     4
  9
$DIMALTU
 70
     2
  9
$DIMALTTD
 70
     2
  9
$DIMTXSTY
  7
Standard
  9
$DIMAUNIT
 70
     0
  9
$DIMADEC
 70
     0
  9
$DIMALTRND
 40
0.0
  9
$DIMAZIN
 70
     0
  9
$DIMDSEP
 70
    46
  9
$DIMATFIT
 70
     3
  9
$DIMFRAC
 70
     0
  9
$DIMLDRBLK
  1

  9
$DIMLUNIT
 70
     2
  9
$DIMLWD
 70
    -2
  9
$DIMLWE
 70
    -2
  9
$DIMTMOVE
 70
     0
  9
$DIMFXL
 40
1.0
  9
$DIMFXLON
 70
     0
  9
$DIMJOGANG
 40
0.7853981633974483
  9
$DIMTFILL
 70
     0
  9
$DIMTFILLCLR
 70
     0
  9
$DIMARCSYM
 70
     0
  9
$DIMLTYPE
  6

  9
$DIMLTEX1
  6

  9
$DIMLTEX2
  6

  9
$DIMTXTDIRECTION
 70
     0
  9
$LUNITS
 70
     2
  9
$LUPREC
 70
     4
  9
$SKETCHINC
 40
0.1
  9
$FILLETRAD
 40
0.5
  9
$AUNITS
 70
     0
  9
$AUPREC
 70
     0
  9
$MENU
  1
.
  9
$ELEVATION
 40
0.0
  9
$PELEVATION
 40
0.0
  9
$THICKNESS
 40
0.0
  9
$LIMCHECK
 70
     0
  9
$CHAMFERA
 40
0.5
  9
$CHAMFERB
 40
0.5
  9
$CHAMFERC
 40
1.0
  9
$CHAMFERD
 40
0.0
  9
$SKPOLY
 70
     0
  9
$TDCREATE
 40
2457917.623009259
  9
$TDUCREATE
 40
2457917.248009259
  9
$TDUPDATE
 40
2457917.623009259
  9
$TDUUPDATE
 40
2457917.248009259
  9
$TDINDWG
 40
0.0000000116
  9
$TDUSRTIMER
 40
0.0000000116
  9
$USRTIMER
 70
     1
  9
$ANGBASE
 50
0.0
  9
$ANGDIR
 70
     0
  9
$PDMODE
 70
     0
  9
$PDSIZE
 40
0.0
  9
$PLINEWID
 40
0.0
  9
$SPLFRAME
 70
     0
  9
$SPLINETYPE
 70
     6
  9
$SPLINESEGS
 70
     8
  9
$HANDSEED
  5
C9
  9
$SURFTAB1
 70
     6
  9
$SURFTAB2
 70
     6
  9
$SURFTYPE
 70
     6
  9
$SURFU
 70
     6
  9
$SURFV
 70
     6
  9
$UCSBASE
  2

  9
$UCSNAME
  2

  9
$UCSORG
 10
0.0
 20
0.0
 30
0.0
  9
$UCSXDIR
 10
1.0
 20
0.0
 30
0.0
  9
$UCSYDIR
 10
0.0
 20
1.0
 30
0.0
  9
$UCSORTHOREF
  2

  9
$UCSORTHOVIEW
 70
     0
  9
$UCSORGTOP
 10
0.0
 20
0.0
 30
0.0
  9
$UCSORGBOTTOM
 10
0.0
 20
0.0
 30
0.0
  9
$UCSORGLEFT
 10
0.0
 20
0.0
 30
0.0
  9
$UCSORGRIGHT
 10
0.0
 20
0.0
 30
0.0
  9
$UCSORGFRONT
 10
0.0
 20
0.0
 30
0.0
  9
$UCSORGBACK
 10
0.0
 20
0.0
 30
0.0
  9
$PUCSBASE
  2

  9
$PUCSNAME
  2

  9
$PUCSORG
 10
0.0
 20
0.0
 30
0.0
  9
$PUCSXDIR
 10
1.0
 20
0.0
 30
0.0
  9
$PUCSYDIR
 10
0.0
 20
1.0
 30
0.0
  9
$PUCSORTHOREF
  2

  9
$PUCSORTHOVIEW
 70
     0
  9
$PUCSORGTOP
 10
0.0
 20
0.0
 30
0.0
  9
$PUCSORGBOTTOM
 10
0.0
 20
0.0
 30
0.0
  9
$PUCSORGLEFT
 10
0.0
 20
0.0
 30
0.0
  9
$PUCSORGRIGHT
 10
0.0
 20
0.0
 30
0.0
  9
$PUCSORGFRONT
 10
0.0
 20
0.0
 30
0.0
  9
$PUCSORGBACK
 10
0.0
 20
0.0
 30
0.0
  9
$USERI1
 70
     0
  9
$USERI2
 70
     0
  9
$USERI3
 70
     0
  9
$USERI4
 70
     0
  9
$USERI5
 70
     0
  9
$USERR1
 40
0.0
  9
$USERR2
 40
0.0
  9
$USERR3
 40
0.0
  9
$USERR4
 40
0.0
  9
$USERR5
 40
0.0
  9
$WORLDVIEW
 70
     1
  9
$SHADEDGE
 70
     3
  9
$SHADEDIF
 70
    70
  9
$TILEMODE
 70
     1
  9
$MAXACTVP
 70
    64
  9
$PINSBASE
 10
0.0
 20
0.0
 30
0.0
  9
$PLIMCHECK
 70
     0
  9
$PEXTMIN
 10
1.000000000000000E+20
 20
1.000000000000000E+20
 30
1.000000000000000E+20
  9
$PEXTMAX
 10
-1.000000000000000E+20
 20
-1.000000000000000E+20
 30
-1.000000000000000E+20
  9
$PLIMMIN
 10
0.0
 20
0.0
  9
$PLIMMAX
 10
12.0
 20
9.0
  9
$UNITMODE
 70
     0
  9
$VISRETAIN
 70
     1
  9
$PLINEGEN
 70
     0
  9
$PSLTSCALE
 70
     1
  9
$TREEDEPTH
 70
  3020
  9
$CMLSTYLE
  2
Standard
  9
$CMLJUST
 70
     0
  9
$CMLSCALE
 40
1.0
  9
$PROXYGRAPHICS
 70
     1
  9
$MEASUREMENT
 70
     0
  9
$CELWEIGHT
370
    -1
  9
$ENDCAPS
280
     0
  9
$JOINSTYLE
280
     0
  9
$LWDISPLAY
290
     1
  9
$INSUNITS
 70
     1
  9
$HYPERLINKBASE
  1

  9
$STYLESHEET
  1

  9
$XEDIT
290
     1
  9
$CEPSNTYPE
380
     0
  9
$PSTYLEMODE
290
     1
  9
$FINGERPRINTGUID
  2
{D3C9AA31-D049-80D3-B54E-0A4E93883037}
  9
$VERSIONGUID
  2
{FAEB1C32-E019-11D5-929B-00C0DF256EC4}
  9
$EXTNAMES
290
     1
  9
$PSVPSCALE
 40
0.0
  9
$OLESTARTUP
290
     0
  9
$SORTENTS
280
   127
  9
$INDEXCTL
280
     0
  9
$HIDETEXT
280
     1
  9
$XCLIPFRAME
280
     2
  9
$HALOGAP
280
     0
  9
$OBSCOLOR
 70
   257
  9
$OBSLTYPE
280
     0
  9
$INTERSECTIONDISPLAY
280
     0
  9
$INTERSECTIONCOLOR
 70
   257
  9
$DIMASSOC
280
     2
  9
$PROJECTNAME
  1

  9
$CAMERADISPLAY
290
     0
  9
$LENSLENGTH
 40
50.0
  9
$CAMERAHEIGHT
 40
0.0
  9
$STEPSPERSEC
 40
2.0
  9
$STEPSIZE
 40
6.0
  9
$3DDWFPREC
 40
2.0
  9
$PSOLWIDTH
 40
0.25
  9
$PSOLHEIGHT
 40
4.0
  9
$LOFTANG1
 40
1.570796326794897
  9
$LOFTANG2
 40
1.570796326794897
  9
$LOFTMAG1
 40
0.0
  9
$LOFTMAG2
 40
0.0
  9
$LOFTPARAM
 70
     7
  9
$LOFTNORMALS
280
     1
  9
$LATITUDE
 40
37.795
  9
$LONGITUDE
 40
-122.394
  9
$NORTHDIRECTION
 40
0.0
  9
$TIMEZONE
 70
 -8000
  9
$LIGHTGLYPHDISPLAY
280
     1
  9
$TILEMODELIGHTSYNCH
280
     1
  9
$CMATERIAL
347
3C
  9
$SOLIDHIST
280
     1
  9
$SHOWHIST
280
     1
  9
$DWFFRAME
280
     2
  9
$DGNFRAME
280
     2
  9
$REALWORLDSCALE
290
     1
  9
$INTERFERECOLOR
 62
   256
  9
$CSHADOW
280
     0
  9
$SHADOWPLANELOCATION
 40
0.0
  0
ENDSEC
  0
SECTION
  2
CLASSES
  0
CLASS
  1
ACDBDICTIONARYWDFLT
  2
AcDbDictionaryWithDefault
  3
ObjectDBX Classes
 90
        0
 91
        4
280
     0
281
     0
  0
CLASS
  1
VISUALSTYLE
  2
AcDbVisualStyle
  3
ObjectDBX Classes
 90
     4095
 91
        4
280
     0
281
     0
  0
CLASS
  1
MATERIAL
  2
AcDbMaterial
  3
ObjectDBX Classes
 90
     1153
 91
        4
280
     0
281
     0
  0
CLASS
  1
SUN
  2
AcDbSun
  3
SCENEOE
 90
     1024
 91
        4
280
     0
281
     0
  0
ENDSEC
  0
SECTION
  2
TABLES
  0
TABLE
  2
VPORT
  5
8
330
0
100
AcDbSymbolTable
 70
     1
  0
VPORT
  5
29
330
8
100
AcDbSymbolTableRecord
100
AcDbViewportTableRecord
  2
*Active
 70
     0
 10
0.0
 20
0.0
 11
1.0
 21
1.0
 12
0.0
 22
0.0
 13
0.0
 23
0.0
 14
0.5
 24
0.5
 15
0.5
 25
0.5
 16
0.0
 26
0.0
 36
1.0
 17
91.00082462281999
 27
-128.4993055234307
 37
0.0
 40
256.9986110468615
 41
0.7081814508812795
 42
50.0
 43
0.0
 44
0.0
 50
0.0
 51
0.0
 71
     0
 72
   100
 73
     1
 74
     3
 75
     0
 76
     0
 77
     0
 78
     0
281
     0
 65
     1
110
0.0
120
0.0
130
0.0
111
1.0
121
0.0
131
0.0
112
0.0
122
1.0
132
0.0
 79
     0
146
0.0
 60
     3
 61
     5
292
     1
282
     1
141
0.0
142
0.0
 63
   250
361
3F
  0
ENDTAB
  0
TABLE
  2
LTYPE
  5
5
330
0
100
AcDbSymbolTable
 70
     1
  0
LTYPE
  5
14
330
5
100
AcDbSymbolTableRecord
100
AcDbLinetypeTableRecord
  2
ByBlock
 70
     0
  3

 72
    65
 73
     0
 40
0.0
  0
LTYPE
  5
15
330
5
100
AcDbSymbolTableRecord
100
AcDbLinetypeTableRecord
  2
ByLayer
 70
     0
  3

 72
    65
 73
     0
 40
0.0
  0
LTYPE
  5
16
330
5
100
AcDbSymbolTableRecord
100
AcDbLinetypeTableRecord
  2
Continuous
 70
     0
  3
Solid line
 72
    65
 73
     0
 40
0.0
  0
ENDTAB
  0
TABLE
  2
LAYER
  5
2
330
0
100
AcDbSymbolTable
 70
     2
  0
LAYER
  5
10
330
2
100
AcDbSymbolTableRecord
100
AcDbLayerTableRecord
  2
0
 70
     0
 62
     7
  6
Continuous
370
    -3
390
F
347
3E
  0
LAYER
  5
40
330
2
100
AcDbSymbolTableRecord
100
AcDbLayerTableRecord
  2
_U+30EC_U+30A4_U+30E4_U+30FC 1
 70
     0
 62
     7
  6
Continuous
370
    -3
390
F
347
3E
  0
ENDTAB
  0
TABLE
  2
STYLE
  5
3
330
0
100
AcDbSymbolTable
 70
     1
  0
STYLE
  5
11
330
3
100
AcDbSymbolTableRecord
100
AcDbTextStyleTableRecord
  2
Standard
 70
     0
 40
0.0
 41
1.0
 50
0.0
 71
     0
 42
0.2
  3
txt
  4

  0
ENDTAB
  0
TABLE
  2
VIEW
  5
6
330
0
100
AcDbSymbolTable
 70
     0
  0
ENDTAB
  0
TABLE
  2
UCS
  5
7
330
0
100
AcDbSymbolTable
 70
     0
  0
ENDTAB
  0
TABLE
  2
APPID
  5
9
330
0
100
AcDbSymbolTable
 70
     1
  0
APPID
  5
12
330
9
100
AcDbSymbolTableRecord
100
AcDbRegAppTableRecord
  2
ACAD
 70
     0
  0
ENDTAB
  0
TABLE
  2
DIMSTYLE
  5
A
330
0
100
AcDbSymbolTable
 70
     1
100
AcDbDimStyleTable
  0
DIMSTYLE
105
27
330
A
100
AcDbSymbolTableRecord
100
AcDbDimStyleTableRecord
  2
Standard
 70
     0
178
     0
340
11
  0
ENDTAB
  0
TABLE
  2
BLOCK_RECORD
  5
1
330
0
100
AcDbSymbolTable
 70
     8
  0
BLOCK_RECORD
  5
1F
330
1
100
AcDbSymbolTableRecord
100
AcDbBlockTableRecord
  2
*Model_Space
340
22
 70
     0
280
     1
281
     0
  0
BLOCK_RECORD
  5
1B
330
1
100
AcDbSymbolTableRecord
100
AcDbBlockTableRecord
  2
*Paper_Space
340
1E
 70
     0
280
     1
281
     0
  0
BLOCK_RECORD
  5
23
330
1
100
AcDbSymbolTableRecord
100
AcDbBlockTableRecord
  2
*Paper_Space0
340
26
 70
     0
280
     1
281
     0
  0
BLOCK_RECORD
  5
54
330
1
100
AcDbSymbolTableRecord
100
AcDbBlockTableRecord
  2
block 2
340
0
102
{BLKREFS
331
55
102
}
 70
     0
280
     1
281
     0
  0
BLOCK_RECORD
  5
5C
330
1
100
AcDbSymbolTableRecord
100
AcDbBlockTableRecord
  2
block 3
340
0
102
{BLKREFS
331
5D
102
}
 70
     0
280
     1
281
     0
  0
BLOCK_RECORD
  5
64
330
1
100
AcDbSymbolTableRecord
100
AcDbBlockTableRecord
  2
block 4
340
0
102
{BLKREFS
331
65
102
}
 70
     0
280
     1
281
     0
  0
BLOCK_RECORD
  5
76
330
1
100
AcDbSymbolTableRecord
100
AcDbBlockTableRecord
  2
block 5
340
0
102
{BLKREFS
331
77
102
}
 70
     0
280
     1
281
     0
  0
BLOCK_RECORD
  5
8B
330
1
100
AcDbSymbolTableRecord
100
AcDbBlockTableRecord
  2
block 6
340
0
102
{BLKREFS
331
8C
102
}
 70
     0
280
     1
281
     0
  0
BLOCK_RECORD
  5
9D
330
1
100
AcDbSymbolTableRecord
100
AcDbBlockTableRecord
  2
block 7
340
0
102
{BLKREFS
331
9E
102
}
 70
     0
280
     1
281
     0
  0
BLOCK_RECORD
  5
A4
330
1
100
AcDbSymbolTableRecord
100
AcDbBlockTableRecord
  2
block 8
340
0
102
{BLKREFS
331
A5
102
}
 70
     0
280
     1
281
     0
  0
ENDTAB
  0
ENDSEC
  0
SECTION
  2
BLOCKS
  0
BLOCK
  5
20
330
1F
100
AcDbEntity
  8
0
100
AcDbBlockBegin
  2
*Model_Space
 70
     0
 10
0.0
 20
0.0
 30
0.0
  3
*Model_Space
  1

  0
ENDBLK
  5
21
330
1F
100
AcDbEntity
  8
0
100
AcDbBlockEnd
  0
BLOCK
  5
1C
330
1B
100
AcDbEntity
 67
     1
  8
0
100
AcDbBlockBegin
  2
*Paper_Space
 70
     0
 10
0.0
 20
0.0
 30
0.0
  3
*Paper_Space
  1

  0
ENDBLK
  5
1D
330
1B
100
AcDbEntity
 67
     1
  8
0
100
AcDbBlockEnd
  0
BLOCK
  5
24
330
23
100
AcDbEntity
  8
0
100
AcDbBlockBegin
  2
*Paper_Space0
 70
     0
 10
0.0
 20
0.0
 30
0.0
  3
*Paper_Space0
  1

  0
ENDBLK
  5
25
330
23
100
AcDbEntity
  8
0
100
AcDbBlockEnd
  0
BLOCK
  5
56
330
54
100
AcDbEntity
  8
0
100
AcDbBlockBegin
  2
block 2
 70
     0
 10
0.0
 20
0.0
 30
0.0
  3
block 2
  1

  0
SPLINE
  5
58
330
54
100
AcDbEntity
  8
_U+30EC_U+30A4_U+30E4_U+30FC 1
370
     0
100
AcDbSpline
210
0.0
220
0.0
230
1.0
 70
    11
 71
     3
 72
    44
 73
    40
 74
     0
 42
0.0000000001
 43
0.0000000001
 12
1.0
 22
0.0
 32
0.0
 13
1.0
 23
0.0
 33
0.0
 40
0.0
 40
0.0
 40
0.0
 40
0.0
 40
1.0
 40
1.0
 40
1.0
 40
2.0
 40
2.0
 40
2.0
 40
3.0
 40
3.0
 40
3.0
 40
4.0
 40
4.0
 40
4.0
 40
5.0
 40
5.0
 40
5.0
 40
6.0
 40
6.0
 40
6.0
 40
7.0
 40
7.0
 40
7.0
 40
8.0
 40
8.0
 40
8.0
 40
9.0
 40
9.0
 40
9.0
 40
10.0
 40
10.0
 40
10.0
 40
11.0
 40
11.0
 40
11.0
 40
12.0
 40
12.0
 40
12.0
 40
13.0
 40
13.0
 40
13.0
 40
13.0
 10
62.60065780770054
 20
-135.4983615112643
 30
0.0
 10
62.75930445479629
 20
-135.7160915459321
 30
0.0
 10
62.83337400772916
 20
-135.8091091240339
 30
0.0
 10
62.97720674423834
 20
-135.8580294799244
 30
0.0
 10
62.97720674423834
 20
-135.8580294799244
 30
0.0
 10
62.97720674423834
 20
-135.0794379002579
 30
0.0
 10
62.97720674423834
 20
-135.0794379002579
 30
0.0
 10
62.97720674423834
 20
-135.0794379002579
 30
0.0
 10
63.18236218038497
 20
-135.0794379002579
 30
0.0
 10
63.18236218038497
 20
-135.0794379002579
 30
0.0
 10
63.18236218038497
 20
-135.0794379002579
 30
0.0
 10
63.18236218038497
 20
-136.1074543930565
 30
0.0
 10
63.18236218038497
 20
-136.1074543930565
 30
0.0
 10
62.82476126901604
 20
-136.0757595145922
 30
0.0
 10
62.74655760150086
 20
-136.0103027003724
 30
0.0
 10
62.44821233247823
 20
-135.6251410251215
 30
0.0
 10
62.24943032297931
 20
-135.3691704305674
 30
0.0
 10
62.18173419669415
 20
-135.3037136163477
 30
0.0
 10
62.04427488683268
 20
-135.3037136163477
 30
0.0
 10
61.92576360214009
 20
-135.3037136163477
 30
0.0
 10
61.79450546415207
 20
-135.3757161119894
 30
0.0
 10
61.79450546415207
 20
-135.5724310641972
 30
0.0
 10
61.79450546415207
 20
-135.8325357733335
 30
0.0
 10
62.02515460688955
 20
-135.8408040024981
 30
0.0
 10
62.141598834291
 20
-135.845282626629
 30
0.0
 10
62.141598834291
 20
-135.845282626629
 30
0.0
 10
62.141598834291
 20
-136.0695583427187
 30
0.0
 10
62.141598834291
 20
-136.0695583427187
 30
0.0
 10
62.01464706565954
 20
-136.0609456040056
 30
0.0
 10
61.90250920761466
 20
-136.0502658080013
 30
0.0
 10
61.78399792292206
 20
-135.969995083195
 30
0.0
 10
61.62328421853515
 20
-135.8600965372155
 30
0.0
 10
61.58935002800544
 20
-135.6737168714635
 30
0.0
 10
61.58935002800544
 20
-135.5576171536106
 30
0.0
 10
61.58935002800544
 20
-135.280286967048
 30
0.0
 10
61.77349038169205
 20
-135.072892218836
 30
0.0
 10
62.04634194412383
 20
-135.072892218836
 30
0.0
 10
62.2747517747959
 20
-135.072892218836
 30
0.0
 10
62.37431503431962
 20
-135.1893364462374
 30
0.0
 10
62.60065780770054
 20
-135.4983615112643
 30
0.0
  0
HATCH
  5
59
330
54
100
AcDbEntity
  8
_U+30EC_U+30A4_U+30E4_U+30FC 1
 62
     7
420
 16777215
100
AcDbHatch
 10
0.0
 20
0.0
 30
0.0
210
0.0
220
0.0
230
1.0
  2
SOLID
 70
     1
 71
     0
 91
        1
 92
        1
 93
        1
 72
     4
 94
        3
 73
     0
 74
     1
 95
       44
 96
       40
 40
0.0
 40
0.0
 40
0.0
 40
0.0
 40
1.0
 40
1.0
 40
1.0
 40
2.0
 40
2.0
 40
2.0
 40
3.0
 40
3.0
 40
3.0
 40
4.0
 40
4.0
 40
4.0
 40
5.0
 40
5.0
 40
5.0
 40
6.0
 40
6.0
 40
6.0
 40
7.0
 40
7.0
 40
7.0
 40
8.0
 40
8.0
 40
8.0
 40
9.0
 40
9.0
 40
9.0
 40
10.0
 40
10.0
 40
10.0
 40
11.0
 40
11.0
 40
11.0
 40
12.0
 40
12.0
 40
12.0
 40
13.0
 40
13.0
 40
13.0
 40
13.0
 10
62.60065780770054
 20
-135.4983615112643
 10
62.75930445479629
 20
-135.7160915459321
 10
62.83337400772916
 20
-135.8091091240339
 10
62.97720674423834
 20
-135.8580294799244
 10
62.97720674423834
 20
-135.8580294799244
 10
62.97720674423834
 20
-135.0794379002579
 10
62.97720674423834
 20
-135.0794379002579
 10
62.97720674423834
 20
-135.0794379002579
 10
63.18236218038497
 20
-135.0794379002579
 10
63.18236218038497
 20
-135.0794379002579
 10
63.18236218038497
 20
-135.0794379002579
 10
63.18236218038497
 20
-136.1074543930565
 10
63.18236218038497
 20
-136.1074543930565
 10
62.82476126901604
 20
-136.0757595145922
 10
62.74655760150086
 20
-136.0103027003724
 10
62.44821233247823
 20
-135.6251410251215
 10
62.24943032297931
 20
-135.3691704305674
 10
62.18173419669415
 20
-135.3037136163477
 10
62.04427488683268
 20
-135.3037136163477
 10
61.92576360214009
 20
-135.3037136163477
 10
61.79450546415207
 20
-135.3757161119894
 10
61.79450546415207
 20
-135.5724310641972
 10
61.79450546415207
 20
-135.8325357733335
 10
62.02515460688955
 20
-135.8408040024981
 10
62.141598834291
 20
-135.845282626629
 10
62.141598834291
 20
-135.845282626629
 10
62.141598834291
 20
-136.0695583427187
 10
62.141598834291
 20
-136.0695583427187
 10
62.01464706565954
 20
-136.0609456040056
 10
61.90250920761466
 20
-136.0502658080013
 10
61.78399792292206
 20
-135.969995083195
 10
61.62328421853515
 20
-135.8600965372155
 10
61.58935002800544
 20
-135.6737168714635
 10
61.58935002800544
 20
-135.5576171536106
 10
61.58935002800544
 20
-135.280286967048
 10
61.77349038169205
 20
-135.072892218836
 10
62.04634194412383
 20
-135.072892218836
 10
62.2747517747959
 20
-135.072892218836
 10
62.37431503431962
 20
-135.1893364462374
 10
62.60065780770054
 20
-135.4983615112643
 97
        0
 97
        0
 75
     2
 76
     1
 98
        0
  0
SPLINE
  5
5A
330
54
100
AcDbEntity
  8
_U+30EC_U+30A4_U+30E4_U+30FC 1
370
     0
100
AcDbSpline
210
0.0
220
0.0
230
1.0
 70
    11
 71
     3
 72
    53
 73
    49
 74
     0
 42
0.0000000001
 43
0.0000000001
 12
1.0
 22
0.0
 32
0.0
 13
1.0
 23
0.0
 33
0.0
 40
0.0
 40
0.0
 40
0.0
 40
0.0
 40
1.0
 40
1.0
 40
1.0
 40
2.0
 40
2.0
 40
2.0
 40
3.0
 40
3.0
 40
3.0
 40
4.0
 40
4.0
 40
4.0
 40
5.0
 40
5.0
 40
5.0
 40
6.0
 40
6.0
 40
6.0
 40
7.0
 40
7.0
 40
7.0
 40
8.0
 40
8.0
 40
8.0
 40
9.0
 40
9.0
 40
9.0
 40
10.0
 40
10.0
 40
10.0
 40
11.0
 40
11.0
 40
11.0
 40
12.0
 40
12.0
 40
12.0
 40
13.0
 40
13.0
 40
13.0
 40
14.0
 40
14.0
 40
14.0
 40
15.0
 40
15.0
 40
15.0
 40
16.0
 40
16.0
 40
16.0
 40
16.0
 10
63.2331773387924
 20
-134.4334824967736
 30
0.0
 10
63.2331773387924
 20
-134.5116861642888
 30
0.0
 10
63.21629637091468
 20
-134.6133164811036
 30
0.0
 10
63.15273435921182
 20
-134.7149467979185
 30
0.0
 10
63.04266355845809
 20
-134.8882351008266
 30
0.0
 10
62.91157767524433
 20
-134.9095946928351
 30
0.0
 10
62.80374618655601
 20
-134.928542718004
 30
0.0
 10
62.80374618655601
 20
-134.928542718004
 30
0.0
 10
62.80374618655601
 20
-134.7063340592054
 30
0.0
 10
62.80374618655601
 20
-134.7063340592054
 30
0.0
 10
63.00252819605493
 20
-134.6515570409899
 30
0.0
 10
63.03215601722808
 20
-134.5244330175842
 30
0.0
 10
63.03215601722808
 20
-134.4314154394824
 30
0.0
 10
63.03215601722808
 20
-134.2918890723298
 30
0.0
 10
62.93276501247862
 20
-134.1396158518818
 30
0.0
 10
62.70004881244999
 20
-134.1396158518818
 30
0.0
 10
62.44407821789593
 20
-134.1396158518818
 30
0.0
 10
62.37431503431962
 20
-134.3194498362118
 30
0.0
 10
62.37431503431962
 20
-134.4400281781955
 30
0.0
 10
62.37431503431962
 20
-134.4717230566598
 30
0.0
 10
62.37431503431962
 20
-134.6133164811036
 30
0.0
 10
62.50333386024222
 20
-134.7021999446231
 30
0.0
 10
62.50333386024222
 20
-134.7021999446231
 30
0.0
 10
62.48421358029909
 20
-134.8778998143708
 30
0.0
 10
62.48421358029909
 20
-134.8778998143708
 30
0.0
 10
62.48421358029909
 20
-134.8778998143708
 30
0.0
 10
61.63809812912173
 20
-134.7573214723871
 30
0.0
 10
61.63809812912173
 20
-134.7573214723871
 30
0.0
 10
61.63809812912173
 20
-134.7573214723871
 30
0.0
 10
61.63809812912173
 20
-133.9787298927206
 30
0.0
 10
61.63809812912173
 20
-133.9787298927206
 30
0.0
 10
61.63809812912173
 20
-133.9787298927206
 30
0.0
 10
61.83274602403834
 20
-133.9787298927206
 30
0.0
 10
61.83274602403834
 20
-133.9787298927206
 30
0.0
 10
61.83274602403834
 20
-133.9787298927206
 30
0.0
 10
61.83274602403834
 20
-134.5943684559348
 30
0.0
 10
61.83274602403834
 20
-134.5943684559348
 30
0.0
 10
61.83274602403834
 20
-134.5943684559348
 30
0.0
 10
62.25580374962703
 20
-134.6598252701545
 30
0.0
 10
62.25580374962703
 20
-134.6598252701545
 30
0.0
 10
62.22186955909731
 20
-134.598502570517
 30
0.0
 10
62.18173419669415
 20
-134.5161647884196
 30
0.0
 10
62.18173419669415
 20
-134.397653503727
 30
0.0
 10
62.18173419669415
 20
-134.1437499664641
 30
0.0
 10
62.36794160767191
 20
-133.9067273970789
 30
0.0
 10
62.68092853250685
 20
-133.9067273970789
 30
0.0
 10
62.99839408147263
 20
-133.9067273970789
 30
0.0
 10
63.2331773387924
 20
-134.1310031131686
 30
0.0
 10
63.2331773387924
 20
-134.4334824967736
 30
0.0
  0
HATCH
  5
5B
330
54
100
AcDbEntity
  8
_U+30EC_U+30A4_U+30E4_U+30FC 1
 62
     7
420
 16777215
100
AcDbHatch
 10
0.0
 20
0.0
 30
0.0
210
0.0
220
0.0
230
1.0
  2
SOLID
 70
     1
 71
     0
 91
        1
 92
        1
 93
        1
 72
     4
 94
        3
 73
     0
 74
     1
 95
       53
 96
       49
 40
0.0
 40
0.0
 40
0.0
 40
0.0
 40
1.0
 40
1.0
 40
1.0
 40
2.0
 40
2.0
 40
2.0
 40
3.0
 40
3.0
 40
3.0
 40
4.0
 40
4.0
 40
4.0
 40
5.0
 40
5.0
 40
5.0
 40
6.0
 40
6.0
 40
6.0
 40
7.0
 40
7.0
 40
7.0
 40
8.0
 40
8.0
 40
8.0
 40
9.0
 40
9.0
 40
9.0
 40
10.0
 40
10.0
 40
10.0
 40
11.0
 40
11.0
 40
11.0
 40
12.0
 40
12.0
 40
12.0
 40
13.0
 40
13.0
 40
13.0
 40
14.0
 40
14.0
 40
14.0
 40
15.0
 40
15.0
 40
15.0
 40
16.0
 40
16.0
 40
16.0
 40
16.0
 10
63.2331773387924
 20
-134.4334824967736
 10
63.2331773387924
 20
-134.5116861642888
 10
63.21629637091468
 20
-134.6133164811036
 10
63.15273435921182
 20
-134.7149467979185
 10
63.04266355845809
 20
-134.8882351008266
 10
62.91157767524433
 20
-134.9095946928351
 10
62.80374618655601
 20
-134.928542718004
 10
62.80374618655601
 20
-134.928542718004
 10
62.80374618655601
 20
-134.7063340592054
 10
62.80374618655601
 20
-134.7063340592054
 10
63.00252819605493
 20
-134.6515570409899
 10
63.03215601722808
 20
-134.5244330175842
 10
63.03215601722808
 20
-134.4314154394824
 10
63.03215601722808
 20
-134.2918890723298
 10
62.93276501247862
 20
-134.1396158518818
 10
62.70004881244999
 20
-134.1396158518818
 10
62.44407821789593
 20
-134.1396158518818
 10
62.37431503431962
 20
-134.3194498362118
 10
62.37431503431962
 20
-134.4400281781955
 10
62.37431503431962
 20
-134.4717230566598
 10
62.37431503431962
 20
-134.6133164811036
 10
62.50333386024222
 20
-134.7021999446231
 10
62.50333386024222
 20
-134.7021999446231
 10
62.48421358029909
 20
-134.8778998143708
 10
62.48421358029909
 20
-134.8778998143708
 10
62.48421358029909
 20
-134.8778998143708
 10
61.63809812912173
 20
-134.7573214723871
 10
61.63809812912173
 20
-134.7573214723871
 10
61.63809812912173
 20
-134.7573214723871
 10
61.63809812912173
 20
-133.9787298927206
 10
61.63809812912173
 20
-133.9787298927206
 10
61.63809812912173
 20
-133.9787298927206
 10
61.83274602403834
 20
-133.9787298927206
 10
61.83274602403834
 20
-133.9787298927206
 10
61.83274602403834
 20
-133.9787298927206
 10
61.83274602403834
 20
-134.5943684559348
 10
61.83274602403834
 20
-134.5943684559348
 10
61.83274602403834
 20
-134.5943684559348
 10
62.25580374962703
 20
-134.6598252701545
 10
62.25580374962703
 20
-134.6598252701545
 10
62.22186955909731
 20
-134.598502570517
 10
62.18173419669415
 20
-134.5161647884196
 10
62.18173419669415
 20
-134.397653503727
 10
62.18173419669415
 20
-134.1437499664641
 10
62.36794160767191
 20
-133.9067273970789
 10
62.68092853250685
 20
-133.9067273970789
 10
62.99839408147263
 20
-133.9067273970789
 10
63.2331773387924
 20
-134.1310031131686
 10
63.2331773387924
 20
-134.4334824967736
 97
        0
 97
        0
 75
     2
 76
     1
 98
        0
  0
ENDBLK
  5
57
330
54
100
AcDbEntity
  8
0
100
AcDbBlockEnd
  0
BLOCK
  5
5E
330
5C
100
AcDbEntity
  8
0
100
AcDbBlockBegin
  2
block 3
 70
     0
 10
0.0
 20
0.0
 30
0.0
  3
block 3
  1

  0
SPLINE
  5
60
330
5C
100
AcDbEntity
  8
_U+30EC_U+30A4_U+30E4_U+30FC 1
370
     0
100
AcDbSpline
210
0.0
220
0.0
230
1.0
 70
    11
 71
     3
 72
    26
 73
    22
 74
     0
 42
0.0000000001
 43
0.0000000001
 12
1.0
 22
0.0
 32
0.0
 13
1.0
 23
0.0
 33
0.0
 40
0.0
 40
0.0
 40
0.0
 40
0.0
 40
1.0
 40
1.0
 40
1.0
 40
2.0
 40
2.0
 40
2.0
 40
3.0
 40
3.0
 40
3.0
 40
4.0
 40
4.0
 40
4.0
 40
5.0
 40
5.0
 40
5.0
 40
6.0
 40
6.0
 40
6.0
 40
7.0
 40
7.0
 40
7.0
 40
7.0
 10
63.18236218038497
 20
-111.6438313522974
 30
0.0
 10
63.18236218038497
 20
-111.6438313522974
 30
0.0
 10
62.07803682258813
 20
-111.6438313522974
 30
0.0
 10
62.07803682258813
 20
-111.6438313522974
 30
0.0
 10
62.07803682258813
 20
-111.6438313522974
 30
0.0
 10
62.07803682258813
 20
-111.9738714997843
 30
0.0
 10
62.07803682258813
 20
-111.9738714997843
 30
0.0
 10
62.07803682258813
 20
-111.9738714997843
 30
0.0
 10
61.92989771672239
 20
-111.9738714997843
 30
0.0
 10
61.92989771672239
 20
-111.9738714997843
 30
0.0
 10
61.91525606091007
 20
-111.6417642950062
 30
0.0
 10
61.75230304445776
 20
-111.5952555059554
 30
0.0
 10
61.63809812912173
 20
-111.5656276847822
 30
0.0
 10
61.63809812912173
 20
-111.5656276847822
 30
0.0
 10
61.63809812912173
 20
-111.4195556362076
 30
0.0
 10
61.63809812912173
 20
-111.4195556362076
 30
0.0
 10
61.63809812912173
 20
-111.4195556362076
 30
0.0
 10
63.18236218038497
 20
-111.4195556362076
 30
0.0
 10
63.18236218038497
 20
-111.4195556362076
 30
0.0
 10
63.18236218038497
 20
-111.4195556362076
 30
0.0
 10
63.18236218038497
 20
-111.6438313522974
 30
0.0
 10
63.18236218038497
 20
-111.6438313522974
 30
0.0
  0
HATCH
  5
61
330
5C
100
AcDbEntity
  8
_U+30EC_U+30A4_U+30E4_U+30FC 1
 62
     7
420
 16777215
100
AcDbHatch
 10
0.0
 20
0.0
 30
0.0
210
0.0
220
0.0
230
1.0
  2
SOLID
 70
     1
 71
     0
 91
        1
 92
        1
 93
        1
 72
     4
 94
        3
 73
     0
 74
     1
 95
       26
 96
       22
 40
0.0
 40
0.0
 40
0.0
 40
0.0
 40
1.0
 40
1.0
 40
1.0
 40
2.0
 40
2.0
 40
2.0
 40
3.0
 40
3.0
 40
3.0
 40
4.0
 40
4.0
 40
4.0
 40
5.0
 40
5.0
 40
5.0
 40
6.0
 40
6.0
 40
6.0
 40
7.0
 40
7.0
 40
7.0
 40
7.0
 10
63.18236218038497
 20
-111.6438313522974
 10
63.18236218038497
 20
-111.6438313522974
 10
62.07803682258813
 20
-111.6438313522974
 10
62.07803682258813
 20
-111.6438313522974
 10
62.07803682258813
 20
-111.6438313522974
 10
62.07803682258813
 20
-111.9738714997843
 10
62.07803682258813
 20
-111.9738714997843
 10
62.07803682258813
 20
-111.9738714997843
 10
61.92989771672239
 20
-111.9738714997843
 10
61.92989771672239
 20
-111.9738714997843
 10
61.91525606091007
 20
-111.6417642950062
 10
61.75230304445776
 20
-111.5952555059554
 10
61.63809812912173
 20
-111.5656276847822
 10
61.63809812912173
 20
-111.5656276847822
 10
61.63809812912173
 20
-111.4195556362076
 10
61.63809812912173
 20
-111.4195556362076
 10
61.63809812912173
 20
-111.4195556362076
 10
63.18236218038497
 20
-111.4195556362076
 10
63.18236218038497
 20
-111.4195556362076
 10
63.18236218038497
 20
-111.4195556362076
 10
63.18236218038497
 20
-111.6438313522974
 10
63.18236218038497
 20
-111.6438313522974
 97
        0
 97
        0
 75
     2
 76
     1
 98
        0
  0
SPLINE
  5
62
330
5C
100
AcDbEntity
  8
_U+30EC_U+30A4_U+30E4_U+30FC 1
370
     0
100
AcDbSpline
210
0.0
220
0.0
230
1.0
 70
    11
 71
     3
 72
    26
 73
    22
 74
     0
 42
0.0000000001
 43
0.0000000001
 12
1.0
 22
0.0
 32
0.0
 13
1.0
 23
0.0
 33
0.0
 40
0.0
 40
0.0
 40
0.0
 40
0.0
 40
1.0
 40
1.0
 40
1.0
 40
2.0
 40
2.0
 40
2.0
 40
3.0
 40
3.0
 40
3.0
 40
4.0
 40
4.0
 40
4.0
 40
5.0
 40
5.0
 40
5.0
 40
6.0
 40
6.0
 40
6.0
 40
7.0
 40
7.0
 40
7.0
 40
7.0
 10
63.18236218038497
 20
-110.5072943517135
 30
0.0
 10
63.18236218038497
 20
-110.5072943517135
 30
0.0
 10
63.18236218038497
 20
-110.7443169210986
 30
0.0
 10
63.18236218038497
 20
-110.7443169210986
 30
0.0
 10
62.87350937013232
 20
-110.7188232145078
 30
0.0
 10
62.35519475437648
 20
-110.5262423768823
 30
0.0
 10
61.84962699191607
 20
-110.1200656191714
 30
0.0
 10
61.84962699191607
 20
-110.1200656191714
 30
0.0
 10
61.84962699191607
 20
-110.9579128411841
 30
0.0
 10
61.84962699191607
 20
-110.9579128411841
 30
0.0
 10
61.84962699191607
 20
-110.9579128411841
 30
0.0
 10
61.63809812912173
 20
-110.9579128411841
 30
0.0
 10
61.63809812912173
 20
-110.9579128411841
 30
0.0
 10
61.63809812912173
 20
-110.9579128411841
 30
0.0
 10
61.63809812912173
 20
-109.8830430497862
 30
0.0
 10
61.63809812912173
 20
-109.8830430497862
 30
0.0
 10
61.63809812912173
 20
-109.8830430497862
 30
0.0
 10
61.84962699191607
 20
-109.8830430497862
 30
0.0
 10
61.84962699191607
 20
-109.8830430497862
 30
0.0
 10
62.13935952222558
 20
-110.2068820253997
 30
0.0
 10
62.73174369091429
 20
-110.473532415958
 30
0.0
 10
63.18236218038497
 20
-110.5072943517135
 30
0.0
  0
HATCH
  5
63
330
5C
100
AcDbEntity
  8
_U+30EC_U+30A4_U+30E4_U+30FC 1
 62
     7
420
 16777215
100
AcDbHatch
 10
0.0
 20
0.0
 30
0.0
210
0.0
220
0.0
230
1.0
  2
SOLID
 70
     1
 71
     0
 91
        1
 92
        1
 93
        1
 72
     4
 94
        3
 73
     0
 74
     1
 95
       26
 96
       22
 40
0.0
 40
0.0
 40
0.0
 40
0.0
 40
1.0
 40
1.0
 40
1.0
 40
2.0
 40
2.0
 40
2.0
 40
3.0
 40
3.0
 40
3.0
 40
4.0
 40
4.0
 40
4.0
 40
5.0
 40
5.0
 40
5.0
 40
6.0
 40
6.0
 40
6.0
 40
7.0
 40
7.0
 40
7.0
 40
7.0
 10
63.18236218038497
 20
-110.5072943517135
 10
63.18236218038497
 20
-110.5072943517135
 10
63.18236218038497
 20
-110.7443169210986
 10
63.18236218038497
 20
-110.7443169210986
 10
62.87350937013232
 20
-110.7188232145078
 10
62.35519475437648
 20
-110.5262423768823
 10
61.84962699191607
 20
-110.1200656191714
 10
61.84962699191607
 20
-110.1200656191714
 10
61.84962699191607
 20
-110.9579128411841
 10
61.84962699191607
 20
-110.9579128411841
 10
61.84962699191607
 20
-110.9579128411841
 10
61.63809812912173
 20
-110.9579128411841
 10
61.63809812912173
 20
-110.9579128411841
 10
61.63809812912173
 20
-110.9579128411841
 10
61.63809812912173
 20
-109.8830430497862
 10
61.63809812912173
 20
-109.8830430497862
 10
61.63809812912173
 20
-109.8830430497862
 10
61.84962699191607
 20
-109.8830430497862
 10
61.84962699191607
 20
-109.8830430497862
 10
62.13935952222558
 20
-110.2068820253997
 10
62.73174369091429
 20
-110.473532415958
 10
63.18236218038497
 20
-110.5072943517135
 97
        0
 97
        0
 75
     2
 76
     1
 98
        0
  0
ENDBLK
  5
5F
330
5C
100
AcDbEntity
  8
0
100
AcDbBlockEnd
  0
BLOCK
  5
66
330
64
100
AcDbEntity
  8
0
100
AcDbBlockBegin
  2
block 4
 70
     0
 10
0.0
 20
0.0
 30
0.0
  3
block 4
  1

  0
SPLINE
  5
68
330
64
100
AcDbEntity
  8
_U+30EC_U+30A4_U+30E4_U+30FC 1
370
     0
100
AcDbSpline
210
0.0
220
0.0
230
1.0
 70
    11
 71
     3
 72
    62
 73
    58
 74
     0
 42
0.0000000001
 43
0.0000000001
 12
1.0
 22
0.0
 32
0.0
 13
1.0
 23
0.0
 33
0.0
 40
0.0
 40
0.0
 40
0.0
 40
0.0
 40
1.0
 40
1.0
 40
1.0
 40
2.0
 40
2.0
 40
2.0
 40
3.0
 40
3.0
 40
3.0
 40
4.0
 40
4.0
 40
4.0
 40
5.0
 40
5.0
 40
5.0
 40
6.0
 40
6.0
 40
6.0
 40
7.0
 40
7.0
 40
7.0
 40
8.0
 40
8.0
 40
8.0
 40
9.0
 40
9.0
 40
9.0
 40
10.0
 40
10.0
 40
10.0
 40
11.0
 40
11.0
 40
11.0
 40
12.0
 40
12.0
 40
12.0
 40
13.0
 40
13.0
 40
13.0
 40
14.0
 40
14.0
 40
14.0
 40
15.0
 40
15.0
 40
15.0
 40
16.0
 40
16.0
 40
16.0
 40
17.0
 40
17.0
 40
17.0
 40
18.0
 40
18.0
 40
18.0
 40
19.0
 40
19.0
 40
19.0
 40
19.0
 10
63.2331773387924
 20
-121.0882161155613
 30
0.0
 10
63.2331773387924
 20
-121.1836452605027
 30
0.0
 10
63.21199000155811
 20
-121.4013752951705
 30
0.0
 10
63.02578259058036
 20
-121.5264322612851
 30
0.0
 10
62.91364473253548
 20
-121.6001573046694
 30
0.0
 10
62.81425372778602
 20
-121.6046359288002
 30
0.0
 10
62.72967663362314
 20
-121.6087700433825
 30
0.0
 10
62.72967663362314
 20
-121.6087700433825
 30
0.0
 10
62.72967663362314
 20
-121.3886284418751
 30
0.0
 10
62.72967663362314
 20
-121.3886284418751
 30
0.0
 10
62.80374618655601
 20
-121.3865613845839
 30
0.0
 10
63.03852944387579
 20
-121.3762260981282
 30
0.0
 10
63.03852944387579
 20
-121.0926947396921
 30
0.0
 10
63.03852944387579
 20
-120.9552354298306
 30
0.0
 10
62.96876626029947
 20
-120.8026176998341
 30
0.0
 10
62.74018417485315
 20
-120.8026176998341
 30
0.0
 10
62.62391220222597
 20
-120.8026176998341
 30
0.0
 10
62.57516410110969
 20
-120.8408582597203
 30
0.0
 10
62.54346922264538
 20
-120.8725531381846
 30
0.0
 10
62.46939966971252
 20
-120.9466226911175
 30
0.0
 10
62.45682507119135
 20
-121.063066918519
 30
0.0
 10
62.45682507119135
 20
-121.1178439367344
 30
0.0
 10
62.45682507119135
 20
-121.1371364714518
 30
0.0
 10
62.4588921284825
 20
-121.1729654644984
 30
0.0
 10
62.4630262430648
 20
-121.2005262283804
 30
0.0
 10
62.4630262430648
 20
-121.2005262283804
 30
0.0
 10
62.26855060292245
 20
-121.2005262283804
 30
0.0
 10
62.26855060292245
 20
-121.2005262283804
 30
0.0
 10
62.2747517747959
 20
-121.1622856684941
 30
0.0
 10
62.27699108686131
 20
-121.1202555035741
 30
0.0
 10
62.27699108686131
 20
-121.1137098221521
 30
0.0
 10
62.27699108686131
 20
-121.0482530079324
 30
0.0
 10
62.25580374962703
 20
-120.8494709984335
 30
0.0
 10
62.01878118024184
 20
-120.8494709984335
 30
0.0
 10
61.84118650797721
 20
-120.8494709984335
 30
0.0
 10
61.78606498021321
 20
-120.980384626873
 30
0.0
 10
61.78606498021321
 20
-121.090627682401
 30
0.0
 10
61.78606498021321
 20
-121.3548665061196
 30
0.0
 10
62.01878118024184
 20
-121.3634792448327
 30
0.0
 10
62.09078367588356
 20
-121.367613359415
 30
0.0
 10
62.09078367588356
 20
-121.367613359415
 30
0.0
 10
62.09078367588356
 20
-121.5708739930448
 30
0.0
 10
62.09078367588356
 20
-121.5708739930448
 30
0.0
 10
61.96589896454325
 20
-121.5622612543317
 30
0.0
 10
61.58935002800544
 20
-121.5347004904497
 30
0.0
 10
61.58935002800544
 20
-121.0778808291055
 30
0.0
 10
61.58935002800544
 20
-120.8536051130158
 30
0.0
 10
61.7163017966369
 20
-120.6124484290483
 30
0.0
 10
62.01240775359413
 20
-120.6124484290483
 30
0.0
 10
62.19861516457188
 20
-120.6124484290483
 30
0.0
 10
62.28112520144361
 20
-120.7075330644412
 30
0.0
 10
62.34244790108106
 20
-120.8070963239649
 30
0.0
 10
62.37000866496306
 20
-120.7457736243275
 30
0.0
 10
62.45045164454364
 20
-120.5638725827063
 30
0.0
 10
62.72760957633199
 20
-120.5638725827063
 30
0.0
 10
63.06609020775779
 20
-120.5638725827063
 30
0.0
 10
63.2331773387924
 20
-120.8112304385472
 30
0.0
 10
63.2331773387924
 20
-121.0882161155613
 30
0.0
  0
HATCH
  5
69
330
64
100
AcDbEntity
  8
_U+30EC_U+30A4_U+30E4_U+30FC 1
 62
     7
420
 16777215
100
AcDbHatch
 10
0.0
 20
0.0
 30
0.0
210
0.0
220
0.0
230
1.0
  2
SOLID
 70
     1
 71
     0
 91
        1
 92
        1
 93
        1
 72
     4
 94
        3
 73
     0
 74
     1
 95
       62
 96
       58
 40
0.0
 40
0.0
 40
0.0
 40
0.0
 40
1.0
 40
1.0
 40
1.0
 40
2.0
 40
2.0
 40
2.0
 40
3.0
 40
3.0
 40
3.0
 40
4.0
 40
4.0
 40
4.0
 40
5.0
 40
5.0
 40
5.0
 40
6.0
 40
6.0
 40
6.0
 40
7.0
 40
7.0
 40
7.0
 40
8.0
 40
8.0
 40
8.0
 40
9.0
 40
9.0
 40
9.0
 40
10.0
 40
10.0
 40
10.0
 40
11.0
 40
11.0
 40
11.0
 40
12.0
 40
12.0
 40
12.0
 40
13.0
 40
13.0
 40
13.0
 40
14.0
 40
14.0
 40
14.0
 40
15.0
 40
15.0
 40
15.0
 40
16.0
 40
16.0
 40
16.0
 40
17.0
 40
17.0
 40
17.0
 40
18.0
 40
18.0
 40
18.0
 40
19.0
 40
19.0
 40
19.0
 40
19.0
 10
63.2331773387924
 20
-121.0882161155613
 10
63.2331773387924
 20
-121.1836452605027
 10
63.21199000155811
 20
-121.4013752951705
 10
63.02578259058036
 20
-121.5264322612851
 10
62.91364473253548
 20
-121.6001573046694
 10
62.81425372778602
 20
-121.6046359288002
 10
62.72967663362314
 20
-121.6087700433825
 10
62.72967663362314
 20
-121.6087700433825
 10
62.72967663362314
 20
-121.3886284418751
 10
62.72967663362314
 20
-121.3886284418751
 10
62.80374618655601
 20
-121.3865613845839
 10
63.03852944387579
 20
-121.3762260981282
 10
63.03852944387579
 20
-121.0926947396921
 10
63.03852944387579
 20
-120.9552354298306
 10
62.96876626029947
 20
-120.8026176998341
 10
62.74018417485315
 20
-120.8026176998341
 10
62.62391220222597
 20
-120.8026176998341
 10
62.57516410110969
 20
-120.8408582597203
 10
62.54346922264538
 20
-120.8725531381846
 10
62.46939966971252
 20
-120.9466226911175
 10
62.45682507119135
 20
-121.063066918519
 10
62.45682507119135
 20
-121.1178439367344
 10
62.45682507119135
 20
-121.1371364714518
 10
62.4588921284825
 20
-121.1729654644984
 10
62.4630262430648
 20
-121.2005262283804
 10
62.4630262430648
 20
-121.2005262283804
 10
62.26855060292245
 20
-121.2005262283804
 10
62.26855060292245
 20
-121.2005262283804
 10
62.2747517747959
 20
-121.1622856684941
 10
62.27699108686131
 20
-121.1202555035741
 10
62.27699108686131
 20
-121.1137098221521
 10
62.27699108686131
 20
-121.0482530079324
 10
62.25580374962703
 20
-120.8494709984335
 10
62.01878118024184
 20
-120.8494709984335
 10
61.84118650797721
 20
-120.8494709984335
 10
61.78606498021321
 20
-120.980384626873
 10
61.78606498021321
 20
-121.090627682401
 10
61.78606498021321
 20
-121.3548665061196
 10
62.01878118024184
 20
-121.3634792448327
 10
62.09078367588356
 20
-121.367613359415
 10
62.09078367588356
 20
-121.367613359415
 10
62.09078367588356
 20
-121.5708739930448
 10
62.09078367588356
 20
-121.5708739930448
 10
61.96589896454325
 20
-121.5622612543317
 10
61.58935002800544
 20
-121.5347004904497
 10
61.58935002800544
 20
-121.0778808291055
 10
61.58935002800544
 20
-120.8536051130158
 10
61.7163017966369
 20
-120.6124484290483
 10
62.01240775359413
 20
-120.6124484290483
 10
62.19861516457188
 20
-120.6124484290483
 10
62.28112520144361
 20
-120.7075330644412
 10
62.34244790108106
 20
-120.8070963239649
 10
62.37000866496306
 20
-120.7457736243275
 10
62.45045164454364
 20
-120.5638725827063
 10
62.72760957633199
 20
-120.5638725827063
 10
63.06609020775779
 20
-120.5638725827063
 10
63.2331773387924
 20
-120.8112304385472
 10
63.2331773387924
 20
-121.0882161155613
 97
        0
 97
        0
 75
     2
 76
     1
 98
        0
  0
ENDBLK
  5
67
330
64
100
AcDbEntity
  8
0
100
AcDbBlockEnd
  0
BLOCK
  5
78
330
76
100
AcDbEntity
  8
0
100
AcDbBlockBegin
  2
block 5
 70
     0
 10
0.0
 20
0.0
 30
0.0
  3
block 5
  1

  0
SPLINE
  5
7A
330
76
100
AcDbEntity
  8
_U+30EC_U+30A4_U+30E4_U+30FC 1
370
     0
100
AcDbSpline
210
0.0
220
0.0
230
1.0
 70
    11
 71
     3
 72
    44
 73
    40
 74
     0
 42
0.0000000001
 43
0.0000000001
 12
1.0
 22
0.0
 32
0.0
 13
1.0
 23
0.0
 33
0.0
 40
0.0
 40
0.0
 40
0.0
 40
0.0
 40
1.0
 40
1.0
 40
1.0
 40
2.0
 40
2.0
 40
2.0
 40
3.0
 40
3.0
 40
3.0
 40
4.0
 40
4.0
 40
4.0
 40
5.0
 40
5.0
 40
5.0
 40
6.0
 40
6.0
 40
6.0
 40
7.0
 40
7.0
 40
7.0
 40
8.0
 40
8.0
 40
8.0
 40
9.0
 40
9.0
 40
9.0
 40
10.0
 40
10.0
 40
10.0
 40
11.0
 40
11.0
 40
11.0
 40
12.0
 40
12.0
 40
12.0
 40
13.0
 40
13.0
 40
13.0
 40
13.0
 10
63.16634248637855
 20
-153.503119536277
 30
0.0
 10
63.14291583707886
 20
-153.4586778045173
 30
0.0
 10
63.12190075461884
 20
-153.4059678435929
 30
0.0
 10
63.11966144255342
 20
-153.1751464460812
 30
0.0
 10
63.11552732797112
 20
-152.9319227048226
 30
0.0
 10
63.05627168562482
 20
-152.861987266472
 30
0.0
 10
62.87850475858593
 20
-152.861987266472
 30
0.0
 10
62.87850475858593
 20
-152.861987266472
 30
0.0
 10
62.47026094358382
 20
-152.861987266472
 30
0.0
 10
62.47026094358382
 20
-152.861987266472
 30
0.0
 10
62.47026094358382
 20
-152.861987266472
 30
0.0
 10
62.47026094358382
 20
-153.503119536277
 30
0.0
 10
62.47026094358382
 20
-153.503119536277
 30
0.0
 10
62.47026094358382
 20
-153.503119536277
 30
0.0
 10
62.23547768626405
 20
-153.503119536277
 30
0.0
 10
62.23547768626405
 20
-153.503119536277
 30
0.0
 10
62.23547768626405
 20
-153.503119536277
 30
0.0
 10
62.23547768626405
 20
-151.9586832302395
 30
0.0
 10
62.23547768626405
 20
-151.9586832302395
 30
0.0
 10
62.23547768626405
 20
-151.9586832302395
 30
0.0
 10
62.9103718918245
 20
-151.9586832302395
 30
0.0
 10
62.9103718918245
 20
-151.9586832302395
 30
0.0
 10
63.21698539001173
 20
-151.9586832302395
 30
0.0
 10
63.38407252104635
 20
-152.1302489854049
 30
0.0
 10
63.38407252104635
 20
-152.386219579959
 30
0.0
 10
63.38407252104635
 20
-152.4368624835922
 30
0.0
 10
63.37563203710749
 20
-152.5195447752382
 30
0.0
 10
63.33119030534776
 20
-152.5998155000445
 30
0.0
 10
63.27210691777572
 20
-152.7035128741505
 30
0.0
 10
63.20647784878172
 20
-152.7224608993194
 30
0.0
 10
63.14515514914427
 20
-152.7393418671971
 30
0.0
 10
63.28261445900574
 20
-152.7817165416657
 30
0.0
 10
63.3503105852909
 20
-152.8302923880077
 30
0.0
 10
63.35461695464746
 20
-153.1455186249081
 30
0.0
 10
63.35875106922976
 20
-153.4163031300487
 30
0.0
 10
63.39475231705062
 20
-153.447998008513
 30
0.0
 10
63.46244844333578
 20
-153.503119536277
 30
0.0
 10
63.46244844333578
 20
-153.503119536277
 30
0.0
 10
63.16634248637855
 20
-153.503119536277
 30
0.0
 10
63.16634248637855
 20
-153.503119536277
 30
0.0
  0
SPLINE
  5
7B
330
76
100
AcDbEntity
  8
_U+30EC_U+30A4_U+30E4_U+30FC 1
370
     0
100
AcDbSpline
210
0.0
220
0.0
230
1.0
 70
    11
 71
     3
 72
    20
 73
    16
 74
     0
 42
0.0000000001
 43
0.0000000001
 12
1.0
 22
0.0
 32
0.0
 13
1.0
 23
0.0
 33
0.0
 40
0.0
 40
0.0
 40
0.0
 40
0.0
 40
1.0
 40
1.0
 40
1.0
 40
2.0
 40
2.0
 40
2.0
 40
3.0
 40
3.0
 40
3.0
 40
4.0
 40
4.0
 40
4.0
 40
5.0
 40
5.0
 40
5.0
 40
5.0
 10
62.9145060064068
 20
-152.1702120930339
 30
0.0
 10
62.9145060064068
 20
-152.1702120930339
 30
0.0
 10
62.47026094358382
 20
-152.1702120930339
 30
0.0
 10
62.47026094358382
 20
-152.1702120930339
 30
0.0
 10
62.47026094358382
 20
-152.1702120930339
 30
0.0
 10
62.47026094358382
 20
-152.6504584036777
 30
0.0
 10
62.47026094358382
 20
-152.6504584036777
 30
0.0
 10
62.47026094358382
 20
-152.6504584036777
 30
0.0
 10
62.91243894911565
 20
-152.6504584036777
 30
0.0
 10
62.91243894911565
 20
-152.6504584036777
 30
0.0
 10
63.0118299538651
 20
-152.6504584036777
 30
0.0
 10
63.14722220643542
 20
-152.5743217934536
 30
0.0
 10
63.14722220643542
 20
-152.4031005478367
 30
0.0
 10
63.14722220643542
 20
-152.3248968803216
 30
0.0
 10
63.11328801590571
 20
-152.1702120930339
 30
0.0
 10
62.9145060064068
 20
-152.1702120930339
 30
0.0
  0
HATCH
  5
7C
330
76
100
AcDbEntity
  8
_U+30EC_U+30A4_U+30E4_U+30FC 1
 62
     7
420
 16777215
100
AcDbHatch
 10
0.0
 20
0.0
 30
0.0
210
0.0
220
0.0
230
1.0
  2
SOLID
 70
     1
 71
     0
 91
        2
 92
        1
 93
        1
 72
     4
 94
        3
 73
     0
 74
     1
 95
       44
 96
       40
 40
0.0
 40
0.0
 40
0.0
 40
0.0
 40
1.0
 40
1.0
 40
1.0
 40
2.0
 40
2.0
 40
2.0
 40
3.0
 40
3.0
 40
3.0
 40
4.0
 40
4.0
 40
4.0
 40
5.0
 40
5.0
 40
5.0
 40
6.0
 40
6.0
 40
6.0
 40
7.0
 40
7.0
 40
7.0
 40
8.0
 40
8.0
 40
8.0
 40
9.0
 40
9.0
 40
9.0
 40
10.0
 40
10.0
 40
10.0
 40
11.0
 40
11.0
 40
11.0
 40
12.0
 40
12.0
 40
12.0
 40
13.0
 40
13.0
 40
13.0
 40
13.0
 10
63.16634248637855
 20
-153.503119536277
 10
63.14291583707886
 20
-153.4586778045173
 10
63.12190075461884
 20
-153.4059678435929
 10
63.11966144255342
 20
-153.1751464460812
 10
63.11552732797112
 20
-152.9319227048226
 10
63.05627168562482
 20
-152.861987266472
 10
62.87850475858593
 20
-152.861987266472
 10
62.87850475858593
 20
-152.861987266472
 10
62.47026094358382
 20
-152.861987266472
 10
62.47026094358382
 20
-152.861987266472
 10
62.47026094358382
 20
-152.861987266472
 10
62.47026094358382
 20
-153.503119536277
 10
62.47026094358382
 20
-153.503119536277
 10
62.47026094358382
 20
-153.503119536277
 10
62.23547768626405
 20
-153.503119536277
 10
62.23547768626405
 20
-153.503119536277
 10
62.23547768626405
 20
-153.503119536277
 10
62.23547768626405
 20
-151.9586832302395
 10
62.23547768626405
 20
-151.9586832302395
 10
62.23547768626405
 20
-151.9586832302395
 10
62.9103718918245
 20
-151.9586832302395
 10
62.9103718918245
 20
-151.9586832302395
 10
63.21698539001173
 20
-151.9586832302395
 10
63.38407252104635
 20
-152.1302489854049
 10
63.38407252104635
 20
-152.386219579959
 10
63.38407252104635
 20
-152.4368624835922
 10
63.37563203710749
 20
-152.5195447752382
 10
63.33119030534776
 20
-152.5998155000445
 10
63.27210691777572
 20
-152.7035128741505
 10
63.20647784878172
 20
-152.7224608993194
 10
63.14515514914427
 20
-152.7393418671971
 10
63.28261445900574
 20
-152.7817165416657
 10
63.3503105852909
 20
-152.8302923880077
 10
63.35461695464746
 20
-153.1455186249081
 10
63.35875106922976
 20
-153.4163031300487
 10
63.39475231705062
 20
-153.447998008513
 10
63.46244844333578
 20
-153.503119536277
 10
63.46244844333578
 20
-153.503119536277
 10
63.16634248637855
 20
-153.503119536277
 10
63.16634248637855
 20
-153.503119536277
 97
        0
 97
        0
 92
        1
 93
        1
 72
     4
 94
        3
 73
     0
 74
     1
 95
       20
 96
       16
 40
0.0
 40
0.0
 40
0.0
 40
0.0
 40
1.0
 40
1.0
 40
1.0
 40
2.0
 40
2.0
 40
2.0
 40
3.0
 40
3.0
 40
3.0
 40
4.0
 40
4.0
 40
4.0
 40
5.0
 40
5.0
 40
5.0
 40
5.0
 10
62.9145060064068
 20
-152.1702120930339
 10
62.9145060064068
 20
-152.1702120930339
 10
62.47026094358382
 20
-152.1702120930339
 10
62.47026094358382
 20
-152.1702120930339
 10
62.47026094358382
 20
-152.1702120930339
 10
62.47026094358382
 20
-152.6504584036777
 10
62.47026094358382
 20
-152.6504584036777
 10
62.47026094358382
 20
-152.6504584036777
 10
62.91243894911565
 20
-152.6504584036777
 10
62.91243894911565
 20
-152.6504584036777
 10
63.0118299538651
 20
-152.6504584036777
 10
63.14722220643542
 20
-152.5743217934536
 10
63.14722220643542
 20
-152.4031005478367
 10
63.14722220643542
 20
-152.3248968803216
 10
63.11328801590571
 20
-152.1702120930339
 10
62.9145060064068
 20
-152.1702120930339
 97
        0
 97
        0
 75
     2
 76
     1
 98
        0
  0
SPLINE
  5
7D
330
76
100
AcDbEntity
  8
_U+30EC_U+30A4_U+30E4_U+30FC 1
370
     0
100
AcDbSpline
210
0.0
220
0.0
230
1.0
 70
    11
 71
     3
 72
    26
 73
    22
 74
     0
 42
0.0000000001
 43
0.0000000001
 12
1.0
 22
0.0
 32
0.0
 13
1.0
 23
0.0
 33
0.0
 40
0.0
 40
0.0
 40
0.0
 40
0.0
 40
1.0
 40
1.0
 40
1.0
 40
2.0
 40
2.0
 40
2.0
 40
3.0
 40
3.0
 40
3.0
 40
4.0
 40
4.0
 40
4.0
 40
5.0
 40
5.0
 40
5.0
 40
6.0
 40
6.0
 40
6.0
 40
7.0
 40
7.0
 40
7.0
 40
7.0
 10
64.0534545738304
 20
-153.503119536277
 30
0.0
 10
64.0534545738304
 20
-153.503119536277
 30
0.0
 10
64.0534545738304
 20
-152.3989664332544
 30
0.0
 10
64.0534545738304
 20
-152.3989664332544
 30
0.0
 10
64.0534545738304
 20
-152.3989664332544
 30
0.0
 10
63.72341442634345
 20
-152.3989664332544
 30
0.0
 10
63.72341442634345
 20
-152.3989664332544
 30
0.0
 10
63.72341442634345
 20
-152.3989664332544
 30
0.0
 10
63.72341442634345
 20
-152.2508273273887
 30
0.0
 10
63.72341442634345
 20
-152.2508273273887
 30
0.0
 10
64.05552163112154
 20
-152.2360134168021
 30
0.0
 10
64.10203042017241
 20
-152.0730604003498
 30
0.0
 10
64.13165824134556
 20
-151.9586832302395
 30
0.0
 10
64.13165824134556
 20
-151.9586832302395
 30
0.0
 10
64.27773028992016
 20
-151.9586832302395
 30
0.0
 10
64.27773028992016
 20
-151.9586832302395
 30
0.0
 10
64.27773028992016
 20
-151.9586832302395
 30
0.0
 10
64.27773028992016
 20
-153.503119536277
 30
0.0
 10
64.27773028992016
 20
-153.503119536277
 30
0.0
 10
64.27773028992016
 20
-153.503119536277
 30
0.0
 10
64.0534545738304
 20
-153.503119536277
 30
0.0
 10
64.0534545738304
 20
-153.503119536277
 30
0.0
  0
HATCH
  5
7E
330
76
100
AcDbEntity
  8
_U+30EC_U+30A4_U+30E4_U+30FC 1
 62
     7
420
 16777215
100
AcDbHatch
 10
0.0
 20
0.0
 30
0.0
210
0.0
220
0.0
230
1.0
  2
SOLID
 70
     1
 71
     0
 91
        1
 92
        1
 93
        1
 72
     4
 94
        3
 73
     0
 74
     1
 95
       26
 96
       22
 40
0.0
 40
0.0
 40
0.0
 40
0.0
 40
1.0
 40
1.0
 40
1.0
 40
2.0
 40
2.0
 40
2.0
 40
3.0
 40
3.0
 40
3.0
 40
4.0
 40
4.0
 40
4.0
 40
5.0
 40
5.0
 40
5.0
 40
6.0
 40
6.0
 40
6.0
 40
7.0
 40
7.0
 40
7.0
 40
7.0
 10
64.0534545738304
 20
-153.503119536277
 10
64.0534545738304
 20
-153.503119536277
 10
64.0534545738304
 20
-152.3989664332544
 10
64.0534545738304
 20
-152.3989664332544
 10
64.0534545738304
 20
-152.3989664332544
 10
63.72341442634345
 20
-152.3989664332544
 10
63.72341442634345
 20
-152.3989664332544
 10
63.72341442634345
 20
-152.3989664332544
 10
63.72341442634345
 20
-152.2508273273887
 10
63.72341442634345
 20
-152.2508273273887
 10
64.05552163112154
 20
-152.2360134168021
 10
64.10203042017241
 20
-152.0730604003498
 10
64.13165824134556
 20
-151.9586832302395
 10
64.13165824134556
 20
-151.9586832302395
 10
64.27773028992016
 20
-151.9586832302395
 10
64.27773028992016
 20
-151.9586832302395
 10
64.27773028992016
 20
-151.9586832302395
 10
64.27773028992016
 20
-153.503119536277
 10
64.27773028992016
 20
-153.503119536277
 10
64.27773028992016
 20
-153.503119536277
 10
64.0534545738304
 20
-153.503119536277
 10
64.0534545738304
 20
-153.503119536277
 97
        0
 97
        0
 75
     2
 76
     1
 98
        0
  0
ENDBLK
  5
79
330
76
100
AcDbEntity
  8
0
100
AcDbBlockEnd
  0
BLOCK
  5
8D
330
8B
100
AcDbEntity
  8
0
100
AcDbBlockBegin
  2
block 6
 70
     0
 10
0.0
 20
0.0
 30
0.0
  3
block 6
  1

  0
SPLINE
  5
8F
330
8B
100
AcDbEntity
  8
_U+30EC_U+30A4_U+30E4_U+30FC 1
370
     0
100
AcDbSpline
210
0.0
220
0.0
230
1.0
 70
    11
 71
     3
 72
    26
 73
    22
 74
     0
 42
0.0000000001
 43
0.0000000001
 12
1.0
 22
0.0
 32
0.0
 13
1.0
 23
0.0
 33
0.0
 40
0.0
 40
0.0
 40
0.0
 40
0.0
 40
1.0
 40
1.0
 40
1.0
 40
2.0
 40
2.0
 40
2.0
 40
3.0
 40
3.0
 40
3.0
 40
4.0
 40
4.0
 40
4.0
 40
5.0
 40
5.0
 40
5.0
 40
6.0
 40
6.0
 40
6.0
 40
7.0
 40
7.0
 40
7.0
 40
7.0
 10
119.7274033988876
 20
-141.1493516357196
 30
0.0
 10
119.7274033988876
 20
-141.1493516357196
 30
0.0
 10
118.6229057863165
 20
-141.1493516357196
 30
0.0
 10
118.6229057863165
 20
-141.1493516357196
 30
0.0
 10
118.6229057863165
 20
-141.1493516357196
 30
0.0
 10
118.6229057863165
 20
-141.4793917832066
 30
0.0
 10
118.6229057863165
 20
-141.4793917832066
 30
0.0
 10
118.6229057863165
 20
-141.4793917832066
 30
0.0
 10
118.4747666804508
 20
-141.4793917832066
 30
0.0
 10
118.4747666804508
 20
-141.4793917832066
 30
0.0
 10
118.4602972794127
 20
-141.1472845784285
 30
0.0
 10
118.2969997534119
 20
-141.1007757893776
 30
0.0
 10
118.1826225833016
 20
-141.0711479682044
 30
0.0
 10
118.1826225833016
 20
-141.0711479682044
 30
0.0
 10
118.1826225833016
 20
-140.9250759196298
 30
0.0
 10
118.1826225833016
 20
-140.9250759196298
 30
0.0
 10
118.1826225833016
 20
-140.9250759196298
 30
0.0
 10
119.7274033988876
 20
-140.9250759196298
 30
0.0
 10
119.7274033988876
 20
-140.9250759196298
 30
0.0
 10
119.7274033988876
 20
-140.9250759196298
 30
0.0
 10
119.7274033988876
 20
-141.1493516357196
 30
0.0
 10
119.7274033988876
 20
-141.1493516357196
 30
0.0
  0
HATCH
  5
90
330
8B
100
AcDbEntity
  8
_U+30EC_U+30A4_U+30E4_U+30FC 1
 62
     7
420
 16777215
100
AcDbHatch
 10
0.0
 20
0.0
 30
0.0
210
0.0
220
0.0
230
1.0
  2
SOLID
 70
     1
 71
     0
 91
        1
 92
        1
 93
        1
 72
     4
 94
        3
 73
     0
 74
     1
 95
       26
 96
       22
 40
0.0
 40
0.0
 40
0.0
 40
0.0
 40
1.0
 40
1.0
 40
1.0
 40
2.0
 40
2.0
 40
2.0
 40
3.0
 40
3.0
 40
3.0
 40
4.0
 40
4.0
 40
4.0
 40
5.0
 40
5.0
 40
5.0
 40
6.0
 40
6.0
 40
6.0
 40
7.0
 40
7.0
 40
7.0
 40
7.0
 10
119.7274033988876
 20
-141.1493516357196
 10
119.7274033988876
 20
-141.1493516357196
 10
118.6229057863165
 20
-141.1493516357196
 10
118.6229057863165
 20
-141.1493516357196
 10
118.6229057863165
 20
-141.1493516357196
 10
118.6229057863165
 20
-141.4793917832066
 10
118.6229057863165
 20
-141.4793917832066
 10
118.6229057863165
 20
-141.4793917832066
 10
118.4747666804508
 20
-141.4793917832066
 10
118.4747666804508
 20
-141.4793917832066
 10
118.4602972794127
 20
-141.1472845784285
 10
118.2969997534119
 20
-141.1007757893776
 10
118.1826225833016
 20
-141.0711479682044
 10
118.1826225833016
 20
-141.0711479682044
 10
118.1826225833016
 20
-140.9250759196298
 10
118.1826225833016
 20
-140.9250759196298
 10
118.1826225833016
 20
-140.9250759196298
 10
119.7274033988876
 20
-140.9250759196298
 10
119.7274033988876
 20
-140.9250759196298
 10
119.7274033988876
 20
-140.9250759196298
 10
119.7274033988876
 20
-141.1493516357196
 10
119.7274033988876
 20
-141.1493516357196
 97
        0
 97
        0
 75
     2
 76
     1
 98
        0
  0
SPLINE
  5
91
330
8B
100
AcDbEntity
  8
_U+30EC_U+30A4_U+30E4_U+30FC 1
370
     0
100
AcDbSpline
210
0.0
220
0.0
230
1.0
 70
    11
 71
     3
 72
    53
 73
    49
 74
     0
 42
0.0000000001
 43
0.0000000001
 12
1.0
 22
0.0
 32
0.0
 13
1.0
 23
0.0
 33
0.0
 40
0.0
 40
0.0
 40
0.0
 40
0.0
 40
1.0
 40
1.0
 40
1.0
 40
2.0
 40
2.0
 40
2.0
 40
3.0
 40
3.0
 40
3.0
 40
4.0
 40
4.0
 40
4.0
 40
5.0
 40
5.0
 40
5.0
 40
6.0
 40
6.0
 40
6.0
 40
7.0
 40
7.0
 40
7.0
 40
8.0
 40
8.0
 40
8.0
 40
9.0
 40
9.0
 40
9.0
 40
10.0
 40
10.0
 40
10.0
 40
11.0
 40
11.0
 40
11.0
 40
12.0
 40
12.0
 40
12.0
 40
13.0
 40
13.0
 40
13.0
 40
14.0
 40
14.0
 40
14.0
 40
15.0
 40
15.0
 40
15.0
 40
16.0
 40
16.0
 40
16.0
 40
16.0
 10
119.7777017929723
 20
-139.9428791967851
 30
0.0
 10
119.7777017929723
 20
-140.0210828643003
 30
0.0
 10
119.7611653346431
 20
-140.1227131811152
 30
0.0
 10
119.6977755777145
 20
-140.22434349793
 30
0.0
 10
119.5875325221865
 20
-140.3976318008381
 30
0.0
 10
119.456618893747
 20
-140.4189913928466
 30
0.0
 10
119.3484428955101
 20
-140.4379394180155
 30
0.0
 10
119.3484428955101
 20
-140.4379394180155
 30
0.0
 10
119.3484428955101
 20
-140.2157307592169
 30
0.0
 10
119.3484428955101
 20
-140.2157307592169
 30
0.0
 10
119.5475694145576
 20
-140.1609537410014
 30
0.0
 10
119.5771972357307
 20
-140.0338297175957
 30
0.0
 10
119.5771972357307
 20
-139.940812139494
 30
0.0
 10
119.5771972357307
 20
-139.8012857723413
 30
0.0
 10
119.4772894666585
 20
-139.6490125518933
 30
0.0
 10
119.2450900309526
 20
-139.6490125518933
 30
0.0
 10
118.98877492685
 20
-139.6490125518933
 30
0.0
 10
118.919183998048
 20
-139.8288465362234
 30
0.0
 10
118.919183998048
 20
-139.9494248782071
 30
0.0
 10
118.919183998048
 20
-139.9811197566714
 30
0.0
 10
118.919183998048
 20
-140.1227131811152
 30
0.0
 10
119.0480305691963
 20
-140.2115966446346
 30
0.0
 10
119.0480305691963
 20
-140.2115966446346
 30
0.0
 10
119.029427053576
 20
-140.3872965143823
 30
0.0
 10
119.029427053576
 20
-140.3872965143823
 30
0.0
 10
119.029427053576
 20
-140.3872965143823
 30
0.0
 10
118.1826225833016
 20
-140.2667181723986
 30
0.0
 10
118.1826225833016
 20
-140.2667181723986
 30
0.0
 10
118.1826225833016
 20
-140.2667181723986
 30
0.0
 10
118.1826225833016
 20
-139.4881265927321
 30
0.0
 10
118.1826225833016
 20
-139.4881265927321
 30
0.0
 10
118.1826225833016
 20
-139.4881265927321
 30
0.0
 10
118.3776149877667
 20
-139.4881265927321
 30
0.0
 10
118.3776149877667
 20
-139.4881265927321
 30
0.0
 10
118.3776149877667
 20
-139.4881265927321
 30
0.0
 10
118.3776149877667
 20
-140.1037651559463
 30
0.0
 10
118.3776149877667
 20
-140.1037651559463
 30
0.0
 10
118.3776149877667
 20
-140.1037651559463
 30
0.0
 10
118.8006727133554
 20
-140.169221970166
 30
0.0
 10
118.8006727133554
 20
-140.169221970166
 30
0.0
 10
118.7669107775999
 20
-140.1078992705286
 30
0.0
 10
118.726258650874
 20
-140.0255614884311
 30
0.0
 10
118.726258650874
 20
-139.9070502037385
 30
0.0
 10
118.726258650874
 20
-139.6531466664756
 30
0.0
 10
118.9129828261745
 20
-139.4161240970904
 30
0.0
 10
119.2257974962352
 20
-139.4161240970904
 30
0.0
 10
119.5434352999753
 20
-139.4161240970904
 30
0.0
 10
119.7777017929723
 20
-139.6403998131802
 30
0.0
 10
119.7777017929723
 20
-139.9428791967851
 30
0.0
  0
HATCH
  5
92
330
8B
100
AcDbEntity
  8
_U+30EC_U+30A4_U+30E4_U+30FC 1
 62
     7
420
 16777215
100
AcDbHatch
 10
0.0
 20
0.0
 30
0.0
210
0.0
220
0.0
230
1.0
  2
SOLID
 70
     1
 71
     0
 91
        1
 92
        1
 93
        1
 72
     4
 94
        3
 73
     0
 74
     1
 95
       53
 96
       49
 40
0.0
 40
0.0
 40
0.0
 40
0.0
 40
1.0
 40
1.0
 40
1.0
 40
2.0
 40
2.0
 40
2.0
 40
3.0
 40
3.0
 40
3.0
 40
4.0
 40
4.0
 40
4.0
 40
5.0
 40
5.0
 40
5.0
 40
6.0
 40
6.0
 40
6.0
 40
7.0
 40
7.0
 40
7.0
 40
8.0
 40
8.0
 40
8.0
 40
9.0
 40
9.0
 40
9.0
 40
10.0
 40
10.0
 40
10.0
 40
11.0
 40
11.0
 40
11.0
 40
12.0
 40
12.0
 40
12.0
 40
13.0
 40
13.0
 40
13.0
 40
14.0
 40
14.0
 40
14.0
 40
15.0
 40
15.0
 40
15.0
 40
16.0
 40
16.0
 40
16.0
 40
16.0
 10
119.7777017929723
 20
-139.9428791967851
 10
119.7777017929723
 20
-140.0210828643003
 10
119.7611653346431
 20
-140.1227131811152
 10
119.6977755777145
 20
-140.22434349793
 10
119.5875325221865
 20
-140.3976318008381
 10
119.456618893747
 20
-140.4189913928466
 10
119.3484428955101
 20
-140.4379394180155
 10
119.3484428955101
 20
-140.4379394180155
 10
119.3484428955101
 20
-140.2157307592169
 10
119.3484428955101
 20
-140.2157307592169
 10
119.5475694145576
 20
-140.1609537410014
 10
119.5771972357307
 20
-140.0338297175957
 10
119.5771972357307
 20
-139.940812139494
 10
119.5771972357307
 20
-139.8012857723413
 10
119.4772894666585
 20
-139.6490125518933
 10
119.2450900309526
 20
-139.6490125518933
 10
118.98877492685
 20
-139.6490125518933
 10
118.919183998048
 20
-139.8288465362234
 10
118.919183998048
 20
-139.9494248782071
 10
118.919183998048
 20
-139.9811197566714
 10
118.919183998048
 20
-140.1227131811152
 10
119.0480305691963
 20
-140.2115966446346
 10
119.0480305691963
 20
-140.2115966446346
 10
119.029427053576
 20
-140.3872965143823
 10
119.029427053576
 20
-140.3872965143823
 10
119.029427053576
 20
-140.3872965143823
 10
118.1826225833016
 20
-140.2667181723986
 10
118.1826225833016
 20
-140.2667181723986
 10
118.1826225833016
 20
-140.2667181723986
 10
118.1826225833016
 20
-139.4881265927321
 10
118.1826225833016
 20
-139.4881265927321
 10
118.1826225833016
 20
-139.4881265927321
 10
118.3776149877667
 20
-139.4881265927321
 10
118.3776149877667
 20
-139.4881265927321
 10
118.3776149877667
 20
-139.4881265927321
 10
118.3776149877667
 20
-140.1037651559463
 10
118.3776149877667
 20
-140.1037651559463
 10
118.3776149877667
 20
-140.1037651559463
 10
118.8006727133554
 20
-140.169221970166
 10
118.8006727133554
 20
-140.169221970166
 10
118.7669107775999
 20
-140.1078992705286
 10
118.726258650874
 20
-140.0255614884311
 10
118.726258650874
 20
-139.9070502037385
 10
118.726258650874
 20
-139.6531466664756
 10
118.9129828261745
 20
-139.4161240970904
 10
119.2257974962352
 20
-139.4161240970904
 10
119.5434352999753
 20
-139.4161240970904
 10
119.7777017929723
 20
-139.6403998131802
 10
119.7777017929723
 20
-139.9428791967851
 97
        0
 97
        0
 75
     2
 76
     1
 98
        0
  0
POLYLINE
  5
93
330
8B
100
AcDbEntity
  8
_U+30EC_U+30A4_U+30E4_U+30FC 1
370
     0
100
AcDb2dPolyline
 66
     1
 10
0.0
 20
0.0
 30
0.0
  0
VERTEX
  5
94
330
93
100
AcDbEntity
  8
_U+30EC_U+30A4_U+30E4_U+30FC 1
370
     0
100
AcDbVertex
100
AcDb2dVertex
 10
119.7274033988876
 20
-139.1870252473213
 30
0.0
  0
VERTEX
  5
95
330
93
100
AcDbEntity
  8
_U+30EC_U+30A4_U+30E4_U+30FC 1
370
     0
100
AcDbVertex
100
AcDb2dVertex
 10
119.4752224093673
 20
-139.1870252473213
 30
0.0
  0
VERTEX
  5
96
330
93
100
AcDbEntity
  8
_U+30EC_U+30A4_U+30E4_U+30FC 1
370
     0
100
AcDbVertex
100
AcDb2dVertex
 10
119.4752224093673
 20
-138.9351887673495
 30
0.0
  0
VERTEX
  5
97
330
93
100
AcDbEntity
  8
_U+30EC_U+30A4_U+30E4_U+30FC 1
370
     0
100
AcDbVertex
100
AcDb2dVertex
 10
119.7274033988876
 20
-138.9351887673495
 30
0.0
  0
VERTEX
  5
98
330
93
100
AcDbEntity
  8
_U+30EC_U+30A4_U+30E4_U+30FC 1
370
     0
100
AcDbVertex
100
AcDb2dVertex
 10
119.7274033988876
 20
-139.1870252473213
 30
0.0
  0
SEQEND
  5
99
330
93
100
AcDbEntity
  8
_U+30EC_U+30A4_U+30E4_U+30FC 1
370
     0
  0
HATCH
  5
9A
330
8B
100
AcDbEntity
  8
_U+30EC_U+30A4_U+30E4_U+30FC 1
 62
     7
420
 16777215
100
AcDbHatch
 10
0.0
 20
0.0
 30
0.0
210
0.0
220
0.0
230
1.0
  2
SOLID
 70
     1
 71
     0
 91
        1
 92
        1
 93
        4
 72
     1
 10
119.7274033988876
 20
-139.1870252473213
 11
119.4752224093673
 21
-139.1870252473213
 72
     1
 10
119.4752224093673
 20
-139.1870252473213
 11
119.4752224093673
 21
-138.9351887673495
 72
     1
 10
119.4752224093673
 20
-138.9351887673495
 11
119.7274033988876
 21
-138.9351887673495
 72
     1
 10
119.7274033988876
 20
-138.9351887673495
 11
119.7274033988876
 21
-139.1870252473213
 97
        0
 75
     2
 76
     1
 98
        0
  0
SPLINE
  5
9B
330
8B
100
AcDbEntity
  8
_U+30EC_U+30A4_U+30E4_U+30FC 1
370
     0
100
AcDbSpline
210
0.0
220
0.0
230
1.0
 70
    11
 71
     3
 72
    53
 73
    49
 74
     0
 42
0.0000000001
 43
0.0000000001
 12
1.0
 22
0.0
 32
0.0
 13
1.0
 23
0.0
 33
0.0
 40
0.0
 40
0.0
 40
0.0
 40
0.0
 40
1.0
 40
1.0
 40
1.0
 40
2.0
 40
2.0
 40
2.0
 40
3.0
 40
3.0
 40
3.0
 40
4.0
 40
4.0
 40
4.0
 40
5.0
 40
5.0
 40
5.0
 40
6.0
 40
6.0
 40
6.0
 40
7.0
 40
7.0
 40
7.0
 40
8.0
 40
8.0
 40
8.0
 40
9.0
 40
9.0
 40
9.0
 40
10.0
 40
10.0
 40
10.0
 40
11.0
 40
11.0
 40
11.0
 40
12.0
 40
12.0
 40
12.0
 40
13.0
 40
13.0
 40
13.0
 40
14.0
 40
14.0
 40
14.0
 40
15.0
 40
15.0
 40
15.0
 40
16.0
 40
16.0
 40
16.0
 40
16.0
 10
119.7777017929723
 20
-138.2179198873205
 30
0.0
 10
119.7777017929723
 20
-138.2961235548357
 30
0.0
 10
119.7611653346431
 20
-138.3977538716506
 30
0.0
 10
119.6977755777145
 20
-138.4993841884654
 30
0.0
 10
119.5875325221865
 20
-138.6726724913735
 30
0.0
 10
119.456618893747
 20
-138.694032083382
 30
0.0
 10
119.3484428955101
 20
-138.7129801085509
 30
0.0
 10
119.3484428955101
 20
-138.7129801085509
 30
0.0
 10
119.3484428955101
 20
-138.4907714497523
 30
0.0
 10
119.3484428955101
 20
-138.4907714497523
 30
0.0
 10
119.5475694145576
 20
-138.4359944315368
 30
0.0
 10
119.5771972357307
 20
-138.3088704081311
 30
0.0
 10
119.5771972357307
 20
-138.2158528300294
 30
0.0
 10
119.5771972357307
 20
-138.0763264628768
 30
0.0
 10
119.4772894666585
 20
-137.9240532424287
 30
0.0
 10
119.2450900309526
 20
-137.9240532424287
 30
0.0
 10
118.98877492685
 20
-137.9240532424287
 30
0.0
 10
118.919183998048
 20
-138.1038872267588
 30
0.0
 10
118.919183998048
 20
-138.2244655687425
 30
0.0
 10
118.919183998048
 20
-138.2561604472068
 30
0.0
 10
118.919183998048
 20
-138.3977538716506
 30
0.0
 10
119.0480305691963
 20
-138.48663733517
 30
0.0
 10
119.0480305691963
 20
-138.48663733517
 30
0.0
 10
119.029427053576
 20
-138.6623372049177
 30
0.0
 10
119.029427053576
 20
-138.6623372049177
 30
0.0
 10
119.029427053576
 20
-138.6623372049177
 30
0.0
 10
118.1826225833016
 20
-138.541758862934
 30
0.0
 10
118.1826225833016
 20
-138.541758862934
 30
0.0
 10
118.1826225833016
 20
-138.541758862934
 30
0.0
 10
118.1826225833016
 20
-137.7631672832675
 30
0.0
 10
118.1826225833016
 20
-137.7631672832675
 30
0.0
 10
118.1826225833016
 20
-137.7631672832675
 30
0.0
 10
118.3776149877667
 20
-137.7631672832675
 30
0.0
 10
118.3776149877667
 20
-137.7631672832675
 30
0.0
 10
118.3776149877667
 20
-137.7631672832675
 30
0.0
 10
118.3776149877667
 20
-138.3788058464817
 30
0.0
 10
118.3776149877667
 20
-138.3788058464817
 30
0.0
 10
118.3776149877667
 20
-138.3788058464817
 30
0.0
 10
118.8006727133554
 20
-138.4442626607014
 30
0.0
 10
118.8006727133554
 20
-138.4442626607014
 30
0.0
 10
118.7669107775999
 20
-138.382939961064
 30
0.0
 10
118.726258650874
 20
-138.3006021789665
 30
0.0
 10
118.726258650874
 20
-138.1820908942739
 30
0.0
 10
118.726258650874
 20
-137.928187357011
 30
0.0
 10
118.9129828261745
 20
-137.6911647876258
 30
0.0
 10
119.2257974962352
 20
-137.6911647876258
 30
0.0
 10
119.5434352999753
 20
-137.6911647876258
 30
0.0
 10
119.7777017929723
 20
-137.9154405037156
 30
0.0
 10
119.7777017929723
 20
-138.2179198873205
 30
0.0
  0
HATCH
  5
9C
330
8B
100
AcDbEntity
  8
_U+30EC_U+30A4_U+30E4_U+30FC 1
 62
     7
420
 16777215
100
AcDbHatch
 10
0.0
 20
0.0
 30
0.0
210
0.0
220
0.0
230
1.0
  2
SOLID
 70
     1
 71
     0
 91
        1
 92
        1
 93
        1
 72
     4
 94
        3
 73
     0
 74
     1
 95
       53
 96
       49
 40
0.0
 40
0.0
 40
0.0
 40
0.0
 40
1.0
 40
1.0
 40
1.0
 40
2.0
 40
2.0
 40
2.0
 40
3.0
 40
3.0
 40
3.0
 40
4.0
 40
4.0
 40
4.0
 40
5.0
 40
5.0
 40
5.0
 40
6.0
 40
6.0
 40
6.0
 40
7.0
 40
7.0
 40
7.0
 40
8.0
 40
8.0
 40
8.0
 40
9.0
 40
9.0
 40
9.0
 40
10.0
 40
10.0
 40
10.0
 40
11.0
 40
11.0
 40
11.0
 40
12.0
 40
12.0
 40
12.0
 40
13.0
 40
13.0
 40
13.0
 40
14.0
 40
14.0
 40
14.0
 40
15.0
 40
15.0
 40
15.0
 40
16.0
 40
16.0
 40
16.0
 40
16.0
 10
119.7777017929723
 20
-138.2179198873205
 10
119.7777017929723
 20
-138.2961235548357
 10
119.7611653346431
 20
-138.3977538716506
 10
119.6977755777145
 20
-138.4993841884654
 10
119.5875325221865
 20
-138.6726724913735
 10
119.456618893747
 20
-138.694032083382
 10
119.3484428955101
 20
-138.7129801085509
 10
119.3484428955101
 20
-138.7129801085509
 10
119.3484428955101
 20
-138.4907714497523
 10
119.3484428955101
 20
-138.4907714497523
 10
119.5475694145576
 20
-138.4359944315368
 10
119.5771972357307
 20
-138.3088704081311
 10
119.5771972357307
 20
-138.2158528300294
 10
119.5771972357307
 20
-138.0763264628768
 10
119.4772894666585
 20
-137.9240532424287
 10
119.2450900309526
 20
-137.9240532424287
 10
118.98877492685
 20
-137.9240532424287
 10
118.919183998048
 20
-138.1038872267588
 10
118.919183998048
 20
-138.2244655687425
 10
118.919183998048
 20
-138.2561604472068
 10
118.919183998048
 20
-138.3977538716506
 10
119.0480305691963
 20
-138.48663733517
 10
119.0480305691963
 20
-138.48663733517
 10
119.029427053576
 20
-138.6623372049177
 10
119.029427053576
 20
-138.6623372049177
 10
119.029427053576
 20
-138.6623372049177
 10
118.1826225833016
 20
-138.541758862934
 10
118.1826225833016
 20
-138.541758862934
 10
118.1826225833016
 20
-138.541758862934
 10
118.1826225833016
 20
-137.7631672832675
 10
118.1826225833016
 20
-137.7631672832675
 10
118.1826225833016
 20
-137.7631672832675
 10
118.3776149877667
 20
-137.7631672832675
 10
118.3776149877667
 20
-137.7631672832675
 10
118.3776149877667
 20
-137.7631672832675
 10
118.3776149877667
 20
-138.3788058464817
 10
118.3776149877667
 20
-138.3788058464817
 10
118.3776149877667
 20
-138.3788058464817
 10
118.8006727133554
 20
-138.4442626607014
 10
118.8006727133554
 20
-138.4442626607014
 10
118.7669107775999
 20
-138.382939961064
 10
118.726258650874
 20
-138.3006021789665
 10
118.726258650874
 20
-138.1820908942739
 10
118.726258650874
 20
-137.928187357011
 10
118.9129828261745
 20
-137.6911647876258
 10
119.2257974962352
 20
-137.6911647876258
 10
119.5434352999753
 20
-137.6911647876258
 10
119.7777017929723
 20
-137.9154405037156
 10
119.7777017929723
 20
-138.2179198873205
 97
        0
 97
        0
 75
     2
 76
     1
 98
        0
  0
ENDBLK
  5
8E
330
8B
100
AcDbEntity
  8
0
100
AcDbBlockEnd
  0
BLOCK
  5
9F
330
9D
100
AcDbEntity
  8
0
100
AcDbBlockBegin
  2
block 7
 70
     0
 10
0.0
 20
0.0
 30
0.0
  3
block 7
  1

  0
SPLINE
  5
A1
330
9D
100
AcDbEntity
  8
_U+30EC_U+30A4_U+30E4_U+30FC 1
370
     0
100
AcDbSpline
210
0.0
220
0.0
230
1.0
 70
    11
 71
     3
 72
    32
 73
    28
 74
     0
 42
0.0000000001
 43
0.0000000001
 12
1.0
 22
0.0
 32
0.0
 13
1.0
 23
0.0
 33
0.0
 40
0.0
 40
0.0
 40
0.0
 40
0.0
 40
1.0
 40
1.0
 40
1.0
 40
2.0
 40
2.0
 40
2.0
 40
3.0
 40
3.0
 40
3.0
 40
4.0
 40
4.0
 40
4.0
 40
5.0
 40
5.0
 40
5.0
 40
6.0
 40
6.0
 40
6.0
 40
7.0
 40
7.0
 40
7.0
 40
8.0
 40
8.0
 40
8.0
 40
9.0
 40
9.0
 40
9.0
 40
9.0
 10
116.4855685472675
 20
-144.5637857711507
 30
0.0
 10
116.4855685472675
 20
-145.0798610748411
 30
0.0
 10
115.9315971932393
 20
-145.0881293040057
 30
0.0
 10
115.7176567636053
 20
-145.0881293040057
 30
0.0
 10
115.4871798756421
 20
-145.0881293040057
 30
0.0
 10
114.8398464339637
 20
-145.0691812788369
 30
0.0
 10
114.8398464339637
 20
-144.5255452112644
 30
0.0
 10
114.8398464339637
 20
-144.3522569083564
 30
0.0
 10
114.9097818723142
 20
-144.1066216002581
 30
0.0
 10
115.2418890770923
 20
-144.0687255499203
 30
0.0
 10
115.2418890770923
 20
-144.0687255499203
 30
0.0
 10
115.2418890770923
 20
-144.2823214700058
 30
0.0
 10
115.2418890770923
 20
-144.2823214700058
 30
0.0
 10
115.1847004920372
 20
-144.2930012660101
 30
0.0
 10
115.0365613861714
 20
-144.3246961444744
 30
0.0
 10
115.0365613861714
 20
-144.5276122685556
 30
0.0
 10
115.0365613861714
 20
-144.8197563657048
 30
0.0
 10
115.3645344763672
 20
-144.8597194733337
 30
0.0
 10
115.5695176577396
 20
-144.8724663266291
 30
0.0
 10
115.4913139902244
 20
-144.7794487485274
 30
0.0
 10
115.4320583478781
 20
-144.7115803674679
 30
0.0
 10
115.4320583478781
 20
-144.5296793258468
 30
0.0
 10
115.4320583478781
 20
-144.3498453415167
 30
0.0
 10
115.5402343461149
 20
-144.0473659579118
 30
0.0
 10
115.9464111038259
 20
-144.0473659579118
 30
0.0
 10
116.2657714553086
 20
-144.0473659579118
 30
0.0
 10
116.4855685472675
 20
-144.2464924769592
 30
0.0
 10
116.4855685472675
 20
-144.5637857711507
 30
0.0
  0
SPLINE
  5
A2
330
9D
100
AcDbEntity
  8
_U+30EC_U+30A4_U+30E4_U+30FC 1
370
     0
100
AcDbSpline
210
0.0
220
0.0
230
1.0
 70
    11
 71
     3
 72
    17
 73
    13
 74
     0
 42
0.0000000001
 43
0.0000000001
 12
1.0
 22
0.0
 32
0.0
 13
1.0
 23
0.0
 33
0.0
 40
0.0
 40
0.0
 40
0.0
 40
0.0
 40
1.0
 40
1.0
 40
1.0
 40
2.0
 40
2.0
 40
2.0
 40
3.0
 40
3.0
 40
3.0
 40
4.0
 40
4.0
 40
4.0
 40
4.0
 10
115.6267062427947
 20
-144.5465602937245
 30
0.0
 10
115.6267062427947
 20
-144.8090765697005
 30
0.0
 10
115.8382351055891
 20
-144.8469726200383
 30
0.0
 10
115.9546793329905
 20
-144.8469726200383
 30
0.0
 10
116.1303792027382
 20
-144.8469726200383
 30
0.0
 10
116.2933322191906
 20
-144.7518879846454
 30
0.0
 10
116.2933322191906
 20
-144.567919885733
 30
0.0
 10
116.2933322191906
 20
-144.4473415437493
 30
0.0
 10
116.2340765768443
 20
-144.2716416740015
 30
0.0
 10
115.9484781611171
 20
-144.2716416740015
 30
0.0
 10
115.7242024450273
 20
-144.2716416740015
 30
0.0
 10
115.6267062427947
 20
-144.4115125507027
 30
0.0
 10
115.6267062427947
 20
-144.5465602937245
 30
0.0
  0
HATCH
  5
A3
330
9D
100
AcDbEntity
  8
_U+30EC_U+30A4_U+30E4_U+30FC 1
 62
     7
420
 16777215
100
AcDbHatch
 10
0.0
 20
0.0
 30
0.0
210
0.0
220
0.0
230
1.0
  2
SOLID
 70
     1
 71
     0
 91
        2
 92
        1
 93
        1
 72
     4
 94
        3
 73
     0
 74
     1
 95
       32
 96
       28
 40
0.0
 40
0.0
 40
0.0
 40
0.0
 40
1.0
 40
1.0
 40
1.0
 40
2.0
 40
2.0
 40
2.0
 40
3.0
 40
3.0
 40
3.0
 40
4.0
 40
4.0
 40
4.0
 40
5.0
 40
5.0
 40
5.0
 40
6.0
 40
6.0
 40
6.0
 40
7.0
 40
7.0
 40
7.0
 40
8.0
 40
8.0
 40
8.0
 40
9.0
 40
9.0
 40
9.0
 40
9.0
 10
116.4855685472675
 20
-144.5637857711507
 10
116.4855685472675
 20
-145.0798610748411
 10
115.9315971932393
 20
-145.0881293040057
 10
115.7176567636053
 20
-145.0881293040057
 10
115.4871798756421
 20
-145.0881293040057
 10
114.8398464339637
 20
-145.0691812788369
 10
114.8398464339637
 20
-144.5255452112644
 10
114.8398464339637
 20
-144.3522569083564
 10
114.9097818723142
 20
-144.1066216002581
 10
115.2418890770923
 20
-144.0687255499203
 10
115.2418890770923
 20
-144.0687255499203
 10
115.2418890770923
 20
-144.2823214700058
 10
115.2418890770923
 20
-144.2823214700058
 10
115.1847004920372
 20
-144.2930012660101
 10
115.0365613861714
 20
-144.3246961444744
 10
115.0365613861714
 20
-144.5276122685556
 10
115.0365613861714
 20
-144.8197563657048
 10
115.3645344763672
 20
-144.8597194733337
 10
115.5695176577396
 20
-144.8724663266291
 10
115.4913139902244
 20
-144.7794487485274
 10
115.4320583478781
 20
-144.7115803674679
 10
115.4320583478781
 20
-144.5296793258468
 10
115.4320583478781
 20
-144.3498453415167
 10
115.5402343461149
 20
-144.0473659579118
 10
115.9464111038259
 20
-144.0473659579118
 10
116.2657714553086
 20
-144.0473659579118
 10
116.4855685472675
 20
-144.2464924769592
 10
116.4855685472675
 20
-144.5637857711507
 97
        0
 97
        0
 92
        1
 93
        1
 72
     4
 94
        3
 73
     0
 74
     1
 95
       17
 96
       13
 40
0.0
 40
0.0
 40
0.0
 40
0.0
 40
1.0
 40
1.0
 40
1.0
 40
2.0
 40
2.0
 40
2.0
 40
3.0
 40
3.0
 40
3.0
 40
4.0
 40
4.0
 40
4.0
 40
4.0
 10
115.6267062427947
 20
-144.5465602937245
 10
115.6267062427947
 20
-144.8090765697005
 10
115.8382351055891
 20
-144.8469726200383
 10
115.9546793329905
 20
-144.8469726200383
 10
116.1303792027382
 20
-144.8469726200383
 10
116.2933322191906
 20
-144.7518879846454
 10
116.2933322191906
 20
-144.567919885733
 10
116.2933322191906
 20
-144.4473415437493
 10
116.2340765768443
 20
-144.2716416740015
 10
115.9484781611171
 20
-144.2716416740015
 10
115.7242024450273
 20
-144.2716416740015
 10
115.6267062427947
 20
-144.4115125507027
 10
115.6267062427947
 20
-144.5465602937245
 97
        0
 97
        0
 75
     2
 76
     1
 98
        0
  0
ENDBLK
  5
A0
330
9D
100
AcDbEntity
  8
0
100
AcDbBlockEnd
  0
BLOCK
  5
A6
330
A4
100
AcDbEntity
  8
0
100
AcDbBlockBegin
  2
block 8
 70
     0
 10
0.0
 20
0.0
 30
0.0
  3
block 8
  1

  0
SPLINE
  5
A8
330
A4
100
AcDbEntity
  8
_U+30EC_U+30A4_U+30E4_U+30FC 1
370
     0
100
AcDbSpline
210
0.0
220
0.0
230
1.0
 70
    11
 71
     3
 72
    26
 73
    22
 74
     0
 42
0.0000000001
 43
0.0000000001
 12
1.0
 22
0.0
 32
0.0
 13
1.0
 23
0.0
 33
0.0
 40
0.0
 40
0.0
 40
0.0
 40
0.0
 40
1.0
 40
1.0
 40
1.0
 40
2.0
 40
2.0
 40
2.0
 40
3.0
 40
3.0
 40
3.0
 40
4.0
 40
4.0
 40
4.0
 40
5.0
 40
5.0
 40
5.0
 40
6.0
 40
6.0
 40
6.0
 40
7.0
 40
7.0
 40
7.0
 40
7.0
 10
119.7274033988876
 20
-129.729893630762
 30
0.0
 10
119.7274033988876
 20
-129.729893630762
 30
0.0
 10
118.6229057863165
 20
-129.729893630762
 30
0.0
 10
118.6229057863165
 20
-129.729893630762
 30
0.0
 10
118.6229057863165
 20
-129.729893630762
 30
0.0
 10
118.6229057863165
 20
-130.0599337782489
 30
0.0
 10
118.6229057863165
 20
-130.0599337782489
 30
0.0
 10
118.6229057863165
 20
-130.0599337782489
 30
0.0
 10
118.4747666804508
 20
-130.0599337782489
 30
0.0
 10
118.4747666804508
 20
-130.0599337782489
 30
0.0
 10
118.4602972794127
 20
-129.7278265734708
 30
0.0
 10
118.2969997534119
 20
-129.6813177844199
 30
0.0
 10
118.1826225833016
 20
-129.6516899632468
 30
0.0
 10
118.1826225833016
 20
-129.6516899632468
 30
0.0
 10
118.1826225833016
 20
-129.5056179146722
 30
0.0
 10
118.1826225833016
 20
-129.5056179146722
 30
0.0
 10
118.1826225833016
 20
-129.5056179146722
 30
0.0
 10
119.7274033988876
 20
-129.5056179146722
 30
0.0
 10
119.7274033988876
 20
-129.5056179146722
 30
0.0
 10
119.7274033988876
 20
-129.5056179146722
 30
0.0
 10
119.7274033988876
 20
-129.729893630762
 30
0.0
 10
119.7274033988876
 20
-129.729893630762
 30
0.0
  0
HATCH
  5
A9
330
A4
100
AcDbEntity
  8
_U+30EC_U+30A4_U+30E4_U+30FC 1
 62
     7
420
 16777215
100
AcDbHatch
 10
0.0
 20
0.0
 30
0.0
210
0.0
220
0.0
230
1.0
  2
SOLID
 70
     1
 71
     0
 91
        1
 92
        1
 93
        1
 72
     4
 94
        3
 73
     0
 74
     1
 95
       26
 96
       22
 40
0.0
 40
0.0
 40
0.0
 40
0.0
 40
1.0
 40
1.0
 40
1.0
 40
2.0
 40
2.0
 40
2.0
 40
3.0
 40
3.0
 40
3.0
 40
4.0
 40
4.0
 40
4.0
 40
5.0
 40
5.0
 40
5.0
 40
6.0
 40
6.0
 40
6.0
 40
7.0
 40
7.0
 40
7.0
 40
7.0
 10
119.7274033988876
 20
-129.729893630762
 10
119.7274033988876
 20
-129.729893630762
 10
118.6229057863165
 20
-129.729893630762
 10
118.6229057863165
 20
-129.729893630762
 10
118.6229057863165
 20
-129.729893630762
 10
118.6229057863165
 20
-130.0599337782489
 10
118.6229057863165
 20
-130.0599337782489
 10
118.6229057863165
 20
-130.0599337782489
 10
118.4747666804508
 20
-130.0599337782489
 10
118.4747666804508
 20
-130.0599337782489
 10
118.4602972794127
 20
-129.7278265734708
 10
118.2969997534119
 20
-129.6813177844199
 10
118.1826225833016
 20
-129.6516899632468
 10
118.1826225833016
 20
-129.6516899632468
 10
118.1826225833016
 20
-129.5056179146722
 10
118.1826225833016
 20
-129.5056179146722
 10
118.1826225833016
 20
-129.5056179146722
 10
119.7274033988876
 20
-129.5056179146722
 10
119.7274033988876
 20
-129.5056179146722
 10
119.7274033988876
 20
-129.5056179146722
 10
119.7274033988876
 20
-129.729893630762
 10
119.7274033988876
 20
-129.729893630762
 97
        0
 97
        0
 75
     2
 76
     1
 98
        0
  0
ENDBLK
  5
A7
330
A4
100
AcDbEntity
  8
0
100
AcDbBlockEnd
  0
ENDSEC
  0
SECTION
  2
ENTITIES
  0
SPLINE
  5
41
330
1F
100
AcDbEntity
  8
_U+30EC_U+30A4_U+30E4_U+30FC 1
370
     0
100
AcDbSpline
210
0.0
220
0.0
230
1.0
 70
    11
 71
     3
 72
    80
 73
    76
 74
     0
 42
0.0000000001
 43
0.0000000001
 12
1.0
 22
0.0
 32
0.0
 13
1.0
 23
0.0
 33
0.0
 40
0.0
 40
0.0
 40
0.0
 40
0.0
 40
1.0
 40
1.0
 40
1.0
 40
2.0
 40
2.0
 40
2.0
 40
3.0
 40
3.0
 40
3.0
 40
4.0
 40
4.0
 40
4.0
 40
5.0
 40
5.0
 40
5.0
 40
6.0
 40
6.0
 40
6.0
 40
7.0
 40
7.0
 40
7.0
 40
8.0
 40
8.0
 40
8.0
 40
9.0
 40
9.0
 40
9.0
 40
10.0
 40
10.0
 40
10.0
 40
11.0
 40
11.0
 40
11.0
 40
12.0
 40
12.0
 40
12.0
 40
13.0
 40
13.0
 40
13.0
 40
14.0
 40
14.0
 40
14.0
 40
15.0
 40
15.0
 40
15.0
 40
16.0
 40
16.0
 40
16.0
 40
17.0
 40
17.0
 40
17.0
 40
18.0
 40
18.0
 40
18.0
 40
19.0
 40
19.0
 40
19.0
 40
20.0
 40
20.0
 40
20.0
 40
21.0
 40
21.0
 40
21.0
 40
22.0
 40
22.0
 40
22.0
 40
23.0
 40
23.0
 40
23.0
 40
24.0
 40
24.0
 40
24.0
 40
25.0
 40
25.0
 40
25.0
 40
25.0
 10
94.75836647140156
 20
-131.1527235783232
 30
0.0
 10
94.75836647140156
 20
-131.1527235783232
 30
0.0
 10
112.7562444162553
 20
-131.1527235783232
 30
0.0
 10
112.7562444162553
 20
-131.1527235783232
 30
0.0
 10
112.7562444162553
 20
-131.1527235783232
 30
0.0
 10
112.7562444162553
 20
-132.1524958002951
 30
0.0
 10
112.7562444162553
 20
-132.1524958002951
 30
0.0
 10
112.7562444162553
 20
-132.1524958002951
 30
0.0
 10
95.75676283481923
 20
-132.1524958002951
 30
0.0
 10
95.75676283481923
 20
-132.1524958002951
 30
0.0
 10
95.75676283481923
 20
-132.1524958002951
 30
0.0
 10
95.75676283481923
 20
-141.6530130201421
 30
0.0
 10
95.75676283481923
 20
-141.6530130201421
 30
0.0
 10
95.75676283481923
 20
-141.6530130201421
 30
0.0
 10
92.76298485564132
 20
-141.6530130201421
 30
0.0
 10
92.76298485564132
 20
-141.6530130201421
 30
0.0
 10
92.76298485564132
 20
-141.6530130201421
 30
0.0
 10
92.7554001336126
 20
-147.6595485741962
 30
0.0
 10
92.7554001336126
 20
-147.6595485741962
 30
0.0
 10
92.7554001336126
 20
-147.6595485741962
 30
0.0
 10
68.76615907896246
 20
-147.6630057964175
 30
0.0
 10
68.76615907896246
 20
-147.6630057964175
 30
0.0
 10
68.76615907896246
 20
-147.6630057964175
 30
0.0
 10
67.76606938225464
 20
-147.6536924630863
 30
0.0
 10
67.76606938225464
 20
-146.6535674633366
 30
0.0
 10
67.76606938225464
 20
-146.6535674633366
 30
0.0
 10
67.76606938225464
 20
-122.6524724693369
 30
0.0
 10
67.76606938225464
 20
-122.6524724693369
 30
0.0
 10
67.76606938225464
 20
-122.6524724693369
 30
0.0
 10
73.76604311807145
 20
-122.6524724693369
 30
0.0
 10
73.76604311807145
 20
-122.6524724693369
 30
0.0
 10
73.76604311807145
 20
-122.6524724693369
 30
0.0
 10
73.76604311807145
 20
-119.6524855256426
 30
0.0
 10
73.76604311807145
 20
-119.6524855256426
 30
0.0
 10
73.76604311807145
 20
-119.6524855256426
 30
0.0
 10
83.26588982015461
 20
-119.6524855256426
 30
0.0
 10
83.26588982015461
 20
-119.6524855256426
 30
0.0
 10
83.26588982015461
 20
-119.6524855256426
 30
0.0
 10
83.26588982015461
 20
-102.6302521965647
 30
0.0
 10
83.26588982015461
 20
-102.6302521965647
 30
0.0
 10
83.26588982015461
 20
-102.6302521965647
 30
0.0
 10
84.2660147946393
 20
-102.6302521965647
 30
0.0
 10
84.2660147946393
 20
-102.6302521965647
 30
0.0
 10
84.2660147946393
 20
-102.6302521965647
 30
0.0
 10
84.2660147946393
 20
-120.6525752476147
 30
0.0
 10
84.2660147946393
 20
-120.6525752476147
 30
0.0
 10
84.2660147946393
 20
-120.6525752476147
 30
0.0
 10
74.76613281477927
 20
-120.6525752476147
 30
0.0
 10
74.76613281477927
 20
-120.6525752476147
 30
0.0
 10
74.76613281477927
 20
-120.6525752476147
 30
0.0
 10
74.76648559254804
 20
-123.6525621913091
 30
0.0
 10
74.76648559254804
 20
-123.6525621913091
 30
0.0
 10
74.76648559254804
 20
-123.6525621913091
 30
0.0
 10
68.78478574515391
 20
-123.6525621913091
 30
0.0
 10
68.78478574515391
 20
-123.6525621913091
 30
0.0
 10
68.78478574515391
 20
-123.6525621913091
 30
0.0
 10
68.78478574515391
 20
-145.7316885746783
 30
0.0
 10
68.78478574515391
 20
-145.7316885746783
 30
0.0
 10
68.78478574515391
 20
-145.7316885746783
 30
0.0
 10
68.69623852519072
 20
-146.6535674633366
 30
0.0
 10
69.58231044702958
 20
-146.6535674633366
 30
0.0
 10
69.58231044702958
 20
-146.6535674633366
 30
0.0
 10
91.7553104369048
 20
-146.6535674633366
 30
0.0
 10
91.7553104369048
 20
-146.6535674633366
 30
0.0
 10
91.7553104369048
 20
-146.6535674633366
 30
0.0
 10
91.7553104369048
 20
-141.6530130201421
 30
0.0
 10
91.7553104369048
 20
-141.6530130201421
 30
0.0
 10
91.7553104369048
 20
-141.6530130201421
 30
0.0
 10
91.7553104369048
 20
-140.65292329817
 30
0.0
 10
91.7553104369048
 20
-140.65292329817
 30
0.0
 10
91.7553104369048
 20
-140.65292329817
 30
0.0
 10
94.75836647140156
 20
-140.65292329817
 30
0.0
 10
94.75836647140156
 20
-140.65292329817
 30
0.0
 10
94.75836647140156
 20
-140.65292329817
 30
0.0
 10
94.75836647140156
 20
-131.1527235783232
 30
0.0
 10
94.75836647140156
 20
-131.1527235783232
 30
0.0
  0
HATCH
  5
42
330
1F
100
AcDbEntity
  8
_U+30EC_U+30A4_U+30E4_U+30FC 1
 62
   253
420
 10855845
100
AcDbHatch
 10
0.0
 20
0.0
 30
0.0
210
0.0
220
0.0
230
1.0
  2
SOLID
 70
     1
 71
     0
 91
        1
 92
        1
 93
        1
 72
     4
 94
        3
 73
     0
 74
     1
 95
       80
 96
       76
 40
0.0
 40
0.0
 40
0.0
 40
0.0
 40
1.0
 40
1.0
 40
1.0
 40
2.0
 40
2.0
 40
2.0
 40
3.0
 40
3.0
 40
3.0
 40
4.0
 40
4.0
 40
4.0
 40
5.0
 40
5.0
 40
5.0
 40
6.0
 40
6.0
 40
6.0
 40
7.0
 40
7.0
 40
7.0
 40
8.0
 40
8.0
 40
8.0
 40
9.0
 40
9.0
 40
9.0
 40
10.0
 40
10.0
 40
10.0
 40
11.0
 40
11.0
 40
11.0
 40
12.0
 40
12.0
 40
12.0
 40
13.0
 40
13.0
 40
13.0
 40
14.0
 40
14.0
 40
14.0
 40
15.0
 40
15.0
 40
15.0
 40
16.0
 40
16.0
 40
16.0
 40
17.0
 40
17.0
 40
17.0
 40
18.0
 40
18.0
 40
18.0
 40
19.0
 40
19.0
 40
19.0
 40
20.0
 40
20.0
 40
20.0
 40
21.0
 40
21.0
 40
21.0
 40
22.0
 40
22.0
 40
22.0
 40
23.0
 40
23.0
 40
23.0
 40
24.0
 40
24.0
 40
24.0
 40
25.0
 40
25.0
 40
25.0
 40
25.0
 10
94.75836647140156
 20
-131.1527235783232
 10
94.75836647140156
 20
-131.1527235783232
 10
112.7562444162553
 20
-131.1527235783232
 10
112.7562444162553
 20
-131.1527235783232
 10
112.7562444162553
 20
-131.1527235783232
 10
112.7562444162553
 20
-132.1524958002951
 10
112.7562444162553
 20
-132.1524958002951
 10
112.7562444162553
 20
-132.1524958002951
 10
95.75676283481923
 20
-132.1524958002951
 10
95.75676283481923
 20
-132.1524958002951
 10
95.75676283481923
 20
-132.1524958002951
 10
95.75676283481923
 20
-141.6530130201421
 10
95.75676283481923
 20
-141.6530130201421
 10
95.75676283481923
 20
-141.6530130201421
 10
92.76298485564132
 20
-141.6530130201421
 10
92.76298485564132
 20
-141.6530130201421
 10
92.76298485564132
 20
-141.6530130201421
 10
92.7554001336126
 20
-147.6595485741962
 10
92.7554001336126
 20
-147.6595485741962
 10
92.7554001336126
 20
-147.6595485741962
 10
68.76615907896246
 20
-147.6630057964175
 10
68.76615907896246
 20
-147.6630057964175
 10
68.76615907896246
 20
-147.6630057964175
 10
67.76606938225464
 20
-147.6536924630863
 10
67.76606938225464
 20
-146.6535674633366
 10
67.76606938225464
 20
-146.6535674633366
 10
67.76606938225464
 20
-122.6524724693369
 10
67.76606938225464
 20
-122.6524724693369
 10
67.76606938225464
 20
-122.6524724693369
 10
73.76604311807145
 20
-122.6524724693369
 10
73.76604311807145
 20
-122.6524724693369
 10
73.76604311807145
 20
-122.6524724693369
 10
73.76604311807145
 20
-119.6524855256426
 10
73.76604311807145
 20
-119.6524855256426
 10
73.76604311807145
 20
-119.6524855256426
 10
83.26588982015461
 20
-119.6524855256426
 10
83.26588982015461
 20
-119.6524855256426
 10
83.26588982015461
 20
-119.6524855256426
 10
83.26588982015461
 20
-102.6302521965647
 10
83.26588982015461
 20
-102.6302521965647
 10
83.26588982015461
 20
-102.6302521965647
 10
84.2660147946393
 20
-102.6302521965647
 10
84.2660147946393
 20
-102.6302521965647
 10
84.2660147946393
 20
-102.6302521965647
 10
84.2660147946393
 20
-120.6525752476147
 10
84.2660147946393
 20
-120.6525752476147
 10
84.2660147946393
 20
-120.6525752476147
 10
74.76613281477927
 20
-120.6525752476147
 10
74.76613281477927
 20
-120.6525752476147
 10
74.76613281477927
 20
-120.6525752476147
 10
74.76648559254804
 20
-123.6525621913091
 10
74.76648559254804
 20
-123.6525621913091
 10
74.76648559254804
 20
-123.6525621913091
 10
68.78478574515391
 20
-123.6525621913091
 10
68.78478574515391
 20
-123.6525621913091
 10
68.78478574515391
 20
-123.6525621913091
 10
68.78478574515391
 20
-145.7316885746783
 10
68.78478574515391
 20
-145.7316885746783
 10
68.78478574515391
 20
-145.7316885746783
 10
68.69623852519072
 20
-146.6535674633366
 10
69.58231044702958
 20
-146.6535674633366
 10
69.58231044702958
 20
-146.6535674633366
 10
91.7553104369048
 20
-146.6535674633366
 10
91.7553104369048
 20
-146.6535674633366
 10
91.7553104369048
 20
-146.6535674633366
 10
91.7553104369048
 20
-141.6530130201421
 10
91.7553104369048
 20
-141.6530130201421
 10
91.7553104369048
 20
-141.6530130201421
 10
91.7553104369048
 20
-140.65292329817
 10
91.7553104369048
 20
-140.65292329817
 10
91.7553104369048
 20
-140.65292329817
 10
94.75836647140156
 20
-140.65292329817
 10
94.75836647140156
 20
-140.65292329817
 10
94.75836647140156
 20
-140.65292329817
 10
94.75836647140156
 20
-131.1527235783232
 10
94.75836647140156
 20
-131.1527235783232
 97
        0
 97
        0
 75
     2
 76
     1
 98
        0
  0
SPLINE
  5
43
330
1F
100
AcDbEntity
  8
_U+30EC_U+30A4_U+30E4_U+30FC 1
 62
     7
420
 16777215
370
    25
100
AcDbSpline
210
0.0
220
0.0
230
1.0
 70
    11
 71
     3
 72
    80
 73
    76
 74
     0
 42
0.0000000001
 43
0.0000000001
 12
1.0
 22
0.0
 32
0.0
 13
1.0
 23
0.0
 33
0.0
 40
0.0
 40
0.0
 40
0.0
 40
0.0
 40
1.0
 40
1.0
 40
1.0
 40
2.0
 40
2.0
 40
2.0
 40
3.0
 40
3.0
 40
3.0
 40
4.0
 40
4.0
 40
4.0
 40
5.0
 40
5.0
 40
5.0
 40
6.0
 40
6.0
 40
6.0
 40
7.0
 40
7.0
 40
7.0
 40
8.0
 40
8.0
 40
8.0
 40
9.0
 40
9.0
 40
9.0
 40
10.0
 40
10.0
 40
10.0
 40
11.0
 40
11.0
 40
11.0
 40
12.0
 40
12.0
 40
12.0
 40
13.0
 40
13.0
 40
13.0
 40
14.0
 40
14.0
 40
14.0
 40
15.0
 40
15.0
 40
15.0
 40
16.0
 40
16.0
 40
16.0
 40
17.0
 40
17.0
 40
17.0
 40
18.0
 40
18.0
 40
18.0
 40
19.0
 40
19.0
 40
19.0
 40
20.0
 40
20.0
 40
20.0
 40
21.0
 40
21.0
 40
21.0
 40
22.0
 40
22.0
 40
22.0
 40
23.0
 40
23.0
 40
23.0
 40
24.0
 40
24.0
 40
24.0
 40
25.0
 40
25.0
 40
25.0
 40
25.0
 10
94.76422497630881
 20
-131.1644358005424
 30
0.0
 10
94.76422497630881
 20
-131.1644358005424
 30
0.0
 10
112.7659076786576
 20
-131.1644358005424
 30
0.0
 10
112.7659076786576
 20
-131.1644358005424
 30
0.0
 10
112.7659076786576
 20
-131.1644358005424
 30
0.0
 10
112.7659076786576
 20
-132.1635024669588
 30
0.0
 10
112.7659076786576
 20
-132.1635024669588
 30
0.0
 10
112.7659076786576
 20
-132.1635024669588
 30
0.0
 10
95.76297172354973
 20
-132.1635024669588
 30
0.0
 10
95.76297172354973
 20
-132.1635024669588
 30
0.0
 10
95.76297172354973
 20
-132.1635024669588
 30
0.0
 10
95.76297172354973
 20
-141.6571757979189
 30
0.0
 10
95.76297172354973
 20
-141.6571757979189
 30
0.0
 10
95.76297172354973
 20
-141.6571757979189
 30
0.0
 10
92.76848818883425
 20
-141.6571757979189
 30
0.0
 10
92.76848818883425
 20
-141.6571757979189
 30
0.0
 10
92.76848818883425
 20
-141.6571757979189
 30
0.0
 10
92.76090346680553
 20
-147.6595485741962
 30
0.0
 10
92.76090346680553
 20
-147.6595485741962
 30
0.0
 10
92.76090346680553
 20
-147.6595485741962
 30
0.0
 10
68.76651185673124
 20
-147.6630057964175
 30
0.0
 10
68.76651185673124
 20
-147.6630057964175
 30
0.0
 10
68.76651185673124
 20
-147.6630057964175
 30
0.0
 10
67.76606938225464
 20
-147.6536924630863
 30
0.0
 10
67.76606938225464
 20
-146.6542730188922
 30
0.0
 10
67.76606938225464
 20
-146.6542730188922
 30
0.0
 10
67.76606938225464
 20
-122.6700408026658
 30
0.0
 10
67.76606938225464
 20
-122.6700408026658
 30
0.0
 10
67.76606938225464
 20
-122.6700408026658
 30
0.0
 10
73.76741895136969
 20
-122.6700408026658
 30
0.0
 10
73.76741895136969
 20
-122.6700408026658
 30
0.0
 10
73.76741895136969
 20
-122.6700408026658
 30
0.0
 10
73.76741895136969
 20
-119.672099970082
 30
0.0
 10
73.76741895136969
 20
-119.672099970082
 30
0.0
 10
73.76741895136969
 20
-119.672099970082
 30
0.0
 10
83.26934704228864
 20
-119.672099970082
 30
0.0
 10
83.26934704228864
 20
-119.672099970082
 30
0.0
 10
83.26934704228864
 20
-119.672099970082
 30
0.0
 10
83.26934704228864
 20
-102.6619669187789
 30
0.0
 10
83.26934704228864
 20
-102.6619669187789
 30
0.0
 10
83.26934704228864
 20
-102.6619669187789
 30
0.0
 10
84.26943886782146
 20
-102.6619669187789
 30
0.0
 10
84.26943886782146
 20
-102.6619669187789
 30
0.0
 10
84.26943886782146
 20
-102.6619669187789
 30
0.0
 10
84.26943886782146
 20
-120.6715194142765
 30
0.0
 10
84.26943886782146
 20
-120.6715194142765
 30
0.0
 10
84.26943886782146
 20
-120.6715194142765
 30
0.0
 10
74.76754392585437
 20
-120.6715194142765
 30
0.0
 10
74.76754392585437
 20
-120.6715194142765
 30
0.0
 10
74.76754392585437
 20
-120.6715194142765
 30
0.0
 10
74.76786142584628
 20
-123.6694602468606
 30
0.0
 10
74.76786142584628
 20
-123.6694602468606
 30
0.0
 10
74.76786142584628
 20
-123.6694602468606
 30
0.0
 10
68.78510324514582
 20
-123.6694602468606
 30
0.0
 10
68.78510324514582
 20
-123.6694602468606
 30
0.0
 10
68.78510324514582
 20
-123.6694602468606
 30
0.0
 10
68.78510324514582
 20
-145.7330644080112
 30
0.0
 10
68.78510324514582
 20
-145.7330644080112
 30
0.0
 10
68.78510324514582
 20
-145.7330644080112
 30
0.0
 10
68.6965913029595
 20
-146.6542730188922
 30
0.0
 10
69.58266322479837
 20
-146.6542730188922
 30
0.0
 10
69.58266322479837
 20
-146.6542730188922
 30
0.0
 10
91.76046099232894
 20
-146.6542730188922
 30
0.0
 10
91.76046099232894
 20
-146.6542730188922
 30
0.0
 10
91.76046099232894
 20
-146.6542730188922
 30
0.0
 10
91.76046099232894
 20
-141.6571757979189
 30
0.0
 10
91.76046099232894
 20
-141.6571757979189
 30
0.0
 10
91.76046099232894
 20
-141.6571757979189
 30
0.0
 10
91.76046099232894
 20
-140.6577210759466
 30
0.0
 10
91.76046099232894
 20
-140.6577210759466
 30
0.0
 10
91.76046099232894
 20
-140.6577210759466
 30
0.0
 10
94.76422497630881
 20
-140.6577210759466
 30
0.0
 10
94.76422497630881
 20
-140.6577210759466
 30
0.0
 10
94.76422497630881
 20
-140.6577210759466
 30
0.0
 10
94.76422497630881
 20
-131.1644358005424
 30
0.0
 10
94.76422497630881
 20
-131.1644358005424
 30
0.0
  0
POLYLINE
  5
44
330
1F
100
AcDbEntity
  8
_U+30EC_U+30A4_U+30E4_U+30FC 1
 62
     7
420
 16777215
370
     9
100
AcDb2dPolyline
 66
     1
 10
0.0
 20
0.0
 30
0.0
  0
VERTEX
  5
45
330
44
100
AcDbEntity
  8
_U+30EC_U+30A4_U+30E4_U+30FC 1
 62
     7
420
 16777215
370
     9
100
AcDbVertex
100
AcDb2dVertex
 10
63.89962503645142
 20
-147.6602541297518
 30
0.0
  0
VERTEX
  5
46
330
44
100
AcDbEntity
  8
_U+30EC_U+30A4_U+30E4_U+30FC 1
 62
     7
420
 16777215
370
     9
100
AcDbVertex
100
AcDb2dVertex
 10
63.89962503645142
 20
-102.8187060854064
 30
0.0
  0
SEQEND
  5
47
330
44
100
AcDbEntity
  8
_U+30EC_U+30A4_U+30E4_U+30FC 1
 62
     7
420
 16777215
370
     9
  0
POLYLINE
  5
48
330
1F
100
AcDbEntity
  8
_U+30EC_U+30A4_U+30E4_U+30FC 1
 62
     7
420
 16777215
370
     9
100
AcDb2dPolyline
 66
     1
 10
0.0
 20
0.0
 30
0.0
  0
VERTEX
  5
49
330
48
100
AcDbEntity
  8
_U+30EC_U+30A4_U+30E4_U+30FC 1
 62
     7
420
 16777215
370
     9
100
AcDbVertex
100
AcDb2dVertex
 10
66.27710025357474
 20
-147.6595485741962
 30
0.0
  0
VERTEX
  5
4A
330
48
100
AcDbEntity
  8
_U+30EC_U+30A4_U+30E4_U+30FC 1
 62
     7
420
 16777215
370
     9
100
AcDbVertex
100
AcDb2dVertex
 10
62.89470228431136
 20
-147.6595485741962
 30
0.0
  0
SEQEND
  5
4B
330
48
100
AcDbEntity
  8
_U+30EC_U+30A4_U+30E4_U+30FC 1
 62
     7
420
 16777215
370
     9
  0
POLYLINE
  5
4C
330
1F
100
AcDbEntity
  8
_U+30EC_U+30A4_U+30E4_U+30FC 1
 62
     7
420
 16777215
370
     9
100
AcDb2dPolyline
 66
     1
 10
0.0
 20
0.0
 30
0.0
  0
VERTEX
  5
4D
330
4C
100
AcDbEntity
  8
_U+30EC_U+30A4_U+30E4_U+30FC 1
 62
     7
420
 16777215
370
     9
100
AcDbVertex
100
AcDb2dVertex
 10
66.27710025357474
 20
-122.6524724693369
 30
0.0
  0
VERTEX
  5
4E
330
4C
100
AcDbEntity
  8
_U+30EC_U+30A4_U+30E4_U+30FC 1
 62
     7
420
 16777215
370
     9
100
AcDbVertex
100
AcDb2dVertex
 10
62.89470228431136
 20
-122.6524724693369
 30
0.0
  0
SEQEND
  5
4F
330
4C
100
AcDbEntity
  8
_U+30EC_U+30A4_U+30E4_U+30FC 1
 62
     7
420
 16777215
370
     9
  0
POLYLINE
  5
50
330
1F
100
AcDbEntity
  8
_U+30EC_U+30A4_U+30E4_U+30FC 1
 62
     7
420
 16777215
370
     9
100
AcDb2dPolyline
 66
     1
 10
0.0
 20
0.0
 30
0.0
  0
VERTEX
  5
51
330
50
100
AcDbEntity
  8
_U+30EC_U+30A4_U+30E4_U+30FC 1
 62
     7
420
 16777215
370
     9
100
AcDbVertex
100
AcDb2dVertex
 10
81.77692069147471
 20
-102.6571338632248
 30
0.0
  0
VERTEX
  5
52
330
50
100
AcDbEntity
  8
_U+30EC_U+30A4_U+30E4_U+30FC 1
 62
     7
420
 16777215
370
     9
100
AcDbVertex
100
AcDb2dVertex
 10
62.89470228431136
 20
-102.6571338632248
 30
0.0
  0
SEQEND
  5
53
330
50
100
AcDbEntity
  8
_U+30EC_U+30A4_U+30E4_U+30FC 1
 62
     7
420
 16777215
370
     9
  0
INSERT
  5
55
330
1F
100
AcDbEntity
  8
_U+30EC_U+30A4_U+30E4_U+30FC 1
100
AcDbBlockReference
  2
block 2
 10
0.0
 20
0.0
 30
0.0
  0
INSERT
  5
5D
330
1F
100
AcDbEntity
  8
_U+30EC_U+30A4_U+30E4_U+30FC 1
100
AcDbBlockReference
  2
block 3
 10
0.0
 20
0.0
 30
0.0
  0
INSERT
  5
65
330
1F
100
AcDbEntity
  8
_U+30EC_U+30A4_U+30E4_U+30FC 1
100
AcDbBlockReference
  2
block 4
 10
0.0
 20
0.0
 30
0.0
  0
POLYLINE
  5
6A
330
1F
100
AcDbEntity
  8
_U+30EC_U+30A4_U+30E4_U+30FC 1
 62
     7
420
 16777215
370
     9
100
AcDb2dPolyline
 66
     1
 10
0.0
 20
0.0
 30
0.0
  0
VERTEX
  5
6B
330
6A
100
AcDbEntity
  8
_U+30EC_U+30A4_U+30E4_U+30FC 1
 62
     7
420
 16777215
370
     9
100
AcDbVertex
100
AcDb2dVertex
 10
66.95750273621624
 20
-148.1804602407327
 30
0.0
  0
VERTEX
  5
6C
330
6A
100
AcDbEntity
  8
_U+30EC_U+30A4_U+30E4_U+30FC 1
 62
     7
420
 16777215
370
     9
100
AcDbVertex
100
AcDb2dVertex
 10
67.82840521399767
 20
-147.6781399630805
 30
0.0
  0
SEQEND
  5
6D
330
6A
100
AcDbEntity
  8
_U+30EC_U+30A4_U+30E4_U+30FC 1
 62
     7
420
 16777215
370
     9
  0
POLYLINE
  5
6E
330
1F
100
AcDbEntity
  8
_U+30EC_U+30A4_U+30E4_U+30FC 1
 62
     7
420
 16777215
370
     9
100
AcDb2dPolyline
 66
     1
 10
0.0
 20
0.0
 30
0.0
  0
VERTEX
  5
6F
330
6E
100
AcDbEntity
  8
_U+30EC_U+30A4_U+30E4_U+30FC 1
 62
     7
420
 16777215
370
     9
100
AcDbVertex
100
AcDb2dVertex
 10
67.32576744904324
 20
-148.5477019073072
 30
0.0
  0
VERTEX
  5
70
330
6E
100
AcDbEntity
  8
_U+30EC_U+30A4_U+30E4_U+30FC 1
 62
     7
420
 16777215
370
     9
100
AcDbVertex
100
AcDb2dVertex
 10
67.82840521399767
 20
-147.6781399630805
 30
0.0
  0
SEQEND
  5
71
330
6E
100
AcDbEntity
  8
_U+30EC_U+30A4_U+30E4_U+30FC 1
 62
     7
420
 16777215
370
     9
  0
POLYLINE
  5
72
330
1F
100
AcDbEntity
  8
_U+30EC_U+30A4_U+30E4_U+30FC 1
 62
     7
420
 16777215
370
     9
100
AcDb2dPolyline
 66
     1
 10
0.0
 20
0.0
 30
0.0
  0
VERTEX
  5
73
330
72
100
AcDbEntity
  8
_U+30EC_U+30A4_U+30E4_U+30FC 1
 62
     7
420
 16777215
370
     9
100
AcDbVertex
100
AcDb2dVertex
 10
64.34680613615399
 20
-151.1590688510994
 30
0.0
  0
VERTEX
  5
74
330
72
100
AcDbEntity
  8
_U+30EC_U+30A4_U+30E4_U+30FC 1
 62
     7
420
 16777215
370
     9
100
AcDbVertex
100
AcDb2dVertex
 10
67.82840521399767
 20
-147.6781399630805
 30
0.0
  0
SEQEND
  5
75
330
72
100
AcDbEntity
  8
_U+30EC_U+30A4_U+30E4_U+30FC 1
 62
     7
420
 16777215
370
     9
  0
INSERT
  5
77
330
1F
100
AcDbEntity
  8
_U+30EC_U+30A4_U+30E4_U+30FC 1
100
AcDbBlockReference
  2
block 5
 10
0.0
 20
0.0
 30
0.0
  0
POLYLINE
  5
7F
330
1F
100
AcDbEntity
  8
_U+30EC_U+30A4_U+30E4_U+30FC 1
 62
     7
420
 16777215
370
     9
100
AcDb2dPolyline
 66
     1
 10
0.0
 20
0.0
 30
0.0
  0
VERTEX
  5
80
330
7F
100
AcDbEntity
  8
_U+30EC_U+30A4_U+30E4_U+30FC 1
 62
     7
420
 16777215
370
     9
100
AcDbVertex
100
AcDb2dVertex
 10
119.1148491833492
 20
-147.6536924630863
 30
0.0
  0
VERTEX
  5
81
330
7F
100
AcDbEntity
  8
_U+30EC_U+30A4_U+30E4_U+30FC 1
 62
     7
420
 16777215
370
     9
100
AcDbVertex
100
AcDb2dVertex
 10
93.99185093540144
 20
-147.6536924630863
 30
0.0
  0
SEQEND
  5
82
330
7F
100
AcDbEntity
  8
_U+30EC_U+30A4_U+30E4_U+30FC 1
 62
     7
420
 16777215
370
     9
  0
POLYLINE
  5
83
330
1F
100
AcDbEntity
  8
_U+30EC_U+30A4_U+30E4_U+30FC 1
 62
     7
420
 16777215
370
     9
100
AcDb2dPolyline
 66
     1
 10
0.0
 20
0.0
 30
0.0
  0
VERTEX
  5
84
330
83
100
AcDbEntity
  8
_U+30EC_U+30A4_U+30E4_U+30FC 1
 62
     7
420
 16777215
370
     9
100
AcDbVertex
100
AcDb2dVertex
 10
119.1148491833492
 20
-132.1524958002951
 30
0.0
  0
VERTEX
  5
85
330
83
100
AcDbEntity
  8
_U+30EC_U+30A4_U+30E4_U+30FC 1
 62
     7
420
 16777215
370
     9
100
AcDbVertex
100
AcDb2dVertex
 10
113.933778482196
 20
-132.1524958002951
 30
0.0
  0
SEQEND
  5
86
330
83
100
AcDbEntity
  8
_U+30EC_U+30A4_U+30E4_U+30FC 1
 62
     7
420
 16777215
370
     9
  0
POLYLINE
  5
87
330
1F
100
AcDbEntity
  8
_U+30EC_U+30A4_U+30E4_U+30FC 1
 62
     7
420
 16777215
370
     9
100
AcDb2dPolyline
 66
     1
 10
0.0
 20
0.0
 30
0.0
  0
VERTEX
  5
88
330
87
100
AcDbEntity
  8
_U+30EC_U+30A4_U+30E4_U+30FC 1
 62
     7
420
 16777215
370
     9
100
AcDbVertex
100
AcDb2dVertex
 10
119.1148491833492
 20
-131.1527235783232
 30
0.0
  0
VERTEX
  5
89
330
87
100
AcDbEntity
  8
_U+30EC_U+30A4_U+30E4_U+30FC 1
 62
     7
420
 16777215
370
     9
100
AcDbVertex
100
AcDb2dVertex
 10
113.933778482196
 20
-131.1527235783232
 30
0.0
  0
SEQEND
  5
8A
330
87
100
AcDbEntity
  8
_U+30EC_U+30A4_U+30E4_U+30FC 1
 62
     7
420
 16777215
370
     9
  0
INSERT
  5
8C
330
1F
100
AcDbEntity
  8
_U+30EC_U+30A4_U+30E4_U+30FC 1
100
AcDbBlockReference
  2
block 6
 10
0.0
 20
0.0
 30
0.0
  0
INSERT
  5
9E
330
1F
100
AcDbEntity
  8
_U+30EC_U+30A4_U+30E4_U+30FC 1
100
AcDbBlockReference
  2
block 7
 10
0.0
 20
0.0
 30
0.0
  0
INSERT
  5
A5
330
1F
100
AcDbEntity
  8
_U+30EC_U+30A4_U+30E4_U+30FC 1
100
AcDbBlockReference
  2
block 8
 10
0.0
 20
0.0
 30
0.0
  0
POLYLINE
  5
AA
330
1F
100
AcDbEntity
  8
_U+30EC_U+30A4_U+30E4_U+30FC 1
 62
     7
420
 16777215
370
     9
100
AcDb2dPolyline
 66
     1
 10
0.0
 20
0.0
 30
0.0
  0
VERTEX
  5
AB
330
AA
100
AcDbEntity
  8
_U+30EC_U+30A4_U+30E4_U+30FC 1
 62
     7
420
 16777215
370
     9
100
AcDbVertex
100
AcDb2dVertex
 10
117.4757055261868
 20
-147.6071963519871
 30
0.0
  0
VERTEX
  5
AC
330
AA
100
AcDbEntity
  8
_U+30EC_U+30A4_U+30E4_U+30FC 1
 62
     7
420
 16777215
370
     9
100
AcDbVertex
100
AcDb2dVertex
 10
117.4757055261868
 20
-131.1527235783232
 30
0.0
  0
SEQEND
  5
AD
330
AA
100
AcDbEntity
  8
_U+30EC_U+30A4_U+30E4_U+30FC 1
 62
     7
420
 16777215
370
     9
  0
SPLINE
  5
AE
330
1F
100
AcDbEntity
  8
_U+30EC_U+30A4_U+30E4_U+30FC 1
 62
     7
420
 16777215
370
     9
100
AcDbSpline
210
0.0
220
0.0
230
1.0
 70
    11
 71
     3
 72
    17
 73
    13
 74
     0
 42
0.0000000001
 43
0.0000000001
 12
1.0
 22
0.0
 32
0.0
 13
1.0
 23
0.0
 33
0.0
 40
0.0
 40
0.0
 40
0.0
 40
0.0
 40
1.0
 40
1.0
 40
1.0
 40
2.0
 40
2.0
 40
2.0
 40
3.0
 40
3.0
 40
3.0
 40
4.0
 40
4.0
 40
4.0
 40
4.0
 10
64.0108911447239
 20
-102.6574866410022
 30
0.0
 10
64.0108911447239
 20
-102.5961385854621
 30
0.0
 10
63.96129059043376
 20
-102.546538029919
 30
0.0
 10
63.89997781422019
 20
-102.546538029919
 30
0.0
 10
63.83866665070702
 20
-102.546538029919
 30
0.0
 10
63.78835892817894
 20
-102.5961385854621
 30
0.0
 10
63.78835892817894
 20
-102.6574866410022
 30
0.0
 10
63.78835892817894
 20
-102.7194696965425
 30
0.0
 10
63.83866665070702
 20
-102.7691055298634
 30
0.0
 10
63.89997781422019
 20
-102.7691055298634
 30
0.0
 10
63.96129059043376
 20
-102.7691055298634
 30
0.0
 10
64.0108911447239
 20
-102.7194696965425
 30
0.0
 10
64.0108911447239
 20
-102.6574866410022
 30
0.0
  0
SPLINE
  5
AF
330
1F
100
AcDbEntity
  8
_U+30EC_U+30A4_U+30E4_U+30FC 1
 62
     7
420
 16777215
370
     9
100
AcDbSpline
210
0.0
220
0.0
230
1.0
 70
    11
 71
     3
 72
    17
 73
    13
 74
     0
 42
0.0000000001
 43
0.0000000001
 12
1.0
 22
0.0
 32
0.0
 13
1.0
 23
0.0
 33
0.0
 40
0.0
 40
0.0
 40
0.0
 40
0.0
 40
1.0
 40
1.0
 40
1.0
 40
2.0
 40
2.0
 40
2.0
 40
3.0
 40
3.0
 40
3.0
 40
4.0
 40
4.0
 40
4.0
 40
4.0
 10
63.92167364700002
 20
-122.5539416360282
 30
0.0
 10
63.86036087078647
 20
-122.5539416360282
 30
0.0
 10
63.81005476095877
 20
-122.6035421915712
 30
0.0
 10
63.81005476095877
 20
-122.665560524889
 30
0.0
 10
63.81005476095877
 20
-122.7268733026517
 30
0.0
 10
63.86036087078647
 20
-122.7771794137502
 30
0.0
 10
63.92167364700002
 20
-122.7771794137502
 30
0.0
 10
63.98298642321358
 20
-122.7771794137502
 30
0.0
 10
64.0326222552806
 20
-122.7268733026517
 30
0.0
 10
64.0326222552806
 20
-122.665560524889
 30
0.0
 10
64.0326222552806
 20
-122.6035421915712
 30
0.0
 10
63.98298642321358
 20
-122.5539416360282
 30
0.0
 10
63.92167364700002
 20
-122.5539416360282
 30
0.0
  0
POLYLINE
  5
B0
330
1F
100
AcDbEntity
  8
_U+30EC_U+30A4_U+30E4_U+30FC 1
 62
     7
420
 16777215
370
     9
100
AcDb2dPolyline
 66
     1
 10
0.0
 20
0.0
 30
0.0
  0
VERTEX
  5
B1
330
B0
100
AcDbEntity
  8
_U+30EC_U+30A4_U+30E4_U+30FC 1
 62
     7
420
 16777215
370
     9
100
AcDbVertex
100
AcDb2dVertex
 10
63.89962503645142
 20
-144.72330857493
 30
0.0
  0
VERTEX
  5
B2
330
B0
100
AcDbEntity
  8
_U+30EC_U+30A4_U+30E4_U+30FC 1
 62
     7
420
 16777215
370
     9
100
AcDbVertex
100
AcDb2dVertex
 10
63.89962503645142
 20
-102.6591799743353
 30
0.0
  0
SEQEND
  5
B3
330
B0
100
AcDbEntity
  8
_U+30EC_U+30A4_U+30E4_U+30FC 1
 62
     7
420
 16777215
370
     9
  0
POLYLINE
  5
B4
330
1F
100
AcDbEntity
  8
_U+30EC_U+30A4_U+30E4_U+30FC 1
 62
     7
420
 16777215
370
     9
100
AcDb2dPolyline
 66
     1
 10
0.0
 20
0.0
 30
0.0
  0
VERTEX
  5
B5
330
B4
100
AcDbEntity
  8
_U+30EC_U+30A4_U+30E4_U+30FC 1
 62
     7
420
 16777215
370
     9
100
AcDbVertex
100
AcDb2dVertex
 10
72.2663848229976
 20
-119.6524855256426
 30
0.0
  0
VERTEX
  5
B6
330
B4
100
AcDbEntity
  8
_U+30EC_U+30A4_U+30E4_U+30FC 1
 62
     7
420
 16777215
370
     9
100
AcDbVertex
100
AcDb2dVertex
 10
62.89470228431136
 20
-119.6524855256426
 30
0.0
  0
SEQEND
  5
B7
330
B4
100
AcDbEntity
  8
_U+30EC_U+30A4_U+30E4_U+30FC 1
 62
     7
420
 16777215
370
     9
  0
SPLINE
  5
B8
330
1F
100
AcDbEntity
  8
_U+30EC_U+30A4_U+30E4_U+30FC 1
 62
     7
420
 16777215
370
     9
100
AcDbSpline
210
0.0
220
0.0
230
1.0
 70
    11
 71
     3
 72
    17
 73
    13
 74
     0
 42
0.0000000001
 43
0.0000000001
 12
1.0
 22
0.0
 32
0.0
 13
1.0
 23
0.0
 33
0.0
 40
0.0
 40
0.0
 40
0.0
 40
0.0
 40
1.0
 40
1.0
 40
1.0
 40
2.0
 40
2.0
 40
2.0
 40
3.0
 40
3.0
 40
3.0
 40
4.0
 40
4.0
 40
4.0
 40
4.0
 10
63.92167364700002
 20
-119.5539546923338
 30
0.0
 10
63.86036087078647
 20
-119.5539546923338
 30
0.0
 10
63.81005476095877
 20
-119.6035552478769
 30
0.0
 10
63.81005476095877
 20
-119.6655735811947
 30
0.0
 10
63.81005476095877
 20
-119.7268863589573
 30
0.0
 10
63.86036087078647
 20
-119.7771924700556
 30
0.0
 10
63.92167364700002
 20
-119.7771924700556
 30
0.0
 10
63.98298642321358
 20
-119.7771924700556
 30
0.0
 10
64.0326222552806
 20
-119.7268863589573
 30
0.0
 10
64.0326222552806
 20
-119.6655735811947
 30
0.0
 10
64.0326222552806
 20
-119.6035552478769
 30
0.0
 10
63.98298642321358
 20
-119.5539546923338
 30
0.0
 10
63.92167364700002
 20
-119.5539546923338
 30
0.0
  0
SPLINE
  5
B9
330
1F
100
AcDbEntity
  8
_U+30EC_U+30A4_U+30E4_U+30FC 1
 62
     7
420
 16777215
370
     9
100
AcDbSpline
210
0.0
220
0.0
230
1.0
 70
    11
 71
     3
 72
    17
 73
    13
 74
     0
 42
0.0000000001
 43
0.0000000001
 12
1.0
 22
0.0
 32
0.0
 13
1.0
 23
0.0
 33
0.0
 40
0.0
 40
0.0
 40
0.0
 40
0.0
 40
1.0
 40
1.0
 40
1.0
 40
2.0
 40
2.0
 40
2.0
 40
3.0
 40
3.0
 40
3.0
 40
4.0
 40
4.0
 40
4.0
 40
4.0
 10
64.0108911447239
 20
-147.6595485741962
 30
0.0
 10
64.0108911447239
 20
-147.5989060742116
 30
0.0
 10
63.96129059043376
 20
-147.5485999631127
 30
0.0
 10
63.89997781422019
 20
-147.5485999631127
 30
0.0
 10
63.83866665070702
 20
-147.5485999631127
 30
0.0
 10
63.78835892817894
 20
-147.5989060742116
 30
0.0
 10
63.78835892817894
 20
-147.6595485741962
 30
0.0
 10
63.78835892817894
 20
-147.7215669075144
 30
0.0
 10
63.83866665070702
 20
-147.7718730186126
 30
0.0
 10
63.89997781422019
 20
-147.7718730186126
 30
0.0
 10
63.96129059043376
 20
-147.7718730186126
 30
0.0
 10
64.0108911447239
 20
-147.7215669075144
 30
0.0
 10
64.0108911447239
 20
-147.6595485741962
 30
0.0
  0
SPLINE
  5
BA
330
1F
100
AcDbEntity
  8
_U+30EC_U+30A4_U+30E4_U+30FC 1
 62
     7
420
 16777215
370
     9
100
AcDbSpline
210
0.0
220
0.0
230
1.0
 70
    11
 71
     3
 72
    17
 73
    13
 74
     0
 42
0.0000000001
 43
0.0000000001
 12
1.0
 22
0.0
 32
0.0
 13
1.0
 23
0.0
 33
0.0
 40
0.0
 40
0.0
 40
0.0
 40
0.0
 40
1.0
 40
1.0
 40
1.0
 40
2.0
 40
2.0
 40
2.0
 40
3.0
 40
3.0
 40
3.0
 40
4.0
 40
4.0
 40
4.0
 40
4.0
 10
117.5990336664654
 20
-131.1540994116561
 30
0.0
 10
117.5990336664654
 20
-131.0927866338935
 30
0.0
 10
117.5490833039458
 20
-131.0424805227952
 30
0.0
 10
117.4874147804241
 20
-131.0424805227952
 30
0.0
 10
117.4257492264418
 20
-131.0424805227952
 30
0.0
 10
117.3757958943829
 20
-131.0927866338935
 30
0.0
 10
117.3757958943829
 20
-131.1540994116561
 30
0.0
 10
117.3757958943829
 20
-131.2161177449736
 30
0.0
 10
117.4257492264418
 20
-131.2664238560725
 30
0.0
 10
117.4874147804241
 20
-131.2664238560725
 30
0.0
 10
117.5490833039458
 20
-131.2664238560725
 30
0.0
 10
117.5990336664654
 20
-131.2161177449736
 30
0.0
 10
117.5990336664654
 20
-131.1540994116561
 30
0.0
  0
SPLINE
  5
BB
330
1F
100
AcDbEntity
  8
_U+30EC_U+30A4_U+30E4_U+30FC 1
 62
     7
420
 16777215
370
     9
100
AcDbSpline
210
0.0
220
0.0
230
1.0
 70
    11
 71
     3
 72
    17
 73
    13
 74
     0
 42
0.0000000001
 43
0.0000000001
 12
1.0
 22
0.0
 32
0.0
 13
1.0
 23
0.0
 33
0.0
 40
0.0
 40
0.0
 40
0.0
 40
0.0
 40
1.0
 40
1.0
 40
1.0
 40
2.0
 40
2.0
 40
2.0
 40
3.0
 40
3.0
 40
3.0
 40
4.0
 40
4.0
 40
4.0
 40
4.0
 10
117.5990336664654
 20
-132.1731685780678
 30
0.0
 10
117.5990336664654
 20
-132.1118205225277
 30
0.0
 10
117.5490833039458
 20
-132.0622199669843
 30
0.0
 10
117.4874147804241
 20
-132.0622199669843
 30
0.0
 10
117.4257492264418
 20
-132.0622199669843
 30
0.0
 10
117.3757958943829
 20
-132.1118205225277
 30
0.0
 10
117.3757958943829
 20
-132.1731685780678
 30
0.0
 10
117.3757958943829
 20
-132.2351516336078
 30
0.0
 10
117.4257492264418
 20
-132.2847874669287
 30
0.0
 10
117.4874147804241
 20
-132.2847874669287
 30
0.0
 10
117.5490833039458
 20
-132.2847874669287
 30
0.0
 10
117.5990336664654
 20
-132.2351516336078
 30
0.0
 10
117.5990336664654
 20
-132.1731685780678
 30
0.0
  0
SPLINE
  5
BC
330
1F
100
AcDbEntity
  8
_U+30EC_U+30A4_U+30E4_U+30FC 1
 62
     7
420
 16777215
370
     9
100
AcDbSpline
210
0.0
220
0.0
230
1.0
 70
    11
 71
     3
 72
    17
 73
    13
 74
     0
 42
0.0000000001
 43
0.0000000001
 12
1.0
 22
0.0
 32
0.0
 13
1.0
 23
0.0
 33
0.0
 40
0.0
 40
0.0
 40
0.0
 40
0.0
 40
1.0
 40
1.0
 40
1.0
 40
2.0
 40
2.0
 40
2.0
 40
3.0
 40
3.0
 40
3.0
 40
4.0
 40
4.0
 40
4.0
 40
4.0
 10
117.5990336664654
 20
-147.6895346852995
 30
0.0
 10
117.5990336664654
 20
-147.6281866297594
 30
0.0
 10
117.5490833039458
 20
-147.5779157964386
 30
0.0
 10
117.4874147804241
 20
-147.5779157964386
 30
0.0
 10
117.4257492264418
 20
-147.5779157964386
 30
0.0
 10
117.3757958943829
 20
-147.6281866297594
 30
0.0
 10
117.3757958943829
 20
-147.6895346852995
 30
0.0
 10
117.3757958943829
 20
-147.7515177408402
 30
0.0
 10
117.4257492264418
 20
-147.801153574161
 30
0.0
 10
117.4874147804241
 20
-147.801153574161
 30
0.0
 10
117.5490833039458
 20
-147.801153574161
 30
0.0
 10
117.5990336664654
 20
-147.7515177408402
 30
0.0
 10
117.5990336664654
 20
-147.6895346852995
 30
0.0
  0
POLYLINE
  5
BD
330
1F
100
AcDbEntity
  8
_U+30EC_U+30A4_U+30E4_U+30FC 1
 62
     7
420
 16777215
370
     9
100
AcDb2dPolyline
 66
     1
 10
0.0
 20
0.0
 30
0.0
  0
VERTEX
  5
BE
330
BD
100
AcDbEntity
  8
_U+30EC_U+30A4_U+30E4_U+30FC 1
 62
     7
420
 16777215
370
     9
100
AcDbVertex
100
AcDb2dVertex
 10
115.4265576107787
 20
-141.6530130201421
 30
0.0
  0
VERTEX
  5
BF
330
BD
100
AcDbEntity
  8
_U+30EC_U+30A4_U+30E4_U+30FC 1
 62
     7
420
 16777215
370
     9
100
AcDbVertex
100
AcDb2dVertex
 10
97.03558224663827
 20
-141.6530130201421
 30
0.0
  0
SEQEND
  5
C0
330
BD
100
AcDbEntity
  8
_U+30EC_U+30A4_U+30E4_U+30FC 1
 62
     7
420
 16777215
370
     9
  0
POLYLINE
  5
C1
330
1F
100
AcDbEntity
  8
_U+30EC_U+30A4_U+30E4_U+30FC 1
 62
     7
420
 16777215
370
     9
100
AcDb2dPolyline
 66
     1
 10
0.0
 20
0.0
 30
0.0
  0
VERTEX
  5
C2
330
C1
100
AcDbEntity
  8
_U+30EC_U+30A4_U+30E4_U+30FC 1
 62
     7
420
 16777215
370
     9
100
AcDbVertex
100
AcDb2dVertex
 10
113.7873757081533
 20
-147.6071963519871
 30
0.0
  0
VERTEX
  5
C3
330
C1
100
AcDbEntity
  8
_U+30EC_U+30A4_U+30E4_U+30FC 1
 62
     7
420
 16777215
370
     9
100
AcDbVertex
100
AcDb2dVertex
 10
113.7873757081533
 20
-141.6736857979148
 30
0.0
  0
SEQEND
  5
C4
330
C1
100
AcDbEntity
  8
_U+30EC_U+30A4_U+30E4_U+30FC 1
 62
     7
420
 16777215
370
     9
  0
SPLINE
  5
C5
330
1F
100
AcDbEntity
  8
_U+30EC_U+30A4_U+30E4_U+30FC 1
 62
     7
420
 16777215
370
     9
100
AcDbSpline
210
0.0
220
0.0
230
1.0
 70
    11
 71
     3
 72
    17
 73
    13
 74
     0
 42
0.0000000001
 43
0.0000000001
 12
1.0
 22
0.0
 32
0.0
 13
1.0
 23
0.0
 33
0.0
 40
0.0
 40
0.0
 40
0.0
 40
0.0
 40
1.0
 40
1.0
 40
1.0
 40
2.0
 40
2.0
 40
2.0
 40
3.0
 40
3.0
 40
3.0
 40
4.0
 40
4.0
 40
4.0
 40
4.0
 10
113.910706816118
 20
-141.6736857979148
 30
0.0
 10
113.910706816118
 20
-141.6123730201522
 30
0.0
 10
113.8607534840591
 20
-141.5627724646094
 30
0.0
 10
113.7990879300767
 20
-141.5627724646094
 30
0.0
 10
113.7374223760944
 20
-141.5627724646094
 30
0.0
 10
113.6874690440355
 20
-141.6123730201522
 30
0.0
 10
113.6874690440355
 20
-141.6736857979148
 30
0.0
 10
113.6874690440355
 20
-141.7357041312329
 30
0.0
 10
113.7374223760944
 20
-141.7853046867757
 30
0.0
 10
113.7990879300767
 20
-141.7853046867757
 30
0.0
 10
113.8607534840591
 20
-141.7853046867757
 30
0.0
 10
113.910706816118
 20
-141.7357041312329
 30
0.0
 10
113.910706816118
 20
-141.6736857979148
 30
0.0
  0
SPLINE
  5
C6
330
1F
100
AcDbEntity
  8
_U+30EC_U+30A4_U+30E4_U+30FC 1
 62
     7
420
 16777215
370
     9
100
AcDbSpline
210
0.0
220
0.0
230
1.0
 70
    11
 71
     3
 72
    17
 73
    13
 74
     0
 42
0.0000000001
 43
0.0000000001
 12
1.0
 22
0.0
 32
0.0
 13
1.0
 23
0.0
 33
0.0
 40
0.0
 40
0.0
 40
0.0
 40
0.0
 40
1.0
 40
1.0
 40
1.0
 40
2.0
 40
2.0
 40
2.0
 40
3.0
 40
3.0
 40
3.0
 40
4.0
 40
4.0
 40
4.0
 40
4.0
 10
113.910706816118
 20
-147.6895346852995
 30
0.0
 10
113.910706816118
 20
-147.6281866297594
 30
0.0
 10
113.8607534840591
 20
-147.5779157964386
 30
0.0
 10
113.7990879300767
 20
-147.5779157964386
 30
0.0
 10
113.7374223760944
 20
-147.5779157964386
 30
0.0
 10
113.6874690440355
 20
-147.6281866297594
 30
0.0
 10
113.6874690440355
 20
-147.6895346852995
 30
0.0
 10
113.6874690440355
 20
-147.7515177408402
 30
0.0
 10
113.7374223760944
 20
-147.801153574161
 30
0.0
 10
113.7990879300767
 20
-147.801153574161
 30
0.0
 10
113.8607534840591
 20
-147.801153574161
 30
0.0
 10
113.910706816118
 20
-147.7515177408402
 30
0.0
 10
113.910706816118
 20
-147.6895346852995
 30
0.0
  0
ENDSEC
  0
SECTION
  2
OBJECTS
  0
DICTIONARY
  5
C
330
0
100
AcDbDictionary
281
     1
  3
ACAD_GROUP
350
D
  3
ACAD_LAYOUT
350
1A
  3
ACAD_MATERIAL
350
3B
  3
ACAD_MLEADERSTYLE
350
C8
  3
ACAD_MLINESTYLE
350
17
  3
ACAD_PLOTSETTINGS
350
19
  3
ACAD_PLOTSTYLENAME
350
E
  3
ACAD_TABLESTYLE
350
C7
  3
ACAD_VISUALSTYLE
350
2A
  0
SUN
  5
3F
330
29
100
AcDbSun
 90
        1
290
     0
 63
     7
421
 16777215
 40
1.0
291
     1
 91
  2455826
 92
 54000000
292
     0
 70
     2
 71
   256
280
     1
  0
DICTIONARY
  5
D
102
{ACAD_REACTORS
330
C
102
}
330
C
100
AcDbDictionary
281
     1
  0
DICTIONARY
  5
1A
102
{ACAD_REACTORS
330
C
102
}
330
C
100
AcDbDictionary
281
     1
  3
Layout1
350
1E
  3
Layout2
350
26
  3
Model
350
22
  0
DICTIONARY
  5
3B
102
{ACAD_REACTORS
330
C
102
}
330
C
100
AcDbDictionary
281
     1
  3
ByBlock
350
3D
  3
ByLayer
350
3C
  3
Global
350
3E
  0
DICTIONARY
  5
C8
102
{ACAD_REACTORS
330
C
102
}
330
C
100
AcDbDictionary
281
     1
  0
DICTIONARY
  5
17
102
{ACAD_REACTORS
330
C
102
}
330
C
100
AcDbDictionary
281
     1
  3
Standard
350
18
  0
DICTIONARY
  5
19
102
{ACAD_REACTORS
330
C
102
}
330
C
100
AcDbDictionary
281
     1
  0
ACDBDICTIONARYWDFLT
  5
E
102
{ACAD_REACTORS
330
C
102
}
330
C
100
AcDbDictionary
281
     1
  3
Normal
350
F
100
AcDbDictionaryWithDefault
340
F
  0
DICTIONARY
  5
C7
102
{ACAD_REACTORS
330
C
102
}
330
C
100
AcDbDictionary
281
     1
  0
DICTIONARY
  5
2A
102
{ACAD_REACTORS
330
C
102
}
330
C
100
AcDbDictionary
281
     1
  3
2dWireframe
350
2F
  3
3D Hidden
350
31
  3
3dWireframe
350
30
  3
Basic
350
32
  3
Brighten
350
36
  3
ColorChange
350
3A
  3
Conceptual
350
34
  3
Dim
350
35
  3
Facepattern
350
39
  3
Flat
350
2B
  3
FlatWithEdges
350
2C
  3
Gouraud
350
2D
  3
GouraudWithEdges
350
2E
  3
Linepattern
350
38
  3
Realistic
350
33
  3
Thicken
350
37
  0
LAYOUT
  5
1E
102
{ACAD_REACTORS
330
1A
102
}
330
1A
100
AcDbPlotSettings
  1

  2
none_device
  4

  6

 40
0.0
 41
0.0
 42
0.0
 43
0.0
 44
0.0
 45
0.0
 46
0.0
 47
0.0
 48
0.0
 49
0.0
140
0.0
141
0.0
142
1.0
143
1.0
 70
   688
 72
     0
 73
     0
 74
     5
  7

 75
    16
 76
     0
 77
     2
 78
   300
147
1.0
148
0.0
149
0.0
100
AcDbLayout
  1
Layout1
 70
     1
 71
     1
 10
0.0
 20
0.0
 11
12.0
 21
9.0
 12
0.0
 22
0.0
 32
0.0
 14
1.000000000000000E+20
 24
1.000000000000000E+20
 34
1.000000000000000E+20
 15
-1.000000000000000E+20
 25
-1.000000000000000E+20
 35
-1.000000000000000E+20
146
0.0
 13
0.0
 23
0.0
 33
0.0
 16
1.0
 26
0.0
 36
0.0
 17
0.0
 27
1.0
 37
0.0
 76
     0
330
1B
  0
LAYOUT
  5
26
102
{ACAD_REACTORS
330
1A
102
}
330
1A
100
AcDbPlotSettings
  1

  2
none_device
  4

  6

 40
0.0
 41
0.0
 42
0.0
 43
0.0
 44
0.0
 45
0.0
 46
0.0
 47
0.0
 48
0.0
 49
0.0
140
0.0
141
0.0
142
1.0
143
1.0
 70
   688
 72
     0
 73
     0
 74
     5
  7

 75
    16
 76
     0
 77
     2
 78
   300
147
1.0
148
0.0
149
0.0
100
AcDbLayout
  1
Layout2
 70
     1
 71
     2
 10
0.0
 20
0.0
 11
0.0
 21
0.0
 12
0.0
 22
0.0
 32
0.0
 14
0.0
 24
0.0
 34
0.0
 15
0.0
 25
0.0
 35
0.0
146
0.0
 13
0.0
 23
0.0
 33
0.0
 16
1.0
 26
0.0
 36
0.0
 17
0.0
 27
1.0
 37
0.0
 76
     0
330
23
  0
LAYOUT
  5
22
102
{ACAD_REACTORS
330
1A
102
}
330
1A
100
AcDbPlotSettings
  1

  2
none_device
  4

  6

 40
0.0
 41
0.0
 42
0.0
 43
0.0
 44
0.0
 45
0.0
 46
0.0
 47
0.0
 48
0.0
 49
0.0
140
0.0
141
0.0
142
1.0
143
1.0
 70
  1712
 72
     0
 73
     0
 74
     0
  7

 75
     0
 76
     0
 77
     2
 78
   300
147
1.0
148
0.0
149
0.0
100
AcDbLayout
  1
Model
 70
     1
 71
     0
 10
0.0
 20
0.0
 11
12.0
 21
9.0
 12
0.0
 22
0.0
 32
0.0
 14
1.000000000000000E+20
 24
1.000000000000000E+20
 34
1.000000000000000E+20
 15
-1.000000000000000E+20
 25
-1.000000000000000E+20
 35
-1.000000000000000E+20
146
0.0
 13
0.0
 23
0.0
 33
0.0
 16
1.0
 26
0.0
 36
0.0
 17
0.0
 27
1.0
 37
0.0
 76
     0
330
1F
331
29
  0
MATERIAL
  5
3D
102
{ACAD_REACTORS
330
3B
102
}
330
3B
100
AcDbMaterial
  1
ByBlock
 72
     1
 94
      127
  0
MATERIAL
  5
3C
102
{ACAD_REACTORS
330
3B
102
}
330
3B
100
AcDbMaterial
  1
ByLayer
 72
     1
 94
      127
  0
MATERIAL
  5
3E
102
{ACAD_REACTORS
330
3B
102
}
330
3B
100
AcDbMaterial
  1
Global
 72
     1
 94
      127
  0
MLINESTYLE
  5
18
102
{ACAD_REACTORS
330
17
102
}
330
17
100
AcDbMlineStyle
  2
Standard
 70
     0
  3

 62
   256
 51
90.0
 52
90.0
 71
     2
 49
0.5
 62
   256
  6
BYLAYER
 49
-0.5
 62
   256
  6
BYLAYER
  0
ACDBPLACEHOLDER
  5
F
102
{ACAD_REACTORS
330
E
102
}
330
E
  0
VISUALSTYLE
  5
2F
102
{ACAD_REACTORS
330
2A
102
}
330
2A
100
AcDbVisualStyle
  2
2dWireframe
 70
     4
177
     2
291
     0
 71
     0
176
     1
 72
     2
176
     1
 73
     0
176
     1
 90
        0
176
     1
 40
-0.6
176
     1
 41
-30.0
176
     1
 62
     5
 63
     7
421
 16777215
176
     1
 74
     1
176
     1
 91
        4
176
     1
 64
     7
176
     1
 65
   257
176
     1
 75
     1
176
     1
175
     1
176
     1
 42
1.0
176
     1
 92
        0
176
     1
 66
   257
176
     1
 43
1.0
176
     1
 76
     1
176
     1
 77
     6
176
     1
 78
     2
176
     1
 67
     7
176
     1
 79
     5
176
     1
170
     0
176
     1
171
     0
176
     1
290
     0
176
     1
 93
        1
176
     1
 44
0.0
176
     1
173
     0
176
     1
  0
VISUALSTYLE
  5
31
102
{ACAD_REACTORS
330
2A
102
}
330
2A
100
AcDbVisualStyle
  2
3D Hidden
 70
     6
177
     2
291
     0
 71
     1
176
     1
 72
     2
176
     1
 73
     2
176
     1
 90
        0
176
     1
 40
-0.6
176
     1
 41
-30.0
176
     1
 62
     5
 63
     7
421
 16777215
176
     1
 74
     2
176
     1
 91
        2
176
     1
 64
     7
176
     1
 65
   257
176
     1
 75
     2
176
     1
175
     1
176
     1
 42
40.0
176
     1
 92
        0
176
     1
 66
   257
176
     1
 43
1.0
176
     1
 76
     1
176
     1
 77
     6
176
     1
 78
     2
176
     1
 67
     7
176
     1
 79
     3
176
     1
170
     0
176
     1
171
     0
176
     1
290
     0
176
     1
 93
        1
176
     1
 44
0.0
176
     1
173
     0
176
     1
  0
VISUALSTYLE
  5
30
102
{ACAD_REACTORS
330
2A
102
}
330
2A
100
AcDbVisualStyle
  2
3dWireframe
 70
     5
177
     2
291
     0
 71
     0
176
     1
 72
     2
176
     1
 73
     0
176
     1
 90
        0
176
     1
 40
-0.6
176
     1
 41
-30.0
176
     1
 62
     5
 63
     7
421
 16777215
176
     1
 74
     1
176
     1
 91
        4
176
     1
 64
     7
176
     1
 65
   257
176
     1
 75
     1
176
     1
175
     1
176
     1
 42
1.0
176
     1
 92
        0
176
     1
 66
   257
176
     1
 43
1.0
176
     1
 76
     1
176
     1
 77
     6
176
     1
 78
     2
176
     1
 67
     7
176
     1
 79
     5
176
     1
170
     0
176
     1
171
     0
176
     1
290
     0
176
     1
 93
        1
176
     1
 44
0.0
176
     1
173
     0
176
     1
  0
VISUALSTYLE
  5
32
102
{ACAD_REACTORS
330
2A
102
}
330
2A
100
AcDbVisualStyle
  2
Basic
 70
     7
177
     2
291
     1
 71
     1
176
     1
 72
     0
176
     1
 73
     1
176
     1
 90
        0
176
     1
 40
-0.6
176
     1
 41
-30.0
176
     1
 62
     5
 63
     7
421
 16777215
176
     1
 74
     0
176
     1
 91
        4
176
     1
 64
     7
176
     1
 65
   257
176
     1
 75
     1
176
     1
175
     1
176
     1
 42
1.0
176
     1
 92
        8
176
     1
 66
     7
176
     1
 43
1.0
176
     1
 76
     1
176
     1
 77
     6
176
     1
 78
     2
176
     1
 67
     7
176
     1
 79
     5
176
     1
170
     0
176
     1
171
     0
176
     1
290
     0
176
     1
 93
        1
176
     1
 44
0.0
176
     1
173
     0
176
     1
  0
VISUALSTYLE
  5
36
102
{ACAD_REACTORS
330
2A
102
}
330
2A
100
AcDbVisualStyle
  2
Brighten
 70
    12
177
     2
291
     1
 71
     2
176
     1
 72
     2
176
     1
 73
     0
176
     1
 90
        0
176
     1
 40
-0.6
176
     1
 41
-30.0
176
     1
 62
     5
 63
     7
421
 16777215
176
     1
 74
     1
176
     1
 91
        4
176
     1
 64
     7
176
     1
 65
   257
176
     1
 75
     1
176
     1
175
     1
176
     1
 42
1.0
176
     1
 92
        8
176
     1
 66
     7
176
     1
 43
1.0
176
     1
 76
     1
176
     1
 77
     6
176
     1
 78
     2
176
     1
 67
     7
176
     1
 79
     5
176
     1
170
     0
176
     1
171
     0
176
     1
290
     0
176
     1
 93
        1
176
     1
 44
50.0
176
     1
173
     0
176
     1
  0
VISUALSTYLE
  5
3A
102
{ACAD_REACTORS
330
2A
102
}
330
2A
100
AcDbVisualStyle
  2
ColorChange
 70
    16
177
     2
291
     1
 71
     2
176
     1
 72
     2
176
     1
 73
     3
176
     1
 90
        0
176
     1
 40
-0.6
176
     1
 41
-30.0
176
     1
 62
     5
 63
     8
421
  8421504
176
     1
 74
     1
176
     1
 91
        4
176
     1
 64
     7
176
     1
 65
   257
176
     1
 75
     1
176
     1
175
     1
176
     1
 42
1.0
176
     1
 92
        8
176
     1
 66
     8
424
  8421504
176
     1
 43
1.0
176
     1
 76
     1
176
     1
 77
     6
176
     1
 78
     2
176
     1
 67
     7
176
     1
 79
     5
176
     1
170
     0
176
     1
171
     0
176
     1
290
     0
176
     1
 93
        1
176
     1
 44
0.0
176
     1
173
     0
176
     1
  0
VISUALSTYLE
  5
34
102
{ACAD_REACTORS
330
2A
102
}
330
2A
100
AcDbVisualStyle
  2
Conceptual
 70
     9
177
     2
291
     0
 71
     3
176
     1
 72
     2
176
     1
 73
     0
176
     1
 90
        0
176
     1
 40
-0.6
176
     1
 41
-30.0
176
     1
 62
     5
 63
     7
421
 16777215
176
     1
 74
     2
176
     1
 91
        2
176
     1
 64
     7
176
     1
 65
   257
176
     1
 75
     1
176
     1
175
     1
176
     1
 42
40.0
176
     1
 92
        8
176
     1
 66
     7
176
     1
 43
1.0
176
     1
 76
     1
176
     1
 77
     6
176
     1
 78
     2
176
     1
 67
     7
176
     1
 79
     3
176
     1
170
     0
176
     1
171
     0
176
     1
290
     0
176
     1
 93
        1
176
     1
 44
0.0
176
     1
173
     0
176
     1
  0
VISUALSTYLE
  5
35
102
{ACAD_REACTORS
330
2A
102
}
330
2A
100
AcDbVisualStyle
  2
Dim
 70
    11
177
     2
291
     1
 71
     2
176
     1
 72
     2
176
     1
 73
     0
176
     1
 90
        0
176
     1
 40
-0.6
176
     1
 41
-30.0
176
     1
 62
     5
 63
     7
421
 16777215
176
     1
 74
     1
176
     1
 91
        4
176
     1
 64
     7
176
     1
 65
   257
176
     1
 75
     1
176
     1
175
     1
176
     1
 42
1.0
176
     1
 92
        8
176
     1
 66
     7
176
     1
 43
1.0
176
     1
 76
     1
176
     1
 77
     6
176
     1
 78
     2
176
     1
 67
     7
176
     1
 79
     5
176
     1
170
     0
176
     1
171
     0
176
     1
290
     0
176
     1
 93
        1
176
     1
 44
-50.0
176
     1
173
     0
176
     1
  0
VISUALSTYLE
  5
39
102
{ACAD_REACTORS
330
2A
102
}
330
2A
100
AcDbVisualStyle
  2
Facepattern
 70
    15
177
     2
291
     1
 71
     2
176
     1
 72
     2
176
     1
 73
     0
176
     1
 90
        0
176
     1
 40
-0.6
176
     1
 41
-30.0
176
     1
 62
     5
 63
     7
421
 16777215
176
     1
 74
     1
176
     1
 91
        4
176
     1
 64
     7
176
     1
 65
   257
176
     1
 75
     1
176
     1
175
     1
176
     1
 42
1.0
176
     1
 92
        8
176
     1
 66
     7
176
     1
 43
1.0
176
     1
 76
     1
176
     1
 77
     6
176
     1
 78
     2
176
     1
 67
     7
176
     1
 79
     5
176
     1
170
     0
176
     1
171
     0
176
     1
290
     0
176
     1
 93
        1
176
     1
 44
0.0
176
     1
173
     0
176
     1
  0
VISUALSTYLE
  5
2B
102
{ACAD_REACTORS
330
2A
102
}
330
2A
100
AcDbVisualStyle
  2
Flat
 70
     0
177
     2
291
     1
 71
     2
176
     1
 72
     1
176
     1
 73
     1
176
     1
 90
        2
176
     1
 40
-0.6
176
     1
 41
30.0
176
     1
 62
     5
 63
     7
421
 16777215
176
     1
 74
     0
176
     1
 91
        4
176
     1
 64
     7
176
     1
 65
   257
176
     1
 75
     1
176
     1
175
     1
176
     1
 42
1.0
176
     1
 92
        8
176
     1
 66
     7
176
     1
 43
1.0
176
     1
 76
     1
176
     1
 77
     6
176
     1
 78
     2
176
     1
 67
     7
176
     1
 79
     5
176
     1
170
     0
176
     1
171
     0
176
     1
290
     0
176
     1
 93
       13
176
     1
 44
0.0
176
     1
173
     0
176
     1
  0
VISUALSTYLE
  5
2C
102
{ACAD_REACTORS
330
2A
102
}
330
2A
100
AcDbVisualStyle
  2
FlatWithEdges
 70
     1
177
     2
291
     1
 71
     2
176
     1
 72
     1
176
     1
 73
     1
176
     1
 90
        2
176
     1
 40
-0.6
176
     1
 41
30.0
176
     1
 62
     5
 63
     7
421
 16777215
176
     1
 74
     1
176
     1
 91
        4
176
     1
 64
     7
176
     1
 65
   257
176
     1
 75
     1
176
     1
175
     1
176
     1
 42
1.0
176
     1
 92
        0
176
     1
 66
   257
176
     1
 43
1.0
176
     1
 76
     1
176
     1
 77
     6
176
     1
 78
     2
176
     1
 67
     7
176
     1
 79
     5
176
     1
170
     0
176
     1
171
     0
176
     1
290
     0
176
     1
 93
       13
176
     1
 44
0.0
176
     1
173
     0
176
     1
  0
VISUALSTYLE
  5
2D
102
{ACAD_REACTORS
330
2A
102
}
330
2A
100
AcDbVisualStyle
  2
Gouraud
 70
     2
177
     2
291
     1
 71
     2
176
     1
 72
     2
176
     1
 73
     1
176
     1
 90
        2
176
     1
 40
-0.6
176
     1
 41
30.0
176
     1
 62
     5
 63
     7
421
 16777215
176
     1
 74
     0
176
     1
 91
        4
176
     1
 64
     7
176
     1
 65
   257
176
     1
 75
     1
176
     1
175
     1
176
     1
 42
1.0
176
     1
 92
        0
176
     1
 66
     7
176
     1
 43
1.0
176
     1
 76
     1
176
     1
 77
     6
176
     1
 78
     2
176
     1
 67
     7
176
     1
 79
     5
176
     1
170
     0
176
     1
171
     0
176
     1
290
     0
176
     1
 93
       13
176
     1
 44
0.0
176
     1
173
     0
176
     1
  0
VISUALSTYLE
  5
2E
102
{ACAD_REACTORS
330
2A
102
}
330
2A
100
AcDbVisualStyle
  2
GouraudWithEdges
 70
     3
177
     2
291
     1
 71
     2
176
     1
 72
     2
176
     1
 73
     1
176
     1
 90
        2
176
     1
 40
-0.6
176
     1
 41
30.0
176
     1
 62
     5
 63
     7
421
 16777215
176
     1
 74
     1
176
     1
 91
        4
176
     1
 64
     7
176
     1
 65
   257
176
     1
 75
     1
176
     1
175
     1
176
     1
 42
1.0
176
     1
 92
        0
176
     1
 66
   257
176
     1
 43
1.0
176
     1
 76
     1
176
     1
 77
     6
176
     1
 78
     2
176
     1
 67
     7
176
     1
 79
     5
176
     1
170
     0
176
     1
171
     0
176
     1
290
     0
176
     1
 93
       13
176
     1
 44
0.0
176
     1
173
     0
176
     1
  0
VISUALSTYLE
  5
38
102
{ACAD_REACTORS
330
2A
102
}
330
2A
100
AcDbVisualStyle
  2
Linepattern
 70
    14
177
     2
291
     1
 71
     2
176
     1
 72
     2
176
     1
 73
     0
176
     1
 90
        0
176
     1
 40
-0.6
176
     1
 41
-30.0
176
     1
 62
     5
 63
     7
421
 16777215
176
     1
 74
     1
176
     1
 91
        4
176
     1
 64
     7
176
     1
 65
   257
176
     1
 75
     7
176
     1
175
     7
176
     1
 42
1.0
176
     1
 92
        8
176
     1
 66
     7
176
     1
 43
1.0
176
     1
 76
     1
176
     1
 77
     6
176
     1
 78
     2
176
     1
 67
     7
176
     1
 79
     5
176
     1
170
     0
176
     1
171
     0
176
     1
290
     0
176
     1
 93
        1
176
     1
 44
0.0
176
     1
173
     0
176
     1
  0
VISUALSTYLE
  5
33
102
{ACAD_REACTORS
330
2A
102
}
330
2A
100
AcDbVisualStyle
  2
Realistic
 70
     8
177
     2
291
     0
 71
     2
176
     1
 72
     2
176
     1
 73
     0
176
     1
 90
        0
176
     1
 40
-0.6
176
     1
 41
-30.0
176
     1
 62
     5
 63
     7
421
 16777215
176
     1
 74
     1
176
     1
 91
        0
176
     1
 64
     7
176
     1
 65
   257
176
     1
 75
     1
176
     1
175
     1
176
     1
 42
1.0
176
     1
 92
        8
176
     1
 66
     8
424
  7895160
176
     1
 43
1.0
176
     1
 76
     1
176
     1
 77
     6
176
     1
 78
     2
176
     1
 67
     7
176
     1
 79
     5
176
     1
170
     0
176
     1
171
     0
176
     1
290
     0
176
     1
 93
       13
176
     1
 44
0.0
176
     1
173
     0
176
     1
  0
VISUALSTYLE
  5
37
102
{ACAD_REACTORS
330
2A
102
}
330
2A
100
AcDbVisualStyle
  2
Thicken
 70
    13
177
     2
291
     1
 71
     2
176
     1
 72
     2
176
     1
 73
     0
176
     1
 90
        0
176
     1
 40
-0.6
176
     1
 41
-30.0
176
     1
 62
     5
 63
     7
421
 16777215
176
     1
 74
     1
176
     1
 91
        4
176
     1
 64
     7
176
     1
 65
   257
176
     1
 75
     1
176
     1
175
     1
176
     1
 42
1.0
176
     1
 92
       12
176
     1
 66
     7
176
     1
 43
1.0
176
     1
 76
     1
176
     1
 77
     6
176
     1
 78
     2
176
     1
 67
     7
176
     1
 79
     5
176
     1
170
     0
176
     1
171
     0
176
     1
290
     0
176
     1
 93
        1
176
     1
 44
0.0
176
     1
173
     0
176
     1
  0
ENDSEC
  0
EOF
