  0
SECTION
  2
HEADER
  9
$ACADVER
  1
AC1024
  9
$ACADMAINTVER
 70
     6
  9
$DWGCODEPAGE
  3
UNDEFINED
  9
$INSBASE
 10
0.0
 20
0.0
 30
0.0
  9
$EXTMIN
 10
1.000000000000000E+20
 20
1.000000000000000E+20
 30
1.000000000000000E+20
  9
$EXTMAX
 10
-1.000000000000000E+20
 20
-1.000000000000000E+20
 30
-1.000000000000000E+20
  9
$LIMMIN
 10
0.0
 20
0.0
  9
$LIMMAX
 10
12.0
 20
9.0
  9
$ORTHOMODE
 70
     0
  9
$REGENMODE
 70
     1
  9
$FILLMODE
 70
     1
  9
$QTEXTMODE
 70
     0
  9
$MIRRTEXT
 70
     1
  9
$LTSCALE
 40
1.0
  9
$ATTMODE
 70
     1
  9
$TEXTSIZE
 40
0.2
  9
$TRACEWID
 40
0.05
  9
$TEXTSTYLE
  7
Standard
  9
$CLAYER
  8
0
  9
$CELTYPE
  6
ByLayer
  9
$CECOLOR
 62
   256
  9
$CELTSCALE
 40
1.0
  9
$DISPSILH
 70
     0
  9
$DIMSCALE
 40
1.0
  9
$DIMASZ
 40
0.18
  9
$DIMEXO
 40
0.0625
  9
$DIMDLI
 40
0.38
  9
$DIMRND
 40
0.0
  9
$DIMDLE
 40
0.0
  9
$DIMEXE
 40
0.18
  9
$DIMTP
 40
0.0
  9
$DIMTM
 40
0.0
  9
$DIMTXT
 40
0.18
  9
$DIMCEN
 40
0.09
  9
$DIMTSZ
 40
0.0
  9
$DIMTOL
 70
     0
  9
$DIMLIM
 70
     0
  9
$DIMTIH
 70
     1
  9
$DIMTOH
 70
     1
  9
$DIMSE1
 70
     0
  9
$DIMSE2
 70
     0
  9
$DIMTAD
 70
     0
  9
$DIMZIN
 70
     0
  9
$DIMBLK
  1

  9
$DIMASO
 70
     1
  9
$DIMSHO
 70
     1
  9
$DIMPOST
  1

  9
$DIMAPOST
  1

  9
$DIMALT
 70
     0
  9
$DIMALTD
 70
     2
  9
$DIMALTF
 40
25.4
  9
$DIMLFAC
 40
1.0
  9
$DIMTOFL
 70
     0
  9
$DIMTVP
 40
0.0
  9
$DIMTIX
 70
     0
  9
$DIMSOXD
 70
     0
  9
$DIMSAH
 70
     0
  9
$DIMBLK1
  1

  9
$DIMBLK2
  1

  9
$DIMSTYLE
  2
Standard
  9
$DIMCLRD
 70
     0
  9
$DIMCLRE
 70
     0
  9
$DIMCLRT
 70
     0
  9
$DIMTFAC
 40
1.0
  9
$DIMGAP
 40
0.09
  9
$DIMJUST
 70
     0
  9
$DIMSD1
 70
     0
  9
$DIMSD2
 70
     0
  9
$DIMTOLJ
 70
     1
  9
$DIMTZIN
 70
     0
  9
$DIMALTZ
 70
     0
  9
$DIMALTTZ
 70
     0
  9
$DIMUPT
 70
     0
  9
$DIMDEC
 70
     4
  9
$DIMTDEC
 70
     4
  9
$DIMALTU
 70
     2
  9
$DIMALTTD
 70
     2
  9
$DIMTXSTY
  7
Standard
  9
$DIMAUNIT
 70
     0
  9
$DIMADEC
 70
     0
  9
$DIMALTRND
 40
0.0
  9
$DIMAZIN
 70
     0
  9
$DIMDSEP
 70
    46
  9
$DIMATFIT
 70
     3
  9
$DIMFRAC
 70
     0
  9
$DIMLDRBLK
  1

  9
$DIMLUNIT
 70
     2
  9
$DIMLWD
 70
    -2
  9
$DIMLWE
 70
    -2
  9
$DIMTMOVE
 70
     0
  9
$DIMFXL
 40
1.0
  9
$DIMFXLON
 70
     0
  9
$DIMJOGANG
 40
0.7853981633974483
  9
$DIMTFILL
 70
     0
  9
$DIMTFILLCLR
 70
     0
  9
$DIMARCSYM
 70
     0
  9
$DIMLTYPE
  6

  9
$DIMLTEX1
  6

  9
$DIMLTEX2
  6

  9
$DIMTXTDIRECTION
 70
     0
  9
$LUNITS
 70
     2
  9
$LUPREC
 70
     4
  9
$SKETCHINC
 40
0.1
  9
$FILLETRAD
 40
0.5
  9
$AUNITS
 70
     0
  9
$AUPREC
 70
     0
  9
$MENU
  1
.
  9
$ELEVATION
 40
0.0
  9
$PELEVATION
 40
0.0
  9
$THICKNESS
 40
0.0
  9
$LIMCHECK
 70
     0
  9
$CHAMFERA
 40
0.5
  9
$CHAMFERB
 40
0.5
  9
$CHAMFERC
 40
1.0
  9
$CHAMFERD
 40
0.0
  9
$SKPOLY
 70
     0
  9
$TDCREATE
 40
2457917.622986111
  9
$TDUCREATE
 40
2457917.247986111
  9
$TDUPDATE
 40
2457917.622986111
  9
$TDUUPDATE
 40
2457917.247986111
  9
$TDINDWG
 40
0.0000000116
  9
$TDUSRTIMER
 40
0.0000000116
  9
$USRTIMER
 70
     1
  9
$ANGBASE
 50
0.0
  9
$ANGDIR
 70
     0
  9
$PDMODE
 70
     0
  9
$PDSIZE
 40
0.0
  9
$PLINEWID
 40
0.0
  9
$SPLFRAME
 70
     0
  9
$SPLINETYPE
 70
     6
  9
$SPLINESEGS
 70
     8
  9
$HANDSEED
  5
BA
  9
$SURFTAB1
 70
     6
  9
$SURFTAB2
 70
     6
  9
$SURFTYPE
 70
     6
  9
$SURFU
 70
     6
  9
$SURFV
 70
     6
  9
$UCSBASE
  2

  9
$UCSNAME
  2

  9
$UCSORG
 10
0.0
 20
0.0
 30
0.0
  9
$UCSXDIR
 10
1.0
 20
0.0
 30
0.0
  9
$UCSYDIR
 10
0.0
 20
1.0
 30
0.0
  9
$UCSORTHOREF
  2

  9
$UCSORTHOVIEW
 70
     0
  9
$UCSORGTOP
 10
0.0
 20
0.0
 30
0.0
  9
$UCSORGBOTTOM
 10
0.0
 20
0.0
 30
0.0
  9
$UCSORGLEFT
 10
0.0
 20
0.0
 30
0.0
  9
$UCSORGRIGHT
 10
0.0
 20
0.0
 30
0.0
  9
$UCSORGFRONT
 10
0.0
 20
0.0
 30
0.0
  9
$UCSORGBACK
 10
0.0
 20
0.0
 30
0.0
  9
$PUCSBASE
  2

  9
$PUCSNAME
  2

  9
$PUCSORG
 10
0.0
 20
0.0
 30
0.0
  9
$PUCSXDIR
 10
1.0
 20
0.0
 30
0.0
  9
$PUCSYDIR
 10
0.0
 20
1.0
 30
0.0
  9
$PUCSORTHOREF
  2

  9
$PUCSORTHOVIEW
 70
     0
  9
$PUCSORGTOP
 10
0.0
 20
0.0
 30
0.0
  9
$PUCSORGBOTTOM
 10
0.0
 20
0.0
 30
0.0
  9
$PUCSORGLEFT
 10
0.0
 20
0.0
 30
0.0
  9
$PUCSORGRIGHT
 10
0.0
 20
0.0
 30
0.0
  9
$PUCSORGFRONT
 10
0.0
 20
0.0
 30
0.0
  9
$PUCSORGBACK
 10
0.0
 20
0.0
 30
0.0
  9
$USERI1
 70
     0
  9
$USERI2
 70
     0
  9
$USERI3
 70
     0
  9
$USERI4
 70
     0
  9
$USERI5
 70
     0
  9
$USERR1
 40
0.0
  9
$USERR2
 40
0.0
  9
$USERR3
 40
0.0
  9
$USERR4
 40
0.0
  9
$USERR5
 40
0.0
  9
$WORLDVIEW
 70
     1
  9
$SHADEDGE
 70
     3
  9
$SHADEDIF
 70
    70
  9
$TILEMODE
 70
     1
  9
$MAXACTVP
 70
    64
  9
$PINSBASE
 10
0.0
 20
0.0
 30
0.0
  9
$PLIMCHECK
 70
     0
  9
$PEXTMIN
 10
1.000000000000000E+20
 20
1.000000000000000E+20
 30
1.000000000000000E+20
  9
$PEXTMAX
 10
-1.000000000000000E+20
 20
-1.000000000000000E+20
 30
-1.000000000000000E+20
  9
$PLIMMIN
 10
0.0
 20
0.0
  9
$PLIMMAX
 10
12.0
 20
9.0
  9
$UNITMODE
 70
     0
  9
$VISRETAIN
 70
     1
  9
$PLINEGEN
 70
     0
  9
$PSLTSCALE
 70
     1
  9
$TREEDEPTH
 70
  3020
  9
$CMLSTYLE
  2
Standard
  9
$CMLJUST
 70
     0
  9
$CMLSCALE
 40
1.0
  9
$PROXYGRAPHICS
 70
     1
  9
$MEASUREMENT
 70
     0
  9
$CELWEIGHT
370
    -1
  9
$ENDCAPS
280
     0
  9
$JOINSTYLE
280
     0
  9
$LWDISPLAY
290
     1
  9
$INSUNITS
 70
     1
  9
$HYPERLINKBASE
  1

  9
$STYLESHEET
  1

  9
$XEDIT
290
     1
  9
$CEPSNTYPE
380
     0
  9
$PSTYLEMODE
290
     1
  9
$FINGERPRINTGUID
  2
{5EBCD609-8C28-34A6-E531-0D241A881CE9}
  9
$VERSIONGUID
  2
{FAEB1C32-E019-11D5-929B-00C0DF256EC4}
  9
$EXTNAMES
290
     1
  9
$PSVPSCALE
 40
0.0
  9
$OLESTARTUP
290
     0
  9
$SORTENTS
280
   127
  9
$INDEXCTL
280
     0
  9
$HIDETEXT
280
     1
  9
$XCLIPFRAME
280
     2
  9
$HALOGAP
280
     0
  9
$OBSCOLOR
 70
   257
  9
$OBSLTYPE
280
     0
  9
$INTERSECTIONDISPLAY
280
     0
  9
$INTERSECTIONCOLOR
 70
   257
  9
$DIMASSOC
280
     2
  9
$PROJECTNAME
  1

  9
$CAMERADISPLAY
290
     0
  9
$LENSLENGTH
 40
50.0
  9
$CAMERAHEIGHT
 40
0.0
  9
$STEPSPERSEC
 40
2.0
  9
$STEPSIZE
 40
6.0
  9
$3DDWFPREC
 40
2.0
  9
$PSOLWIDTH
 40
0.25
  9
$PSOLHEIGHT
 40
4.0
  9
$LOFTANG1
 40
1.570796326794897
  9
$LOFTANG2
 40
1.570796326794897
  9
$LOFTMAG1
 40
0.0
  9
$LOFTMAG2
 40
0.0
  9
$LOFTPARAM
 70
     7
  9
$LOFTNORMALS
280
     1
  9
$LATITUDE
 40
37.795
  9
$LONGITUDE
 40
-122.394
  9
$NORTHDIRECTION
 40
0.0
  9
$TIMEZONE
 70
 -8000
  9
$LIGHTGLYPHDISPLAY
280
     1
  9
$TILEMODELIGHTSYNCH
280
     1
  9
$CMATERIAL
347
3C
  9
$SOLIDHIST
280
     1
  9
$SHOWHIST
280
     1
  9
$DWFFRAME
280
     2
  9
$DGNFRAME
280
     2
  9
$REALWORLDSCALE
290
     1
  9
$INTERFERECOLOR
 62
   256
  9
$CSHADOW
280
     0
  9
$SHADOWPLANELOCATION
 40
0.0
  0
ENDSEC
  0
SECTION
  2
CLASSES
  0
CLASS
  1
ACDBDICTIONARYWDFLT
  2
AcDbDictionaryWithDefault
  3
ObjectDBX Classes
 90
        0
 91
        4
280
     0
281
     0
  0
CLASS
  1
VISUALSTYLE
  2
AcDbVisualStyle
  3
ObjectDBX Classes
 90
     4095
 91
        4
280
     0
281
     0
  0
CLASS
  1
MATERIAL
  2
AcDbMaterial
  3
ObjectDBX Classes
 90
     1153
 91
        4
280
     0
281
     0
  0
CLASS
  1
SUN
  2
AcDbSun
  3
SCENEOE
 90
     1024
 91
        4
280
     0
281
     0
  0
ENDSEC
  0
SECTION
  2
TABLES
  0
TABLE
  2
VPORT
  5
8
330
0
100
AcDbSymbolTable
 70
     1
  0
VPORT
  5
29
330
8
100
AcDbSymbolTableRecord
100
AcDbViewportTableRecord
  2
*Active
 70
     0
 10
0.0
 20
0.0
 11
1.0
 21
1.0
 12
0.0
 22
0.0
 13
0.0
 23
0.0
 14
0.5
 24
0.5
 15
0.5
 25
0.5
 16
0.0
 26
0.0
 36
1.0
 17
91.00082462281999
 27
-128.4993055234307
 37
0.0
 40
256.9986110468615
 41
0.7081814508812795
 42
50.0
 43
0.0
 44
0.0
 50
0.0
 51
0.0
 71
     0
 72
   100
 73
     1
 74
     3
 75
     0
 76
     0
 77
     0
 78
     0
281
     0
 65
     1
110
0.0
120
0.0
130
0.0
111
1.0
121
0.0
131
0.0
112
0.0
122
1.0
132
0.0
 79
     0
146
0.0
 60
     3
 61
     5
292
     1
282
     1
141
0.0
142
0.0
 63
   250
361
3F
  0
ENDTAB
  0
TABLE
  2
LTYPE
  5
5
330
0
100
AcDbSymbolTable
 70
     1
  0
LTYPE
  5
14
330
5
100
AcDbSymbolTableRecord
100
AcDbLinetypeTableRecord
  2
ByBlock
 70
     0
  3

 72
    65
 73
     0
 40
0.0
  0
LTYPE
  5
15
330
5
100
AcDbSymbolTableRecord
100
AcDbLinetypeTableRecord
  2
ByLayer
 70
     0
  3

 72
    65
 73
     0
 40
0.0
  0
LTYPE
  5
16
330
5
100
AcDbSymbolTableRecord
100
AcDbLinetypeTableRecord
  2
Continuous
 70
     0
  3
Solid line
 72
    65
 73
     0
 40
0.0
  0
ENDTAB
  0
TABLE
  2
LAYER
  5
2
330
0
100
AcDbSymbolTable
 70
     2
  0
LAYER
  5
10
330
2
100
AcDbSymbolTableRecord
100
AcDbLayerTableRecord
  2
0
 70
     0
 62
     7
  6
Continuous
370
    -3
390
F
347
3E
  0
LAYER
  5
40
330
2
100
AcDbSymbolTableRecord
100
AcDbLayerTableRecord
  2
_U+30EC_U+30A4_U+30E4_U+30FC 1
 70
     0
 62
     7
  6
Continuous
370
    -3
390
F
347
3E
  0
ENDTAB
  0
TABLE
  2
STYLE
  5
3
330
0
100
AcDbSymbolTable
 70
     1
  0
STYLE
  5
11
330
3
100
AcDbSymbolTableRecord
100
AcDbTextStyleTableRecord
  2
Standard
 70
     0
 40
0.0
 41
1.0
 50
0.0
 71
     0
 42
0.2
  3
txt
  4

  0
ENDTAB
  0
TABLE
  2
VIEW
  5
6
330
0
100
AcDbSymbolTable
 70
     0
  0
ENDTAB
  0
TABLE
  2
UCS
  5
7
330
0
100
AcDbSymbolTable
 70
     0
  0
ENDTAB
  0
TABLE
  2
APPID
  5
9
330
0
100
AcDbSymbolTable
 70
     1
  0
APPID
  5
12
330
9
100
AcDbSymbolTableRecord
100
AcDbRegAppTableRecord
  2
ACAD
 70
     0
  0
ENDTAB
  0
TABLE
  2
DIMSTYLE
  5
A
330
0
100
AcDbSymbolTable
 70
     1
100
AcDbDimStyleTable
  0
DIMSTYLE
105
27
330
A
100
AcDbSymbolTableRecord
100
AcDbDimStyleTableRecord
  2
Standard
 70
     0
178
     0
340
11
  0
ENDTAB
  0
TABLE
  2
BLOCK_RECORD
  5
1
330
0
100
AcDbSymbolTable
 70
     8
  0
BLOCK_RECORD
  5
1F
330
1
100
AcDbSymbolTableRecord
100
AcDbBlockTableRecord
  2
*Model_Space
340
22
 70
     0
280
     1
281
     0
  0
BLOCK_RECORD
  5
1B
330
1
100
AcDbSymbolTableRecord
100
AcDbBlockTableRecord
  2
*Paper_Space
340
1E
 70
     0
280
     1
281
     0
  0
BLOCK_RECORD
  5
23
330
1
100
AcDbSymbolTableRecord
100
AcDbBlockTableRecord
  2
*Paper_Space0
340
26
 70
     0
280
     1
281
     0
  0
BLOCK_RECORD
  5
53
330
1
100
AcDbSymbolTableRecord
100
AcDbBlockTableRecord
  2
block 2
340
0
102
{BLKREFS
331
54
102
}
 70
     0
280
     1
281
     0
  0
BLOCK_RECORD
  5
5B
330
1
100
AcDbSymbolTableRecord
100
AcDbBlockTableRecord
  2
block 3
340
0
102
{BLKREFS
331
5C
102
}
 70
     0
280
     1
281
     0
  0
BLOCK_RECORD
  5
63
330
1
100
AcDbSymbolTableRecord
100
AcDbBlockTableRecord
  2
block 4
340
0
102
{BLKREFS
331
64
102
}
 70
     0
280
     1
281
     0
  0
BLOCK_RECORD
  5
75
330
1
100
AcDbSymbolTableRecord
100
AcDbBlockTableRecord
  2
block 5
340
0
102
{BLKREFS
331
76
102
}
 70
     0
280
     1
281
     0
  0
BLOCK_RECORD
  5
8A
330
1
100
AcDbSymbolTableRecord
100
AcDbBlockTableRecord
  2
block 6
340
0
102
{BLKREFS
331
8B
102
}
 70
     0
280
     1
281
     0
  0
BLOCK_RECORD
  5
92
330
1
100
AcDbSymbolTableRecord
100
AcDbBlockTableRecord
  2
block 7
340
0
102
{BLKREFS
331
93
102
}
 70
     0
280
     1
281
     0
  0
BLOCK_RECORD
  5
99
330
1
100
AcDbSymbolTableRecord
100
AcDbBlockTableRecord
  2
block 8
340
0
102
{BLKREFS
331
9A
102
}
 70
     0
280
     1
281
     0
  0
ENDTAB
  0
ENDSEC
  0
SECTION
  2
BLOCKS
  0
BLOCK
  5
20
330
1F
100
AcDbEntity
  8
0
100
AcDbBlockBegin
  2
*Model_Space
 70
     0
 10
0.0
 20
0.0
 30
0.0
  3
*Model_Space
  1

  0
ENDBLK
  5
21
330
1F
100
AcDbEntity
  8
0
100
AcDbBlockEnd
  0
BLOCK
  5
1C
330
1B
100
AcDbEntity
 67
     1
  8
0
100
AcDbBlockBegin
  2
*Paper_Space
 70
     0
 10
0.0
 20
0.0
 30
0.0
  3
*Paper_Space
  1

  0
ENDBLK
  5
1D
330
1B
100
AcDbEntity
 67
     1
  8
0
100
AcDbBlockEnd
  0
BLOCK
  5
24
330
23
100
AcDbEntity
  8
0
100
AcDbBlockBegin
  2
*Paper_Space0
 70
     0
 10
0.0
 20
0.0
 30
0.0
  3
*Paper_Space0
  1

  0
ENDBLK
  5
25
330
23
100
AcDbEntity
  8
0
100
AcDbBlockEnd
  0
BLOCK
  5
55
330
53
100
AcDbEntity
  8
0
100
AcDbBlockBegin
  2
block 2
 70
     0
 10
0.0
 20
0.0
 30
0.0
  3
block 2
  1

  0
SPLINE
  5
57
330
53
100
AcDbEntity
  8
_U+30EC_U+30A4_U+30E4_U+30FC 1
370
     0
100
AcDbSpline
210
0.0
220
0.0
230
1.0
 70
    11
 71
     3
 72
    44
 73
    40
 74
     0
 42
0.0000000001
 43
0.0000000001
 12
1.0
 22
0.0
 32
0.0
 13
1.0
 23
0.0
 33
0.0
 40
0.0
 40
0.0
 40
0.0
 40
0.0
 40
1.0
 40
1.0
 40
1.0
 40
2.0
 40
2.0
 40
2.0
 40
3.0
 40
3.0
 40
3.0
 40
4.0
 40
4.0
 40
4.0
 40
5.0
 40
5.0
 40
5.0
 40
6.0
 40
6.0
 40
6.0
 40
7.0
 40
7.0
 40
7.0
 40
8.0
 40
8.0
 40
8.0
 40
9.0
 40
9.0
 40
9.0
 40
10.0
 40
10.0
 40
10.0
 40
11.0
 40
11.0
 40
11.0
 40
12.0
 40
12.0
 40
12.0
 40
13.0
 40
13.0
 40
13.0
 40
13.0
 10
62.21997475658043
 20
-135.5069742499774
 30
0.0
 10
62.37862140367618
 20
-135.7247042846452
 30
0.0
 10
62.45269095660905
 20
-135.817721862747
 30
0.0
 10
62.59652369311824
 20
-135.8666422186375
 30
0.0
 10
62.59652369311824
 20
-135.8666422186375
 30
0.0
 10
62.59652369311824
 20
-135.0880506389711
 30
0.0
 10
62.59652369311824
 20
-135.0880506389711
 30
0.0
 10
62.59652369311824
 20
-135.0880506389711
 30
0.0
 10
62.80167912926486
 20
-135.0880506389711
 30
0.0
 10
62.80167912926486
 20
-135.0880506389711
 30
0.0
 10
62.80167912926486
 20
-135.0880506389711
 30
0.0
 10
62.80167912926486
 20
-136.1160671317696
 30
0.0
 10
62.80167912926486
 20
-136.1160671317696
 30
0.0
 10
62.44407821789593
 20
-136.0843722533053
 30
0.0
 10
62.36587455038076
 20
-136.0189154390856
 30
0.0
 10
62.06752928135812
 20
-135.6337537638346
 30
0.0
 10
61.86874727185921
 20
-135.3777831692805
 30
0.0
 10
61.80105114557404
 20
-135.3123263550608
 30
0.0
 10
61.66359183571258
 20
-135.3123263550608
 30
0.0
 10
61.54508055101999
 20
-135.3123263550608
 30
0.0
 10
61.41382241303197
 20
-135.3843288507025
 30
0.0
 10
61.41382241303197
 20
-135.5810438029103
 30
0.0
 10
61.41382241303197
 20
-135.8411485120467
 30
0.0
 10
61.64447155576944
 20
-135.8494167412113
 30
0.0
 10
61.76091578317089
 20
-135.8538953653421
 30
0.0
 10
61.76091578317089
 20
-135.8538953653421
 30
0.0
 10
61.76091578317089
 20
-136.0781710814319
 30
0.0
 10
61.76091578317089
 20
-136.0781710814319
 30
0.0
 10
61.63396401453943
 20
-136.0695583427187
 30
0.0
 10
61.52182615649455
 20
-136.0588785467145
 30
0.0
 10
61.40331487180195
 20
-135.9786078219081
 30
0.0
 10
61.24260116741505
 20
-135.8687092759287
 30
0.0
 10
61.20866697688533
 20
-135.6823296101767
 30
0.0
 10
61.20866697688533
 20
-135.5662298923237
 30
0.0
 10
61.20866697688533
 20
-135.2888997057611
 30
0.0
 10
61.39280733057194
 20
-135.0815049575491
 30
0.0
 10
61.66565889300373
 20
-135.0815049575491
 30
0.0
 10
61.89406872367579
 20
-135.0815049575491
 30
0.0
 10
61.99363198319951
 20
-135.1979491849505
 30
0.0
 10
62.21997475658043
 20
-135.5069742499774
 30
0.0
  0
HATCH
  5
58
330
53
100
AcDbEntity
  8
_U+30EC_U+30A4_U+30E4_U+30FC 1
 62
     7
420
 16777215
100
AcDbHatch
 10
0.0
 20
0.0
 30
0.0
210
0.0
220
0.0
230
1.0
  2
SOLID
 70
     1
 71
     0
 91
        1
 92
        1
 93
        1
 72
     4
 94
        3
 73
     0
 74
     1
 95
       44
 96
       40
 40
0.0
 40
0.0
 40
0.0
 40
0.0
 40
1.0
 40
1.0
 40
1.0
 40
2.0
 40
2.0
 40
2.0
 40
3.0
 40
3.0
 40
3.0
 40
4.0
 40
4.0
 40
4.0
 40
5.0
 40
5.0
 40
5.0
 40
6.0
 40
6.0
 40
6.0
 40
7.0
 40
7.0
 40
7.0
 40
8.0
 40
8.0
 40
8.0
 40
9.0
 40
9.0
 40
9.0
 40
10.0
 40
10.0
 40
10.0
 40
11.0
 40
11.0
 40
11.0
 40
12.0
 40
12.0
 40
12.0
 40
13.0
 40
13.0
 40
13.0
 40
13.0
 10
62.21997475658043
 20
-135.5069742499774
 10
62.37862140367618
 20
-135.7247042846452
 10
62.45269095660905
 20
-135.817721862747
 10
62.59652369311824
 20
-135.8666422186375
 10
62.59652369311824
 20
-135.8666422186375
 10
62.59652369311824
 20
-135.0880506389711
 10
62.59652369311824
 20
-135.0880506389711
 10
62.59652369311824
 20
-135.0880506389711
 10
62.80167912926486
 20
-135.0880506389711
 10
62.80167912926486
 20
-135.0880506389711
 10
62.80167912926486
 20
-135.0880506389711
 10
62.80167912926486
 20
-136.1160671317696
 10
62.80167912926486
 20
-136.1160671317696
 10
62.44407821789593
 20
-136.0843722533053
 10
62.36587455038076
 20
-136.0189154390856
 10
62.06752928135812
 20
-135.6337537638346
 10
61.86874727185921
 20
-135.3777831692805
 10
61.80105114557404
 20
-135.3123263550608
 10
61.66359183571258
 20
-135.3123263550608
 10
61.54508055101999
 20
-135.3123263550608
 10
61.41382241303197
 20
-135.3843288507025
 10
61.41382241303197
 20
-135.5810438029103
 10
61.41382241303197
 20
-135.8411485120467
 10
61.64447155576944
 20
-135.8494167412113
 10
61.76091578317089
 20
-135.8538953653421
 10
61.76091578317089
 20
-135.8538953653421
 10
61.76091578317089
 20
-136.0781710814319
 10
61.76091578317089
 20
-136.0781710814319
 10
61.63396401453943
 20
-136.0695583427187
 10
61.52182615649455
 20
-136.0588785467145
 10
61.40331487180195
 20
-135.9786078219081
 10
61.24260116741505
 20
-135.8687092759287
 10
61.20866697688533
 20
-135.6823296101767
 10
61.20866697688533
 20
-135.5662298923237
 10
61.20866697688533
 20
-135.2888997057611
 10
61.39280733057194
 20
-135.0815049575491
 10
61.66565889300373
 20
-135.0815049575491
 10
61.89406872367579
 20
-135.0815049575491
 10
61.99363198319951
 20
-135.1979491849505
 10
62.21997475658043
 20
-135.5069742499774
 97
        0
 97
        0
 75
     2
 76
     1
 98
        0
  0
SPLINE
  5
59
330
53
100
AcDbEntity
  8
_U+30EC_U+30A4_U+30E4_U+30FC 1
370
     0
100
AcDbSpline
210
0.0
220
0.0
230
1.0
 70
    11
 71
     3
 72
    53
 73
    49
 74
     0
 42
0.0000000001
 43
0.0000000001
 12
1.0
 22
0.0
 32
0.0
 13
1.0
 23
0.0
 33
0.0
 40
0.0
 40
0.0
 40
0.0
 40
0.0
 40
1.0
 40
1.0
 40
1.0
 40
2.0
 40
2.0
 40
2.0
 40
3.0
 40
3.0
 40
3.0
 40
4.0
 40
4.0
 40
4.0
 40
5.0
 40
5.0
 40
5.0
 40
6.0
 40
6.0
 40
6.0
 40
7.0
 40
7.0
 40
7.0
 40
8.0
 40
8.0
 40
8.0
 40
9.0
 40
9.0
 40
9.0
 40
10.0
 40
10.0
 40
10.0
 40
11.0
 40
11.0
 40
11.0
 40
12.0
 40
12.0
 40
12.0
 40
13.0
 40
13.0
 40
13.0
 40
14.0
 40
14.0
 40
14.0
 40
15.0
 40
15.0
 40
15.0
 40
16.0
 40
16.0
 40
16.0
 40
16.0
 10
62.85249428767229
 20
-134.4420952354867
 30
0.0
 10
62.85249428767229
 20
-134.5202989030019
 30
0.0
 10
62.83561331979458
 20
-134.6219292198167
 30
0.0
 10
62.77205130809171
 20
-134.7235595366316
 30
0.0
 10
62.66198050733798
 20
-134.8968478395397
 30
0.0
 10
62.53089462412422
 20
-134.9182074315482
 30
0.0
 10
62.4230631354359
 20
-134.9371554567171
 30
0.0
 10
62.4230631354359
 20
-134.9371554567171
 30
0.0
 10
62.4230631354359
 20
-134.7149467979185
 30
0.0
 10
62.4230631354359
 20
-134.7149467979185
 30
0.0
 10
62.62184514493482
 20
-134.660169779703
 30
0.0
 10
62.65147296610797
 20
-134.5330457562973
 30
0.0
 10
62.65147296610797
 20
-134.4400281781955
 30
0.0
 10
62.65147296610797
 20
-134.3005018110429
 30
0.0
 10
62.55208196135851
 20
-134.1482285905949
 30
0.0
 10
62.31936576132988
 20
-134.1482285905949
 30
0.0
 10
62.06339516677582
 20
-134.1482285905949
 30
0.0
 10
61.99363198319951
 20
-134.3280625749249
 30
0.0
 10
61.99363198319951
 20
-134.4486409169087
 30
0.0
 10
61.99363198319951
 20
-134.480335795373
 30
0.0
 10
61.99363198319951
 20
-134.6219292198167
 30
0.0
 10
62.12265080912212
 20
-134.7108126833362
 30
0.0
 10
62.12265080912212
 20
-134.7108126833362
 30
0.0
 10
62.10353052917898
 20
-134.8865125530839
 30
0.0
 10
62.10353052917898
 20
-134.8865125530839
 30
0.0
 10
62.10353052917898
 20
-134.8865125530839
 30
0.0
 10
61.25741507800162
 20
-134.7659342111002
 30
0.0
 10
61.25741507800162
 20
-134.7659342111002
 30
0.0
 10
61.25741507800162
 20
-134.7659342111002
 30
0.0
 10
61.25741507800162
 20
-133.9873426314337
 30
0.0
 10
61.25741507800162
 20
-133.9873426314337
 30
0.0
 10
61.25741507800162
 20
-133.9873426314337
 30
0.0
 10
61.45206297291823
 20
-133.9873426314337
 30
0.0
 10
61.45206297291823
 20
-133.9873426314337
 30
0.0
 10
61.45206297291823
 20
-133.9873426314337
 30
0.0
 10
61.45206297291823
 20
-134.6029811946479
 30
0.0
 10
61.45206297291823
 20
-134.6029811946479
 30
0.0
 10
61.45206297291823
 20
-134.6029811946479
 30
0.0
 10
61.87512069850692
 20
-134.6684380088676
 30
0.0
 10
61.87512069850692
 20
-134.6684380088676
 30
0.0
 10
61.84118650797721
 20
-134.6071153092302
 30
0.0
 10
61.80105114557404
 20
-134.5247775271327
 30
0.0
 10
61.80105114557404
 20
-134.4062662424401
 30
0.0
 10
61.80105114557404
 20
-134.1523627051772
 30
0.0
 10
61.9872585565518
 20
-133.915340135792
 30
0.0
 10
62.30024548138675
 20
-133.915340135792
 30
0.0
 10
62.61771103035252
 20
-133.915340135792
 30
0.0
 10
62.85249428767229
 20
-134.1396158518818
 30
0.0
 10
62.85249428767229
 20
-134.4420952354867
 30
0.0
  0
HATCH
  5
5A
330
53
100
AcDbEntity
  8
_U+30EC_U+30A4_U+30E4_U+30FC 1
 62
     7
420
 16777215
100
AcDbHatch
 10
0.0
 20
0.0
 30
0.0
210
0.0
220
0.0
230
1.0
  2
SOLID
 70
     1
 71
     0
 91
        1
 92
        1
 93
        1
 72
     4
 94
        3
 73
     0
 74
     1
 95
       53
 96
       49
 40
0.0
 40
0.0
 40
0.0
 40
0.0
 40
1.0
 40
1.0
 40
1.0
 40
2.0
 40
2.0
 40
2.0
 40
3.0
 40
3.0
 40
3.0
 40
4.0
 40
4.0
 40
4.0
 40
5.0
 40
5.0
 40
5.0
 40
6.0
 40
6.0
 40
6.0
 40
7.0
 40
7.0
 40
7.0
 40
8.0
 40
8.0
 40
8.0
 40
9.0
 40
9.0
 40
9.0
 40
10.0
 40
10.0
 40
10.0
 40
11.0
 40
11.0
 40
11.0
 40
12.0
 40
12.0
 40
12.0
 40
13.0
 40
13.0
 40
13.0
 40
14.0
 40
14.0
 40
14.0
 40
15.0
 40
15.0
 40
15.0
 40
16.0
 40
16.0
 40
16.0
 40
16.0
 10
62.85249428767229
 20
-134.4420952354867
 10
62.85249428767229
 20
-134.5202989030019
 10
62.83561331979458
 20
-134.6219292198167
 10
62.77205130809171
 20
-134.7235595366316
 10
62.66198050733798
 20
-134.8968478395397
 10
62.53089462412422
 20
-134.9182074315482
 10
62.4230631354359
 20
-134.9371554567171
 10
62.4230631354359
 20
-134.9371554567171
 10
62.4230631354359
 20
-134.7149467979185
 10
62.4230631354359
 20
-134.7149467979185
 10
62.62184514493482
 20
-134.660169779703
 10
62.65147296610797
 20
-134.5330457562973
 10
62.65147296610797
 20
-134.4400281781955
 10
62.65147296610797
 20
-134.3005018110429
 10
62.55208196135851
 20
-134.1482285905949
 10
62.31936576132988
 20
-134.1482285905949
 10
62.06339516677582
 20
-134.1482285905949
 10
61.99363198319951
 20
-134.3280625749249
 10
61.99363198319951
 20
-134.4486409169087
 10
61.99363198319951
 20
-134.480335795373
 10
61.99363198319951
 20
-134.6219292198167
 10
62.12265080912212
 20
-134.7108126833362
 10
62.12265080912212
 20
-134.7108126833362
 10
62.10353052917898
 20
-134.8865125530839
 10
62.10353052917898
 20
-134.8865125530839
 10
62.10353052917898
 20
-134.8865125530839
 10
61.25741507800162
 20
-134.7659342111002
 10
61.25741507800162
 20
-134.7659342111002
 10
61.25741507800162
 20
-134.7659342111002
 10
61.25741507800162
 20
-133.9873426314337
 10
61.25741507800162
 20
-133.9873426314337
 10
61.25741507800162
 20
-133.9873426314337
 10
61.45206297291823
 20
-133.9873426314337
 10
61.45206297291823
 20
-133.9873426314337
 10
61.45206297291823
 20
-133.9873426314337
 10
61.45206297291823
 20
-134.6029811946479
 10
61.45206297291823
 20
-134.6029811946479
 10
61.45206297291823
 20
-134.6029811946479
 10
61.87512069850692
 20
-134.6684380088676
 10
61.87512069850692
 20
-134.6684380088676
 10
61.84118650797721
 20
-134.6071153092302
 10
61.80105114557404
 20
-134.5247775271327
 10
61.80105114557404
 20
-134.4062662424401
 10
61.80105114557404
 20
-134.1523627051772
 10
61.9872585565518
 20
-133.915340135792
 10
62.30024548138675
 20
-133.915340135792
 10
62.61771103035252
 20
-133.915340135792
 10
62.85249428767229
 20
-134.1396158518818
 10
62.85249428767229
 20
-134.4420952354867
 97
        0
 97
        0
 75
     2
 76
     1
 98
        0
  0
ENDBLK
  5
56
330
53
100
AcDbEntity
  8
0
100
AcDbBlockEnd
  0
BLOCK
  5
5D
330
5B
100
AcDbEntity
  8
0
100
AcDbBlockBegin
  2
block 3
 70
     0
 10
0.0
 20
0.0
 30
0.0
  3
block 3
  1

  0
SPLINE
  5
5F
330
5B
100
AcDbEntity
  8
_U+30EC_U+30A4_U+30E4_U+30FC 1
370
     0
100
AcDbSpline
210
0.0
220
0.0
230
1.0
 70
    11
 71
     3
 72
    26
 73
    22
 74
     0
 42
0.0000000001
 43
0.0000000001
 12
1.0
 22
0.0
 32
0.0
 13
1.0
 23
0.0
 33
0.0
 40
0.0
 40
0.0
 40
0.0
 40
0.0
 40
1.0
 40
1.0
 40
1.0
 40
2.0
 40
2.0
 40
2.0
 40
3.0
 40
3.0
 40
3.0
 40
4.0
 40
4.0
 40
4.0
 40
5.0
 40
5.0
 40
5.0
 40
6.0
 40
6.0
 40
6.0
 40
7.0
 40
7.0
 40
7.0
 40
7.0
 10
62.80167912926486
 20
-111.6538221292046
 30
0.0
 10
62.80167912926486
 20
-111.6538221292046
 30
0.0
 10
61.69735377146802
 20
-111.6538221292046
 30
0.0
 10
61.69735377146802
 20
-111.6538221292046
 30
0.0
 10
61.69735377146802
 20
-111.6538221292046
 30
0.0
 10
61.69735377146802
 20
-111.9838622766915
 30
0.0
 10
61.69735377146802
 20
-111.9838622766915
 30
0.0
 10
61.69735377146802
 20
-111.9838622766915
 30
0.0
 10
61.54921466560229
 20
-111.9838622766915
 30
0.0
 10
61.54921466560229
 20
-111.9838622766915
 30
0.0
 10
61.53457300978997
 20
-111.6517550719135
 30
0.0
 10
61.37161999333765
 20
-111.6052462828626
 30
0.0
 10
61.25741507800162
 20
-111.5756184616894
 30
0.0
 10
61.25741507800162
 20
-111.5756184616894
 30
0.0
 10
61.25741507800162
 20
-111.4295464131148
 30
0.0
 10
61.25741507800162
 20
-111.4295464131148
 30
0.0
 10
61.25741507800162
 20
-111.4295464131148
 30
0.0
 10
62.80167912926486
 20
-111.4295464131148
 30
0.0
 10
62.80167912926486
 20
-111.4295464131148
 30
0.0
 10
62.80167912926486
 20
-111.4295464131148
 30
0.0
 10
62.80167912926486
 20
-111.6538221292046
 30
0.0
 10
62.80167912926486
 20
-111.6538221292046
 30
0.0
  0
HATCH
  5
60
330
5B
100
AcDbEntity
  8
_U+30EC_U+30A4_U+30E4_U+30FC 1
 62
     7
420
 16777215
100
AcDbHatch
 10
0.0
 20
0.0
 30
0.0
210
0.0
220
0.0
230
1.0
  2
SOLID
 70
     1
 71
     0
 91
        1
 92
        1
 93
        1
 72
     4
 94
        3
 73
     0
 74
     1
 95
       26
 96
       22
 40
0.0
 40
0.0
 40
0.0
 40
0.0
 40
1.0
 40
1.0
 40
1.0
 40
2.0
 40
2.0
 40
2.0
 40
3.0
 40
3.0
 40
3.0
 40
4.0
 40
4.0
 40
4.0
 40
5.0
 40
5.0
 40
5.0
 40
6.0
 40
6.0
 40
6.0
 40
7.0
 40
7.0
 40
7.0
 40
7.0
 10
62.80167912926486
 20
-111.6538221292046
 10
62.80167912926486
 20
-111.6538221292046
 10
61.69735377146802
 20
-111.6538221292046
 10
61.69735377146802
 20
-111.6538221292046
 10
61.69735377146802
 20
-111.6538221292046
 10
61.69735377146802
 20
-111.9838622766915
 10
61.69735377146802
 20
-111.9838622766915
 10
61.69735377146802
 20
-111.9838622766915
 10
61.54921466560229
 20
-111.9838622766915
 10
61.54921466560229
 20
-111.9838622766915
 10
61.53457300978997
 20
-111.6517550719135
 10
61.37161999333765
 20
-111.6052462828626
 10
61.25741507800162
 20
-111.5756184616894
 10
61.25741507800162
 20
-111.5756184616894
 10
61.25741507800162
 20
-111.4295464131148
 10
61.25741507800162
 20
-111.4295464131148
 10
61.25741507800162
 20
-111.4295464131148
 10
62.80167912926486
 20
-111.4295464131148
 10
62.80167912926486
 20
-111.4295464131148
 10
62.80167912926486
 20
-111.4295464131148
 10
62.80167912926486
 20
-111.6538221292046
 10
62.80167912926486
 20
-111.6538221292046
 97
        0
 97
        0
 75
     2
 76
     1
 98
        0
  0
SPLINE
  5
61
330
5B
100
AcDbEntity
  8
_U+30EC_U+30A4_U+30E4_U+30FC 1
370
     0
100
AcDbSpline
210
0.0
220
0.0
230
1.0
 70
    11
 71
     3
 72
    26
 73
    22
 74
     0
 42
0.0000000001
 43
0.0000000001
 12
1.0
 22
0.0
 32
0.0
 13
1.0
 23
0.0
 33
0.0
 40
0.0
 40
0.0
 40
0.0
 40
0.0
 40
1.0
 40
1.0
 40
1.0
 40
2.0
 40
2.0
 40
2.0
 40
3.0
 40
3.0
 40
3.0
 40
4.0
 40
4.0
 40
4.0
 40
5.0
 40
5.0
 40
5.0
 40
6.0
 40
6.0
 40
6.0
 40
7.0
 40
7.0
 40
7.0
 40
7.0
 10
62.80167912926486
 20
-110.5172851286207
 30
0.0
 10
62.80167912926486
 20
-110.5172851286207
 30
0.0
 10
62.80167912926486
 20
-110.7543076980059
 30
0.0
 10
62.80167912926486
 20
-110.7543076980059
 30
0.0
 10
62.49282631901221
 20
-110.728813991415
 30
0.0
 10
61.97451170325638
 20
-110.5362331537896
 30
0.0
 10
61.46894394079596
 20
-110.1300563960786
 30
0.0
 10
61.46894394079596
 20
-110.1300563960786
 30
0.0
 10
61.46894394079596
 20
-110.9679036180914
 30
0.0
 10
61.46894394079596
 20
-110.9679036180914
 30
0.0
 10
61.46894394079596
 20
-110.9679036180914
 30
0.0
 10
61.25741507800162
 20
-110.9679036180914
 30
0.0
 10
61.25741507800162
 20
-110.9679036180914
 30
0.0
 10
61.25741507800162
 20
-110.9679036180914
 30
0.0
 10
61.25741507800162
 20
-109.8930338266934
 30
0.0
 10
61.25741507800162
 20
-109.8930338266934
 30
0.0
 10
61.25741507800162
 20
-109.8930338266934
 30
0.0
 10
61.46894394079596
 20
-109.8930338266934
 30
0.0
 10
61.46894394079596
 20
-109.8930338266934
 30
0.0
 10
61.75867647110547
 20
-110.2168728023069
 30
0.0
 10
62.35106063979418
 20
-110.4835231928652
 30
0.0
 10
62.80167912926486
 20
-110.5172851286207
 30
0.0
  0
HATCH
  5
62
330
5B
100
AcDbEntity
  8
_U+30EC_U+30A4_U+30E4_U+30FC 1
 62
     7
420
 16777215
100
AcDbHatch
 10
0.0
 20
0.0
 30
0.0
210
0.0
220
0.0
230
1.0
  2
SOLID
 70
     1
 71
     0
 91
        1
 92
        1
 93
        1
 72
     4
 94
        3
 73
     0
 74
     1
 95
       26
 96
       22
 40
0.0
 40
0.0
 40
0.0
 40
0.0
 40
1.0
 40
1.0
 40
1.0
 40
2.0
 40
2.0
 40
2.0
 40
3.0
 40
3.0
 40
3.0
 40
4.0
 40
4.0
 40
4.0
 40
5.0
 40
5.0
 40
5.0
 40
6.0
 40
6.0
 40
6.0
 40
7.0
 40
7.0
 40
7.0
 40
7.0
 10
62.80167912926486
 20
-110.5172851286207
 10
62.80167912926486
 20
-110.5172851286207
 10
62.80167912926486
 20
-110.7543076980059
 10
62.80167912926486
 20
-110.7543076980059
 10
62.49282631901221
 20
-110.728813991415
 10
61.97451170325638
 20
-110.5362331537896
 10
61.46894394079596
 20
-110.1300563960786
 10
61.46894394079596
 20
-110.1300563960786
 10
61.46894394079596
 20
-110.9679036180914
 10
61.46894394079596
 20
-110.9679036180914
 10
61.46894394079596
 20
-110.9679036180914
 10
61.25741507800162
 20
-110.9679036180914
 10
61.25741507800162
 20
-110.9679036180914
 10
61.25741507800162
 20
-110.9679036180914
 10
61.25741507800162
 20
-109.8930338266934
 10
61.25741507800162
 20
-109.8930338266934
 10
61.25741507800162
 20
-109.8930338266934
 10
61.46894394079596
 20
-109.8930338266934
 10
61.46894394079596
 20
-109.8930338266934
 10
61.75867647110547
 20
-110.2168728023069
 10
62.35106063979418
 20
-110.4835231928652
 10
62.80167912926486
 20
-110.5172851286207
 97
        0
 97
        0
 75
     2
 76
     1
 98
        0
  0
ENDBLK
  5
5E
330
5B
100
AcDbEntity
  8
0
100
AcDbBlockEnd
  0
BLOCK
  5
65
330
63
100
AcDbEntity
  8
0
100
AcDbBlockBegin
  2
block 4
 70
     0
 10
0.0
 20
0.0
 30
0.0
  3
block 4
  1

  0
SPLINE
  5
67
330
63
100
AcDbEntity
  8
_U+30EC_U+30A4_U+30E4_U+30FC 1
370
     0
100
AcDbSpline
210
0.0
220
0.0
230
1.0
 70
    11
 71
     3
 72
    62
 73
    58
 74
     0
 42
0.0000000001
 43
0.0000000001
 12
1.0
 22
0.0
 32
0.0
 13
1.0
 23
0.0
 33
0.0
 40
0.0
 40
0.0
 40
0.0
 40
0.0
 40
1.0
 40
1.0
 40
1.0
 40
2.0
 40
2.0
 40
2.0
 40
3.0
 40
3.0
 40
3.0
 40
4.0
 40
4.0
 40
4.0
 40
5.0
 40
5.0
 40
5.0
 40
6.0
 40
6.0
 40
6.0
 40
7.0
 40
7.0
 40
7.0
 40
8.0
 40
8.0
 40
8.0
 40
9.0
 40
9.0
 40
9.0
 40
10.0
 40
10.0
 40
10.0
 40
11.0
 40
11.0
 40
11.0
 40
12.0
 40
12.0
 40
12.0
 40
13.0
 40
13.0
 40
13.0
 40
14.0
 40
14.0
 40
14.0
 40
15.0
 40
15.0
 40
15.0
 40
16.0
 40
16.0
 40
16.0
 40
17.0
 40
17.0
 40
17.0
 40
18.0
 40
18.0
 40
18.0
 40
19.0
 40
19.0
 40
19.0
 40
19.0
 10
62.85249428767229
 20
-121.09786238292
 30
0.0
 10
62.85249428767229
 20
-121.1932915278614
 30
0.0
 10
62.83130695043801
 20
-121.4110215625292
 30
0.0
 10
62.64509953946025
 20
-121.5360785286438
 30
0.0
 10
62.53296168141537
 20
-121.6098035720281
 30
0.0
 10
62.43357067666592
 20
-121.6142821961589
 30
0.0
 10
62.34899358250303
 20
-121.6184163107412
 30
0.0
 10
62.34899358250303
 20
-121.6184163107412
 30
0.0
 10
62.34899358250303
 20
-121.3982747092338
 30
0.0
 10
62.34899358250303
 20
-121.3982747092338
 30
0.0
 10
62.4230631354359
 20
-121.3962076519426
 30
0.0
 10
62.65784639275568
 20
-121.3858723654869
 30
0.0
 10
62.65784639275568
 20
-121.1023410070508
 30
0.0
 10
62.65784639275568
 20
-120.9648816971893
 30
0.0
 10
62.58808320917937
 20
-120.8122639671928
 30
0.0
 10
62.35950112373305
 20
-120.8122639671928
 30
0.0
 10
62.24322915110587
 20
-120.8122639671928
 30
0.0
 10
62.19448104998958
 20
-120.850504527079
 30
0.0
 10
62.16278617152528
 20
-120.8821994055433
 30
0.0
 10
62.08871661859241
 20
-120.9562689584762
 30
0.0
 10
62.07614202007125
 20
-121.0727131858777
 30
0.0
 10
62.07614202007125
 20
-121.1274902040931
 30
0.0
 10
62.07614202007125
 20
-121.1467827388105
 30
0.0
 10
62.07820907736239
 20
-121.1826117318571
 30
0.0
 10
62.08234319194469
 20
-121.2101724957391
 30
0.0
 10
62.08234319194469
 20
-121.2101724957391
 30
0.0
 10
61.88786755180234
 20
-121.2101724957391
 30
0.0
 10
61.88786755180234
 20
-121.2101724957391
 30
0.0
 10
61.89406872367579
 20
-121.1719319358529
 30
0.0
 10
61.89630803574121
 20
-121.1299017709328
 30
0.0
 10
61.89630803574121
 20
-121.1233560895108
 30
0.0
 10
61.89630803574121
 20
-121.0578992752911
 30
0.0
 10
61.87512069850692
 20
-120.8591172657922
 30
0.0
 10
61.63809812912173
 20
-120.8591172657922
 30
0.0
 10
61.4605034568571
 20
-120.8591172657922
 30
0.0
 10
61.4053819290931
 20
-120.9900308942317
 30
0.0
 10
61.4053819290931
 20
-121.1002739497597
 30
0.0
 10
61.4053819290931
 20
-121.3645127734783
 30
0.0
 10
61.63809812912173
 20
-121.3731255121915
 30
0.0
 10
61.71010062476345
 20
-121.3772596267737
 30
0.0
 10
61.71010062476345
 20
-121.3772596267737
 30
0.0
 10
61.71010062476345
 20
-121.5805202604035
 30
0.0
 10
61.71010062476345
 20
-121.5805202604035
 30
0.0
 10
61.58521591342314
 20
-121.5719075216904
 30
0.0
 10
61.20866697688533
 20
-121.5443467578084
 30
0.0
 10
61.20866697688533
 20
-121.0875270964642
 30
0.0
 10
61.20866697688533
 20
-120.8632513803745
 30
0.0
 10
61.33561874551679
 20
-120.622094696407
 30
0.0
 10
61.63172470247402
 20
-120.622094696407
 30
0.0
 10
61.81793211345177
 20
-120.622094696407
 30
0.0
 10
61.90044215032351
 20
-120.7171793317999
 30
0.0
 10
61.96176484996095
 20
-120.8167425913236
 30
0.0
 10
61.98932561384295
 20
-120.7554198916861
 30
0.0
 10
62.06976859342353
 20
-120.573518850065
 30
0.0
 10
62.34692652521188
 20
-120.573518850065
 30
0.0
 10
62.68540715663768
 20
-120.573518850065
 30
0.0
 10
62.85249428767229
 20
-120.8208767059059
 30
0.0
 10
62.85249428767229
 20
-121.09786238292
 30
0.0
  0
HATCH
  5
68
330
63
100
AcDbEntity
  8
_U+30EC_U+30A4_U+30E4_U+30FC 1
 62
     7
420
 16777215
100
AcDbHatch
 10
0.0
 20
0.0
 30
0.0
210
0.0
220
0.0
230
1.0
  2
SOLID
 70
     1
 71
     0
 91
        1
 92
        1
 93
        1
 72
     4
 94
        3
 73
     0
 74
     1
 95
       62
 96
       58
 40
0.0
 40
0.0
 40
0.0
 40
0.0
 40
1.0
 40
1.0
 40
1.0
 40
2.0
 40
2.0
 40
2.0
 40
3.0
 40
3.0
 40
3.0
 40
4.0
 40
4.0
 40
4.0
 40
5.0
 40
5.0
 40
5.0
 40
6.0
 40
6.0
 40
6.0
 40
7.0
 40
7.0
 40
7.0
 40
8.0
 40
8.0
 40
8.0
 40
9.0
 40
9.0
 40
9.0
 40
10.0
 40
10.0
 40
10.0
 40
11.0
 40
11.0
 40
11.0
 40
12.0
 40
12.0
 40
12.0
 40
13.0
 40
13.0
 40
13.0
 40
14.0
 40
14.0
 40
14.0
 40
15.0
 40
15.0
 40
15.0
 40
16.0
 40
16.0
 40
16.0
 40
17.0
 40
17.0
 40
17.0
 40
18.0
 40
18.0
 40
18.0
 40
19.0
 40
19.0
 40
19.0
 40
19.0
 10
62.85249428767229
 20
-121.09786238292
 10
62.85249428767229
 20
-121.1932915278614
 10
62.83130695043801
 20
-121.4110215625292
 10
62.64509953946025
 20
-121.5360785286438
 10
62.53296168141537
 20
-121.6098035720281
 10
62.43357067666592
 20
-121.6142821961589
 10
62.34899358250303
 20
-121.6184163107412
 10
62.34899358250303
 20
-121.6184163107412
 10
62.34899358250303
 20
-121.3982747092338
 10
62.34899358250303
 20
-121.3982747092338
 10
62.4230631354359
 20
-121.3962076519426
 10
62.65784639275568
 20
-121.3858723654869
 10
62.65784639275568
 20
-121.1023410070508
 10
62.65784639275568
 20
-120.9648816971893
 10
62.58808320917937
 20
-120.8122639671928
 10
62.35950112373305
 20
-120.8122639671928
 10
62.24322915110587
 20
-120.8122639671928
 10
62.19448104998958
 20
-120.850504527079
 10
62.16278617152528
 20
-120.8821994055433
 10
62.08871661859241
 20
-120.9562689584762
 10
62.07614202007125
 20
-121.0727131858777
 10
62.07614202007125
 20
-121.1274902040931
 10
62.07614202007125
 20
-121.1467827388105
 10
62.07820907736239
 20
-121.1826117318571
 10
62.08234319194469
 20
-121.2101724957391
 10
62.08234319194469
 20
-121.2101724957391
 10
61.88786755180234
 20
-121.2101724957391
 10
61.88786755180234
 20
-121.2101724957391
 10
61.89406872367579
 20
-121.1719319358529
 10
61.89630803574121
 20
-121.1299017709328
 10
61.89630803574121
 20
-121.1233560895108
 10
61.89630803574121
 20
-121.0578992752911
 10
61.87512069850692
 20
-120.8591172657922
 10
61.63809812912173
 20
-120.8591172657922
 10
61.4605034568571
 20
-120.8591172657922
 10
61.4053819290931
 20
-120.9900308942317
 10
61.4053819290931
 20
-121.1002739497597
 10
61.4053819290931
 20
-121.3645127734783
 10
61.63809812912173
 20
-121.3731255121915
 10
61.71010062476345
 20
-121.3772596267737
 10
61.71010062476345
 20
-121.3772596267737
 10
61.71010062476345
 20
-121.5805202604035
 10
61.71010062476345
 20
-121.5805202604035
 10
61.58521591342314
 20
-121.5719075216904
 10
61.20866697688533
 20
-121.5443467578084
 10
61.20866697688533
 20
-121.0875270964642
 10
61.20866697688533
 20
-120.8632513803745
 10
61.33561874551679
 20
-120.622094696407
 10
61.63172470247402
 20
-120.622094696407
 10
61.81793211345177
 20
-120.622094696407
 10
61.90044215032351
 20
-120.7171793317999
 10
61.96176484996095
 20
-120.8167425913236
 10
61.98932561384295
 20
-120.7554198916861
 10
62.06976859342353
 20
-120.573518850065
 10
62.34692652521188
 20
-120.573518850065
 10
62.68540715663768
 20
-120.573518850065
 10
62.85249428767229
 20
-120.8208767059059
 10
62.85249428767229
 20
-121.09786238292
 97
        0
 97
        0
 75
     2
 76
     1
 98
        0
  0
ENDBLK
  5
66
330
63
100
AcDbEntity
  8
0
100
AcDbBlockEnd
  0
BLOCK
  5
77
330
75
100
AcDbEntity
  8
0
100
AcDbBlockBegin
  2
block 5
 70
     0
 10
0.0
 20
0.0
 30
0.0
  3
block 5
  1

  0
SPLINE
  5
79
330
75
100
AcDbEntity
  8
_U+30EC_U+30A4_U+30E4_U+30FC 1
370
     0
100
AcDbSpline
210
0.0
220
0.0
230
1.0
 70
    11
 71
     3
 72
    44
 73
    40
 74
     0
 42
0.0000000001
 43
0.0000000001
 12
1.0
 22
0.0
 32
0.0
 13
1.0
 23
0.0
 33
0.0
 40
0.0
 40
0.0
 40
0.0
 40
0.0
 40
1.0
 40
1.0
 40
1.0
 40
2.0
 40
2.0
 40
2.0
 40
3.0
 40
3.0
 40
3.0
 40
4.0
 40
4.0
 40
4.0
 40
5.0
 40
5.0
 40
5.0
 40
6.0
 40
6.0
 40
6.0
 40
7.0
 40
7.0
 40
7.0
 40
8.0
 40
8.0
 40
8.0
 40
9.0
 40
9.0
 40
9.0
 40
10.0
 40
10.0
 40
10.0
 40
11.0
 40
11.0
 40
11.0
 40
12.0
 40
12.0
 40
12.0
 40
13.0
 40
13.0
 40
13.0
 40
13.0
 10
62.78565943525845
 20
-153.5120767845387
 30
0.0
 10
62.76223278595875
 20
-153.4676350527789
 30
0.0
 10
62.74121770349873
 20
-153.4149250918546
 30
0.0
 10
62.73897839143331
 20
-153.1841036943429
 30
0.0
 10
62.73484427685101
 20
-152.9408799530842
 30
0.0
 10
62.67558863450472
 20
-152.8709445147337
 30
0.0
 10
62.49782170746582
 20
-152.8709445147337
 30
0.0
 10
62.49782170746582
 20
-152.8709445147337
 30
0.0
 10
62.08957789246372
 20
-152.8709445147337
 30
0.0
 10
62.08957789246372
 20
-152.8709445147337
 30
0.0
 10
62.08957789246372
 20
-152.8709445147337
 30
0.0
 10
62.08957789246372
 20
-153.5120767845387
 30
0.0
 10
62.08957789246372
 20
-153.5120767845387
 30
0.0
 10
62.08957789246372
 20
-153.5120767845387
 30
0.0
 10
61.85479463514395
 20
-153.5120767845387
 30
0.0
 10
61.85479463514395
 20
-153.5120767845387
 30
0.0
 10
61.85479463514395
 20
-153.5120767845387
 30
0.0
 10
61.85479463514395
 20
-151.9676404785012
 30
0.0
 10
61.85479463514395
 20
-151.9676404785012
 30
0.0
 10
61.85479463514395
 20
-151.9676404785012
 30
0.0
 10
62.52968884070439
 20
-151.9676404785012
 30
0.0
 10
62.52968884070439
 20
-151.9676404785012
 30
0.0
 10
62.83630233889162
 20
-151.9676404785012
 30
0.0
 10
63.00338946992624
 20
-152.1392062336666
 30
0.0
 10
63.00338946992624
 20
-152.3951768282207
 30
0.0
 10
63.00338946992624
 20
-152.4458197318538
 30
0.0
 10
62.99494898598738
 20
-152.5285020234998
 30
0.0
 10
62.95050725422765
 20
-152.6087727483061
 30
0.0
 10
62.89142386665562
 20
-152.7124701224122
 30
0.0
 10
62.82579479766161
 20
-152.7314181475811
 30
0.0
 10
62.76447209802416
 20
-152.7482991154588
 30
0.0
 10
62.90193140788563
 20
-152.7906737899273
 30
0.0
 10
62.96962753417079
 20
-152.8392496362694
 30
0.0
 10
62.97393390352735
 20
-153.1544758731697
 30
0.0
 10
62.97806801810965
 20
-153.4252603783104
 30
0.0
 10
63.01406926593052
 20
-153.4569552567746
 30
0.0
 10
63.08176539221567
 20
-153.5120767845387
 30
0.0
 10
63.08176539221567
 20
-153.5120767845387
 30
0.0
 10
62.78565943525845
 20
-153.5120767845387
 30
0.0
 10
62.78565943525845
 20
-153.5120767845387
 30
0.0
  0
SPLINE
  5
7A
330
75
100
AcDbEntity
  8
_U+30EC_U+30A4_U+30E4_U+30FC 1
370
     0
100
AcDbSpline
210
0.0
220
0.0
230
1.0
 70
    11
 71
     3
 72
    20
 73
    16
 74
     0
 42
0.0000000001
 43
0.0000000001
 12
1.0
 22
0.0
 32
0.0
 13
1.0
 23
0.0
 33
0.0
 40
0.0
 40
0.0
 40
0.0
 40
0.0
 40
1.0
 40
1.0
 40
1.0
 40
2.0
 40
2.0
 40
2.0
 40
3.0
 40
3.0
 40
3.0
 40
4.0
 40
4.0
 40
4.0
 40
5.0
 40
5.0
 40
5.0
 40
5.0
 10
62.53382295528669
 20
-152.1791693412955
 30
0.0
 10
62.53382295528669
 20
-152.1791693412955
 30
0.0
 10
62.08957789246372
 20
-152.1791693412955
 30
0.0
 10
62.08957789246372
 20
-152.1791693412955
 30
0.0
 10
62.08957789246372
 20
-152.1791693412955
 30
0.0
 10
62.08957789246372
 20
-152.6594156519393
 30
0.0
 10
62.08957789246372
 20
-152.6594156519393
 30
0.0
 10
62.08957789246372
 20
-152.6594156519393
 30
0.0
 10
62.53175589799554
 20
-152.6594156519393
 30
0.0
 10
62.53175589799554
 20
-152.6594156519393
 30
0.0
 10
62.63114690274499
 20
-152.6594156519393
 30
0.0
 10
62.76653915531531
 20
-152.5832790417153
 30
0.0
 10
62.76653915531531
 20
-152.4120577960984
 30
0.0
 10
62.76653915531531
 20
-152.3338541285832
 30
0.0
 10
62.7326049647856
 20
-152.1791693412955
 30
0.0
 10
62.53382295528669
 20
-152.1791693412955
 30
0.0
  0
HATCH
  5
7B
330
75
100
AcDbEntity
  8
_U+30EC_U+30A4_U+30E4_U+30FC 1
 62
     7
420
 16777215
100
AcDbHatch
 10
0.0
 20
0.0
 30
0.0
210
0.0
220
0.0
230
1.0
  2
SOLID
 70
     1
 71
     0
 91
        2
 92
        1
 93
        1
 72
     4
 94
        3
 73
     0
 74
     1
 95
       44
 96
       40
 40
0.0
 40
0.0
 40
0.0
 40
0.0
 40
1.0
 40
1.0
 40
1.0
 40
2.0
 40
2.0
 40
2.0
 40
3.0
 40
3.0
 40
3.0
 40
4.0
 40
4.0
 40
4.0
 40
5.0
 40
5.0
 40
5.0
 40
6.0
 40
6.0
 40
6.0
 40
7.0
 40
7.0
 40
7.0
 40
8.0
 40
8.0
 40
8.0
 40
9.0
 40
9.0
 40
9.0
 40
10.0
 40
10.0
 40
10.0
 40
11.0
 40
11.0
 40
11.0
 40
12.0
 40
12.0
 40
12.0
 40
13.0
 40
13.0
 40
13.0
 40
13.0
 10
62.78565943525845
 20
-153.5120767845387
 10
62.76223278595875
 20
-153.4676350527789
 10
62.74121770349873
 20
-153.4149250918546
 10
62.73897839143331
 20
-153.1841036943429
 10
62.73484427685101
 20
-152.9408799530842
 10
62.67558863450472
 20
-152.8709445147337
 10
62.49782170746582
 20
-152.8709445147337
 10
62.49782170746582
 20
-152.8709445147337
 10
62.08957789246372
 20
-152.8709445147337
 10
62.08957789246372
 20
-152.8709445147337
 10
62.08957789246372
 20
-152.8709445147337
 10
62.08957789246372
 20
-153.5120767845387
 10
62.08957789246372
 20
-153.5120767845387
 10
62.08957789246372
 20
-153.5120767845387
 10
61.85479463514395
 20
-153.5120767845387
 10
61.85479463514395
 20
-153.5120767845387
 10
61.85479463514395
 20
-153.5120767845387
 10
61.85479463514395
 20
-151.9676404785012
 10
61.85479463514395
 20
-151.9676404785012
 10
61.85479463514395
 20
-151.9676404785012
 10
62.52968884070439
 20
-151.9676404785012
 10
62.52968884070439
 20
-151.9676404785012
 10
62.83630233889162
 20
-151.9676404785012
 10
63.00338946992624
 20
-152.1392062336666
 10
63.00338946992624
 20
-152.3951768282207
 10
63.00338946992624
 20
-152.4458197318538
 10
62.99494898598738
 20
-152.5285020234998
 10
62.95050725422765
 20
-152.6087727483061
 10
62.89142386665562
 20
-152.7124701224122
 10
62.82579479766161
 20
-152.7314181475811
 10
62.76447209802416
 20
-152.7482991154588
 10
62.90193140788563
 20
-152.7906737899273
 10
62.96962753417079
 20
-152.8392496362694
 10
62.97393390352735
 20
-153.1544758731697
 10
62.97806801810965
 20
-153.4252603783104
 10
63.01406926593052
 20
-153.4569552567746
 10
63.08176539221567
 20
-153.5120767845387
 10
63.08176539221567
 20
-153.5120767845387
 10
62.78565943525845
 20
-153.5120767845387
 10
62.78565943525845
 20
-153.5120767845387
 97
        0
 97
        0
 92
        1
 93
        1
 72
     4
 94
        3
 73
     0
 74
     1
 95
       20
 96
       16
 40
0.0
 40
0.0
 40
0.0
 40
0.0
 40
1.0
 40
1.0
 40
1.0
 40
2.0
 40
2.0
 40
2.0
 40
3.0
 40
3.0
 40
3.0
 40
4.0
 40
4.0
 40
4.0
 40
5.0
 40
5.0
 40
5.0
 40
5.0
 10
62.53382295528669
 20
-152.1791693412955
 10
62.53382295528669
 20
-152.1791693412955
 10
62.08957789246372
 20
-152.1791693412955
 10
62.08957789246372
 20
-152.1791693412955
 10
62.08957789246372
 20
-152.1791693412955
 10
62.08957789246372
 20
-152.6594156519393
 10
62.08957789246372
 20
-152.6594156519393
 10
62.08957789246372
 20
-152.6594156519393
 10
62.53175589799554
 20
-152.6594156519393
 10
62.53175589799554
 20
-152.6594156519393
 10
62.63114690274499
 20
-152.6594156519393
 10
62.76653915531531
 20
-152.5832790417153
 10
62.76653915531531
 20
-152.4120577960984
 10
62.76653915531531
 20
-152.3338541285832
 10
62.7326049647856
 20
-152.1791693412955
 10
62.53382295528669
 20
-152.1791693412955
 97
        0
 97
        0
 75
     2
 76
     1
 98
        0
  0
SPLINE
  5
7C
330
75
100
AcDbEntity
  8
_U+30EC_U+30A4_U+30E4_U+30FC 1
370
     0
100
AcDbSpline
210
0.0
220
0.0
230
1.0
 70
    11
 71
     3
 72
    26
 73
    22
 74
     0
 42
0.0000000001
 43
0.0000000001
 12
1.0
 22
0.0
 32
0.0
 13
1.0
 23
0.0
 33
0.0
 40
0.0
 40
0.0
 40
0.0
 40
0.0
 40
1.0
 40
1.0
 40
1.0
 40
2.0
 40
2.0
 40
2.0
 40
3.0
 40
3.0
 40
3.0
 40
4.0
 40
4.0
 40
4.0
 40
5.0
 40
5.0
 40
5.0
 40
6.0
 40
6.0
 40
6.0
 40
7.0
 40
7.0
 40
7.0
 40
7.0
 10
63.67277152271028
 20
-153.5120767845387
 30
0.0
 10
63.67277152271028
 20
-153.5120767845387
 30
0.0
 10
63.67277152271028
 20
-152.4079236815161
 30
0.0
 10
63.67277152271028
 20
-152.4079236815161
 30
0.0
 10
63.67277152271028
 20
-152.4079236815161
 30
0.0
 10
63.34273137522334
 20
-152.4079236815161
 30
0.0
 10
63.34273137522334
 20
-152.4079236815161
 30
0.0
 10
63.34273137522334
 20
-152.4079236815161
 30
0.0
 10
63.34273137522334
 20
-152.2597845756503
 30
0.0
 10
63.34273137522334
 20
-152.2597845756503
 30
0.0
 10
63.67483858000143
 20
-152.2449706650638
 30
0.0
 10
63.7213473690523
 20
-152.0820176486114
 30
0.0
 10
63.75097519022545
 20
-151.9676404785012
 30
0.0
 10
63.75097519022545
 20
-151.9676404785012
 30
0.0
 10
63.89704723880005
 20
-151.9676404785012
 30
0.0
 10
63.89704723880005
 20
-151.9676404785012
 30
0.0
 10
63.89704723880005
 20
-151.9676404785012
 30
0.0
 10
63.89704723880005
 20
-153.5120767845387
 30
0.0
 10
63.89704723880005
 20
-153.5120767845387
 30
0.0
 10
63.89704723880005
 20
-153.5120767845387
 30
0.0
 10
63.67277152271028
 20
-153.5120767845387
 30
0.0
 10
63.67277152271028
 20
-153.5120767845387
 30
0.0
  0
HATCH
  5
7D
330
75
100
AcDbEntity
  8
_U+30EC_U+30A4_U+30E4_U+30FC 1
 62
     7
420
 16777215
100
AcDbHatch
 10
0.0
 20
0.0
 30
0.0
210
0.0
220
0.0
230
1.0
  2
SOLID
 70
     1
 71
     0
 91
        1
 92
        1
 93
        1
 72
     4
 94
        3
 73
     0
 74
     1
 95
       26
 96
       22
 40
0.0
 40
0.0
 40
0.0
 40
0.0
 40
1.0
 40
1.0
 40
1.0
 40
2.0
 40
2.0
 40
2.0
 40
3.0
 40
3.0
 40
3.0
 40
4.0
 40
4.0
 40
4.0
 40
5.0
 40
5.0
 40
5.0
 40
6.0
 40
6.0
 40
6.0
 40
7.0
 40
7.0
 40
7.0
 40
7.0
 10
63.67277152271028
 20
-153.5120767845387
 10
63.67277152271028
 20
-153.5120767845387
 10
63.67277152271028
 20
-152.4079236815161
 10
63.67277152271028
 20
-152.4079236815161
 10
63.67277152271028
 20
-152.4079236815161
 10
63.34273137522334
 20
-152.4079236815161
 10
63.34273137522334
 20
-152.4079236815161
 10
63.34273137522334
 20
-152.4079236815161
 10
63.34273137522334
 20
-152.2597845756503
 10
63.34273137522334
 20
-152.2597845756503
 10
63.67483858000143
 20
-152.2449706650638
 10
63.7213473690523
 20
-152.0820176486114
 10
63.75097519022545
 20
-151.9676404785012
 10
63.75097519022545
 20
-151.9676404785012
 10
63.89704723880005
 20
-151.9676404785012
 10
63.89704723880005
 20
-151.9676404785012
 10
63.89704723880005
 20
-151.9676404785012
 10
63.89704723880005
 20
-153.5120767845387
 10
63.89704723880005
 20
-153.5120767845387
 10
63.89704723880005
 20
-153.5120767845387
 10
63.67277152271028
 20
-153.5120767845387
 10
63.67277152271028
 20
-153.5120767845387
 97
        0
 97
        0
 75
     2
 76
     1
 98
        0
  0
ENDBLK
  5
78
330
75
100
AcDbEntity
  8
0
100
AcDbBlockEnd
  0
BLOCK
  5
8C
330
8A
100
AcDbEntity
  8
0
100
AcDbBlockBegin
  2
block 6
 70
     0
 10
0.0
 20
0.0
 30
0.0
  3
block 6
  1

  0
SPLINE
  5
8E
330
8A
100
AcDbEntity
  8
_U+30EC_U+30A4_U+30E4_U+30FC 1
370
     0
100
AcDbSpline
210
0.0
220
0.0
230
1.0
 70
    11
 71
     3
 72
    26
 73
    22
 74
     0
 42
0.0000000001
 43
0.0000000001
 12
1.0
 22
0.0
 32
0.0
 13
1.0
 23
0.0
 33
0.0
 40
0.0
 40
0.0
 40
0.0
 40
0.0
 40
1.0
 40
1.0
 40
1.0
 40
2.0
 40
2.0
 40
2.0
 40
3.0
 40
3.0
 40
3.0
 40
4.0
 40
4.0
 40
4.0
 40
5.0
 40
5.0
 40
5.0
 40
6.0
 40
6.0
 40
6.0
 40
7.0
 40
7.0
 40
7.0
 40
7.0
 10
120.4319254256212
 20
-141.6475124428868
 30
0.0
 10
120.4319254256212
 20
-141.6475124428868
 30
0.0
 10
119.3277723225986
 20
-141.6475124428868
 30
0.0
 10
119.3277723225986
 20
-141.6475124428868
 30
0.0
 10
119.3277723225986
 20
-141.6475124428868
 30
0.0
 10
119.3277723225986
 20
-141.9775525903737
 30
0.0
 10
119.3277723225986
 20
-141.9775525903737
 30
0.0
 10
119.3277723225986
 20
-141.9775525903737
 30
0.0
 10
119.1796332167329
 20
-141.9775525903737
 30
0.0
 10
119.1796332167329
 20
-141.9775525903737
 30
0.0
 10
119.1648193061463
 20
-141.6454453855956
 30
0.0
 10
119.001866289694
 20
-141.5989365965447
 30
0.0
 10
118.8874891195837
 20
-141.5693087753716
 30
0.0
 10
118.8874891195837
 20
-141.5693087753716
 30
0.0
 10
118.8874891195837
 20
-141.423236726797
 30
0.0
 10
118.8874891195837
 20
-141.423236726797
 30
0.0
 10
118.8874891195837
 20
-141.423236726797
 30
0.0
 10
120.4319254256212
 20
-141.423236726797
 30
0.0
 10
120.4319254256212
 20
-141.423236726797
 30
0.0
 10
120.4319254256212
 20
-141.423236726797
 30
0.0
 10
120.4319254256212
 20
-141.6475124428868
 30
0.0
 10
120.4319254256212
 20
-141.6475124428868
 30
0.0
  0
HATCH
  5
8F
330
8A
100
AcDbEntity
  8
_U+30EC_U+30A4_U+30E4_U+30FC 1
 62
     7
420
 16777215
100
AcDbHatch
 10
0.0
 20
0.0
 30
0.0
210
0.0
220
0.0
230
1.0
  2
SOLID
 70
     1
 71
     0
 91
        1
 92
        1
 93
        1
 72
     4
 94
        3
 73
     0
 74
     1
 95
       26
 96
       22
 40
0.0
 40
0.0
 40
0.0
 40
0.0
 40
1.0
 40
1.0
 40
1.0
 40
2.0
 40
2.0
 40
2.0
 40
3.0
 40
3.0
 40
3.0
 40
4.0
 40
4.0
 40
4.0
 40
5.0
 40
5.0
 40
5.0
 40
6.0
 40
6.0
 40
6.0
 40
7.0
 40
7.0
 40
7.0
 40
7.0
 10
120.4319254256212
 20
-141.6475124428868
 10
120.4319254256212
 20
-141.6475124428868
 10
119.3277723225986
 20
-141.6475124428868
 10
119.3277723225986
 20
-141.6475124428868
 10
119.3277723225986
 20
-141.6475124428868
 10
119.3277723225986
 20
-141.9775525903737
 10
119.3277723225986
 20
-141.9775525903737
 10
119.3277723225986
 20
-141.9775525903737
 10
119.1796332167329
 20
-141.9775525903737
 10
119.1796332167329
 20
-141.9775525903737
 10
119.1648193061463
 20
-141.6454453855956
 10
119.001866289694
 20
-141.5989365965447
 10
118.8874891195837
 20
-141.5693087753716
 10
118.8874891195837
 20
-141.5693087753716
 10
118.8874891195837
 20
-141.423236726797
 10
118.8874891195837
 20
-141.423236726797
 10
118.8874891195837
 20
-141.423236726797
 10
120.4319254256212
 20
-141.423236726797
 10
120.4319254256212
 20
-141.423236726797
 10
120.4319254256212
 20
-141.423236726797
 10
120.4319254256212
 20
-141.6475124428868
 10
120.4319254256212
 20
-141.6475124428868
 97
        0
 97
        0
 75
     2
 76
     1
 98
        0
  0
SPLINE
  5
90
330
8A
100
AcDbEntity
  8
_U+30EC_U+30A4_U+30E4_U+30FC 1
370
     0
100
AcDbSpline
210
0.0
220
0.0
230
1.0
 70
    11
 71
     3
 72
    62
 73
    58
 74
     0
 42
0.0000000001
 43
0.0000000001
 12
1.0
 22
0.0
 32
0.0
 13
1.0
 23
0.0
 33
0.0
 40
0.0
 40
0.0
 40
0.0
 40
0.0
 40
1.0
 40
1.0
 40
1.0
 40
2.0
 40
2.0
 40
2.0
 40
3.0
 40
3.0
 40
3.0
 40
4.0
 40
4.0
 40
4.0
 40
5.0
 40
5.0
 40
5.0
 40
6.0
 40
6.0
 40
6.0
 40
7.0
 40
7.0
 40
7.0
 40
8.0
 40
8.0
 40
8.0
 40
9.0
 40
9.0
 40
9.0
 40
10.0
 40
10.0
 40
10.0
 40
11.0
 40
11.0
 40
11.0
 40
12.0
 40
12.0
 40
12.0
 40
13.0
 40
13.0
 40
13.0
 40
14.0
 40
14.0
 40
14.0
 40
15.0
 40
15.0
 40
15.0
 40
16.0
 40
16.0
 40
16.0
 40
17.0
 40
17.0
 40
17.0
 40
18.0
 40
18.0
 40
18.0
 40
19.0
 40
19.0
 40
19.0
 40
19.0
 10
120.4825683292544
 20
-140.430360207948
 30
0.0
 10
120.4825683292544
 20
-140.5257893528894
 30
0.0
 10
120.4615532467943
 20
-140.7435193875572
 30
0.0
 10
120.2755180905909
 20
-140.8685763536718
 30
0.0
 10
120.1632079777717
 20
-140.9423013970561
 30
0.0
 10
120.0639892277965
 20
-140.9467800211869
 30
0.0
 10
119.9792398788594
 20
-140.9509141357692
 30
0.0
 10
119.9792398788594
 20
-140.9509141357692
 30
0.0
 10
119.9792398788594
 20
-140.7307725342617
 30
0.0
 10
119.9792398788594
 20
-140.7307725342617
 30
0.0
 10
120.0533094317922
 20
-140.7287054769706
 30
0.0
 10
120.2879204343377
 20
-140.7183701905149
 30
0.0
 10
120.2879204343377
 20
-140.4348388320788
 30
0.0
 10
120.2879204343377
 20
-140.2973795222173
 30
0.0
 10
120.2183295055357
 20
-140.1447617922207
 30
0.0
 10
119.9899196748636
 20
-140.1447617922207
 30
0.0
 10
119.8734754474622
 20
-140.1447617922207
 30
0.0
 10
119.8248996011202
 20
-140.183002352107
 30
0.0
 10
119.7932047226559
 20
-140.2146972305713
 30
0.0
 10
119.719135169723
 20
-140.2887667835042
 30
0.0
 10
119.7063883164276
 20
-140.4052110109056
 30
0.0
 10
119.7063883164276
 20
-140.4599880291211
 30
0.0
 10
119.7063883164276
 20
-140.4792805638385
 30
0.0
 10
119.7084553737187
 20
-140.5151095568851
 30
0.0
 10
119.712589488301
 20
-140.5426703207671
 30
0.0
 10
119.712589488301
 20
-140.5426703207671
 30
0.0
 10
119.5179415933844
 20
-140.5426703207671
 30
0.0
 10
119.5179415933844
 20
-140.5426703207671
 30
0.0
 10
119.5244872748064
 20
-140.5044297608808
 30
0.0
 10
119.5265543320975
 20
-140.4623995959608
 30
0.0
 10
119.5265543320975
 20
-140.4558539145388
 30
0.0
 10
119.5265543320975
 20
-140.3903971003191
 30
0.0
 10
119.505194740089
 20
-140.1916150908202
 30
0.0
 10
119.2685166802523
 20
-140.1916150908202
 30
0.0
 10
119.0907497532134
 20
-140.1916150908202
 30
0.0
 10
119.0356282254494
 20
-140.3225287192597
 30
0.0
 10
119.0356282254494
 20
-140.4327717747877
 30
0.0
 10
119.0356282254494
 20
-140.6970105985063
 30
0.0
 10
119.2685166802523
 20
-140.7056233372194
 30
0.0
 10
119.3401746663455
 20
-140.7097574518017
 30
0.0
 10
119.3401746663455
 20
-140.7097574518017
 30
0.0
 10
119.3401746663455
 20
-140.9130180854315
 30
0.0
 10
119.3401746663455
 20
-140.9130180854315
 30
0.0
 10
119.2154622097795
 20
-140.9044053467184
 30
0.0
 10
118.8389132732417
 20
-140.8768445828364
 30
0.0
 10
118.8389132732417
 20
-140.4200249214922
 30
0.0
 10
118.8389132732417
 20
-140.1957492054024
 30
0.0
 10
118.9660372966474
 20
-139.954592521435
 30
0.0
 10
119.2619709988303
 20
-139.954592521435
 30
0.0
 10
119.4483506645824
 20
-139.954592521435
 30
0.0
 10
119.5306884466798
 20
-140.0496771568279
 30
0.0
 10
119.5920111463173
 20
-140.1492404163516
 30
0.0
 10
119.6195719101993
 20
-140.0879177167141
 30
0.0
 10
119.6998426350056
 20
-139.906016675093
 30
0.0
 10
119.9771728215682
 20
-139.906016675093
 30
0.0
 10
120.3154811982197
 20
-139.906016675093
 30
0.0
 10
120.4825683292544
 20
-140.1533745309339
 30
0.0
 10
120.4825683292544
 20
-140.430360207948
 30
0.0
  0
HATCH
  5
91
330
8A
100
AcDbEntity
  8
_U+30EC_U+30A4_U+30E4_U+30FC 1
 62
     7
420
 16777215
100
AcDbHatch
 10
0.0
 20
0.0
 30
0.0
210
0.0
220
0.0
230
1.0
  2
SOLID
 70
     1
 71
     0
 91
        1
 92
        1
 93
        1
 72
     4
 94
        3
 73
     0
 74
     1
 95
       62
 96
       58
 40
0.0
 40
0.0
 40
0.0
 40
0.0
 40
1.0
 40
1.0
 40
1.0
 40
2.0
 40
2.0
 40
2.0
 40
3.0
 40
3.0
 40
3.0
 40
4.0
 40
4.0
 40
4.0
 40
5.0
 40
5.0
 40
5.0
 40
6.0
 40
6.0
 40
6.0
 40
7.0
 40
7.0
 40
7.0
 40
8.0
 40
8.0
 40
8.0
 40
9.0
 40
9.0
 40
9.0
 40
10.0
 40
10.0
 40
10.0
 40
11.0
 40
11.0
 40
11.0
 40
12.0
 40
12.0
 40
12.0
 40
13.0
 40
13.0
 40
13.0
 40
14.0
 40
14.0
 40
14.0
 40
15.0
 40
15.0
 40
15.0
 40
16.0
 40
16.0
 40
16.0
 40
17.0
 40
17.0
 40
17.0
 40
18.0
 40
18.0
 40
18.0
 40
19.0
 40
19.0
 40
19.0
 40
19.0
 10
120.4825683292544
 20
-140.430360207948
 10
120.4825683292544
 20
-140.5257893528894
 10
120.4615532467943
 20
-140.7435193875572
 10
120.2755180905909
 20
-140.8685763536718
 10
120.1632079777717
 20
-140.9423013970561
 10
120.0639892277965
 20
-140.9467800211869
 10
119.9792398788594
 20
-140.9509141357692
 10
119.9792398788594
 20
-140.9509141357692
 10
119.9792398788594
 20
-140.7307725342617
 10
119.9792398788594
 20
-140.7307725342617
 10
120.0533094317922
 20
-140.7287054769706
 10
120.2879204343377
 20
-140.7183701905149
 10
120.2879204343377
 20
-140.4348388320788
 10
120.2879204343377
 20
-140.2973795222173
 10
120.2183295055357
 20
-140.1447617922207
 10
119.9899196748636
 20
-140.1447617922207
 10
119.8734754474622
 20
-140.1447617922207
 10
119.8248996011202
 20
-140.183002352107
 10
119.7932047226559
 20
-140.2146972305713
 10
119.719135169723
 20
-140.2887667835042
 10
119.7063883164276
 20
-140.4052110109056
 10
119.7063883164276
 20
-140.4599880291211
 10
119.7063883164276
 20
-140.4792805638385
 10
119.7084553737187
 20
-140.5151095568851
 10
119.712589488301
 20
-140.5426703207671
 10
119.712589488301
 20
-140.5426703207671
 10
119.5179415933844
 20
-140.5426703207671
 10
119.5179415933844
 20
-140.5426703207671
 10
119.5244872748064
 20
-140.5044297608808
 10
119.5265543320975
 20
-140.4623995959608
 10
119.5265543320975
 20
-140.4558539145388
 10
119.5265543320975
 20
-140.3903971003191
 10
119.505194740089
 20
-140.1916150908202
 10
119.2685166802523
 20
-140.1916150908202
 10
119.0907497532134
 20
-140.1916150908202
 10
119.0356282254494
 20
-140.3225287192597
 10
119.0356282254494
 20
-140.4327717747877
 10
119.0356282254494
 20
-140.6970105985063
 10
119.2685166802523
 20
-140.7056233372194
 10
119.3401746663455
 20
-140.7097574518017
 10
119.3401746663455
 20
-140.7097574518017
 10
119.3401746663455
 20
-140.9130180854315
 10
119.3401746663455
 20
-140.9130180854315
 10
119.2154622097795
 20
-140.9044053467184
 10
118.8389132732417
 20
-140.8768445828364
 10
118.8389132732417
 20
-140.4200249214922
 10
118.8389132732417
 20
-140.1957492054024
 10
118.9660372966474
 20
-139.954592521435
 10
119.2619709988303
 20
-139.954592521435
 10
119.4483506645824
 20
-139.954592521435
 10
119.5306884466798
 20
-140.0496771568279
 10
119.5920111463173
 20
-140.1492404163516
 10
119.6195719101993
 20
-140.0879177167141
 10
119.6998426350056
 20
-139.906016675093
 10
119.9771728215682
 20
-139.906016675093
 10
120.3154811982197
 20
-139.906016675093
 10
120.4825683292544
 20
-140.1533745309339
 10
120.4825683292544
 20
-140.430360207948
 97
        0
 97
        0
 75
     2
 76
     1
 98
        0
  0
ENDBLK
  5
8D
330
8A
100
AcDbEntity
  8
0
100
AcDbBlockEnd
  0
BLOCK
  5
94
330
92
100
AcDbEntity
  8
0
100
AcDbBlockBegin
  2
block 7
 70
     0
 10
0.0
 20
0.0
 30
0.0
  3
block 7
  1

  0
SPLINE
  5
96
330
92
100
AcDbEntity
  8
_U+30EC_U+30A4_U+30E4_U+30FC 1
370
     0
100
AcDbSpline
210
0.0
220
0.0
230
1.0
 70
    11
 71
     3
 72
    32
 73
    28
 74
     0
 42
0.0000000001
 43
0.0000000001
 12
1.0
 22
0.0
 32
0.0
 13
1.0
 23
0.0
 33
0.0
 40
0.0
 40
0.0
 40
0.0
 40
0.0
 40
1.0
 40
1.0
 40
1.0
 40
2.0
 40
2.0
 40
2.0
 40
3.0
 40
3.0
 40
3.0
 40
4.0
 40
4.0
 40
4.0
 40
5.0
 40
5.0
 40
5.0
 40
6.0
 40
6.0
 40
6.0
 40
7.0
 40
7.0
 40
7.0
 40
8.0
 40
8.0
 40
8.0
 40
9.0
 40
9.0
 40
9.0
 40
9.0
 10
117.079158499376
 20
-144.5834228154166
 30
0.0
 10
117.079158499376
 20
-145.0994981191071
 30
0.0
 10
116.5251871453479
 20
-145.1077663482717
 30
0.0
 10
116.3112467157139
 20
-145.1077663482717
 30
0.0
 10
116.0807698277506
 20
-145.1077663482717
 30
0.0
 10
115.4334363860722
 20
-145.0888183231028
 30
0.0
 10
115.4334363860722
 20
-144.5451822555304
 30
0.0
 10
115.4334363860722
 20
-144.3718939526223
 30
0.0
 10
115.5033718244228
 20
-144.126258644524
 30
0.0
 10
115.8354790292009
 20
-144.0883625941862
 30
0.0
 10
115.8354790292009
 20
-144.0883625941862
 30
0.0
 10
115.8354790292009
 20
-144.3019585142717
 30
0.0
 10
115.8354790292009
 20
-144.3019585142717
 30
0.0
 10
115.7782904441457
 20
-144.312638310276
 30
0.0
 10
115.63015133828
 20
-144.3443331887403
 30
0.0
 10
115.63015133828
 20
-144.5472493128215
 30
0.0
 10
115.63015133828
 20
-144.8393934099707
 30
0.0
 10
115.9581244284758
 20
-144.8793565175996
 30
0.0
 10
116.1631076098481
 20
-144.892103370895
 30
0.0
 10
116.0849039423329
 20
-144.7990857927933
 30
0.0
 10
116.0256482999866
 20
-144.7312174117339
 30
0.0
 10
116.0256482999866
 20
-144.5493163701127
 30
0.0
 10
116.0256482999866
 20
-144.3694823857826
 30
0.0
 10
116.1338242982235
 20
-144.0670030021777
 30
0.0
 10
116.5400010559345
 20
-144.0670030021777
 30
0.0
 10
116.8593614074171
 20
-144.0670030021777
 30
0.0
 10
117.079158499376
 20
-144.2661295212251
 30
0.0
 10
117.079158499376
 20
-144.5834228154166
 30
0.0
  0
SPLINE
  5
97
330
92
100
AcDbEntity
  8
_U+30EC_U+30A4_U+30E4_U+30FC 1
370
     0
100
AcDbSpline
210
0.0
220
0.0
230
1.0
 70
    11
 71
     3
 72
    17
 73
    13
 74
     0
 42
0.0000000001
 43
0.0000000001
 12
1.0
 22
0.0
 32
0.0
 13
1.0
 23
0.0
 33
0.0
 40
0.0
 40
0.0
 40
0.0
 40
0.0
 40
1.0
 40
1.0
 40
1.0
 40
2.0
 40
2.0
 40
2.0
 40
3.0
 40
3.0
 40
3.0
 40
4.0
 40
4.0
 40
4.0
 40
4.0
 10
116.2202961949033
 20
-144.5661973379904
 30
0.0
 10
116.2202961949033
 20
-144.8287136139664
 30
0.0
 10
116.4318250576976
 20
-144.8666096643042
 30
0.0
 10
116.5482692850991
 20
-144.8666096643042
 30
0.0
 10
116.7239691548468
 20
-144.8666096643042
 30
0.0
 10
116.8869221712991
 20
-144.7715250289113
 30
0.0
 10
116.8869221712991
 20
-144.587556929999
 30
0.0
 10
116.8869221712991
 20
-144.4669785880152
 30
0.0
 10
116.8276665289528
 20
-144.2912787182675
 30
0.0
 10
116.5420681132256
 20
-144.2912787182675
 30
0.0
 10
116.3177923971358
 20
-144.2912787182675
 30
0.0
 10
116.2202961949033
 20
-144.4311495949686
 30
0.0
 10
116.2202961949033
 20
-144.5661973379904
 30
0.0
  0
HATCH
  5
98
330
92
100
AcDbEntity
  8
_U+30EC_U+30A4_U+30E4_U+30FC 1
 62
     7
420
 16777215
100
AcDbHatch
 10
0.0
 20
0.0
 30
0.0
210
0.0
220
0.0
230
1.0
  2
SOLID
 70
     1
 71
     0
 91
        2
 92
        1
 93
        1
 72
     4
 94
        3
 73
     0
 74
     1
 95
       32
 96
       28
 40
0.0
 40
0.0
 40
0.0
 40
0.0
 40
1.0
 40
1.0
 40
1.0
 40
2.0
 40
2.0
 40
2.0
 40
3.0
 40
3.0
 40
3.0
 40
4.0
 40
4.0
 40
4.0
 40
5.0
 40
5.0
 40
5.0
 40
6.0
 40
6.0
 40
6.0
 40
7.0
 40
7.0
 40
7.0
 40
8.0
 40
8.0
 40
8.0
 40
9.0
 40
9.0
 40
9.0
 40
9.0
 10
117.079158499376
 20
-144.5834228154166
 10
117.079158499376
 20
-145.0994981191071
 10
116.5251871453479
 20
-145.1077663482717
 10
116.3112467157139
 20
-145.1077663482717
 10
116.0807698277506
 20
-145.1077663482717
 10
115.4334363860722
 20
-145.0888183231028
 10
115.4334363860722
 20
-144.5451822555304
 10
115.4334363860722
 20
-144.3718939526223
 10
115.5033718244228
 20
-144.126258644524
 10
115.8354790292009
 20
-144.0883625941862
 10
115.8354790292009
 20
-144.0883625941862
 10
115.8354790292009
 20
-144.3019585142717
 10
115.8354790292009
 20
-144.3019585142717
 10
115.7782904441457
 20
-144.312638310276
 10
115.63015133828
 20
-144.3443331887403
 10
115.63015133828
 20
-144.5472493128215
 10
115.63015133828
 20
-144.8393934099707
 10
115.9581244284758
 20
-144.8793565175996
 10
116.1631076098481
 20
-144.892103370895
 10
116.0849039423329
 20
-144.7990857927933
 10
116.0256482999866
 20
-144.7312174117339
 10
116.0256482999866
 20
-144.5493163701127
 10
116.0256482999866
 20
-144.3694823857826
 10
116.1338242982235
 20
-144.0670030021777
 10
116.5400010559345
 20
-144.0670030021777
 10
116.8593614074171
 20
-144.0670030021777
 10
117.079158499376
 20
-144.2661295212251
 10
117.079158499376
 20
-144.5834228154166
 97
        0
 97
        0
 92
        1
 93
        1
 72
     4
 94
        3
 73
     0
 74
     1
 95
       17
 96
       13
 40
0.0
 40
0.0
 40
0.0
 40
0.0
 40
1.0
 40
1.0
 40
1.0
 40
2.0
 40
2.0
 40
2.0
 40
3.0
 40
3.0
 40
3.0
 40
4.0
 40
4.0
 40
4.0
 40
4.0
 10
116.2202961949033
 20
-144.5661973379904
 10
116.2202961949033
 20
-144.8287136139664
 10
116.4318250576976
 20
-144.8666096643042
 10
116.5482692850991
 20
-144.8666096643042
 10
116.7239691548468
 20
-144.8666096643042
 10
116.8869221712991
 20
-144.7715250289113
 10
116.8869221712991
 20
-144.587556929999
 10
116.8869221712991
 20
-144.4669785880152
 10
116.8276665289528
 20
-144.2912787182675
 10
116.5420681132256
 20
-144.2912787182675
 10
116.3177923971358
 20
-144.2912787182675
 10
116.2202961949033
 20
-144.4311495949686
 10
116.2202961949033
 20
-144.5661973379904
 97
        0
 97
        0
 75
     2
 76
     1
 98
        0
  0
ENDBLK
  5
95
330
92
100
AcDbEntity
  8
0
100
AcDbBlockEnd
  0
BLOCK
  5
9B
330
99
100
AcDbEntity
  8
0
100
AcDbBlockBegin
  2
block 8
 70
     0
 10
0.0
 20
0.0
 30
0.0
  3
block 8
  1

  0
SPLINE
  5
9D
330
99
100
AcDbEntity
  8
_U+30EC_U+30A4_U+30E4_U+30FC 1
370
     0
100
AcDbSpline
210
0.0
220
0.0
230
1.0
 70
    11
 71
     3
 72
    26
 73
    22
 74
     0
 42
0.0000000001
 43
0.0000000001
 12
1.0
 22
0.0
 32
0.0
 13
1.0
 23
0.0
 33
0.0
 40
0.0
 40
0.0
 40
0.0
 40
0.0
 40
1.0
 40
1.0
 40
1.0
 40
2.0
 40
2.0
 40
2.0
 40
3.0
 40
3.0
 40
3.0
 40
4.0
 40
4.0
 40
4.0
 40
5.0
 40
5.0
 40
5.0
 40
6.0
 40
6.0
 40
6.0
 40
7.0
 40
7.0
 40
7.0
 40
7.0
 10
120.4319254256212
 20
-131.9123616206678
 30
0.0
 10
120.4319254256212
 20
-131.9123616206678
 30
0.0
 10
119.3277723225986
 20
-131.9123616206678
 30
0.0
 10
119.3277723225986
 20
-131.9123616206678
 30
0.0
 10
119.3277723225986
 20
-131.9123616206678
 30
0.0
 10
119.3277723225986
 20
-132.2424017681547
 30
0.0
 10
119.3277723225986
 20
-132.2424017681547
 30
0.0
 10
119.3277723225986
 20
-132.2424017681547
 30
0.0
 10
119.1796332167329
 20
-132.2424017681547
 30
0.0
 10
119.1796332167329
 20
-132.2424017681547
 30
0.0
 10
119.1648193061463
 20
-131.9102945633766
 30
0.0
 10
119.001866289694
 20
-131.8637857743257
 30
0.0
 10
118.8874891195837
 20
-131.8341579531526
 30
0.0
 10
118.8874891195837
 20
-131.8341579531526
 30
0.0
 10
118.8874891195837
 20
-131.688085904578
 30
0.0
 10
118.8874891195837
 20
-131.688085904578
 30
0.0
 10
118.8874891195837
 20
-131.688085904578
 30
0.0
 10
120.4319254256212
 20
-131.688085904578
 30
0.0
 10
120.4319254256212
 20
-131.688085904578
 30
0.0
 10
120.4319254256212
 20
-131.688085904578
 30
0.0
 10
120.4319254256212
 20
-131.9123616206678
 30
0.0
 10
120.4319254256212
 20
-131.9123616206678
 30
0.0
  0
HATCH
  5
9E
330
99
100
AcDbEntity
  8
_U+30EC_U+30A4_U+30E4_U+30FC 1
 62
     7
420
 16777215
100
AcDbHatch
 10
0.0
 20
0.0
 30
0.0
210
0.0
220
0.0
230
1.0
  2
SOLID
 70
     1
 71
     0
 91
        1
 92
        1
 93
        1
 72
     4
 94
        3
 73
     0
 74
     1
 95
       26
 96
       22
 40
0.0
 40
0.0
 40
0.0
 40
0.0
 40
1.0
 40
1.0
 40
1.0
 40
2.0
 40
2.0
 40
2.0
 40
3.0
 40
3.0
 40
3.0
 40
4.0
 40
4.0
 40
4.0
 40
5.0
 40
5.0
 40
5.0
 40
6.0
 40
6.0
 40
6.0
 40
7.0
 40
7.0
 40
7.0
 40
7.0
 10
120.4319254256212
 20
-131.9123616206678
 10
120.4319254256212
 20
-131.9123616206678
 10
119.3277723225986
 20
-131.9123616206678
 10
119.3277723225986
 20
-131.9123616206678
 10
119.3277723225986
 20
-131.9123616206678
 10
119.3277723225986
 20
-132.2424017681547
 10
119.3277723225986
 20
-132.2424017681547
 10
119.3277723225986
 20
-132.2424017681547
 10
119.1796332167329
 20
-132.2424017681547
 10
119.1796332167329
 20
-132.2424017681547
 10
119.1648193061463
 20
-131.9102945633766
 10
119.001866289694
 20
-131.8637857743257
 10
118.8874891195837
 20
-131.8341579531526
 10
118.8874891195837
 20
-131.8341579531526
 10
118.8874891195837
 20
-131.688085904578
 10
118.8874891195837
 20
-131.688085904578
 10
118.8874891195837
 20
-131.688085904578
 10
120.4319254256212
 20
-131.688085904578
 10
120.4319254256212
 20
-131.688085904578
 10
120.4319254256212
 20
-131.688085904578
 10
120.4319254256212
 20
-131.9123616206678
 10
120.4319254256212
 20
-131.9123616206678
 97
        0
 97
        0
 75
     2
 76
     1
 98
        0
  0
ENDBLK
  5
9C
330
99
100
AcDbEntity
  8
0
100
AcDbBlockEnd
  0
ENDSEC
  0
SECTION
  2
ENTITIES
  0
SPLINE
  5
41
330
1F
100
AcDbEntity
  8
_U+30EC_U+30A4_U+30E4_U+30FC 1
 62
     7
420
 16777215
370
    25
100
AcDbSpline
210
0.0
220
0.0
230
1.0
 70
    11
 71
     3
 72
    77
 73
    73
 74
     0
 42
0.0000000001
 43
0.0000000001
 12
1.0
 22
0.0
 32
0.0
 13
1.0
 23
0.0
 33
0.0
 40
0.0
 40
0.0
 40
0.0
 40
0.0
 40
1.0
 40
1.0
 40
1.0
 40
2.0
 40
2.0
 40
2.0
 40
3.0
 40
3.0
 40
3.0
 40
4.0
 40
4.0
 40
4.0
 40
5.0
 40
5.0
 40
5.0
 40
6.0
 40
6.0
 40
6.0
 40
7.0
 40
7.0
 40
7.0
 40
8.0
 40
8.0
 40
8.0
 40
9.0
 40
9.0
 40
9.0
 40
10.0
 40
10.0
 40
10.0
 40
11.0
 40
11.0
 40
11.0
 40
12.0
 40
12.0
 40
12.0
 40
13.0
 40
13.0
 40
13.0
 40
14.0
 40
14.0
 40
14.0
 40
15.0
 40
15.0
 40
15.0
 40
16.0
 40
16.0
 40
16.0
 40
17.0
 40
17.0
 40
17.0
 40
18.0
 40
18.0
 40
18.0
 40
19.0
 40
19.0
 40
19.0
 40
20.0
 40
20.0
 40
20.0
 40
21.0
 40
21.0
 40
21.0
 40
22.0
 40
22.0
 40
22.0
 40
23.0
 40
23.0
 40
23.0
 40
24.0
 40
24.0
 40
24.0
 40
24.0
 10
73.38483331498728
 20
-122.6693352471106
 30
0.0
 10
73.38483331498728
 20
-122.6693352471106
 30
0.0
 10
73.38483331498728
 20
-119.6697010811937
 30
0.0
 10
73.38483331498728
 20
-119.6697010811937
 30
0.0
 10
73.38483331498728
 20
-119.6697010811937
 30
0.0
 10
80.38732906025949
 20
-119.6697010811937
 30
0.0
 10
80.38732906025949
 20
-119.6697010811937
 30
0.0
 10
80.38732906025949
 20
-119.6697010811937
 30
0.0
 10
80.38732906025949
 20
-102.6771010854419
 30
0.0
 10
80.38732906025949
 20
-102.6771010854419
 30
0.0
 10
80.38732906025949
 20
-102.6771010854419
 30
0.0
 10
81.38745403474418
 20
-102.6771010854419
 30
0.0
 10
81.38745403474418
 20
-102.6771010854419
 30
0.0
 10
81.38745403474418
 20
-102.6771010854419
 30
0.0
 10
81.38745403474418
 20
-120.6698260809437
 30
0.0
 10
81.38745403474418
 20
-120.6698260809437
 30
0.0
 10
81.38745403474418
 20
-120.6698260809437
 30
0.0
 10
74.38633226891322
 20
-120.6698260809437
 30
0.0
 10
74.38633226891322
 20
-120.6698260809437
 30
0.0
 10
74.38633226891322
 20
-120.6698260809437
 30
0.0
 10
74.38650865779762
 20
-123.6694602468606
 30
0.0
 10
74.38650865779762
 20
-123.6694602468606
 30
0.0
 10
74.38650865779762
 20
-123.6694602468606
 30
0.0
 10
68.38547658867448
 20
-123.6694602468606
 30
0.0
 10
68.38547658867448
 20
-123.6694602468606
 30
0.0
 10
68.38547658867448
 20
-123.6694602468606
 30
0.0
 10
68.38547658867448
 20
-145.7468227413413
 30
0.0
 10
68.38547658867448
 20
-145.7468227413413
 30
0.0
 10
68.38547658867448
 20
-145.7468227413413
 30
0.0
 10
68.31555603490274
 20
-146.6728644077764
 30
0.0
 10
69.201804345626
 20
-146.6728644077764
 30
0.0
 10
69.201804345626
 20
-146.6728644077764
 30
0.0
 10
91.38873905736791
 20
-146.6728644077764
 30
0.0
 10
91.38873905736791
 20
-146.6728644077764
 30
0.0
 10
91.38873905736791
 20
-146.6728644077764
 30
0.0
 10
91.38873905736791
 20
-140.6684102426107
 30
0.0
 10
91.38873905736791
 20
-140.6684102426107
 30
0.0
 10
91.38873905736791
 20
-140.6684102426107
 30
0.0
 10
94.389396203037
 20
-140.6684102426107
 30
0.0
 10
94.389396203037
 20
-140.6684102426107
 30
0.0
 10
94.389396203037
 20
-140.6684102426107
 30
0.0
 10
94.389396203037
 20
-133.6738499665814
 30
0.0
 10
94.389396203037
 20
-133.6738499665814
 30
0.0
 10
94.389396203037
 20
-133.6738499665814
 30
0.0
 10
112.3852251883696
 20
-133.6738499665814
 30
0.0
 10
112.3852251883696
 20
-133.6738499665814
 30
0.0
 10
112.3852251883696
 20
-133.6738499665814
 30
0.0
 10
112.3852251883696
 20
-134.6715407996656
 30
0.0
 10
112.3852251883696
 20
-134.6715407996656
 30
0.0
 10
112.3852251883696
 20
-134.6715407996656
 30
0.0
 10
95.3891683997529
 20
-134.6715407996656
 30
0.0
 10
95.3891683997529
 20
-134.6715407996656
 30
0.0
 10
95.3891683997529
 20
-134.6715407996656
 30
0.0
 10
95.3891683997529
 20
-141.6754144090254
 30
0.0
 10
95.3891683997529
 20
-141.6754144090254
 30
0.0
 10
95.3891683997529
 20
-141.6754144090254
 30
0.0
 10
92.3891815318445
 20
-141.6754144090254
 30
0.0
 10
92.3891815318445
 20
-141.6754144090254
 30
0.0
 10
92.3891815318445
 20
-141.6754144090254
 30
0.0
 10
92.38882875407572
 20
-147.6760938519697
 30
0.0
 10
92.38882875407572
 20
-147.6760938519697
 30
0.0
 10
92.38882875407572
 20
-147.6760938519697
 30
0.0
 10
68.3853001997901
 20
-147.6781399630805
 30
0.0
 10
68.3853001997901
 20
-147.6781399630805
 30
0.0
 10
68.3853001997901
 20
-147.6781399630805
 30
0.0
 10
67.38521050308228
 20
-147.6933094075211
 30
0.0
 10
67.38521050308228
 20
-146.4055294078429
 30
0.0
 10
67.38521050308228
 20
-146.4055294078429
 30
0.0
 10
67.38521050308228
 20
-122.6693352471106
 30
0.0
 10
67.38521050308228
 20
-122.6693352471106
 30
0.0
 10
67.38521050308228
 20
-122.6693352471106
 30
0.0
 10
73.38483331498728
 20
-122.6693352471106
 30
0.0
 10
73.38483331498728
 20
-122.6693352471106
 30
0.0
  0
HATCH
  5
42
330
1F
100
AcDbEntity
  8
_U+30EC_U+30A4_U+30E4_U+30FC 1
 62
   253
420
 10855845
100
AcDbHatch
 10
0.0
 20
0.0
 30
0.0
210
0.0
220
0.0
230
1.0
  2
SOLID
 70
     1
 71
     0
 91
        1
 92
        1
 93
        1
 72
     4
 94
        3
 73
     0
 74
     1
 95
       77
 96
       73
 40
0.0
 40
0.0
 40
0.0
 40
0.0
 40
1.0
 40
1.0
 40
1.0
 40
2.0
 40
2.0
 40
2.0
 40
3.0
 40
3.0
 40
3.0
 40
4.0
 40
4.0
 40
4.0
 40
5.0
 40
5.0
 40
5.0
 40
6.0
 40
6.0
 40
6.0
 40
7.0
 40
7.0
 40
7.0
 40
8.0
 40
8.0
 40
8.0
 40
9.0
 40
9.0
 40
9.0
 40
10.0
 40
10.0
 40
10.0
 40
11.0
 40
11.0
 40
11.0
 40
12.0
 40
12.0
 40
12.0
 40
13.0
 40
13.0
 40
13.0
 40
14.0
 40
14.0
 40
14.0
 40
15.0
 40
15.0
 40
15.0
 40
16.0
 40
16.0
 40
16.0
 40
17.0
 40
17.0
 40
17.0
 40
18.0
 40
18.0
 40
18.0
 40
19.0
 40
19.0
 40
19.0
 40
20.0
 40
20.0
 40
20.0
 40
21.0
 40
21.0
 40
21.0
 40
22.0
 40
22.0
 40
22.0
 40
23.0
 40
23.0
 40
23.0
 40
24.0
 40
24.0
 40
24.0
 40
24.0
 10
73.38483331498728
 20
-122.6693352471106
 10
73.38483331498728
 20
-122.6693352471106
 10
73.38483331498728
 20
-119.6697010811937
 10
73.38483331498728
 20
-119.6697010811937
 10
73.38483331498728
 20
-119.6697010811937
 10
80.38732906025949
 20
-119.6697010811937
 10
80.38732906025949
 20
-119.6697010811937
 10
80.38732906025949
 20
-119.6697010811937
 10
80.38732906025949
 20
-102.6771010854419
 10
80.38732906025949
 20
-102.6771010854419
 10
80.38732906025949
 20
-102.6771010854419
 10
81.38745403474418
 20
-102.6771010854419
 10
81.38745403474418
 20
-102.6771010854419
 10
81.38745403474418
 20
-102.6771010854419
 10
81.38745403474418
 20
-120.6698260809437
 10
81.38745403474418
 20
-120.6698260809437
 10
81.38745403474418
 20
-120.6698260809437
 10
74.38633226891322
 20
-120.6698260809437
 10
74.38633226891322
 20
-120.6698260809437
 10
74.38633226891322
 20
-120.6698260809437
 10
74.38650865779762
 20
-123.6694602468606
 10
74.38650865779762
 20
-123.6694602468606
 10
74.38650865779762
 20
-123.6694602468606
 10
68.38547658867448
 20
-123.6694602468606
 10
68.38547658867448
 20
-123.6694602468606
 10
68.38547658867448
 20
-123.6694602468606
 10
68.38547658867448
 20
-145.7468227413413
 10
68.38547658867448
 20
-145.7468227413413
 10
68.38547658867448
 20
-145.7468227413413
 10
68.31555603490274
 20
-146.6728644077764
 10
69.201804345626
 20
-146.6728644077764
 10
69.201804345626
 20
-146.6728644077764
 10
91.38873905736791
 20
-146.6728644077764
 10
91.38873905736791
 20
-146.6728644077764
 10
91.38873905736791
 20
-146.6728644077764
 10
91.38873905736791
 20
-140.6684102426107
 10
91.38873905736791
 20
-140.6684102426107
 10
91.38873905736791
 20
-140.6684102426107
 10
94.389396203037
 20
-140.6684102426107
 10
94.389396203037
 20
-140.6684102426107
 10
94.389396203037
 20
-140.6684102426107
 10
94.389396203037
 20
-133.6738499665814
 10
94.389396203037
 20
-133.6738499665814
 10
94.389396203037
 20
-133.6738499665814
 10
112.3852251883696
 20
-133.6738499665814
 10
112.3852251883696
 20
-133.6738499665814
 10
112.3852251883696
 20
-133.6738499665814
 10
112.3852251883696
 20
-134.6715407996656
 10
112.3852251883696
 20
-134.6715407996656
 10
112.3852251883696
 20
-134.6715407996656
 10
95.3891683997529
 20
-134.6715407996656
 10
95.3891683997529
 20
-134.6715407996656
 10
95.3891683997529
 20
-134.6715407996656
 10
95.3891683997529
 20
-141.6754144090254
 10
95.3891683997529
 20
-141.6754144090254
 10
95.3891683997529
 20
-141.6754144090254
 10
92.3891815318445
 20
-141.6754144090254
 10
92.3891815318445
 20
-141.6754144090254
 10
92.3891815318445
 20
-141.6754144090254
 10
92.38882875407572
 20
-147.6760938519697
 10
92.38882875407572
 20
-147.6760938519697
 10
92.38882875407572
 20
-147.6760938519697
 10
68.3853001997901
 20
-147.6781399630805
 10
68.3853001997901
 20
-147.6781399630805
 10
68.3853001997901
 20
-147.6781399630805
 10
67.38521050308228
 20
-147.6933094075211
 10
67.38521050308228
 20
-146.4055294078429
 10
67.38521050308228
 20
-146.4055294078429
 10
67.38521050308228
 20
-122.6693352471106
 10
67.38521050308228
 20
-122.6693352471106
 10
67.38521050308228
 20
-122.6693352471106
 10
73.38483331498728
 20
-122.6693352471106
 10
73.38483331498728
 20
-122.6693352471106
 97
        0
 97
        0
 75
     2
 76
     1
 98
        0
  0
POLYLINE
  5
43
330
1F
100
AcDbEntity
  8
_U+30EC_U+30A4_U+30E4_U+30FC 1
 62
     7
420
 16777215
370
     9
100
AcDb2dPolyline
 66
     1
 10
0.0
 20
0.0
 30
0.0
  0
VERTEX
  5
44
330
43
100
AcDbEntity
  8
_U+30EC_U+30A4_U+30E4_U+30FC 1
 62
     7
420
 16777215
370
     9
100
AcDbVertex
100
AcDb2dVertex
 10
63.51876615727905
 20
-147.6760938519697
 30
0.0
  0
VERTEX
  5
45
330
43
100
AcDbEntity
  8
_U+30EC_U+30A4_U+30E4_U+30FC 1
 62
     7
420
 16777215
370
     9
100
AcDbVertex
100
AcDb2dVertex
 10
63.51876615727905
 20
-102.6739966409981
 30
0.0
  0
SEQEND
  5
46
330
43
100
AcDbEntity
  8
_U+30EC_U+30A4_U+30E4_U+30FC 1
 62
     7
420
 16777215
370
     9
  0
POLYLINE
  5
47
330
1F
100
AcDbEntity
  8
_U+30EC_U+30A4_U+30E4_U+30FC 1
 62
     7
420
 16777215
370
     9
100
AcDb2dPolyline
 66
     1
 10
0.0
 20
0.0
 30
0.0
  0
VERTEX
  5
48
330
47
100
AcDbEntity
  8
_U+30EC_U+30A4_U+30E4_U+30FC 1
 62
     7
420
 16777215
370
     9
100
AcDbVertex
100
AcDb2dVertex
 10
65.89624137440238
 20
-147.6760938519697
 30
0.0
  0
VERTEX
  5
49
330
47
100
AcDbEntity
  8
_U+30EC_U+30A4_U+30E4_U+30FC 1
 62
     7
420
 16777215
370
     9
100
AcDbVertex
100
AcDb2dVertex
 10
62.51384340513899
 20
-147.6760938519697
 30
0.0
  0
SEQEND
  5
4A
330
47
100
AcDbEntity
  8
_U+30EC_U+30A4_U+30E4_U+30FC 1
 62
     7
420
 16777215
370
     9
  0
POLYLINE
  5
4B
330
1F
100
AcDbEntity
  8
_U+30EC_U+30A4_U+30E4_U+30FC 1
 62
     7
420
 16777215
370
     9
100
AcDb2dPolyline
 66
     1
 10
0.0
 20
0.0
 30
0.0
  0
VERTEX
  5
4C
330
4B
100
AcDbEntity
  8
_U+30EC_U+30A4_U+30E4_U+30FC 1
 62
     7
420
 16777215
370
     9
100
AcDbVertex
100
AcDb2dVertex
 10
65.89624137440238
 20
-122.6676066359996
 30
0.0
  0
VERTEX
  5
4D
330
4B
100
AcDbEntity
  8
_U+30EC_U+30A4_U+30E4_U+30FC 1
 62
     7
420
 16777215
370
     9
100
AcDbVertex
100
AcDb2dVertex
 10
62.51384340513899
 20
-122.6676066359996
 30
0.0
  0
SEQEND
  5
4E
330
4B
100
AcDbEntity
  8
_U+30EC_U+30A4_U+30E4_U+30FC 1
 62
     7
420
 16777215
370
     9
  0
POLYLINE
  5
4F
330
1F
100
AcDbEntity
  8
_U+30EC_U+30A4_U+30E4_U+30FC 1
 62
     7
420
 16777215
370
     9
100
AcDb2dPolyline
 66
     1
 10
0.0
 20
0.0
 30
0.0
  0
VERTEX
  5
50
330
4F
100
AcDbEntity
  8
_U+30EC_U+30A4_U+30E4_U+30FC 1
 62
     7
420
 16777215
370
     9
100
AcDbVertex
100
AcDb2dVertex
 10
78.89631382052067
 20
-102.6736791409982
 30
0.0
  0
VERTEX
  5
51
330
4F
100
AcDbEntity
  8
_U+30EC_U+30A4_U+30E4_U+30FC 1
 62
     7
420
 16777215
370
     9
100
AcDbVertex
100
AcDb2dVertex
 10
62.51384340513899
 20
-102.6736791409982
 30
0.0
  0
SEQEND
  5
52
330
4F
100
AcDbEntity
  8
_U+30EC_U+30A4_U+30E4_U+30FC 1
 62
     7
420
 16777215
370
     9
  0
INSERT
  5
54
330
1F
100
AcDbEntity
  8
_U+30EC_U+30A4_U+30E4_U+30FC 1
100
AcDbBlockReference
  2
block 2
 10
0.0
 20
0.0
 30
0.0
  0
INSERT
  5
5C
330
1F
100
AcDbEntity
  8
_U+30EC_U+30A4_U+30E4_U+30FC 1
100
AcDbBlockReference
  2
block 3
 10
0.0
 20
0.0
 30
0.0
  0
INSERT
  5
64
330
1F
100
AcDbEntity
  8
_U+30EC_U+30A4_U+30E4_U+30FC 1
100
AcDbBlockReference
  2
block 4
 10
0.0
 20
0.0
 30
0.0
  0
POLYLINE
  5
69
330
1F
100
AcDbEntity
  8
_U+30EC_U+30A4_U+30E4_U+30FC 1
 62
     7
420
 16777215
370
     9
100
AcDb2dPolyline
 66
     1
 10
0.0
 20
0.0
 30
0.0
  0
VERTEX
  5
6A
330
69
100
AcDbEntity
  8
_U+30EC_U+30A4_U+30E4_U+30FC 1
 62
     7
420
 16777215
370
     9
100
AcDbVertex
100
AcDb2dVertex
 10
66.57664385704386
 20
-148.1955944073957
 30
0.0
  0
VERTEX
  5
6B
330
69
100
AcDbEntity
  8
_U+30EC_U+30A4_U+30E4_U+30FC 1
 62
     7
420
 16777215
370
     9
100
AcDbVertex
100
AcDb2dVertex
 10
67.44754633482529
 20
-147.6933094075211
 30
0.0
  0
SEQEND
  5
6C
330
69
100
AcDbEntity
  8
_U+30EC_U+30A4_U+30E4_U+30FC 1
 62
     7
420
 16777215
370
     9
  0
POLYLINE
  5
6D
330
1F
100
AcDbEntity
  8
_U+30EC_U+30A4_U+30E4_U+30FC 1
 62
     7
420
 16777215
370
     9
100
AcDb2dPolyline
 66
     1
 10
0.0
 20
0.0
 30
0.0
  0
VERTEX
  5
6E
330
6D
100
AcDbEntity
  8
_U+30EC_U+30A4_U+30E4_U+30FC 1
 62
     7
420
 16777215
370
     9
100
AcDbVertex
100
AcDb2dVertex
 10
66.94490856987088
 20
-148.5628360739703
 30
0.0
  0
VERTEX
  5
6F
330
6D
100
AcDbEntity
  8
_U+30EC_U+30A4_U+30E4_U+30FC 1
 62
     7
420
 16777215
370
     9
100
AcDbVertex
100
AcDb2dVertex
 10
67.44754633482529
 20
-147.6933094075211
 30
0.0
  0
SEQEND
  5
70
330
6D
100
AcDbEntity
  8
_U+30EC_U+30A4_U+30E4_U+30FC 1
 62
     7
420
 16777215
370
     9
  0
POLYLINE
  5
71
330
1F
100
AcDbEntity
  8
_U+30EC_U+30A4_U+30E4_U+30FC 1
 62
     7
420
 16777215
370
     9
100
AcDb2dPolyline
 66
     1
 10
0.0
 20
0.0
 30
0.0
  0
VERTEX
  5
72
330
71
100
AcDbEntity
  8
_U+30EC_U+30A4_U+30E4_U+30FC 1
 62
     7
420
 16777215
370
     9
100
AcDbVertex
100
AcDb2dVertex
 10
63.96594725698162
 20
-151.1742382955399
 30
0.0
  0
VERTEX
  5
73
330
71
100
AcDbEntity
  8
_U+30EC_U+30A4_U+30E4_U+30FC 1
 62
     7
420
 16777215
370
     9
100
AcDbVertex
100
AcDb2dVertex
 10
67.44754633482529
 20
-147.6933094075211
 30
0.0
  0
SEQEND
  5
74
330
71
100
AcDbEntity
  8
_U+30EC_U+30A4_U+30E4_U+30FC 1
 62
     7
420
 16777215
370
     9
  0
INSERT
  5
76
330
1F
100
AcDbEntity
  8
_U+30EC_U+30A4_U+30E4_U+30FC 1
100
AcDbBlockReference
  2
block 5
 10
0.0
 20
0.0
 30
0.0
  0
POLYLINE
  5
7E
330
1F
100
AcDbEntity
  8
_U+30EC_U+30A4_U+30E4_U+30FC 1
 62
     7
420
 16777215
370
     9
100
AcDb2dPolyline
 66
     1
 10
0.0
 20
0.0
 30
0.0
  0
VERTEX
  5
7F
330
7E
100
AcDbEntity
  8
_U+30EC_U+30A4_U+30E4_U+30FC 1
 62
     7
420
 16777215
370
     9
100
AcDbVertex
100
AcDb2dVertex
 10
119.8190288876064
 20
-147.6781399630805
 30
0.0
  0
VERTEX
  5
80
330
7E
100
AcDbEntity
  8
_U+30EC_U+30A4_U+30E4_U+30FC 1
 62
     7
420
 16777215
370
     9
100
AcDbVertex
100
AcDb2dVertex
 10
93.61081566734468
 20
-147.6781399630805
 30
0.0
  0
SEQEND
  5
81
330
7E
100
AcDbEntity
  8
_U+30EC_U+30A4_U+30E4_U+30FC 1
 62
     7
420
 16777215
370
     9
  0
POLYLINE
  5
82
330
1F
100
AcDbEntity
  8
_U+30EC_U+30A4_U+30E4_U+30FC 1
 62
     7
420
 16777215
370
     9
100
AcDb2dPolyline
 66
     1
 10
0.0
 20
0.0
 30
0.0
  0
VERTEX
  5
83
330
82
100
AcDbEntity
  8
_U+30EC_U+30A4_U+30E4_U+30FC 1
 62
     7
420
 16777215
370
     9
100
AcDbVertex
100
AcDb2dVertex
 10
119.8190288876064
 20
-134.6715407996656
 30
0.0
  0
VERTEX
  5
84
330
82
100
AcDbEntity
  8
_U+30EC_U+30A4_U+30E4_U+30FC 1
 62
     7
420
 16777215
370
     9
100
AcDbVertex
100
AcDb2dVertex
 10
113.4676532163101
 20
-134.6715407996656
 30
0.0
  0
SEQEND
  5
85
330
82
100
AcDbEntity
  8
_U+30EC_U+30A4_U+30E4_U+30FC 1
 62
     7
420
 16777215
370
     9
  0
POLYLINE
  5
86
330
1F
100
AcDbEntity
  8
_U+30EC_U+30A4_U+30E4_U+30FC 1
 62
     7
420
 16777215
370
     9
100
AcDb2dPolyline
 66
     1
 10
0.0
 20
0.0
 30
0.0
  0
VERTEX
  5
87
330
86
100
AcDbEntity
  8
_U+30EC_U+30A4_U+30E4_U+30FC 1
 62
     7
420
 16777215
370
     9
100
AcDbVertex
100
AcDb2dVertex
 10
119.8190288876064
 20
-133.6738499665814
 30
0.0
  0
VERTEX
  5
88
330
86
100
AcDbEntity
  8
_U+30EC_U+30A4_U+30E4_U+30FC 1
 62
     7
420
 16777215
370
     9
100
AcDbVertex
100
AcDb2dVertex
 10
113.4676532163101
 20
-133.6738499665814
 30
0.0
  0
SEQEND
  5
89
330
86
100
AcDbEntity
  8
_U+30EC_U+30A4_U+30E4_U+30FC 1
 62
     7
420
 16777215
370
     9
  0
INSERT
  5
8B
330
1F
100
AcDbEntity
  8
_U+30EC_U+30A4_U+30E4_U+30FC 1
100
AcDbBlockReference
  2
block 6
 10
0.0
 20
0.0
 30
0.0
  0
INSERT
  5
93
330
1F
100
AcDbEntity
  8
_U+30EC_U+30A4_U+30E4_U+30FC 1
100
AcDbBlockReference
  2
block 7
 10
0.0
 20
0.0
 30
0.0
  0
INSERT
  5
9A
330
1F
100
AcDbEntity
  8
_U+30EC_U+30A4_U+30E4_U+30FC 1
100
AcDbBlockReference
  2
block 8
 10
0.0
 20
0.0
 30
0.0
  0
POLYLINE
  5
9F
330
1F
100
AcDbEntity
  8
_U+30EC_U+30A4_U+30E4_U+30FC 1
 62
     7
420
 16777215
370
     9
100
AcDb2dPolyline
 66
     1
 10
0.0
 20
0.0
 30
0.0
  0
VERTEX
  5
A0
330
9F
100
AcDbEntity
  8
_U+30EC_U+30A4_U+30E4_U+30FC 1
 62
     7
420
 16777215
370
     9
100
AcDbVertex
100
AcDb2dVertex
 10
118.1798499704549
 20
-147.6757410741919
 30
0.0
  0
VERTEX
  5
A1
330
9F
100
AcDbEntity
  8
_U+30EC_U+30A4_U+30E4_U+30FC 1
 62
     7
420
 16777215
370
     9
100
AcDbVertex
100
AcDb2dVertex
 10
118.1798499704549
 20
-133.6683113554717
 30
0.0
  0
SEQEND
  5
A2
330
9F
100
AcDbEntity
  8
_U+30EC_U+30A4_U+30E4_U+30FC 1
 62
     7
420
 16777215
370
     9
  0
SPLINE
  5
A3
330
1F
100
AcDbEntity
  8
_U+30EC_U+30A4_U+30E4_U+30FC 1
 62
     7
420
 16777215
370
     9
100
AcDbSpline
210
0.0
220
0.0
230
1.0
 70
    11
 71
     3
 72
    17
 73
    13
 74
     0
 42
0.0000000001
 43
0.0000000001
 12
1.0
 22
0.0
 32
0.0
 13
1.0
 23
0.0
 33
0.0
 40
0.0
 40
0.0
 40
0.0
 40
0.0
 40
1.0
 40
1.0
 40
1.0
 40
2.0
 40
2.0
 40
2.0
 40
3.0
 40
3.0
 40
3.0
 40
4.0
 40
4.0
 40
4.0
 40
4.0
 10
63.6300675433284
 20
-102.6736791409982
 30
0.0
 10
63.6300675433284
 20
-102.612331085458
 30
0.0
 10
63.58043331743825
 20
-102.562730529915
 30
0.0
 10
63.51911893504783
 20
-102.562730529915
 30
0.0
 10
63.45780615883427
 20
-102.562730529915
 30
0.0
 10
63.40750004900657
 20
-102.612331085458
 30
0.0
 10
63.40750004900657
 20
-102.6736791409982
 30
0.0
 10
63.40750004900657
 20
-102.7356621965382
 30
0.0
 10
63.45780615883427
 20
-102.7852980298594
 30
0.0
 10
63.51911893504783
 20
-102.7852980298594
 30
0.0
 10
63.58043331743825
 20
-102.7852980298594
 30
0.0
 10
63.6300675433284
 20
-102.7356621965382
 30
0.0
 10
63.6300675433284
 20
-102.6736791409982
 30
0.0
  0
SPLINE
  5
A4
330
1F
100
AcDbEntity
  8
_U+30EC_U+30A4_U+30E4_U+30FC 1
 62
     7
420
 16777215
370
     9
100
AcDbSpline
210
0.0
220
0.0
230
1.0
 70
    11
 71
     3
 72
    17
 73
    13
 74
     0
 42
0.0000000001
 43
0.0000000001
 12
1.0
 22
0.0
 32
0.0
 13
1.0
 23
0.0
 33
0.0
 40
0.0
 40
0.0
 40
0.0
 40
0.0
 40
1.0
 40
1.0
 40
1.0
 40
2.0
 40
2.0
 40
2.0
 40
3.0
 40
3.0
 40
3.0
 40
4.0
 40
4.0
 40
4.0
 40
4.0
 10
63.54081476782765
 20
-122.5690758026912
 30
0.0
 10
63.47950199161409
 20
-122.5690758026912
 30
0.0
 10
63.4291958817864
 20
-122.6187116360121
 30
0.0
 10
63.4291958817864
 20
-122.6806946915521
 30
0.0
 10
63.4291958817864
 20
-122.7420427470922
 30
0.0
 10
63.47950199161409
 20
-122.7923488581908
 30
0.0
 10
63.54081476782765
 20
-122.7923488581908
 30
0.0
 10
63.60216282181809
 20
-122.7923488581908
 30
0.0
 10
63.65176337610823
 20
-122.7420427470922
 30
0.0
 10
63.65176337610823
 20
-122.6806946915521
 30
0.0
 10
63.65176337610823
 20
-122.6187116360121
 30
0.0
 10
63.60216282181809
 20
-122.5690758026912
 30
0.0
 10
63.54081476782765
 20
-122.5690758026912
 30
0.0
  0
POLYLINE
  5
A5
330
1F
100
AcDbEntity
  8
_U+30EC_U+30A4_U+30E4_U+30FC 1
 62
     7
420
 16777215
370
     9
100
AcDb2dPolyline
 66
     1
 10
0.0
 20
0.0
 30
0.0
  0
VERTEX
  5
A6
330
A5
100
AcDbEntity
  8
_U+30EC_U+30A4_U+30E4_U+30FC 1
 62
     7
420
 16777215
370
     9
100
AcDbVertex
100
AcDb2dVertex
 10
71.88485566606454
 20
-119.6676196923053
 30
0.0
  0
VERTEX
  5
A7
330
A5
100
AcDbEntity
  8
_U+30EC_U+30A4_U+30E4_U+30FC 1
 62
     7
420
 16777215
370
     9
100
AcDbVertex
100
AcDb2dVertex
 10
62.51384340513899
 20
-119.6676196923053
 30
0.0
  0
SEQEND
  5
A8
330
A5
100
AcDbEntity
  8
_U+30EC_U+30A4_U+30E4_U+30FC 1
 62
     7
420
 16777215
370
     9
  0
SPLINE
  5
A9
330
1F
100
AcDbEntity
  8
_U+30EC_U+30A4_U+30E4_U+30FC 1
 62
     7
420
 16777215
370
     9
100
AcDbSpline
210
0.0
220
0.0
230
1.0
 70
    11
 71
     3
 72
    17
 73
    13
 74
     0
 42
0.0000000001
 43
0.0000000001
 12
1.0
 22
0.0
 32
0.0
 13
1.0
 23
0.0
 33
0.0
 40
0.0
 40
0.0
 40
0.0
 40
0.0
 40
1.0
 40
1.0
 40
1.0
 40
2.0
 40
2.0
 40
2.0
 40
3.0
 40
3.0
 40
3.0
 40
4.0
 40
4.0
 40
4.0
 40
4.0
 10
63.54081476782765
 20
-119.5690888589965
 30
0.0
 10
63.47950199161409
 20
-119.5690888589965
 30
0.0
 10
63.4291958817864
 20
-119.6187246923174
 30
0.0
 10
63.4291958817864
 20
-119.6807077478577
 30
0.0
 10
63.4291958817864
 20
-119.7420558033979
 30
0.0
 10
63.47950199161409
 20
-119.7923266367186
 30
0.0
 10
63.54081476782765
 20
-119.7923266367186
 30
0.0
 10
63.60216282181809
 20
-119.7923266367186
 30
0.0
 10
63.65176337610823
 20
-119.7420558033979
 30
0.0
 10
63.65176337610823
 20
-119.6807077478577
 30
0.0
 10
63.65176337610823
 20
-119.6187246923174
 30
0.0
 10
63.60216282181809
 20
-119.5690888589965
 30
0.0
 10
63.54081476782765
 20
-119.5690888589965
 30
0.0
  0
SPLINE
  5
AA
330
1F
100
AcDbEntity
  8
_U+30EC_U+30A4_U+30E4_U+30FC 1
 62
     7
420
 16777215
370
     9
100
AcDbSpline
210
0.0
220
0.0
230
1.0
 70
    11
 71
     3
 72
    17
 73
    13
 74
     0
 42
0.0000000001
 43
0.0000000001
 12
1.0
 22
0.0
 32
0.0
 13
1.0
 23
0.0
 33
0.0
 40
0.0
 40
0.0
 40
0.0
 40
0.0
 40
1.0
 40
1.0
 40
1.0
 40
2.0
 40
2.0
 40
2.0
 40
3.0
 40
3.0
 40
3.0
 40
4.0
 40
4.0
 40
4.0
 40
4.0
 10
63.6300675433284
 20
-147.6753882964148
 30
0.0
 10
63.6300675433284
 20
-147.6147457964295
 30
0.0
 10
63.58043331743825
 20
-147.5644749631088
 30
0.0
 10
63.51911893504783
 20
-147.5644749631088
 30
0.0
 10
63.45780615883427
 20
-147.5644749631088
 30
0.0
 10
63.40750004900657
 20
-147.6147457964295
 30
0.0
 10
63.40750004900657
 20
-147.6753882964148
 30
0.0
 10
63.40750004900657
 20
-147.7374066297323
 30
0.0
 10
63.45780615883427
 20
-147.7877127408312
 30
0.0
 10
63.51911893504783
 20
-147.7877127408312
 30
0.0
 10
63.58043331743825
 20
-147.7877127408312
 30
0.0
 10
63.6300675433284
 20
-147.7374066297323
 30
0.0
 10
63.6300675433284
 20
-147.6753882964148
 30
0.0
  0
SPLINE
  5
AB
330
1F
100
AcDbEntity
  8
_U+30EC_U+30A4_U+30E4_U+30FC 1
 62
     7
420
 16777215
370
     9
100
AcDbSpline
210
0.0
220
0.0
230
1.0
 70
    11
 71
     3
 72
    17
 73
    13
 74
     0
 42
0.0000000001
 43
0.0000000001
 12
1.0
 22
0.0
 32
0.0
 13
1.0
 23
0.0
 33
0.0
 40
0.0
 40
0.0
 40
0.0
 40
0.0
 40
1.0
 40
1.0
 40
1.0
 40
2.0
 40
2.0
 40
2.0
 40
3.0
 40
3.0
 40
3.0
 40
4.0
 40
4.0
 40
4.0
 40
4.0
 10
118.2915011487991
 20
-133.6752257999143
 30
0.0
 10
118.2915011487991
 20
-133.6138777443742
 30
0.0
 10
118.2415478167401
 20
-133.5636069110534
 30
0.0
 10
118.1798499704549
 20
-133.5636069110534
 30
0.0
 10
118.1181814309986
 20
-133.5636069110534
 30
0.0
 10
118.0682280989397
 20
-133.6138777443742
 30
0.0
 10
118.0682280989397
 20
-133.6752257999143
 30
0.0
 10
118.0682280989397
 20
-133.7372441332325
 30
0.0
 10
118.1181814309986
 20
-133.7875149665532
 30
0.0
 10
118.1798499704549
 20
-133.7875149665532
 30
0.0
 10
118.2415478167401
 20
-133.7875149665532
 30
0.0
 10
118.2915011487991
 20
-133.7372441332325
 30
0.0
 10
118.2915011487991
 20
-133.6752257999143
 30
0.0
  0
SPLINE
  5
AC
330
1F
100
AcDbEntity
  8
_U+30EC_U+30A4_U+30E4_U+30FC 1
 62
     7
420
 16777215
370
     9
100
AcDbSpline
210
0.0
220
0.0
230
1.0
 70
    11
 71
     3
 72
    17
 73
    13
 74
     0
 42
0.0000000001
 43
0.0000000001
 12
1.0
 22
0.0
 32
0.0
 13
1.0
 23
0.0
 33
0.0
 40
0.0
 40
0.0
 40
0.0
 40
0.0
 40
1.0
 40
1.0
 40
1.0
 40
2.0
 40
2.0
 40
2.0
 40
3.0
 40
3.0
 40
3.0
 40
4.0
 40
4.0
 40
4.0
 40
4.0
 10
118.3032133707225
 20
-134.6715407996656
 30
0.0
 10
118.3032133707225
 20
-134.6102280219029
 30
0.0
 10
118.2532600386636
 20
-134.560592188582
 30
0.0
 10
118.1915944846812
 20
-134.560592188582
 30
0.0
 10
118.129893652922
 20
-134.560592188582
 30
0.0
 10
118.0799403208631
 20
-134.6102280219029
 30
0.0
 10
118.0799403208631
 20
-134.6715407996656
 30
0.0
 10
118.0799403208631
 20
-134.7335591329831
 30
0.0
 10
118.129893652922
 20
-134.7831596885264
 30
0.0
 10
118.1915944846812
 20
-134.7831596885264
 30
0.0
 10
118.2532600386636
 20
-134.7831596885264
 30
0.0
 10
118.3032133707225
 20
-134.7335591329831
 30
0.0
 10
118.3032133707225
 20
-134.6715407996656
 30
0.0
  0
SPLINE
  5
AD
330
1F
100
AcDbEntity
  8
_U+30EC_U+30A4_U+30E4_U+30FC 1
 62
     7
420
 16777215
370
     9
100
AcDbSpline
210
0.0
220
0.0
230
1.0
 70
    11
 71
     3
 72
    17
 73
    13
 74
     0
 42
0.0000000001
 43
0.0000000001
 12
1.0
 22
0.0
 32
0.0
 13
1.0
 23
0.0
 33
0.0
 40
0.0
 40
0.0
 40
0.0
 40
0.0
 40
1.0
 40
1.0
 40
1.0
 40
2.0
 40
2.0
 40
2.0
 40
3.0
 40
3.0
 40
3.0
 40
4.0
 40
4.0
 40
4.0
 40
4.0
 10
118.3032133707225
 20
-147.6757410741919
 30
0.0
 10
118.3032133707225
 20
-147.6144282964299
 30
0.0
 10
118.2532600386636
 20
-147.564122185331
 30
0.0
 10
118.1915944846812
 20
-147.564122185331
 30
0.0
 10
118.129893652922
 20
-147.564122185331
 30
0.0
 10
118.0799403208631
 20
-147.6144282964299
 30
0.0
 10
118.0799403208631
 20
-147.6757410741919
 30
0.0
 10
118.0799403208631
 20
-147.73775940751
 30
0.0
 10
118.129893652922
 20
-147.7873599630534
 30
0.0
 10
118.1915944846812
 20
-147.7873599630534
 30
0.0
 10
118.2532600386636
 20
-147.7873599630534
 30
0.0
 10
118.3032133707225
 20
-147.73775940751
 30
0.0
 10
118.3032133707225
 20
-147.6757410741919
 30
0.0
  0
POLYLINE
  5
AE
330
1F
100
AcDbEntity
  8
_U+30EC_U+30A4_U+30E4_U+30FC 1
 62
     7
420
 16777215
370
     9
100
AcDb2dPolyline
 66
     1
 10
0.0
 20
0.0
 30
0.0
  0
VERTEX
  5
AF
330
AE
100
AcDbEntity
  8
_U+30EC_U+30A4_U+30E4_U+30FC 1
 62
     7
420
 16777215
370
     9
100
AcDbVertex
100
AcDb2dVertex
 10
115.9887795408797
 20
-141.6726627423597
 30
0.0
  0
VERTEX
  5
B0
330
AE
100
AcDbEntity
  8
_U+30EC_U+30A4_U+30E4_U+30FC 1
 62
     7
420
 16777215
370
     9
100
AcDbVertex
100
AcDb2dVertex
 10
96.88536947269274
 20
-141.6726627423597
 30
0.0
  0
SEQEND
  5
B1
330
AE
100
AcDbEntity
  8
_U+30EC_U+30A4_U+30E4_U+30FC 1
 62
     7
420
 16777215
370
     9
  0
POLYLINE
  5
B2
330
1F
100
AcDbEntity
  8
_U+30EC_U+30A4_U+30E4_U+30FC 1
 62
     7
420
 16777215
370
     9
100
AcDb2dPolyline
 66
     1
 10
0.0
 20
0.0
 30
0.0
  0
VERTEX
  5
B3
330
B2
100
AcDbEntity
  8
_U+30EC_U+30A4_U+30E4_U+30FC 1
 62
     7
420
 16777215
370
     9
100
AcDbVertex
100
AcDb2dVertex
 10
114.3651198600805
 20
-147.6757410741919
 30
0.0
  0
VERTEX
  5
B4
330
B2
100
AcDbEntity
  8
_U+30EC_U+30A4_U+30E4_U+30FC 1
 62
     7
420
 16777215
370
     9
100
AcDbVertex
100
AcDb2dVertex
 10
114.3651198600805
 20
-133.7220746887919
 30
0.0
  0
SEQEND
  5
B5
330
B2
100
AcDbEntity
  8
_U+30EC_U+30A4_U+30E4_U+30FC 1
 62
     7
420
 16777215
370
     9
  0
SPLINE
  5
B6
330
1F
100
AcDbEntity
  8
_U+30EC_U+30A4_U+30E4_U+30FC 1
 62
     7
420
 16777215
370
     9
100
AcDbSpline
210
0.0
220
0.0
230
1.0
 70
    11
 71
     3
 72
    17
 73
    13
 74
     0
 42
0.0000000001
 43
0.0000000001
 12
1.0
 22
0.0
 32
0.0
 13
1.0
 23
0.0
 33
0.0
 40
0.0
 40
0.0
 40
0.0
 40
0.0
 40
1.0
 40
1.0
 40
1.0
 40
2.0
 40
2.0
 40
2.0
 40
3.0
 40
3.0
 40
3.0
 40
4.0
 40
4.0
 40
4.0
 40
4.0
 10
114.472928746219
 20
-141.6740385756925
 30
0.0
 10
114.472928746219
 20
-141.6127257979299
 30
0.0
 10
114.42297541416
 20
-141.5631252423872
 30
0.0
 10
114.3613098601777
 20
-141.5631252423872
 30
0.0
 10
114.2996471936472
 20
-141.5631252423872
 30
0.0
 10
114.2496909741364
 20
-141.6127257979299
 30
0.0
 10
114.2496909741364
 20
-141.6740385756925
 30
0.0
 10
114.2496909741364
 20
-141.7360569090107
 30
0.0
 10
114.2996471936472
 20
-141.7856574645534
 30
0.0
 10
114.3613098601777
 20
-141.7856574645534
 30
0.0
 10
114.42297541416
 20
-141.7856574645534
 30
0.0
 10
114.472928746219
 20
-141.7360569090107
 30
0.0
 10
114.472928746219
 20
-141.6740385756925
 30
0.0
  0
SPLINE
  5
B7
330
1F
100
AcDbEntity
  8
_U+30EC_U+30A4_U+30E4_U+30FC 1
 62
     7
420
 16777215
370
     9
100
AcDbSpline
210
0.0
220
0.0
230
1.0
 70
    11
 71
     3
 72
    17
 73
    13
 74
     0
 42
0.0000000001
 43
0.0000000001
 12
1.0
 22
0.0
 32
0.0
 13
1.0
 23
0.0
 33
0.0
 40
0.0
 40
0.0
 40
0.0
 40
0.0
 40
1.0
 40
1.0
 40
1.0
 40
2.0
 40
2.0
 40
2.0
 40
3.0
 40
3.0
 40
3.0
 40
4.0
 40
4.0
 40
4.0
 40
4.0
 10
114.4884509680452
 20
-147.6757410741919
 30
0.0
 10
114.4884509680452
 20
-147.6144282964299
 30
0.0
 10
114.4384976359863
 20
-147.564122185331
 30
0.0
 10
114.3768320820039
 20
-147.564122185331
 30
0.0
 10
114.3151694158655
 20
-147.564122185331
 30
0.0
 10
114.2652131959627
 20
-147.6144282964299
 30
0.0
 10
114.2652131959627
 20
-147.6757410741919
 30
0.0
 10
114.2652131959627
 20
-147.73775940751
 30
0.0
 10
114.3151694158655
 20
-147.7873599630534
 30
0.0
 10
114.3768320820039
 20
-147.7873599630534
 30
0.0
 10
114.4384976359863
 20
-147.7873599630534
 30
0.0
 10
114.4884509680452
 20
-147.73775940751
 30
0.0
 10
114.4884509680452
 20
-147.6757410741919
 30
0.0
  0
ENDSEC
  0
SECTION
  2
OBJECTS
  0
DICTIONARY
  5
C
330
0
100
AcDbDictionary
281
     1
  3
ACAD_GROUP
350
D
  3
ACAD_LAYOUT
350
1A
  3
ACAD_MATERIAL
350
3B
  3
ACAD_MLEADERSTYLE
350
B9
  3
ACAD_MLINESTYLE
350
17
  3
ACAD_PLOTSETTINGS
350
19
  3
ACAD_PLOTSTYLENAME
350
E
  3
ACAD_TABLESTYLE
350
B8
  3
ACAD_VISUALSTYLE
350
2A
  0
SUN
  5
3F
330
29
100
AcDbSun
 90
        1
290
     0
 63
     7
421
 16777215
 40
1.0
291
     1
 91
  2455826
 92
 54000000
292
     0
 70
     2
 71
   256
280
     1
  0
DICTIONARY
  5
D
102
{ACAD_REACTORS
330
C
102
}
330
C
100
AcDbDictionary
281
     1
  0
DICTIONARY
  5
1A
102
{ACAD_REACTORS
330
C
102
}
330
C
100
AcDbDictionary
281
     1
  3
Layout1
350
1E
  3
Layout2
350
26
  3
Model
350
22
  0
DICTIONARY
  5
3B
102
{ACAD_REACTORS
330
C
102
}
330
C
100
AcDbDictionary
281
     1
  3
ByBlock
350
3D
  3
ByLayer
350
3C
  3
Global
350
3E
  0
DICTIONARY
  5
B9
102
{ACAD_REACTORS
330
C
102
}
330
C
100
AcDbDictionary
281
     1
  0
DICTIONARY
  5
17
102
{ACAD_REACTORS
330
C
102
}
330
C
100
AcDbDictionary
281
     1
  3
Standard
350
18
  0
DICTIONARY
  5
19
102
{ACAD_REACTORS
330
C
102
}
330
C
100
AcDbDictionary
281
     1
  0
ACDBDICTIONARYWDFLT
  5
E
102
{ACAD_REACTORS
330
C
102
}
330
C
100
AcDbDictionary
281
     1
  3
Normal
350
F
100
AcDbDictionaryWithDefault
340
F
  0
DICTIONARY
  5
B8
102
{ACAD_REACTORS
330
C
102
}
330
C
100
AcDbDictionary
281
     1
  0
DICTIONARY
  5
2A
102
{ACAD_REACTORS
330
C
102
}
330
C
100
AcDbDictionary
281
     1
  3
2dWireframe
350
2F
  3
3D Hidden
350
31
  3
3dWireframe
350
30
  3
Basic
350
32
  3
Brighten
350
36
  3
ColorChange
350
3A
  3
Conceptual
350
34
  3
Dim
350
35
  3
Facepattern
350
39
  3
Flat
350
2B
  3
FlatWithEdges
350
2C
  3
Gouraud
350
2D
  3
GouraudWithEdges
350
2E
  3
Linepattern
350
38
  3
Realistic
350
33
  3
Thicken
350
37
  0
LAYOUT
  5
1E
102
{ACAD_REACTORS
330
1A
102
}
330
1A
100
AcDbPlotSettings
  1

  2
none_device
  4

  6

 40
0.0
 41
0.0
 42
0.0
 43
0.0
 44
0.0
 45
0.0
 46
0.0
 47
0.0
 48
0.0
 49
0.0
140
0.0
141
0.0
142
1.0
143
1.0
 70
   688
 72
     0
 73
     0
 74
     5
  7

 75
    16
 76
     0
 77
     2
 78
   300
147
1.0
148
0.0
149
0.0
100
AcDbLayout
  1
Layout1
 70
     1
 71
     1
 10
0.0
 20
0.0
 11
12.0
 21
9.0
 12
0.0
 22
0.0
 32
0.0
 14
1.000000000000000E+20
 24
1.000000000000000E+20
 34
1.000000000000000E+20
 15
-1.000000000000000E+20
 25
-1.000000000000000E+20
 35
-1.000000000000000E+20
146
0.0
 13
0.0
 23
0.0
 33
0.0
 16
1.0
 26
0.0
 36
0.0
 17
0.0
 27
1.0
 37
0.0
 76
     0
330
1B
  0
LAYOUT
  5
26
102
{ACAD_REACTORS
330
1A
102
}
330
1A
100
AcDbPlotSettings
  1

  2
none_device
  4

  6

 40
0.0
 41
0.0
 42
0.0
 43
0.0
 44
0.0
 45
0.0
 46
0.0
 47
0.0
 48
0.0
 49
0.0
140
0.0
141
0.0
142
1.0
143
1.0
 70
   688
 72
     0
 73
     0
 74
     5
  7

 75
    16
 76
     0
 77
     2
 78
   300
147
1.0
148
0.0
149
0.0
100
AcDbLayout
  1
Layout2
 70
     1
 71
     2
 10
0.0
 20
0.0
 11
0.0
 21
0.0
 12
0.0
 22
0.0
 32
0.0
 14
0.0
 24
0.0
 34
0.0
 15
0.0
 25
0.0
 35
0.0
146
0.0
 13
0.0
 23
0.0
 33
0.0
 16
1.0
 26
0.0
 36
0.0
 17
0.0
 27
1.0
 37
0.0
 76
     0
330
23
  0
LAYOUT
  5
22
102
{ACAD_REACTORS
330
1A
102
}
330
1A
100
AcDbPlotSettings
  1

  2
none_device
  4

  6

 40
0.0
 41
0.0
 42
0.0
 43
0.0
 44
0.0
 45
0.0
 46
0.0
 47
0.0
 48
0.0
 49
0.0
140
0.0
141
0.0
142
1.0
143
1.0
 70
  1712
 72
     0
 73
     0
 74
     0
  7

 75
     0
 76
     0
 77
     2
 78
   300
147
1.0
148
0.0
149
0.0
100
AcDbLayout
  1
Model
 70
     1
 71
     0
 10
0.0
 20
0.0
 11
12.0
 21
9.0
 12
0.0
 22
0.0
 32
0.0
 14
1.000000000000000E+20
 24
1.000000000000000E+20
 34
1.000000000000000E+20
 15
-1.000000000000000E+20
 25
-1.000000000000000E+20
 35
-1.000000000000000E+20
146
0.0
 13
0.0
 23
0.0
 33
0.0
 16
1.0
 26
0.0
 36
0.0
 17
0.0
 27
1.0
 37
0.0
 76
     0
330
1F
331
29
  0
MATERIAL
  5
3D
102
{ACAD_REACTORS
330
3B
102
}
330
3B
100
AcDbMaterial
  1
ByBlock
 72
     1
 94
      127
  0
MATERIAL
  5
3C
102
{ACAD_REACTORS
330
3B
102
}
330
3B
100
AcDbMaterial
  1
ByLayer
 72
     1
 94
      127
  0
MATERIAL
  5
3E
102
{ACAD_REACTORS
330
3B
102
}
330
3B
100
AcDbMaterial
  1
Global
 72
     1
 94
      127
  0
MLINESTYLE
  5
18
102
{ACAD_REACTORS
330
17
102
}
330
17
100
AcDbMlineStyle
  2
Standard
 70
     0
  3

 62
   256
 51
90.0
 52
90.0
 71
     2
 49
0.5
 62
   256
  6
BYLAYER
 49
-0.5
 62
   256
  6
BYLAYER
  0
ACDBPLACEHOLDER
  5
F
102
{ACAD_REACTORS
330
E
102
}
330
E
  0
VISUALSTYLE
  5
2F
102
{ACAD_REACTORS
330
2A
102
}
330
2A
100
AcDbVisualStyle
  2
2dWireframe
 70
     4
177
     2
291
     0
 71
     0
176
     1
 72
     2
176
     1
 73
     0
176
     1
 90
        0
176
     1
 40
-0.6
176
     1
 41
-30.0
176
     1
 62
     5
 63
     7
421
 16777215
176
     1
 74
     1
176
     1
 91
        4
176
     1
 64
     7
176
     1
 65
   257
176
     1
 75
     1
176
     1
175
     1
176
     1
 42
1.0
176
     1
 92
        0
176
     1
 66
   257
176
     1
 43
1.0
176
     1
 76
     1
176
     1
 77
     6
176
     1
 78
     2
176
     1
 67
     7
176
     1
 79
     5
176
     1
170
     0
176
     1
171
     0
176
     1
290
     0
176
     1
 93
        1
176
     1
 44
0.0
176
     1
173
     0
176
     1
  0
VISUALSTYLE
  5
31
102
{ACAD_REACTORS
330
2A
102
}
330
2A
100
AcDbVisualStyle
  2
3D Hidden
 70
     6
177
     2
291
     0
 71
     1
176
     1
 72
     2
176
     1
 73
     2
176
     1
 90
        0
176
     1
 40
-0.6
176
     1
 41
-30.0
176
     1
 62
     5
 63
     7
421
 16777215
176
     1
 74
     2
176
     1
 91
        2
176
     1
 64
     7
176
     1
 65
   257
176
     1
 75
     2
176
     1
175
     1
176
     1
 42
40.0
176
     1
 92
        0
176
     1
 66
   257
176
     1
 43
1.0
176
     1
 76
     1
176
     1
 77
     6
176
     1
 78
     2
176
     1
 67
     7
176
     1
 79
     3
176
     1
170
     0
176
     1
171
     0
176
     1
290
     0
176
     1
 93
        1
176
     1
 44
0.0
176
     1
173
     0
176
     1
  0
VISUALSTYLE
  5
30
102
{ACAD_REACTORS
330
2A
102
}
330
2A
100
AcDbVisualStyle
  2
3dWireframe
 70
     5
177
     2
291
     0
 71
     0
176
     1
 72
     2
176
     1
 73
     0
176
     1
 90
        0
176
     1
 40
-0.6
176
     1
 41
-30.0
176
     1
 62
     5
 63
     7
421
 16777215
176
     1
 74
     1
176
     1
 91
        4
176
     1
 64
     7
176
     1
 65
   257
176
     1
 75
     1
176
     1
175
     1
176
     1
 42
1.0
176
     1
 92
        0
176
     1
 66
   257
176
     1
 43
1.0
176
     1
 76
     1
176
     1
 77
     6
176
     1
 78
     2
176
     1
 67
     7
176
     1
 79
     5
176
     1
170
     0
176
     1
171
     0
176
     1
290
     0
176
     1
 93
        1
176
     1
 44
0.0
176
     1
173
     0
176
     1
  0
VISUALSTYLE
  5
32
102
{ACAD_REACTORS
330
2A
102
}
330
2A
100
AcDbVisualStyle
  2
Basic
 70
     7
177
     2
291
     1
 71
     1
176
     1
 72
     0
176
     1
 73
     1
176
     1
 90
        0
176
     1
 40
-0.6
176
     1
 41
-30.0
176
     1
 62
     5
 63
     7
421
 16777215
176
     1
 74
     0
176
     1
 91
        4
176
     1
 64
     7
176
     1
 65
   257
176
     1
 75
     1
176
     1
175
     1
176
     1
 42
1.0
176
     1
 92
        8
176
     1
 66
     7
176
     1
 43
1.0
176
     1
 76
     1
176
     1
 77
     6
176
     1
 78
     2
176
     1
 67
     7
176
     1
 79
     5
176
     1
170
     0
176
     1
171
     0
176
     1
290
     0
176
     1
 93
        1
176
     1
 44
0.0
176
     1
173
     0
176
     1
  0
VISUALSTYLE
  5
36
102
{ACAD_REACTORS
330
2A
102
}
330
2A
100
AcDbVisualStyle
  2
Brighten
 70
    12
177
     2
291
     1
 71
     2
176
     1
 72
     2
176
     1
 73
     0
176
     1
 90
        0
176
     1
 40
-0.6
176
     1
 41
-30.0
176
     1
 62
     5
 63
     7
421
 16777215
176
     1
 74
     1
176
     1
 91
        4
176
     1
 64
     7
176
     1
 65
   257
176
     1
 75
     1
176
     1
175
     1
176
     1
 42
1.0
176
     1
 92
        8
176
     1
 66
     7
176
     1
 43
1.0
176
     1
 76
     1
176
     1
 77
     6
176
     1
 78
     2
176
     1
 67
     7
176
     1
 79
     5
176
     1
170
     0
176
     1
171
     0
176
     1
290
     0
176
     1
 93
        1
176
     1
 44
50.0
176
     1
173
     0
176
     1
  0
VISUALSTYLE
  5
3A
102
{ACAD_REACTORS
330
2A
102
}
330
2A
100
AcDbVisualStyle
  2
ColorChange
 70
    16
177
     2
291
     1
 71
     2
176
     1
 72
     2
176
     1
 73
     3
176
     1
 90
        0
176
     1
 40
-0.6
176
     1
 41
-30.0
176
     1
 62
     5
 63
     8
421
  8421504
176
     1
 74
     1
176
     1
 91
        4
176
     1
 64
     7
176
     1
 65
   257
176
     1
 75
     1
176
     1
175
     1
176
     1
 42
1.0
176
     1
 92
        8
176
     1
 66
     8
424
  8421504
176
     1
 43
1.0
176
     1
 76
     1
176
     1
 77
     6
176
     1
 78
     2
176
     1
 67
     7
176
     1
 79
     5
176
     1
170
     0
176
     1
171
     0
176
     1
290
     0
176
     1
 93
        1
176
     1
 44
0.0
176
     1
173
     0
176
     1
  0
VISUALSTYLE
  5
34
102
{ACAD_REACTORS
330
2A
102
}
330
2A
100
AcDbVisualStyle
  2
Conceptual
 70
     9
177
     2
291
     0
 71
     3
176
     1
 72
     2
176
     1
 73
     0
176
     1
 90
        0
176
     1
 40
-0.6
176
     1
 41
-30.0
176
     1
 62
     5
 63
     7
421
 16777215
176
     1
 74
     2
176
     1
 91
        2
176
     1
 64
     7
176
     1
 65
   257
176
     1
 75
     1
176
     1
175
     1
176
     1
 42
40.0
176
     1
 92
        8
176
     1
 66
     7
176
     1
 43
1.0
176
     1
 76
     1
176
     1
 77
     6
176
     1
 78
     2
176
     1
 67
     7
176
     1
 79
     3
176
     1
170
     0
176
     1
171
     0
176
     1
290
     0
176
     1
 93
        1
176
     1
 44
0.0
176
     1
173
     0
176
     1
  0
VISUALSTYLE
  5
35
102
{ACAD_REACTORS
330
2A
102
}
330
2A
100
AcDbVisualStyle
  2
Dim
 70
    11
177
     2
291
     1
 71
     2
176
     1
 72
     2
176
     1
 73
     0
176
     1
 90
        0
176
     1
 40
-0.6
176
     1
 41
-30.0
176
     1
 62
     5
 63
     7
421
 16777215
176
     1
 74
     1
176
     1
 91
        4
176
     1
 64
     7
176
     1
 65
   257
176
     1
 75
     1
176
     1
175
     1
176
     1
 42
1.0
176
     1
 92
        8
176
     1
 66
     7
176
     1
 43
1.0
176
     1
 76
     1
176
     1
 77
     6
176
     1
 78
     2
176
     1
 67
     7
176
     1
 79
     5
176
     1
170
     0
176
     1
171
     0
176
     1
290
     0
176
     1
 93
        1
176
     1
 44
-50.0
176
     1
173
     0
176
     1
  0
VISUALSTYLE
  5
39
102
{ACAD_REACTORS
330
2A
102
}
330
2A
100
AcDbVisualStyle
  2
Facepattern
 70
    15
177
     2
291
     1
 71
     2
176
     1
 72
     2
176
     1
 73
     0
176
     1
 90
        0
176
     1
 40
-0.6
176
     1
 41
-30.0
176
     1
 62
     5
 63
     7
421
 16777215
176
     1
 74
     1
176
     1
 91
        4
176
     1
 64
     7
176
     1
 65
   257
176
     1
 75
     1
176
     1
175
     1
176
     1
 42
1.0
176
     1
 92
        8
176
     1
 66
     7
176
     1
 43
1.0
176
     1
 76
     1
176
     1
 77
     6
176
     1
 78
     2
176
     1
 67
     7
176
     1
 79
     5
176
     1
170
     0
176
     1
171
     0
176
     1
290
     0
176
     1
 93
        1
176
     1
 44
0.0
176
     1
173
     0
176
     1
  0
VISUALSTYLE
  5
2B
102
{ACAD_REACTORS
330
2A
102
}
330
2A
100
AcDbVisualStyle
  2
Flat
 70
     0
177
     2
291
     1
 71
     2
176
     1
 72
     1
176
     1
 73
     1
176
     1
 90
        2
176
     1
 40
-0.6
176
     1
 41
30.0
176
     1
 62
     5
 63
     7
421
 16777215
176
     1
 74
     0
176
     1
 91
        4
176
     1
 64
     7
176
     1
 65
   257
176
     1
 75
     1
176
     1
175
     1
176
     1
 42
1.0
176
     1
 92
        8
176
     1
 66
     7
176
     1
 43
1.0
176
     1
 76
     1
176
     1
 77
     6
176
     1
 78
     2
176
     1
 67
     7
176
     1
 79
     5
176
     1
170
     0
176
     1
171
     0
176
     1
290
     0
176
     1
 93
       13
176
     1
 44
0.0
176
     1
173
     0
176
     1
  0
VISUALSTYLE
  5
2C
102
{ACAD_REACTORS
330
2A
102
}
330
2A
100
AcDbVisualStyle
  2
FlatWithEdges
 70
     1
177
     2
291
     1
 71
     2
176
     1
 72
     1
176
     1
 73
     1
176
     1
 90
        2
176
     1
 40
-0.6
176
     1
 41
30.0
176
     1
 62
     5
 63
     7
421
 16777215
176
     1
 74
     1
176
     1
 91
        4
176
     1
 64
     7
176
     1
 65
   257
176
     1
 75
     1
176
     1
175
     1
176
     1
 42
1.0
176
     1
 92
        0
176
     1
 66
   257
176
     1
 43
1.0
176
     1
 76
     1
176
     1
 77
     6
176
     1
 78
     2
176
     1
 67
     7
176
     1
 79
     5
176
     1
170
     0
176
     1
171
     0
176
     1
290
     0
176
     1
 93
       13
176
     1
 44
0.0
176
     1
173
     0
176
     1
  0
VISUALSTYLE
  5
2D
102
{ACAD_REACTORS
330
2A
102
}
330
2A
100
AcDbVisualStyle
  2
Gouraud
 70
     2
177
     2
291
     1
 71
     2
176
     1
 72
     2
176
     1
 73
     1
176
     1
 90
        2
176
     1
 40
-0.6
176
     1
 41
30.0
176
     1
 62
     5
 63
     7
421
 16777215
176
     1
 74
     0
176
     1
 91
        4
176
     1
 64
     7
176
     1
 65
   257
176
     1
 75
     1
176
     1
175
     1
176
     1
 42
1.0
176
     1
 92
        0
176
     1
 66
     7
176
     1
 43
1.0
176
     1
 76
     1
176
     1
 77
     6
176
     1
 78
     2
176
     1
 67
     7
176
     1
 79
     5
176
     1
170
     0
176
     1
171
     0
176
     1
290
     0
176
     1
 93
       13
176
     1
 44
0.0
176
     1
173
     0
176
     1
  0
VISUALSTYLE
  5
2E
102
{ACAD_REACTORS
330
2A
102
}
330
2A
100
AcDbVisualStyle
  2
GouraudWithEdges
 70
     3
177
     2
291
     1
 71
     2
176
     1
 72
     2
176
     1
 73
     1
176
     1
 90
        2
176
     1
 40
-0.6
176
     1
 41
30.0
176
     1
 62
     5
 63
     7
421
 16777215
176
     1
 74
     1
176
     1
 91
        4
176
     1
 64
     7
176
     1
 65
   257
176
     1
 75
     1
176
     1
175
     1
176
     1
 42
1.0
176
     1
 92
        0
176
     1
 66
   257
176
     1
 43
1.0
176
     1
 76
     1
176
     1
 77
     6
176
     1
 78
     2
176
     1
 67
     7
176
     1
 79
     5
176
     1
170
     0
176
     1
171
     0
176
     1
290
     0
176
     1
 93
       13
176
     1
 44
0.0
176
     1
173
     0
176
     1
  0
VISUALSTYLE
  5
38
102
{ACAD_REACTORS
330
2A
102
}
330
2A
100
AcDbVisualStyle
  2
Linepattern
 70
    14
177
     2
291
     1
 71
     2
176
     1
 72
     2
176
     1
 73
     0
176
     1
 90
        0
176
     1
 40
-0.6
176
     1
 41
-30.0
176
     1
 62
     5
 63
     7
421
 16777215
176
     1
 74
     1
176
     1
 91
        4
176
     1
 64
     7
176
     1
 65
   257
176
     1
 75
     7
176
     1
175
     7
176
     1
 42
1.0
176
     1
 92
        8
176
     1
 66
     7
176
     1
 43
1.0
176
     1
 76
     1
176
     1
 77
     6
176
     1
 78
     2
176
     1
 67
     7
176
     1
 79
     5
176
     1
170
     0
176
     1
171
     0
176
     1
290
     0
176
     1
 93
        1
176
     1
 44
0.0
176
     1
173
     0
176
     1
  0
VISUALSTYLE
  5
33
102
{ACAD_REACTORS
330
2A
102
}
330
2A
100
AcDbVisualStyle
  2
Realistic
 70
     8
177
     2
291
     0
 71
     2
176
     1
 72
     2
176
     1
 73
     0
176
     1
 90
        0
176
     1
 40
-0.6
176
     1
 41
-30.0
176
     1
 62
     5
 63
     7
421
 16777215
176
     1
 74
     1
176
     1
 91
        0
176
     1
 64
     7
176
     1
 65
   257
176
     1
 75
     1
176
     1
175
     1
176
     1
 42
1.0
176
     1
 92
        8
176
     1
 66
     8
424
  7895160
176
     1
 43
1.0
176
     1
 76
     1
176
     1
 77
     6
176
     1
 78
     2
176
     1
 67
     7
176
     1
 79
     5
176
     1
170
     0
176
     1
171
     0
176
     1
290
     0
176
     1
 93
       13
176
     1
 44
0.0
176
     1
173
     0
176
     1
  0
VISUALSTYLE
  5
37
102
{ACAD_REACTORS
330
2A
102
}
330
2A
100
AcDbVisualStyle
  2
Thicken
 70
    13
177
     2
291
     1
 71
     2
176
     1
 72
     2
176
     1
 73
     0
176
     1
 90
        0
176
     1
 40
-0.6
176
     1
 41
-30.0
176
     1
 62
     5
 63
     7
421
 16777215
176
     1
 74
     1
176
     1
 91
        4
176
     1
 64
     7
176
     1
 65
   257
176
     1
 75
     1
176
     1
175
     1
176
     1
 42
1.0
176
     1
 92
       12
176
     1
 66
     7
176
     1
 43
1.0
176
     1
 76
     1
176
     1
 77
     6
176
     1
 78
     2
176
     1
 67
     7
176
     1
 79
     5
176
     1
170
     0
176
     1
171
     0
176
     1
290
     0
176
     1
 93
        1
176
     1
 44
0.0
176
     1
173
     0
176
     1
  0
ENDSEC
  0
EOF
