  0
SECTION
  2
HEADER
  9
$ACADVER
  1
AC1024
  9
$ACADMAINTVER
 70
     6
  9
$DWGCODEPAGE
  3
UNDEFINED
  9
$INSBASE
 10
0.0
 20
0.0
 30
0.0
  9
$EXTMIN
 10
1.000000000000000E+20
 20
1.000000000000000E+20
 30
1.000000000000000E+20
  9
$EXTMAX
 10
-1.000000000000000E+20
 20
-1.000000000000000E+20
 30
-1.000000000000000E+20
  9
$LIMMIN
 10
0.0
 20
0.0
  9
$LIMMAX
 10
12.0
 20
9.0
  9
$ORTHOMODE
 70
     0
  9
$REGENMODE
 70
     1
  9
$FILLMODE
 70
     1
  9
$QTEXTMODE
 70
     0
  9
$MIRRTEXT
 70
     1
  9
$LTSCALE
 40
1.0
  9
$ATTMODE
 70
     1
  9
$TEXTSIZE
 40
0.2
  9
$TRACEWID
 40
0.05
  9
$TEXTSTYLE
  7
Standard
  9
$CLAYER
  8
0
  9
$CELTYPE
  6
ByLayer
  9
$CECOLOR
 62
   256
  9
$CELTSCALE
 40
1.0
  9
$DISPSILH
 70
     0
  9
$DIMSCALE
 40
1.0
  9
$DIMASZ
 40
0.18
  9
$DIMEXO
 40
0.0625
  9
$DIMDLI
 40
0.38
  9
$DIMRND
 40
0.0
  9
$DIMDLE
 40
0.0
  9
$DIMEXE
 40
0.18
  9
$DIMTP
 40
0.0
  9
$DIMTM
 40
0.0
  9
$DIMTXT
 40
0.18
  9
$DIMCEN
 40
0.09
  9
$DIMTSZ
 40
0.0
  9
$DIMTOL
 70
     0
  9
$DIMLIM
 70
     0
  9
$DIMTIH
 70
     1
  9
$DIMTOH
 70
     1
  9
$DIMSE1
 70
     0
  9
$DIMSE2
 70
     0
  9
$DIMTAD
 70
     0
  9
$DIMZIN
 70
     0
  9
$DIMBLK
  1

  9
$DIMASO
 70
     1
  9
$DIMSHO
 70
     1
  9
$DIMPOST
  1

  9
$DIMAPOST
  1

  9
$DIMALT
 70
     0
  9
$DIMALTD
 70
     2
  9
$DIMALTF
 40
25.4
  9
$DIMLFAC
 40
1.0
  9
$DIMTOFL
 70
     0
  9
$DIMTVP
 40
0.0
  9
$DIMTIX
 70
     0
  9
$DIMSOXD
 70
     0
  9
$DIMSAH
 70
     0
  9
$DIMBLK1
  1

  9
$DIMBLK2
  1

  9
$DIMSTYLE
  2
Standard
  9
$DIMCLRD
 70
     0
  9
$DIMCLRE
 70
     0
  9
$DIMCLRT
 70
     0
  9
$DIMTFAC
 40
1.0
  9
$DIMGAP
 40
0.09
  9
$DIMJUST
 70
     0
  9
$DIMSD1
 70
     0
  9
$DIMSD2
 70
     0
  9
$DIMTOLJ
 70
     1
  9
$DIMTZIN
 70
     0
  9
$DIMALTZ
 70
     0
  9
$DIMALTTZ
 70
     0
  9
$DIMUPT
 70
     0
  9
$DIMDEC
 70
     4
  9
$DIMTDEC
 70
     4
  9
$DIMALTU
 70
     2
  9
$DIMALTTD
 70
     2
  9
$DIMTXSTY
  7
Standard
  9
$DIMAUNIT
 70
     0
  9
$DIMADEC
 70
     0
  9
$DIMALTRND
 40
0.0
  9
$DIMAZIN
 70
     0
  9
$DIMDSEP
 70
    46
  9
$DIMATFIT
 70
     3
  9
$DIMFRAC
 70
     0
  9
$DIMLDRBLK
  1

  9
$DIMLUNIT
 70
     2
  9
$DIMLWD
 70
    -2
  9
$DIMLWE
 70
    -2
  9
$DIMTMOVE
 70
     0
  9
$DIMFXL
 40
1.0
  9
$DIMFXLON
 70
     0
  9
$DIMJOGANG
 40
0.7853981633974483
  9
$DIMTFILL
 70
     0
  9
$DIMTFILLCLR
 70
     0
  9
$DIMARCSYM
 70
     0
  9
$DIMLTYPE
  6

  9
$DIMLTEX1
  6

  9
$DIMLTEX2
  6

  9
$DIMTXTDIRECTION
 70
     0
  9
$LUNITS
 70
     2
  9
$LUPREC
 70
     4
  9
$SKETCHINC
 40
0.1
  9
$FILLETRAD
 40
0.5
  9
$AUNITS
 70
     0
  9
$AUPREC
 70
     0
  9
$MENU
  1
.
  9
$ELEVATION
 40
0.0
  9
$PELEVATION
 40
0.0
  9
$THICKNESS
 40
0.0
  9
$LIMCHECK
 70
     0
  9
$CHAMFERA
 40
0.5
  9
$CHAMFERB
 40
0.5
  9
$CHAMFERC
 40
1.0
  9
$CHAMFERD
 40
0.0
  9
$SKPOLY
 70
     0
  9
$TDCREATE
 40
2457917.622962951
  9
$TDUCREATE
 40
2457917.247962963
  9
$TDUPDATE
 40
2457917.622962951
  9
$TDUUPDATE
 40
2457917.247962963
  9
$TDINDWG
 40
0.0000000116
  9
$TDUSRTIMER
 40
0.0000000116
  9
$USRTIMER
 70
     1
  9
$ANGBASE
 50
0.0
  9
$ANGDIR
 70
     0
  9
$PDMODE
 70
     0
  9
$PDSIZE
 40
0.0
  9
$PLINEWID
 40
0.0
  9
$SPLFRAME
 70
     0
  9
$SPLINETYPE
 70
     6
  9
$SPLINESEGS
 70
     8
  9
$HANDSEED
  5
D3
  9
$SURFTAB1
 70
     6
  9
$SURFTAB2
 70
     6
  9
$SURFTYPE
 70
     6
  9
$SURFU
 70
     6
  9
$SURFV
 70
     6
  9
$UCSBASE
  2

  9
$UCSNAME
  2

  9
$UCSORG
 10
0.0
 20
0.0
 30
0.0
  9
$UCSXDIR
 10
1.0
 20
0.0
 30
0.0
  9
$UCSYDIR
 10
0.0
 20
1.0
 30
0.0
  9
$UCSORTHOREF
  2

  9
$UCSORTHOVIEW
 70
     0
  9
$UCSORGTOP
 10
0.0
 20
0.0
 30
0.0
  9
$UCSORGBOTTOM
 10
0.0
 20
0.0
 30
0.0
  9
$UCSORGLEFT
 10
0.0
 20
0.0
 30
0.0
  9
$UCSORGRIGHT
 10
0.0
 20
0.0
 30
0.0
  9
$UCSORGFRONT
 10
0.0
 20
0.0
 30
0.0
  9
$UCSORGBACK
 10
0.0
 20
0.0
 30
0.0
  9
$PUCSBASE
  2

  9
$PUCSNAME
  2

  9
$PUCSORG
 10
0.0
 20
0.0
 30
0.0
  9
$PUCSXDIR
 10
1.0
 20
0.0
 30
0.0
  9
$PUCSYDIR
 10
0.0
 20
1.0
 30
0.0
  9
$PUCSORTHOREF
  2

  9
$PUCSORTHOVIEW
 70
     0
  9
$PUCSORGTOP
 10
0.0
 20
0.0
 30
0.0
  9
$PUCSORGBOTTOM
 10
0.0
 20
0.0
 30
0.0
  9
$PUCSORGLEFT
 10
0.0
 20
0.0
 30
0.0
  9
$PUCSORGRIGHT
 10
0.0
 20
0.0
 30
0.0
  9
$PUCSORGFRONT
 10
0.0
 20
0.0
 30
0.0
  9
$PUCSORGBACK
 10
0.0
 20
0.0
 30
0.0
  9
$USERI1
 70
     0
  9
$USERI2
 70
     0
  9
$USERI3
 70
     0
  9
$USERI4
 70
     0
  9
$USERI5
 70
     0
  9
$USERR1
 40
0.0
  9
$USERR2
 40
0.0
  9
$USERR3
 40
0.0
  9
$USERR4
 40
0.0
  9
$USERR5
 40
0.0
  9
$WORLDVIEW
 70
     1
  9
$SHADEDGE
 70
     3
  9
$SHADEDIF
 70
    70
  9
$TILEMODE
 70
     1
  9
$MAXACTVP
 70
    64
  9
$PINSBASE
 10
0.0
 20
0.0
 30
0.0
  9
$PLIMCHECK
 70
     0
  9
$PEXTMIN
 10
1.000000000000000E+20
 20
1.000000000000000E+20
 30
1.000000000000000E+20
  9
$PEXTMAX
 10
-1.000000000000000E+20
 20
-1.000000000000000E+20
 30
-1.000000000000000E+20
  9
$PLIMMIN
 10
0.0
 20
0.0
  9
$PLIMMAX
 10
12.0
 20
9.0
  9
$UNITMODE
 70
     0
  9
$VISRETAIN
 70
     1
  9
$PLINEGEN
 70
     0
  9
$PSLTSCALE
 70
     1
  9
$TREEDEPTH
 70
  3020
  9
$CMLSTYLE
  2
Standard
  9
$CMLJUST
 70
     0
  9
$CMLSCALE
 40
1.0
  9
$PROXYGRAPHICS
 70
     1
  9
$MEASUREMENT
 70
     0
  9
$CELWEIGHT
370
    -1
  9
$ENDCAPS
280
     0
  9
$JOINSTYLE
280
     0
  9
$LWDISPLAY
290
     1
  9
$INSUNITS
 70
     1
  9
$HYPERLINKBASE
  1

  9
$STYLESHEET
  1

  9
$XEDIT
290
     1
  9
$CEPSNTYPE
380
     0
  9
$PSTYLEMODE
290
     1
  9
$FINGERPRINTGUID
  2
{0FE56686-2911-7B4D-6370-4D46A57A1981}
  9
$VERSIONGUID
  2
{FAEB1C32-E019-11D5-929B-00C0DF256EC4}
  9
$EXTNAMES
290
     1
  9
$PSVPSCALE
 40
0.0
  9
$OLESTARTUP
290
     0
  9
$SORTENTS
280
   127
  9
$INDEXCTL
280
     0
  9
$HIDETEXT
280
     1
  9
$XCLIPFRAME
280
     2
  9
$HALOGAP
280
     0
  9
$OBSCOLOR
 70
   257
  9
$OBSLTYPE
280
     0
  9
$INTERSECTIONDISPLAY
280
     0
  9
$INTERSECTIONCOLOR
 70
   257
  9
$DIMASSOC
280
     2
  9
$PROJECTNAME
  1

  9
$CAMERADISPLAY
290
     0
  9
$LENSLENGTH
 40
50.0
  9
$CAMERAHEIGHT
 40
0.0
  9
$STEPSPERSEC
 40
2.0
  9
$STEPSIZE
 40
6.0
  9
$3DDWFPREC
 40
2.0
  9
$PSOLWIDTH
 40
0.25
  9
$PSOLHEIGHT
 40
4.0
  9
$LOFTANG1
 40
1.570796326794897
  9
$LOFTANG2
 40
1.570796326794897
  9
$LOFTMAG1
 40
0.0
  9
$LOFTMAG2
 40
0.0
  9
$LOFTPARAM
 70
     7
  9
$LOFTNORMALS
280
     1
  9
$LATITUDE
 40
37.795
  9
$LONGITUDE
 40
-122.394
  9
$NORTHDIRECTION
 40
0.0
  9
$TIMEZONE
 70
 -8000
  9
$LIGHTGLYPHDISPLAY
280
     1
  9
$TILEMODELIGHTSYNCH
280
     1
  9
$CMATERIAL
347
3C
  9
$SOLIDHIST
280
     1
  9
$SHOWHIST
280
     1
  9
$DWFFRAME
280
     2
  9
$DGNFRAME
280
     2
  9
$REALWORLDSCALE
290
     1
  9
$INTERFERECOLOR
 62
   256
  9
$CSHADOW
280
     0
  9
$SHADOWPLANELOCATION
 40
0.0
  0
ENDSEC
  0
SECTION
  2
CLASSES
  0
CLASS
  1
ACDBDICTIONARYWDFLT
  2
AcDbDictionaryWithDefault
  3
ObjectDBX Classes
 90
        0
 91
        4
280
     0
281
     0
  0
CLASS
  1
VISUALSTYLE
  2
AcDbVisualStyle
  3
ObjectDBX Classes
 90
     4095
 91
        4
280
     0
281
     0
  0
CLASS
  1
MATERIAL
  2
AcDbMaterial
  3
ObjectDBX Classes
 90
     1153
 91
        4
280
     0
281
     0
  0
CLASS
  1
SUN
  2
AcDbSun
  3
SCENEOE
 90
     1024
 91
        4
280
     0
281
     0
  0
ENDSEC
  0
SECTION
  2
TABLES
  0
TABLE
  2
VPORT
  5
8
330
0
100
AcDbSymbolTable
 70
     1
  0
VPORT
  5
29
330
8
100
AcDbSymbolTableRecord
100
AcDbViewportTableRecord
  2
*Active
 70
     0
 10
0.0
 20
0.0
 11
1.0
 21
1.0
 12
0.0
 22
0.0
 13
0.0
 23
0.0
 14
0.5
 24
0.5
 15
0.5
 25
0.5
 16
0.0
 26
0.0
 36
1.0
 17
91.00082462281999
 27
-128.4993055234307
 37
0.0
 40
256.9986110468615
 41
0.7081814508812795
 42
50.0
 43
0.0
 44
0.0
 50
0.0
 51
0.0
 71
     0
 72
   100
 73
     1
 74
     3
 75
     0
 76
     0
 77
     0
 78
     0
281
     0
 65
     1
110
0.0
120
0.0
130
0.0
111
1.0
121
0.0
131
0.0
112
0.0
122
1.0
132
0.0
 79
     0
146
0.0
 60
     3
 61
     5
292
     1
282
     1
141
0.0
142
0.0
 63
   250
361
3F
  0
ENDTAB
  0
TABLE
  2
LTYPE
  5
5
330
0
100
AcDbSymbolTable
 70
     1
  0
LTYPE
  5
14
330
5
100
AcDbSymbolTableRecord
100
AcDbLinetypeTableRecord
  2
ByBlock
 70
     0
  3

 72
    65
 73
     0
 40
0.0
  0
LTYPE
  5
15
330
5
100
AcDbSymbolTableRecord
100
AcDbLinetypeTableRecord
  2
ByLayer
 70
     0
  3

 72
    65
 73
     0
 40
0.0
  0
LTYPE
  5
16
330
5
100
AcDbSymbolTableRecord
100
AcDbLinetypeTableRecord
  2
Continuous
 70
     0
  3
Solid line
 72
    65
 73
     0
 40
0.0
  0
ENDTAB
  0
TABLE
  2
LAYER
  5
2
330
0
100
AcDbSymbolTable
 70
     2
  0
LAYER
  5
10
330
2
100
AcDbSymbolTableRecord
100
AcDbLayerTableRecord
  2
0
 70
     0
 62
     7
  6
Continuous
370
    -3
390
F
347
3E
  0
LAYER
  5
40
330
2
100
AcDbSymbolTableRecord
100
AcDbLayerTableRecord
  2
_U+30EC_U+30A4_U+30E4_U+30FC 1
 70
     0
 62
     7
  6
Continuous
370
    -3
390
F
347
3E
  0
ENDTAB
  0
TABLE
  2
STYLE
  5
3
330
0
100
AcDbSymbolTable
 70
     1
  0
STYLE
  5
11
330
3
100
AcDbSymbolTableRecord
100
AcDbTextStyleTableRecord
  2
Standard
 70
     0
 40
0.0
 41
1.0
 50
0.0
 71
     0
 42
0.2
  3
txt
  4

  0
ENDTAB
  0
TABLE
  2
VIEW
  5
6
330
0
100
AcDbSymbolTable
 70
     0
  0
ENDTAB
  0
TABLE
  2
UCS
  5
7
330
0
100
AcDbSymbolTable
 70
     0
  0
ENDTAB
  0
TABLE
  2
APPID
  5
9
330
0
100
AcDbSymbolTable
 70
     1
  0
APPID
  5
12
330
9
100
AcDbSymbolTableRecord
100
AcDbRegAppTableRecord
  2
ACAD
 70
     0
  0
ENDTAB
  0
TABLE
  2
DIMSTYLE
  5
A
330
0
100
AcDbSymbolTable
 70
     1
100
AcDbDimStyleTable
  0
DIMSTYLE
105
27
330
A
100
AcDbSymbolTableRecord
100
AcDbDimStyleTableRecord
  2
Standard
 70
     0
178
     0
340
11
  0
ENDTAB
  0
TABLE
  2
BLOCK_RECORD
  5
1
330
0
100
AcDbSymbolTable
 70
     8
  0
BLOCK_RECORD
  5
1F
330
1
100
AcDbSymbolTableRecord
100
AcDbBlockTableRecord
  2
*Model_Space
340
22
 70
     0
280
     1
281
     0
  0
BLOCK_RECORD
  5
1B
330
1
100
AcDbSymbolTableRecord
100
AcDbBlockTableRecord
  2
*Paper_Space
340
1E
 70
     0
280
     1
281
     0
  0
BLOCK_RECORD
  5
23
330
1
100
AcDbSymbolTableRecord
100
AcDbBlockTableRecord
  2
*Paper_Space0
340
26
 70
     0
280
     1
281
     0
  0
BLOCK_RECORD
  5
63
330
1
100
AcDbSymbolTableRecord
100
AcDbBlockTableRecord
  2
block 2
340
0
102
{BLKREFS
331
64
102
}
 70
     0
280
     1
281
     0
  0
BLOCK_RECORD
  5
6C
330
1
100
AcDbSymbolTableRecord
100
AcDbBlockTableRecord
  2
block 3
340
0
102
{BLKREFS
331
6D
102
}
 70
     0
280
     1
281
     0
  0
BLOCK_RECORD
  5
75
330
1
100
AcDbSymbolTableRecord
100
AcDbBlockTableRecord
  2
block 4
340
0
102
{BLKREFS
331
76
102
}
 70
     0
280
     1
281
     0
  0
BLOCK_RECORD
  5
8E
330
1
100
AcDbSymbolTableRecord
100
AcDbBlockTableRecord
  2
block 5
340
0
102
{BLKREFS
331
8F
102
}
 70
     0
280
     1
281
     0
  0
BLOCK_RECORD
  5
94
330
1
100
AcDbSymbolTableRecord
100
AcDbBlockTableRecord
  2
block 6
340
0
102
{BLKREFS
331
95
102
}
 70
     0
280
     1
281
     0
  0
BLOCK_RECORD
  5
9C
330
1
100
AcDbSymbolTableRecord
100
AcDbBlockTableRecord
  2
block 7
340
0
102
{BLKREFS
331
9D
102
}
 70
     0
280
     1
281
     0
  0
BLOCK_RECORD
  5
B2
330
1
100
AcDbSymbolTableRecord
100
AcDbBlockTableRecord
  2
block 8
340
0
102
{BLKREFS
331
B3
102
}
 70
     0
280
     1
281
     0
  0
ENDTAB
  0
ENDSEC
  0
SECTION
  2
BLOCKS
  0
BLOCK
  5
20
330
1F
100
AcDbEntity
  8
0
100
AcDbBlockBegin
  2
*Model_Space
 70
     0
 10
0.0
 20
0.0
 30
0.0
  3
*Model_Space
  1

  0
ENDBLK
  5
21
330
1F
100
AcDbEntity
  8
0
100
AcDbBlockEnd
  0
BLOCK
  5
1C
330
1B
100
AcDbEntity
 67
     1
  8
0
100
AcDbBlockBegin
  2
*Paper_Space
 70
     0
 10
0.0
 20
0.0
 30
0.0
  3
*Paper_Space
  1

  0
ENDBLK
  5
1D
330
1B
100
AcDbEntity
 67
     1
  8
0
100
AcDbBlockEnd
  0
BLOCK
  5
24
330
23
100
AcDbEntity
  8
0
100
AcDbBlockBegin
  2
*Paper_Space0
 70
     0
 10
0.0
 20
0.0
 30
0.0
  3
*Paper_Space0
  1

  0
ENDBLK
  5
25
330
23
100
AcDbEntity
  8
0
100
AcDbBlockEnd
  0
BLOCK
  5
65
330
63
100
AcDbEntity
  8
0
100
AcDbBlockBegin
  2
block 2
 70
     0
 10
0.0
 20
0.0
 30
0.0
  3
block 2
  1

  0
SPLINE
  5
67
330
63
100
AcDbEntity
  8
_U+30EC_U+30A4_U+30E4_U+30FC 1
370
     0
100
AcDbSpline
210
0.0
220
0.0
230
1.0
 70
    11
 71
     3
 72
    44
 73
    40
 74
     0
 42
0.0000000001
 43
0.0000000001
 12
1.0
 22
0.0
 32
0.0
 13
1.0
 23
0.0
 33
0.0
 40
0.0
 40
0.0
 40
0.0
 40
0.0
 40
1.0
 40
1.0
 40
1.0
 40
2.0
 40
2.0
 40
2.0
 40
3.0
 40
3.0
 40
3.0
 40
4.0
 40
4.0
 40
4.0
 40
5.0
 40
5.0
 40
5.0
 40
6.0
 40
6.0
 40
6.0
 40
7.0
 40
7.0
 40
7.0
 40
8.0
 40
8.0
 40
8.0
 40
9.0
 40
9.0
 40
9.0
 40
10.0
 40
10.0
 40
10.0
 40
11.0
 40
11.0
 40
11.0
 40
12.0
 40
12.0
 40
12.0
 40
13.0
 40
13.0
 40
13.0
 40
13.0
 10
64.68287351898553
 20
-135.700933125797
 30
0.0
 10
64.8415201660813
 20
-135.9186631604648
 30
0.0
 10
64.91558971901416
 20
-136.0116807385665
 30
0.0
 10
65.05942245552335
 20
-136.0606010944571
 30
0.0
 10
65.05942245552335
 20
-136.0606010944571
 30
0.0
 10
65.05942245552335
 20
-135.2820095147906
 30
0.0
 10
65.05942245552335
 20
-135.2820095147906
 30
0.0
 10
65.05942245552335
 20
-135.2820095147906
 30
0.0
 10
65.26457789166997
 20
-135.2820095147906
 30
0.0
 10
65.26457789166997
 20
-135.2820095147906
 30
0.0
 10
65.26457789166997
 20
-135.2820095147906
 30
0.0
 10
65.26457789166997
 20
-136.3100260075892
 30
0.0
 10
65.26457789166997
 20
-136.3100260075892
 30
0.0
 10
64.90697698030104
 20
-136.2783311291249
 30
0.0
 10
64.82877331278587
 20
-136.2128743149051
 30
0.0
 10
64.53042804376322
 20
-135.8277126396542
 30
0.0
 10
64.33164603426431
 20
-135.5717420451001
 30
0.0
 10
64.26394990797915
 20
-135.5062852308804
 30
0.0
 10
64.12649059811768
 20
-135.5062852308804
 30
0.0
 10
64.0079793134251
 20
-135.5062852308804
 30
0.0
 10
63.87672117543707
 20
-135.5782877265221
 30
0.0
 10
63.87672117543707
 20
-135.7750026787299
 30
0.0
 10
63.87672117543707
 20
-136.0351073878662
 30
0.0
 10
64.10737031817455
 20
-136.0433756170308
 30
0.0
 10
64.22381454557599
 20
-136.0478542411616
 30
0.0
 10
64.22381454557599
 20
-136.0478542411616
 30
0.0
 10
64.22381454557599
 20
-136.2721299572514
 30
0.0
 10
64.22381454557599
 20
-136.2721299572514
 30
0.0
 10
64.09686277694453
 20
-136.2635172185383
 30
0.0
 10
63.98472491889966
 20
-136.252837422534
 30
0.0
 10
63.86621363420706
 20
-136.1725666977277
 30
0.0
 10
63.70549992982016
 20
-136.0626681517482
 30
0.0
 10
63.67156573929044
 20
-135.8762884859962
 30
0.0
 10
63.67156573929044
 20
-135.7601887681433
 30
0.0
 10
63.67156573929044
 20
-135.4828585815807
 30
0.0
 10
63.85570609297705
 20
-135.2754638333686
 30
0.0
 10
64.12855765540884
 20
-135.2754638333686
 30
0.0
 10
64.3569674860809
 20
-135.2754638333686
 30
0.0
 10
64.45653074560462
 20
-135.3919080607701
 30
0.0
 10
64.68287351898553
 20
-135.700933125797
 30
0.0
  0
HATCH
  5
68
330
63
100
AcDbEntity
  8
_U+30EC_U+30A4_U+30E4_U+30FC 1
 62
     7
420
 16777215
100
AcDbHatch
 10
0.0
 20
0.0
 30
0.0
210
0.0
220
0.0
230
1.0
  2
SOLID
 70
     1
 71
     0
 91
        1
 92
        1
 93
        1
 72
     4
 94
        3
 73
     0
 74
     1
 95
       44
 96
       40
 40
0.0
 40
0.0
 40
0.0
 40
0.0
 40
1.0
 40
1.0
 40
1.0
 40
2.0
 40
2.0
 40
2.0
 40
3.0
 40
3.0
 40
3.0
 40
4.0
 40
4.0
 40
4.0
 40
5.0
 40
5.0
 40
5.0
 40
6.0
 40
6.0
 40
6.0
 40
7.0
 40
7.0
 40
7.0
 40
8.0
 40
8.0
 40
8.0
 40
9.0
 40
9.0
 40
9.0
 40
10.0
 40
10.0
 40
10.0
 40
11.0
 40
11.0
 40
11.0
 40
12.0
 40
12.0
 40
12.0
 40
13.0
 40
13.0
 40
13.0
 40
13.0
 10
64.68287351898553
 20
-135.700933125797
 10
64.8415201660813
 20
-135.9186631604648
 10
64.91558971901416
 20
-136.0116807385665
 10
65.05942245552335
 20
-136.0606010944571
 10
65.05942245552335
 20
-136.0606010944571
 10
65.05942245552335
 20
-135.2820095147906
 10
65.05942245552335
 20
-135.2820095147906
 10
65.05942245552335
 20
-135.2820095147906
 10
65.26457789166997
 20
-135.2820095147906
 10
65.26457789166997
 20
-135.2820095147906
 10
65.26457789166997
 20
-135.2820095147906
 10
65.26457789166997
 20
-136.3100260075892
 10
65.26457789166997
 20
-136.3100260075892
 10
64.90697698030104
 20
-136.2783311291249
 10
64.82877331278587
 20
-136.2128743149051
 10
64.53042804376322
 20
-135.8277126396542
 10
64.33164603426431
 20
-135.5717420451001
 10
64.26394990797915
 20
-135.5062852308804
 10
64.12649059811768
 20
-135.5062852308804
 10
64.0079793134251
 20
-135.5062852308804
 10
63.87672117543707
 20
-135.5782877265221
 10
63.87672117543707
 20
-135.7750026787299
 10
63.87672117543707
 20
-136.0351073878662
 10
64.10737031817455
 20
-136.0433756170308
 10
64.22381454557599
 20
-136.0478542411616
 10
64.22381454557599
 20
-136.0478542411616
 10
64.22381454557599
 20
-136.2721299572514
 10
64.22381454557599
 20
-136.2721299572514
 10
64.09686277694453
 20
-136.2635172185383
 10
63.98472491889966
 20
-136.252837422534
 10
63.86621363420706
 20
-136.1725666977277
 10
63.70549992982016
 20
-136.0626681517482
 10
63.67156573929044
 20
-135.8762884859962
 10
63.67156573929044
 20
-135.7601887681433
 10
63.67156573929044
 20
-135.4828585815807
 10
63.85570609297705
 20
-135.2754638333686
 10
64.12855765540884
 20
-135.2754638333686
 10
64.3569674860809
 20
-135.2754638333686
 10
64.45653074560462
 20
-135.3919080607701
 10
64.68287351898553
 20
-135.700933125797
 97
        0
 97
        0
 75
     2
 76
     1
 98
        0
  0
SPLINE
  5
69
330
63
100
AcDbEntity
  8
_U+30EC_U+30A4_U+30E4_U+30FC 1
370
     0
100
AcDbSpline
210
0.0
220
0.0
230
1.0
 70
    11
 71
     3
 72
    29
 73
    25
 74
     0
 42
0.0000000001
 43
0.0000000001
 12
1.0
 22
0.0
 32
0.0
 13
1.0
 23
0.0
 33
0.0
 40
0.0
 40
0.0
 40
0.0
 40
0.0
 40
1.0
 40
1.0
 40
1.0
 40
2.0
 40
2.0
 40
2.0
 40
3.0
 40
3.0
 40
3.0
 40
4.0
 40
4.0
 40
4.0
 40
5.0
 40
5.0
 40
5.0
 40
6.0
 40
6.0
 40
6.0
 40
7.0
 40
7.0
 40
7.0
 40
8.0
 40
8.0
 40
8.0
 40
8.0
 10
65.08681096463108
 20
-134.219197557591
 30
0.0
 10
65.29627277013427
 20
-134.3273735558279
 30
0.0
 10
65.3153930500774
 20
-134.500661858736
 30
0.0
 10
65.3153930500774
 20
-134.6171060861374
 30
0.0
 10
65.3153930500774
 20
-134.7779920452986
 30
0.0
 10
65.26888426102653
 20
-134.9195854697423
 30
0.0
 10
65.08681096463108
 20
-135.0146701051352
 30
0.0
 10
64.89233532448873
 20
-135.1183674792412
 30
0.0
 10
64.65531275510354
 20
-135.1373155044101
 30
0.0
 10
64.49235973865122
 20
-135.1373155044101
 30
0.0
 10
64.34852700214203
 20
-135.1373155044101
 30
0.0
 10
64.09686277694453
 20
-135.1204345365324
 30
0.0
 10
63.89790851267136
 20
-135.0146701051352
 30
0.0
 10
63.69482013381588
 20
-134.9068386164469
 30
0.0
 10
63.67156573929044
 20
-134.7459526572857
 30
0.0
 10
63.67156573929044
 20
-134.6171060861374
 30
0.0
 10
63.67156573929044
 20
-134.4582871842674
 30
0.0
 10
63.71600747105017
 20
-134.3146267025325
 30
0.0
 10
63.89790851267136
 20
-134.219197557591
 30
0.0
 10
64.09048935029682
 20
-134.1199788076158
 30
0.0
 10
64.31889918096888
 20
-134.0965521583161
 30
0.0
 10
64.49235973865122
 20
-134.0965521583161
 30
0.0
 10
64.66375323904239
 20
-134.0965521583161
 30
0.0
 10
64.89440238177987
 20
-134.1179117503247
 30
0.0
 10
65.08681096463108
 20
-134.219197557591
 30
0.0
  0
SPLINE
  5
6A
330
63
100
AcDbEntity
  8
_U+30EC_U+30A4_U+30E4_U+30FC 1
370
     0
100
AcDbSpline
210
0.0
220
0.0
230
1.0
 70
    11
 71
     3
 72
    17
 73
    13
 74
     0
 42
0.0000000001
 43
0.0000000001
 12
1.0
 22
0.0
 32
0.0
 13
1.0
 23
0.0
 33
0.0
 40
0.0
 40
0.0
 40
0.0
 40
0.0
 40
1.0
 40
1.0
 40
1.0
 40
2.0
 40
2.0
 40
2.0
 40
3.0
 40
3.0
 40
3.0
 40
4.0
 40
4.0
 40
4.0
 40
4.0
 10
63.86414657691591
 20
-134.6171060861374
 30
0.0
 10
63.86414657691591
 20
-134.8665309992695
 30
0.0
 10
64.14750568057771
 20
-134.9133842978689
 30
0.0
 10
64.49235973865122
 20
-134.9133842978689
 30
0.0
 10
64.81189234490814
 20
-134.9133842978689
 30
0.0
 10
65.12074515516079
 20
-134.8772107952738
 30
0.0
 10
65.12074515516079
 20
-134.6171060861374
 30
0.0
 10
65.12074515516079
 20
-134.3694037207479
 30
0.0
 10
64.83928085401588
 20
-134.3208278744059
 30
0.0
 10
64.49235973865122
 20
-134.3208278744059
 30
0.0
 10
64.17299938716856
 20
-134.3208278744059
 30
0.0
 10
63.86414657691591
 20
-134.3590684342922
 30
0.0
 10
63.86414657691591
 20
-134.6171060861374
 30
0.0
  0
HATCH
  5
6B
330
63
100
AcDbEntity
  8
_U+30EC_U+30A4_U+30E4_U+30FC 1
 62
     7
420
 16777215
100
AcDbHatch
 10
0.0
 20
0.0
 30
0.0
210
0.0
220
0.0
230
1.0
  2
SOLID
 70
     1
 71
     0
 91
        2
 92
        1
 93
        1
 72
     4
 94
        3
 73
     0
 74
     1
 95
       29
 96
       25
 40
0.0
 40
0.0
 40
0.0
 40
0.0
 40
1.0
 40
1.0
 40
1.0
 40
2.0
 40
2.0
 40
2.0
 40
3.0
 40
3.0
 40
3.0
 40
4.0
 40
4.0
 40
4.0
 40
5.0
 40
5.0
 40
5.0
 40
6.0
 40
6.0
 40
6.0
 40
7.0
 40
7.0
 40
7.0
 40
8.0
 40
8.0
 40
8.0
 40
8.0
 10
65.08681096463108
 20
-134.219197557591
 10
65.29627277013427
 20
-134.3273735558279
 10
65.3153930500774
 20
-134.500661858736
 10
65.3153930500774
 20
-134.6171060861374
 10
65.3153930500774
 20
-134.7779920452986
 10
65.26888426102653
 20
-134.9195854697423
 10
65.08681096463108
 20
-135.0146701051352
 10
64.89233532448873
 20
-135.1183674792412
 10
64.65531275510354
 20
-135.1373155044101
 10
64.49235973865122
 20
-135.1373155044101
 10
64.34852700214203
 20
-135.1373155044101
 10
64.09686277694453
 20
-135.1204345365324
 10
63.89790851267136
 20
-135.0146701051352
 10
63.69482013381588
 20
-134.9068386164469
 10
63.67156573929044
 20
-134.7459526572857
 10
63.67156573929044
 20
-134.6171060861374
 10
63.67156573929044
 20
-134.4582871842674
 10
63.71600747105017
 20
-134.3146267025325
 10
63.89790851267136
 20
-134.219197557591
 10
64.09048935029682
 20
-134.1199788076158
 10
64.31889918096888
 20
-134.0965521583161
 10
64.49235973865122
 20
-134.0965521583161
 10
64.66375323904239
 20
-134.0965521583161
 10
64.89440238177987
 20
-134.1179117503247
 10
65.08681096463108
 20
-134.219197557591
 97
        0
 97
        0
 92
        1
 93
        1
 72
     4
 94
        3
 73
     0
 74
     1
 95
       17
 96
       13
 40
0.0
 40
0.0
 40
0.0
 40
0.0
 40
1.0
 40
1.0
 40
1.0
 40
2.0
 40
2.0
 40
2.0
 40
3.0
 40
3.0
 40
3.0
 40
4.0
 40
4.0
 40
4.0
 40
4.0
 10
63.86414657691591
 20
-134.6171060861374
 10
63.86414657691591
 20
-134.8665309992695
 10
64.14750568057771
 20
-134.9133842978689
 10
64.49235973865122
 20
-134.9133842978689
 10
64.81189234490814
 20
-134.9133842978689
 10
65.12074515516079
 20
-134.8772107952738
 10
65.12074515516079
 20
-134.6171060861374
 10
65.12074515516079
 20
-134.3694037207479
 10
64.83928085401588
 20
-134.3208278744059
 10
64.49235973865122
 20
-134.3208278744059
 10
64.17299938716856
 20
-134.3208278744059
 10
63.86414657691591
 20
-134.3590684342922
 10
63.86414657691591
 20
-134.6171060861374
 97
        0
 97
        0
 75
     2
 76
     1
 98
        0
  0
ENDBLK
  5
66
330
63
100
AcDbEntity
  8
0
100
AcDbBlockEnd
  0
BLOCK
  5
6E
330
6C
100
AcDbEntity
  8
0
100
AcDbBlockBegin
  2
block 3
 70
     0
 10
0.0
 20
0.0
 30
0.0
  3
block 3
  1

  0
SPLINE
  5
70
330
6C
100
AcDbEntity
  8
_U+30EC_U+30A4_U+30E4_U+30FC 1
370
     0
100
AcDbSpline
210
0.0
220
0.0
230
1.0
 70
    11
 71
     3
 72
    26
 73
    22
 74
     0
 42
0.0000000001
 43
0.0000000001
 12
1.0
 22
0.0
 32
0.0
 13
1.0
 23
0.0
 33
0.0
 40
0.0
 40
0.0
 40
0.0
 40
0.0
 40
1.0
 40
1.0
 40
1.0
 40
2.0
 40
2.0
 40
2.0
 40
3.0
 40
3.0
 40
3.0
 40
4.0
 40
4.0
 40
4.0
 40
5.0
 40
5.0
 40
5.0
 40
6.0
 40
6.0
 40
6.0
 40
7.0
 40
7.0
 40
7.0
 40
7.0
 10
117.6083251659104
 20
-140.8451497043721
 30
0.0
 10
117.6083251659104
 20
-140.8451497043721
 30
0.0
 10
116.5041720628878
 20
-140.8451497043721
 30
0.0
 10
116.5041720628878
 20
-140.8451497043721
 30
0.0
 10
116.5041720628878
 20
-140.8451497043721
 30
0.0
 10
116.5041720628878
 20
-141.175189851859
 30
0.0
 10
116.5041720628878
 20
-141.175189851859
 30
0.0
 10
116.5041720628878
 20
-141.175189851859
 30
0.0
 10
116.3560329570221
 20
-141.175189851859
 30
0.0
 10
116.3560329570221
 20
-141.175189851859
 30
0.0
 10
116.3412190464355
 20
-140.8430826470809
 30
0.0
 10
116.1782660299832
 20
-140.79657385803
 30
0.0
 10
116.0638888598729
 20
-140.7669460368569
 30
0.0
 10
116.0638888598729
 20
-140.7669460368569
 30
0.0
 10
116.0638888598729
 20
-140.6208739882823
 30
0.0
 10
116.0638888598729
 20
-140.6208739882823
 30
0.0
 10
116.0638888598729
 20
-140.6208739882823
 30
0.0
 10
117.6083251659104
 20
-140.6208739882823
 30
0.0
 10
117.6083251659104
 20
-140.6208739882823
 30
0.0
 10
117.6083251659104
 20
-140.6208739882823
 30
0.0
 10
117.6083251659104
 20
-140.8451497043721
 30
0.0
 10
117.6083251659104
 20
-140.8451497043721
 30
0.0
  0
HATCH
  5
71
330
6C
100
AcDbEntity
  8
_U+30EC_U+30A4_U+30E4_U+30FC 1
 62
     7
420
 16777215
100
AcDbHatch
 10
0.0
 20
0.0
 30
0.0
210
0.0
220
0.0
230
1.0
  2
SOLID
 70
     1
 71
     0
 91
        1
 92
        1
 93
        1
 72
     4
 94
        3
 73
     0
 74
     1
 95
       26
 96
       22
 40
0.0
 40
0.0
 40
0.0
 40
0.0
 40
1.0
 40
1.0
 40
1.0
 40
2.0
 40
2.0
 40
2.0
 40
3.0
 40
3.0
 40
3.0
 40
4.0
 40
4.0
 40
4.0
 40
5.0
 40
5.0
 40
5.0
 40
6.0
 40
6.0
 40
6.0
 40
7.0
 40
7.0
 40
7.0
 40
7.0
 10
117.6083251659104
 20
-140.8451497043721
 10
117.6083251659104
 20
-140.8451497043721
 10
116.5041720628878
 20
-140.8451497043721
 10
116.5041720628878
 20
-140.8451497043721
 10
116.5041720628878
 20
-140.8451497043721
 10
116.5041720628878
 20
-141.175189851859
 10
116.5041720628878
 20
-141.175189851859
 10
116.5041720628878
 20
-141.175189851859
 10
116.3560329570221
 20
-141.175189851859
 10
116.3560329570221
 20
-141.175189851859
 10
116.3412190464355
 20
-140.8430826470809
 10
116.1782660299832
 20
-140.79657385803
 10
116.0638888598729
 20
-140.7669460368569
 10
116.0638888598729
 20
-140.7669460368569
 10
116.0638888598729
 20
-140.6208739882823
 10
116.0638888598729
 20
-140.6208739882823
 10
116.0638888598729
 20
-140.6208739882823
 10
117.6083251659104
 20
-140.6208739882823
 10
117.6083251659104
 20
-140.6208739882823
 10
117.6083251659104
 20
-140.6208739882823
 10
117.6083251659104
 20
-140.8451497043721
 10
117.6083251659104
 20
-140.8451497043721
 97
        0
 97
        0
 75
     2
 76
     1
 98
        0
  0
SPLINE
  5
72
330
6C
100
AcDbEntity
  8
_U+30EC_U+30A4_U+30E4_U+30FC 1
370
     0
100
AcDbSpline
210
0.0
220
0.0
230
1.0
 70
    11
 71
     3
 72
    29
 73
    25
 74
     0
 42
0.0000000001
 43
0.0000000001
 12
1.0
 22
0.0
 32
0.0
 13
1.0
 23
0.0
 33
0.0
 40
0.0
 40
0.0
 40
0.0
 40
0.0
 40
1.0
 40
1.0
 40
1.0
 40
2.0
 40
2.0
 40
2.0
 40
3.0
 40
3.0
 40
3.0
 40
4.0
 40
4.0
 40
4.0
 40
5.0
 40
5.0
 40
5.0
 40
6.0
 40
6.0
 40
6.0
 40
7.0
 40
7.0
 40
7.0
 40
8.0
 40
8.0
 40
8.0
 40
8.0
 10
117.4305582388715
 20
-139.2218207117223
 30
0.0
 10
117.6400200443747
 20
-139.3299967099592
 30
0.0
 10
117.6589680695436
 20
-139.5032850128673
 30
0.0
 10
117.6589680695436
 20
-139.6197292402687
 30
0.0
 10
117.6589680695436
 20
-139.7806151994299
 30
0.0
 10
117.6128037900413
 20
-139.9222086238736
 30
0.0
 10
117.4305582388715
 20
-140.0172932592665
 30
0.0
 10
117.2359103439549
 20
-140.1209906333725
 30
0.0
 10
116.9988877745697
 20
-140.1402831680899
 30
0.0
 10
116.8362792676659
 20
-140.1402831680899
 30
0.0
 10
116.6922742763825
 20
-140.1402831680899
 30
0.0
 10
116.4407823059593
 20
-140.1230576906637
 30
0.0
 10
116.2416557869118
 20
-140.0172932592665
 30
0.0
 10
116.0383951532821
 20
-139.9094617705782
 30
0.0
 10
116.0153130135309
 20
-139.748575811417
 30
0.0
 10
116.0153130135309
 20
-139.6197292402687
 30
0.0
 10
116.0153130135309
 20
-139.4609103383987
 30
0.0
 10
116.0597547452906
 20
-139.3172498566638
 30
0.0
 10
116.2416557869118
 20
-139.2218207117223
 30
0.0
 10
116.4342366245373
 20
-139.1226019617471
 30
0.0
 10
116.6626464552093
 20
-139.0991753124474
 30
0.0
 10
116.8362792676659
 20
-139.0991753124474
 30
0.0
 10
117.0075005132828
 20
-139.0991753124474
 30
0.0
 10
117.2379774012461
 20
-139.120534904456
 30
0.0
 10
117.4305582388715
 20
-139.2218207117223
 30
0.0
  0
SPLINE
  5
73
330
6C
100
AcDbEntity
  8
_U+30EC_U+30A4_U+30E4_U+30FC 1
370
     0
100
AcDbSpline
210
0.0
220
0.0
230
1.0
 70
    11
 71
     3
 72
    17
 73
    13
 74
     0
 42
0.0000000001
 43
0.0000000001
 12
1.0
 22
0.0
 32
0.0
 13
1.0
 23
0.0
 33
0.0
 40
0.0
 40
0.0
 40
0.0
 40
0.0
 40
1.0
 40
1.0
 40
1.0
 40
2.0
 40
2.0
 40
2.0
 40
3.0
 40
3.0
 40
3.0
 40
4.0
 40
4.0
 40
4.0
 40
4.0
 10
116.2078938511564
 20
-139.6197292402687
 30
0.0
 10
116.2078938511564
 20
-139.8694986629493
 30
0.0
 10
116.4910807000439
 20
-139.9160074520002
 30
0.0
 10
116.8362792676659
 20
-139.9160074520002
 30
0.0
 10
117.1556396191486
 20
-139.9160074520002
 30
0.0
 10
117.4646646841755
 20
-139.8798339494051
 30
0.0
 10
117.4646646841755
 20
-139.6197292402687
 30
0.0
 10
117.4646646841755
 20
-139.3720268748792
 30
0.0
 10
117.1828558734821
 20
-139.3234510285372
 30
0.0
 10
116.8362792676659
 20
-139.3234510285372
 30
0.0
 10
116.5165744066347
 20
-139.3234510285372
 30
0.0
 10
116.2078938511564
 20
-139.3616915884235
 30
0.0
 10
116.2078938511564
 20
-139.6197292402687
 30
0.0
  0
HATCH
  5
74
330
6C
100
AcDbEntity
  8
_U+30EC_U+30A4_U+30E4_U+30FC 1
 62
     7
420
 16777215
100
AcDbHatch
 10
0.0
 20
0.0
 30
0.0
210
0.0
220
0.0
230
1.0
  2
SOLID
 70
     1
 71
     0
 91
        2
 92
        1
 93
        1
 72
     4
 94
        3
 73
     0
 74
     1
 95
       29
 96
       25
 40
0.0
 40
0.0
 40
0.0
 40
0.0
 40
1.0
 40
1.0
 40
1.0
 40
2.0
 40
2.0
 40
2.0
 40
3.0
 40
3.0
 40
3.0
 40
4.0
 40
4.0
 40
4.0
 40
5.0
 40
5.0
 40
5.0
 40
6.0
 40
6.0
 40
6.0
 40
7.0
 40
7.0
 40
7.0
 40
8.0
 40
8.0
 40
8.0
 40
8.0
 10
117.4305582388715
 20
-139.2218207117223
 10
117.6400200443747
 20
-139.3299967099592
 10
117.6589680695436
 20
-139.5032850128673
 10
117.6589680695436
 20
-139.6197292402687
 10
117.6589680695436
 20
-139.7806151994299
 10
117.6128037900413
 20
-139.9222086238736
 10
117.4305582388715
 20
-140.0172932592665
 10
117.2359103439549
 20
-140.1209906333725
 10
116.9988877745697
 20
-140.1402831680899
 10
116.8362792676659
 20
-140.1402831680899
 10
116.6922742763825
 20
-140.1402831680899
 10
116.4407823059593
 20
-140.1230576906637
 10
116.2416557869118
 20
-140.0172932592665
 10
116.0383951532821
 20
-139.9094617705782
 10
116.0153130135309
 20
-139.748575811417
 10
116.0153130135309
 20
-139.6197292402687
 10
116.0153130135309
 20
-139.4609103383987
 10
116.0597547452906
 20
-139.3172498566638
 10
116.2416557869118
 20
-139.2218207117223
 10
116.4342366245373
 20
-139.1226019617471
 10
116.6626464552093
 20
-139.0991753124474
 10
116.8362792676659
 20
-139.0991753124474
 10
117.0075005132828
 20
-139.0991753124474
 10
117.2379774012461
 20
-139.120534904456
 10
117.4305582388715
 20
-139.2218207117223
 97
        0
 97
        0
 92
        1
 93
        1
 72
     4
 94
        3
 73
     0
 74
     1
 95
       17
 96
       13
 40
0.0
 40
0.0
 40
0.0
 40
0.0
 40
1.0
 40
1.0
 40
1.0
 40
2.0
 40
2.0
 40
2.0
 40
3.0
 40
3.0
 40
3.0
 40
4.0
 40
4.0
 40
4.0
 40
4.0
 10
116.2078938511564
 20
-139.6197292402687
 10
116.2078938511564
 20
-139.8694986629493
 10
116.4910807000439
 20
-139.9160074520002
 10
116.8362792676659
 20
-139.9160074520002
 10
117.1556396191486
 20
-139.9160074520002
 10
117.4646646841755
 20
-139.8798339494051
 10
117.4646646841755
 20
-139.6197292402687
 10
117.4646646841755
 20
-139.3720268748792
 10
117.1828558734821
 20
-139.3234510285372
 10
116.8362792676659
 20
-139.3234510285372
 10
116.5165744066347
 20
-139.3234510285372
 10
116.2078938511564
 20
-139.3616915884235
 10
116.2078938511564
 20
-139.6197292402687
 97
        0
 97
        0
 75
     2
 76
     1
 98
        0
  0
ENDBLK
  5
6F
330
6C
100
AcDbEntity
  8
0
100
AcDbBlockEnd
  0
BLOCK
  5
77
330
75
100
AcDbEntity
  8
0
100
AcDbBlockBegin
  2
block 4
 70
     0
 10
0.0
 20
0.0
 30
0.0
  3
block 4
  1

  0
POLYLINE
  5
79
330
75
100
AcDbEntity
  8
_U+30EC_U+30A4_U+30E4_U+30FC 1
370
     0
100
AcDb2dPolyline
 66
     1
 10
0.0
 20
0.0
 30
0.0
  0
VERTEX
  5
7A
330
79
100
AcDbEntity
  8
_U+30EC_U+30A4_U+30E4_U+30FC 1
370
     0
100
AcDbVertex
100
AcDb2dVertex
 10
114.0681450452677
 20
-142.9221977724292
 30
0.0
  0
VERTEX
  5
7B
330
79
100
AcDbEntity
  8
_U+30EC_U+30A4_U+30E4_U+30FC 1
370
     0
100
AcDbVertex
100
AcDb2dVertex
 10
114.4150661606323
 20
-142.9221977724292
 30
0.0
  0
VERTEX
  5
7C
330
79
100
AcDbEntity
  8
_U+30EC_U+30A4_U+30E4_U+30FC 1
370
     0
100
AcDbVertex
100
AcDb2dVertex
 10
114.4150661606323
 20
-143.139927807097
 30
0.0
  0
VERTEX
  5
7D
330
79
100
AcDbEntity
  8
_U+30EC_U+30A4_U+30E4_U+30FC 1
370
     0
100
AcDbVertex
100
AcDb2dVertex
 10
114.0681450452677
 20
-143.139927807097
 30
0.0
  0
VERTEX
  5
7E
330
79
100
AcDbEntity
  8
_U+30EC_U+30A4_U+30E4_U+30FC 1
370
     0
100
AcDbVertex
100
AcDb2dVertex
 10
114.0681450452677
 20
-143.7958739874885
 30
0.0
  0
VERTEX
  5
7F
330
79
100
AcDbEntity
  8
_U+30EC_U+30A4_U+30E4_U+30FC 1
370
     0
100
AcDbVertex
100
AcDb2dVertex
 10
113.8438693291779
 20
-143.7958739874885
 30
0.0
  0
VERTEX
  5
80
330
79
100
AcDbEntity
  8
_U+30EC_U+30A4_U+30E4_U+30FC 1
370
     0
100
AcDbVertex
100
AcDb2dVertex
 10
112.8709743641434
 20
-143.1168456673458
 30
0.0
  0
VERTEX
  5
81
330
79
100
AcDbEntity
  8
_U+30EC_U+30A4_U+30E4_U+30FC 1
370
     0
100
AcDbVertex
100
AcDb2dVertex
 10
112.8709743641434
 20
-142.9221977724292
 30
0.0
  0
VERTEX
  5
82
330
79
100
AcDbEntity
  8
_U+30EC_U+30A4_U+30E4_U+30FC 1
370
     0
100
AcDbVertex
100
AcDb2dVertex
 10
113.8693630357688
 20
-142.9221977724292
 30
0.0
  0
VERTEX
  5
83
330
79
100
AcDbEntity
  8
_U+30EC_U+30A4_U+30E4_U+30FC 1
370
     0
100
AcDbVertex
100
AcDb2dVertex
 10
113.8693630357688
 20
-142.7148030242171
 30
0.0
  0
VERTEX
  5
84
330
79
100
AcDbEntity
  8
_U+30EC_U+30A4_U+30E4_U+30FC 1
370
     0
100
AcDbVertex
100
AcDb2dVertex
 10
114.0681450452677
 20
-142.7148030242171
 30
0.0
  0
VERTEX
  5
85
330
79
100
AcDbEntity
  8
_U+30EC_U+30A4_U+30E4_U+30FC 1
370
     0
100
AcDbVertex
100
AcDb2dVertex
 10
114.0681450452677
 20
-142.9221977724292
 30
0.0
  0
SEQEND
  5
86
330
79
100
AcDbEntity
  8
_U+30EC_U+30A4_U+30E4_U+30FC 1
370
     0
  0
POLYLINE
  5
87
330
75
100
AcDbEntity
  8
_U+30EC_U+30A4_U+30E4_U+30FC 1
370
     0
100
AcDb2dPolyline
 66
     1
 10
0.0
 20
0.0
 30
0.0
  0
VERTEX
  5
88
330
87
100
AcDbEntity
  8
_U+30EC_U+30A4_U+30E4_U+30FC 1
370
     0
100
AcDbVertex
100
AcDb2dVertex
 10
113.2134168553772
 20
-143.139927807097
 30
0.0
  0
VERTEX
  5
89
330
87
100
AcDbEntity
  8
_U+30EC_U+30A4_U+30E4_U+30FC 1
370
     0
100
AcDbVertex
100
AcDb2dVertex
 10
113.8693630357688
 20
-143.5970919779896
 30
0.0
  0
VERTEX
  5
8A
330
87
100
AcDbEntity
  8
_U+30EC_U+30A4_U+30E4_U+30FC 1
370
     0
100
AcDbVertex
100
AcDb2dVertex
 10
113.8693630357688
 20
-143.139927807097
 30
0.0
  0
VERTEX
  5
8B
330
87
100
AcDbEntity
  8
_U+30EC_U+30A4_U+30E4_U+30FC 1
370
     0
100
AcDbVertex
100
AcDb2dVertex
 10
113.2134168553772
 20
-143.139927807097
 30
0.0
  0
SEQEND
  5
8C
330
87
100
AcDbEntity
  8
_U+30EC_U+30A4_U+30E4_U+30FC 1
370
     0
  0
HATCH
  5
8D
330
75
100
AcDbEntity
  8
_U+30EC_U+30A4_U+30E4_U+30FC 1
 62
     7
420
 16777215
100
AcDbHatch
 10
0.0
 20
0.0
 30
0.0
210
0.0
220
0.0
230
1.0
  2
SOLID
 70
     1
 71
     0
 91
        2
 92
        1
 93
       11
 72
     1
 10
114.0681450452677
 20
-142.9221977724292
 11
114.4150661606323
 21
-142.9221977724292
 72
     1
 10
114.4150661606323
 20
-142.9221977724292
 11
114.4150661606323
 21
-143.139927807097
 72
     1
 10
114.4150661606323
 20
-143.139927807097
 11
114.0681450452677
 21
-143.139927807097
 72
     1
 10
114.0681450452677
 20
-143.139927807097
 11
114.0681450452677
 21
-143.7958739874885
 72
     1
 10
114.0681450452677
 20
-143.7958739874885
 11
113.8438693291779
 21
-143.7958739874885
 72
     1
 10
113.8438693291779
 20
-143.7958739874885
 11
112.8709743641434
 21
-143.1168456673458
 72
     1
 10
112.8709743641434
 20
-143.1168456673458
 11
112.8709743641434
 21
-142.9221977724292
 72
     1
 10
112.8709743641434
 20
-142.9221977724292
 11
113.8693630357688
 21
-142.9221977724292
 72
     1
 10
113.8693630357688
 20
-142.9221977724292
 11
113.8693630357688
 21
-142.7148030242171
 72
     1
 10
113.8693630357688
 20
-142.7148030242171
 11
114.0681450452677
 21
-142.7148030242171
 72
     1
 10
114.0681450452677
 20
-142.7148030242171
 11
114.0681450452677
 21
-142.9221977724292
 97
        0
 92
        1
 93
        3
 72
     1
 10
113.2134168553772
 20
-143.139927807097
 11
113.8693630357688
 21
-143.5970919779896
 72
     1
 10
113.8693630357688
 20
-143.5970919779896
 11
113.8693630357688
 21
-143.139927807097
 72
     1
 10
113.8693630357688
 20
-143.139927807097
 11
113.2134168553772
 21
-143.139927807097
 97
        0
 75
     2
 76
     1
 98
        0
  0
ENDBLK
  5
78
330
75
100
AcDbEntity
  8
0
100
AcDbBlockEnd
  0
BLOCK
  5
90
330
8E
100
AcDbEntity
  8
0
100
AcDbBlockBegin
  2
block 5
 70
     0
 10
0.0
 20
0.0
 30
0.0
  3
block 5
  1

  0
SPLINE
  5
92
330
8E
100
AcDbEntity
  8
_U+30EC_U+30A4_U+30E4_U+30FC 1
370
     0
100
AcDbSpline
210
0.0
220
0.0
230
1.0
 70
    11
 71
     3
 72
    26
 73
    22
 74
     0
 42
0.0000000001
 43
0.0000000001
 12
1.0
 22
0.0
 32
0.0
 13
1.0
 23
0.0
 33
0.0
 40
0.0
 40
0.0
 40
0.0
 40
0.0
 40
1.0
 40
1.0
 40
1.0
 40
2.0
 40
2.0
 40
2.0
 40
3.0
 40
3.0
 40
3.0
 40
4.0
 40
4.0
 40
4.0
 40
5.0
 40
5.0
 40
5.0
 40
6.0
 40
6.0
 40
6.0
 40
7.0
 40
7.0
 40
7.0
 40
7.0
 10
117.6083251659104
 20
-132.535923903498
 30
0.0
 10
117.6083251659104
 20
-132.535923903498
 30
0.0
 10
116.5041720628878
 20
-132.535923903498
 30
0.0
 10
116.5041720628878
 20
-132.535923903498
 30
0.0
 10
116.5041720628878
 20
-132.535923903498
 30
0.0
 10
116.5041720628878
 20
-132.8659640509849
 30
0.0
 10
116.5041720628878
 20
-132.8659640509849
 30
0.0
 10
116.5041720628878
 20
-132.8659640509849
 30
0.0
 10
116.3560329570221
 20
-132.8659640509849
 30
0.0
 10
116.3560329570221
 20
-132.8659640509849
 30
0.0
 10
116.3412190464355
 20
-132.5338568462068
 30
0.0
 10
116.1782660299832
 20
-132.4873480571559
 30
0.0
 10
116.0638888598729
 20
-132.4577202359828
 30
0.0
 10
116.0638888598729
 20
-132.4577202359828
 30
0.0
 10
116.0638888598729
 20
-132.3116481874082
 30
0.0
 10
116.0638888598729
 20
-132.3116481874082
 30
0.0
 10
116.0638888598729
 20
-132.3116481874082
 30
0.0
 10
117.6083251659104
 20
-132.3116481874082
 30
0.0
 10
117.6083251659104
 20
-132.3116481874082
 30
0.0
 10
117.6083251659104
 20
-132.3116481874082
 30
0.0
 10
117.6083251659104
 20
-132.535923903498
 30
0.0
 10
117.6083251659104
 20
-132.535923903498
 30
0.0
  0
HATCH
  5
93
330
8E
100
AcDbEntity
  8
_U+30EC_U+30A4_U+30E4_U+30FC 1
 62
     7
420
 16777215
100
AcDbHatch
 10
0.0
 20
0.0
 30
0.0
210
0.0
220
0.0
230
1.0
  2
SOLID
 70
     1
 71
     0
 91
        1
 92
        1
 93
        1
 72
     4
 94
        3
 73
     0
 74
     1
 95
       26
 96
       22
 40
0.0
 40
0.0
 40
0.0
 40
0.0
 40
1.0
 40
1.0
 40
1.0
 40
2.0
 40
2.0
 40
2.0
 40
3.0
 40
3.0
 40
3.0
 40
4.0
 40
4.0
 40
4.0
 40
5.0
 40
5.0
 40
5.0
 40
6.0
 40
6.0
 40
6.0
 40
7.0
 40
7.0
 40
7.0
 40
7.0
 10
117.6083251659104
 20
-132.535923903498
 10
117.6083251659104
 20
-132.535923903498
 10
116.5041720628878
 20
-132.535923903498
 10
116.5041720628878
 20
-132.535923903498
 10
116.5041720628878
 20
-132.535923903498
 10
116.5041720628878
 20
-132.8659640509849
 10
116.5041720628878
 20
-132.8659640509849
 10
116.5041720628878
 20
-132.8659640509849
 10
116.3560329570221
 20
-132.8659640509849
 10
116.3560329570221
 20
-132.8659640509849
 10
116.3412190464355
 20
-132.5338568462068
 10
116.1782660299832
 20
-132.4873480571559
 10
116.0638888598729
 20
-132.4577202359828
 10
116.0638888598729
 20
-132.4577202359828
 10
116.0638888598729
 20
-132.3116481874082
 10
116.0638888598729
 20
-132.3116481874082
 10
116.0638888598729
 20
-132.3116481874082
 10
117.6083251659104
 20
-132.3116481874082
 10
117.6083251659104
 20
-132.3116481874082
 10
117.6083251659104
 20
-132.3116481874082
 10
117.6083251659104
 20
-132.535923903498
 10
117.6083251659104
 20
-132.535923903498
 97
        0
 97
        0
 75
     2
 76
     1
 98
        0
  0
ENDBLK
  5
91
330
8E
100
AcDbEntity
  8
0
100
AcDbBlockEnd
  0
BLOCK
  5
96
330
94
100
AcDbEntity
  8
0
100
AcDbBlockBegin
  2
block 6
 70
     0
 10
0.0
 20
0.0
 30
0.0
  3
block 6
  1

  0
SPLINE
  5
98
330
94
100
AcDbEntity
  8
_U+30EC_U+30A4_U+30E4_U+30FC 1
370
     0
100
AcDbSpline
210
0.0
220
0.0
230
1.0
 70
    11
 71
     3
 72
    26
 73
    22
 74
     0
 42
0.0000000001
 43
0.0000000001
 12
1.0
 22
0.0
 32
0.0
 13
1.0
 23
0.0
 33
0.0
 40
0.0
 40
0.0
 40
0.0
 40
0.0
 40
1.0
 40
1.0
 40
1.0
 40
2.0
 40
2.0
 40
2.0
 40
3.0
 40
3.0
 40
3.0
 40
4.0
 40
4.0
 40
4.0
 40
5.0
 40
5.0
 40
5.0
 40
6.0
 40
6.0
 40
6.0
 40
7.0
 40
7.0
 40
7.0
 40
7.0
 10
65.26457789166997
 20
-114.3241156398218
 30
0.0
 10
65.26457789166997
 20
-114.3241156398218
 30
0.0
 10
64.16025253387313
 20
-114.3241156398218
 30
0.0
 10
64.16025253387313
 20
-114.3241156398218
 30
0.0
 10
64.16025253387313
 20
-114.3241156398218
 30
0.0
 10
64.16025253387313
 20
-114.6541557873087
 30
0.0
 10
64.16025253387313
 20
-114.6541557873087
 30
0.0
 10
64.16025253387313
 20
-114.6541557873087
 30
0.0
 10
64.0121134280074
 20
-114.6541557873087
 30
0.0
 10
64.0121134280074
 20
-114.6541557873087
 30
0.0
 10
63.99747177219508
 20
-114.3220485825306
 30
0.0
 10
63.83451875574276
 20
-114.2755397934797
 30
0.0
 10
63.72031384040673
 20
-114.2459119723066
 30
0.0
 10
63.72031384040673
 20
-114.2459119723066
 30
0.0
 10
63.72031384040673
 20
-114.099839923732
 30
0.0
 10
63.72031384040673
 20
-114.099839923732
 30
0.0
 10
63.72031384040673
 20
-114.099839923732
 30
0.0
 10
65.26457789166997
 20
-114.099839923732
 30
0.0
 10
65.26457789166997
 20
-114.099839923732
 30
0.0
 10
65.26457789166997
 20
-114.099839923732
 30
0.0
 10
65.26457789166997
 20
-114.3241156398218
 30
0.0
 10
65.26457789166997
 20
-114.3241156398218
 30
0.0
  0
HATCH
  5
99
330
94
100
AcDbEntity
  8
_U+30EC_U+30A4_U+30E4_U+30FC 1
 62
     7
420
 16777215
100
AcDbHatch
 10
0.0
 20
0.0
 30
0.0
210
0.0
220
0.0
230
1.0
  2
SOLID
 70
     1
 71
     0
 91
        1
 92
        1
 93
        1
 72
     4
 94
        3
 73
     0
 74
     1
 95
       26
 96
       22
 40
0.0
 40
0.0
 40
0.0
 40
0.0
 40
1.0
 40
1.0
 40
1.0
 40
2.0
 40
2.0
 40
2.0
 40
3.0
 40
3.0
 40
3.0
 40
4.0
 40
4.0
 40
4.0
 40
5.0
 40
5.0
 40
5.0
 40
6.0
 40
6.0
 40
6.0
 40
7.0
 40
7.0
 40
7.0
 40
7.0
 10
65.26457789166997
 20
-114.3241156398218
 10
65.26457789166997
 20
-114.3241156398218
 10
64.16025253387313
 20
-114.3241156398218
 10
64.16025253387313
 20
-114.3241156398218
 10
64.16025253387313
 20
-114.3241156398218
 10
64.16025253387313
 20
-114.6541557873087
 10
64.16025253387313
 20
-114.6541557873087
 10
64.16025253387313
 20
-114.6541557873087
 10
64.0121134280074
 20
-114.6541557873087
 10
64.0121134280074
 20
-114.6541557873087
 10
63.99747177219508
 20
-114.3220485825306
 10
63.83451875574276
 20
-114.2755397934797
 10
63.72031384040673
 20
-114.2459119723066
 10
63.72031384040673
 20
-114.2459119723066
 10
63.72031384040673
 20
-114.099839923732
 10
63.72031384040673
 20
-114.099839923732
 10
63.72031384040673
 20
-114.099839923732
 10
65.26457789166997
 20
-114.099839923732
 10
65.26457789166997
 20
-114.099839923732
 10
65.26457789166997
 20
-114.099839923732
 10
65.26457789166997
 20
-114.3241156398218
 10
65.26457789166997
 20
-114.3241156398218
 97
        0
 97
        0
 75
     2
 76
     1
 98
        0
  0
SPLINE
  5
9A
330
94
100
AcDbEntity
  8
_U+30EC_U+30A4_U+30E4_U+30FC 1
370
     0
100
AcDbSpline
210
0.0
220
0.0
230
1.0
 70
    11
 71
     3
 72
    26
 73
    22
 74
     0
 42
0.0000000001
 43
0.0000000001
 12
1.0
 22
0.0
 32
0.0
 13
1.0
 23
0.0
 33
0.0
 40
0.0
 40
0.0
 40
0.0
 40
0.0
 40
1.0
 40
1.0
 40
1.0
 40
2.0
 40
2.0
 40
2.0
 40
3.0
 40
3.0
 40
3.0
 40
4.0
 40
4.0
 40
4.0
 40
5.0
 40
5.0
 40
5.0
 40
6.0
 40
6.0
 40
6.0
 40
7.0
 40
7.0
 40
7.0
 40
7.0
 10
65.26457789166997
 20
-113.1875786392378
 30
0.0
 10
65.26457789166997
 20
-113.1875786392378
 30
0.0
 10
65.26457789166997
 20
-113.424601208623
 30
0.0
 10
65.26457789166997
 20
-113.424601208623
 30
0.0
 10
64.95572508141733
 20
-113.3991075020322
 30
0.0
 10
64.43741046566149
 20
-113.2065266644067
 30
0.0
 10
63.93184270320107
 20
-112.8003499066958
 30
0.0
 10
63.93184270320107
 20
-112.8003499066958
 30
0.0
 10
63.93184270320107
 20
-113.6381971287085
 30
0.0
 10
63.93184270320107
 20
-113.6381971287085
 30
0.0
 10
63.93184270320107
 20
-113.6381971287085
 30
0.0
 10
63.72031384040673
 20
-113.6381971287085
 30
0.0
 10
63.72031384040673
 20
-113.6381971287085
 30
0.0
 10
63.72031384040673
 20
-113.6381971287085
 30
0.0
 10
63.72031384040673
 20
-112.5633273373106
 30
0.0
 10
63.72031384040673
 20
-112.5633273373106
 30
0.0
 10
63.72031384040673
 20
-112.5633273373106
 30
0.0
 10
63.93184270320107
 20
-112.5633273373106
 30
0.0
 10
63.93184270320107
 20
-112.5633273373106
 30
0.0
 10
64.22157523351058
 20
-112.8871663129241
 30
0.0
 10
64.81395940219929
 20
-113.1538167034824
 30
0.0
 10
65.26457789166997
 20
-113.1875786392378
 30
0.0
  0
HATCH
  5
9B
330
94
100
AcDbEntity
  8
_U+30EC_U+30A4_U+30E4_U+30FC 1
 62
     7
420
 16777215
100
AcDbHatch
 10
0.0
 20
0.0
 30
0.0
210
0.0
220
0.0
230
1.0
  2
SOLID
 70
     1
 71
     0
 91
        1
 92
        1
 93
        1
 72
     4
 94
        3
 73
     0
 74
     1
 95
       26
 96
       22
 40
0.0
 40
0.0
 40
0.0
 40
0.0
 40
1.0
 40
1.0
 40
1.0
 40
2.0
 40
2.0
 40
2.0
 40
3.0
 40
3.0
 40
3.0
 40
4.0
 40
4.0
 40
4.0
 40
5.0
 40
5.0
 40
5.0
 40
6.0
 40
6.0
 40
6.0
 40
7.0
 40
7.0
 40
7.0
 40
7.0
 10
65.26457789166997
 20
-113.1875786392378
 10
65.26457789166997
 20
-113.1875786392378
 10
65.26457789166997
 20
-113.424601208623
 10
65.26457789166997
 20
-113.424601208623
 10
64.95572508141733
 20
-113.3991075020322
 10
64.43741046566149
 20
-113.2065266644067
 10
63.93184270320107
 20
-112.8003499066958
 10
63.93184270320107
 20
-112.8003499066958
 10
63.93184270320107
 20
-113.6381971287085
 10
63.93184270320107
 20
-113.6381971287085
 10
63.93184270320107
 20
-113.6381971287085
 10
63.72031384040673
 20
-113.6381971287085
 10
63.72031384040673
 20
-113.6381971287085
 10
63.72031384040673
 20
-113.6381971287085
 10
63.72031384040673
 20
-112.5633273373106
 10
63.72031384040673
 20
-112.5633273373106
 10
63.72031384040673
 20
-112.5633273373106
 10
63.93184270320107
 20
-112.5633273373106
 10
63.93184270320107
 20
-112.5633273373106
 10
64.22157523351058
 20
-112.8871663129241
 10
64.81395940219929
 20
-113.1538167034824
 10
65.26457789166997
 20
-113.1875786392378
 97
        0
 97
        0
 75
     2
 76
     1
 98
        0
  0
ENDBLK
  5
97
330
94
100
AcDbEntity
  8
0
100
AcDbBlockEnd
  0
BLOCK
  5
9E
330
9C
100
AcDbEntity
  8
0
100
AcDbBlockBegin
  2
block 7
 70
     0
 10
0.0
 20
0.0
 30
0.0
  3
block 7
  1

  0
SPLINE
  5
A0
330
9C
100
AcDbEntity
  8
_U+30EC_U+30A4_U+30E4_U+30FC 1
370
     0
100
AcDbSpline
210
0.0
220
0.0
230
1.0
 70
    11
 71
     3
 72
    62
 73
    58
 74
     0
 42
0.0000000001
 43
0.0000000001
 12
1.0
 22
0.0
 32
0.0
 13
1.0
 23
0.0
 33
0.0
 40
0.0
 40
0.0
 40
0.0
 40
0.0
 40
1.0
 40
1.0
 40
1.0
 40
2.0
 40
2.0
 40
2.0
 40
3.0
 40
3.0
 40
3.0
 40
4.0
 40
4.0
 40
4.0
 40
5.0
 40
5.0
 40
5.0
 40
6.0
 40
6.0
 40
6.0
 40
7.0
 40
7.0
 40
7.0
 40
8.0
 40
8.0
 40
8.0
 40
9.0
 40
9.0
 40
9.0
 40
10.0
 40
10.0
 40
10.0
 40
11.0
 40
11.0
 40
11.0
 40
12.0
 40
12.0
 40
12.0
 40
13.0
 40
13.0
 40
13.0
 40
14.0
 40
14.0
 40
14.0
 40
15.0
 40
15.0
 40
15.0
 40
16.0
 40
16.0
 40
16.0
 40
17.0
 40
17.0
 40
17.0
 40
18.0
 40
18.0
 40
18.0
 40
19.0
 40
19.0
 40
19.0
 40
19.0
 10
65.3153930500774
 20
-123.7688449126342
 30
0.0
 10
65.3153930500774
 20
-123.8642740575756
 30
0.0
 10
65.29420571284312
 20
-124.0820040922434
 30
0.0
 10
65.10799830186536
 20
-124.207061058358
 30
0.0
 10
64.99586044382048
 20
-124.2811306112908
 30
0.0
 10
64.89646943907103
 20
-124.2852647258731
 30
0.0
 10
64.81189234490814
 20
-124.2893988404554
 30
0.0
 10
64.81189234490814
 20
-124.2893988404554
 30
0.0
 10
64.81189234490814
 20
-124.069257238948
 30
0.0
 10
64.81189234490814
 20
-124.069257238948
 30
0.0
 10
64.88596189784101
 20
-124.0671901816568
 30
0.0
 10
65.12074515516079
 20
-124.0568548952011
 30
0.0
 10
65.12074515516079
 20
-123.773323536765
 30
0.0
 10
65.12074515516079
 20
-123.6358642269035
 30
0.0
 10
65.05098197158448
 20
-123.483246496907
 30
0.0
 10
64.82239988613816
 20
-123.483246496907
 30
0.0
 10
64.70612791351097
 20
-123.483246496907
 30
0.0
 10
64.65737981239468
 20
-123.5214870567932
 30
0.0
 10
64.62568493393039
 20
-123.5531819352575
 30
0.0
 10
64.55161538099752
 20
-123.6272514881904
 30
0.0
 10
64.53904078247635
 20
-123.7436957155919
 30
0.0
 10
64.53904078247635
 20
-123.7984727338073
 30
0.0
 10
64.53904078247635
 20
-123.8177652685247
 30
0.0
 10
64.5411078397675
 20
-123.8535942615713
 30
0.0
 10
64.5452419543498
 20
-123.8811550254533
 30
0.0
 10
64.5452419543498
 20
-123.8811550254533
 30
0.0
 10
64.35076631420745
 20
-123.8811550254533
 30
0.0
 10
64.35076631420745
 20
-123.8811550254533
 30
0.0
 10
64.3569674860809
 20
-123.842914465567
 30
0.0
 10
64.35920679814632
 20
-123.800884300647
 30
0.0
 10
64.35920679814632
 20
-123.794338619225
 30
0.0
 10
64.35920679814632
 20
-123.7288818050053
 30
0.0
 10
64.33801946091202
 20
-123.5300997955064
 30
0.0
 10
64.10099689152683
 20
-123.5300997955064
 30
0.0
 10
63.92340221926221
 20
-123.5300997955064
 30
0.0
 10
63.86828069149821
 20
-123.6610134239459
 30
0.0
 10
63.86828069149821
 20
-123.7712564794739
 30
0.0
 10
63.86828069149821
 20
-124.0354953031925
 30
0.0
 10
64.10099689152683
 20
-124.0441080419056
 30
0.0
 10
64.17299938716856
 20
-124.0482421564879
 30
0.0
 10
64.17299938716856
 20
-124.0482421564879
 30
0.0
 10
64.17299938716856
 20
-124.2515027901177
 30
0.0
 10
64.17299938716856
 20
-124.2515027901177
 30
0.0
 10
64.04811467582826
 20
-124.2428900514046
 30
0.0
 10
63.67156573929044
 20
-124.2153292875226
 30
0.0
 10
63.67156573929044
 20
-123.7585096261784
 30
0.0
 10
63.67156573929044
 20
-123.5342339100887
 30
0.0
 10
63.7985175079219
 20
-123.2930772261212
 30
0.0
 10
64.09462346487912
 20
-123.2930772261212
 30
0.0
 10
64.28083087585688
 20
-123.2930772261212
 30
0.0
 10
64.36334091272862
 20
-123.3881618615141
 30
0.0
 10
64.42466361236606
 20
-123.4877251210378
 30
0.0
 10
64.45222437624805
 20
-123.4264024214004
 30
0.0
 10
64.53266735582864
 20
-123.2445013797792
 30
0.0
 10
64.80982528761699
 20
-123.2445013797792
 30
0.0
 10
65.14830591904278
 20
-123.2445013797792
 30
0.0
 10
65.3153930500774
 20
-123.4918592356201
 30
0.0
 10
65.3153930500774
 20
-123.7688449126342
 30
0.0
  0
HATCH
  5
A1
330
9C
100
AcDbEntity
  8
_U+30EC_U+30A4_U+30E4_U+30FC 1
 62
     7
420
 16777215
100
AcDbHatch
 10
0.0
 20
0.0
 30
0.0
210
0.0
220
0.0
230
1.0
  2
SOLID
 70
     1
 71
     0
 91
        1
 92
        1
 93
        1
 72
     4
 94
        3
 73
     0
 74
     1
 95
       62
 96
       58
 40
0.0
 40
0.0
 40
0.0
 40
0.0
 40
1.0
 40
1.0
 40
1.0
 40
2.0
 40
2.0
 40
2.0
 40
3.0
 40
3.0
 40
3.0
 40
4.0
 40
4.0
 40
4.0
 40
5.0
 40
5.0
 40
5.0
 40
6.0
 40
6.0
 40
6.0
 40
7.0
 40
7.0
 40
7.0
 40
8.0
 40
8.0
 40
8.0
 40
9.0
 40
9.0
 40
9.0
 40
10.0
 40
10.0
 40
10.0
 40
11.0
 40
11.0
 40
11.0
 40
12.0
 40
12.0
 40
12.0
 40
13.0
 40
13.0
 40
13.0
 40
14.0
 40
14.0
 40
14.0
 40
15.0
 40
15.0
 40
15.0
 40
16.0
 40
16.0
 40
16.0
 40
17.0
 40
17.0
 40
17.0
 40
18.0
 40
18.0
 40
18.0
 40
19.0
 40
19.0
 40
19.0
 40
19.0
 10
65.3153930500774
 20
-123.7688449126342
 10
65.3153930500774
 20
-123.8642740575756
 10
65.29420571284312
 20
-124.0820040922434
 10
65.10799830186536
 20
-124.207061058358
 10
64.99586044382048
 20
-124.2811306112908
 10
64.89646943907103
 20
-124.2852647258731
 10
64.81189234490814
 20
-124.2893988404554
 10
64.81189234490814
 20
-124.2893988404554
 10
64.81189234490814
 20
-124.069257238948
 10
64.81189234490814
 20
-124.069257238948
 10
64.88596189784101
 20
-124.0671901816568
 10
65.12074515516079
 20
-124.0568548952011
 10
65.12074515516079
 20
-123.773323536765
 10
65.12074515516079
 20
-123.6358642269035
 10
65.05098197158448
 20
-123.483246496907
 10
64.82239988613816
 20
-123.483246496907
 10
64.70612791351097
 20
-123.483246496907
 10
64.65737981239468
 20
-123.5214870567932
 10
64.62568493393039
 20
-123.5531819352575
 10
64.55161538099752
 20
-123.6272514881904
 10
64.53904078247635
 20
-123.7436957155919
 10
64.53904078247635
 20
-123.7984727338073
 10
64.53904078247635
 20
-123.8177652685247
 10
64.5411078397675
 20
-123.8535942615713
 10
64.5452419543498
 20
-123.8811550254533
 10
64.5452419543498
 20
-123.8811550254533
 10
64.35076631420745
 20
-123.8811550254533
 10
64.35076631420745
 20
-123.8811550254533
 10
64.3569674860809
 20
-123.842914465567
 10
64.35920679814632
 20
-123.800884300647
 10
64.35920679814632
 20
-123.794338619225
 10
64.35920679814632
 20
-123.7288818050053
 10
64.33801946091202
 20
-123.5300997955064
 10
64.10099689152683
 20
-123.5300997955064
 10
63.92340221926221
 20
-123.5300997955064
 10
63.86828069149821
 20
-123.6610134239459
 10
63.86828069149821
 20
-123.7712564794739
 10
63.86828069149821
 20
-124.0354953031925
 10
64.10099689152683
 20
-124.0441080419056
 10
64.17299938716856
 20
-124.0482421564879
 10
64.17299938716856
 20
-124.0482421564879
 10
64.17299938716856
 20
-124.2515027901177
 10
64.17299938716856
 20
-124.2515027901177
 10
64.04811467582826
 20
-124.2428900514046
 10
63.67156573929044
 20
-124.2153292875226
 10
63.67156573929044
 20
-123.7585096261784
 10
63.67156573929044
 20
-123.5342339100887
 10
63.7985175079219
 20
-123.2930772261212
 10
64.09462346487912
 20
-123.2930772261212
 10
64.28083087585688
 20
-123.2930772261212
 10
64.36334091272862
 20
-123.3881618615141
 10
64.42466361236606
 20
-123.4877251210378
 10
64.45222437624805
 20
-123.4264024214004
 10
64.53266735582864
 20
-123.2445013797792
 10
64.80982528761699
 20
-123.2445013797792
 10
65.14830591904278
 20
-123.2445013797792
 10
65.3153930500774
 20
-123.4918592356201
 10
65.3153930500774
 20
-123.7688449126342
 97
        0
 97
        0
 75
     2
 76
     1
 98
        0
  0
ENDBLK
  5
9F
330
9C
100
AcDbEntity
  8
0
100
AcDbBlockEnd
  0
BLOCK
  5
B4
330
B2
100
AcDbEntity
  8
0
100
AcDbBlockBegin
  2
block 8
 70
     0
 10
0.0
 20
0.0
 30
0.0
  3
block 8
  1

  0
SPLINE
  5
B6
330
B2
100
AcDbEntity
  8
_U+30EC_U+30A4_U+30E4_U+30FC 1
370
     0
100
AcDbSpline
210
0.0
220
0.0
230
1.0
 70
    11
 71
     3
 72
    44
 73
    40
 74
     0
 42
0.0000000001
 43
0.0000000001
 12
1.0
 22
0.0
 32
0.0
 13
1.0
 23
0.0
 33
0.0
 40
0.0
 40
0.0
 40
0.0
 40
0.0
 40
1.0
 40
1.0
 40
1.0
 40
2.0
 40
2.0
 40
2.0
 40
3.0
 40
3.0
 40
3.0
 40
4.0
 40
4.0
 40
4.0
 40
5.0
 40
5.0
 40
5.0
 40
6.0
 40
6.0
 40
6.0
 40
7.0
 40
7.0
 40
7.0
 40
8.0
 40
8.0
 40
8.0
 40
9.0
 40
9.0
 40
9.0
 40
10.0
 40
10.0
 40
10.0
 40
11.0
 40
11.0
 40
11.0
 40
12.0
 40
12.0
 40
12.0
 40
13.0
 40
13.0
 40
13.0
 40
13.0
 10
65.26319985347587
 20
-151.1425401097838
 30
0.0
 10
65.23977320417617
 20
-151.0980983780241
 30
0.0
 10
65.21875812171615
 20
-151.0453884170998
 30
0.0
 10
65.21651880965074
 20
-150.814567019588
 30
0.0
 10
65.21238469506844
 20
-150.5713432783294
 30
0.0
 10
65.15312905272214
 20
-150.5014078399788
 30
0.0
 10
64.97536212568325
 20
-150.5014078399788
 30
0.0
 10
64.97536212568325
 20
-150.5014078399788
 30
0.0
 10
64.56711831068114
 20
-150.5014078399788
 30
0.0
 10
64.56711831068114
 20
-150.5014078399788
 30
0.0
 10
64.56711831068114
 20
-150.5014078399788
 30
0.0
 10
64.56711831068114
 20
-151.1425401097838
 30
0.0
 10
64.56711831068114
 20
-151.1425401097838
 30
0.0
 10
64.56711831068114
 20
-151.1425401097838
 30
0.0
 10
64.33233505336136
 20
-151.1425401097838
 30
0.0
 10
64.33233505336136
 20
-151.1425401097838
 30
0.0
 10
64.33233505336136
 20
-151.1425401097838
 30
0.0
 10
64.33233505336136
 20
-149.5981038037463
 30
0.0
 10
64.33233505336136
 20
-149.5981038037463
 30
0.0
 10
64.33233505336136
 20
-149.5981038037463
 30
0.0
 10
65.00705700414754
 20
-149.5981038037463
 30
0.0
 10
65.00705700414754
 20
-149.5981038037463
 30
0.0
 10
65.31384275710904
 20
-149.5981038037463
 30
0.0
 10
65.48110214291792
 20
-149.7696695589117
 30
0.0
 10
65.48110214291792
 20
-150.0256401534658
 30
0.0
 10
65.48110214291792
 20
-150.076283057099
 30
0.0
 10
65.4724894042048
 20
-150.158965348745
 30
0.0
 10
65.42804767244508
 20
-150.2392360735513
 30
0.0
 10
65.36896428487304
 20
-150.3429334476573
 30
0.0
 10
65.30333521587903
 20
-150.3618814728262
 30
0.0
 10
65.24201251624159
 20
-150.3787624407039
 30
0.0
 10
65.37947182610306
 20
-150.4211371151725
 30
0.0
 10
65.44716795238821
 20
-150.4697129615145
 30
0.0
 10
65.45147432174477
 20
-150.7849391984149
 30
0.0
 10
65.45560843632707
 20
-151.0557237035555
 30
0.0
 10
65.49160968414793
 20
-151.0874185820198
 30
0.0
 10
65.55930581043309
 20
-151.1425401097838
 30
0.0
 10
65.55930581043309
 20
-151.1425401097838
 30
0.0
 10
65.26319985347587
 20
-151.1425401097838
 30
0.0
 10
65.26319985347587
 20
-151.1425401097838
 30
0.0
  0
SPLINE
  5
B7
330
B2
100
AcDbEntity
  8
_U+30EC_U+30A4_U+30E4_U+30FC 1
370
     0
100
AcDbSpline
210
0.0
220
0.0
230
1.0
 70
    11
 71
     3
 72
    20
 73
    16
 74
     0
 42
0.0000000001
 43
0.0000000001
 12
1.0
 22
0.0
 32
0.0
 13
1.0
 23
0.0
 33
0.0
 40
0.0
 40
0.0
 40
0.0
 40
0.0
 40
1.0
 40
1.0
 40
1.0
 40
2.0
 40
2.0
 40
2.0
 40
3.0
 40
3.0
 40
3.0
 40
4.0
 40
4.0
 40
4.0
 40
5.0
 40
5.0
 40
5.0
 40
5.0
 10
65.01136337350411
 20
-149.8096326665407
 30
0.0
 10
65.01136337350411
 20
-149.8096326665407
 30
0.0
 10
64.56711831068114
 20
-149.8096326665407
 30
0.0
 10
64.56711831068114
 20
-149.8096326665407
 30
0.0
 10
64.56711831068114
 20
-149.8096326665407
 30
0.0
 10
64.56711831068114
 20
-150.2898789771845
 30
0.0
 10
64.56711831068114
 20
-150.2898789771845
 30
0.0
 10
64.56711831068114
 20
-150.2898789771845
 30
0.0
 10
65.00929631621295
 20
-150.2898789771845
 30
0.0
 10
65.00929631621295
 20
-150.2898789771845
 30
0.0
 10
65.10868732096242
 20
-150.2898789771845
 30
0.0
 10
65.24407957353273
 20
-150.2137423669605
 30
0.0
 10
65.24407957353273
 20
-150.0425211213436
 30
0.0
 10
65.24407957353273
 20
-149.9643174538284
 30
0.0
 10
65.21031763777728
 20
-149.8096326665407
 30
0.0
 10
65.01136337350411
 20
-149.8096326665407
 30
0.0
  0
HATCH
  5
B8
330
B2
100
AcDbEntity
  8
_U+30EC_U+30A4_U+30E4_U+30FC 1
 62
     7
420
 16777215
100
AcDbHatch
 10
0.0
 20
0.0
 30
0.0
210
0.0
220
0.0
230
1.0
  2
SOLID
 70
     1
 71
     0
 91
        2
 92
        1
 93
        1
 72
     4
 94
        3
 73
     0
 74
     1
 95
       44
 96
       40
 40
0.0
 40
0.0
 40
0.0
 40
0.0
 40
1.0
 40
1.0
 40
1.0
 40
2.0
 40
2.0
 40
2.0
 40
3.0
 40
3.0
 40
3.0
 40
4.0
 40
4.0
 40
4.0
 40
5.0
 40
5.0
 40
5.0
 40
6.0
 40
6.0
 40
6.0
 40
7.0
 40
7.0
 40
7.0
 40
8.0
 40
8.0
 40
8.0
 40
9.0
 40
9.0
 40
9.0
 40
10.0
 40
10.0
 40
10.0
 40
11.0
 40
11.0
 40
11.0
 40
12.0
 40
12.0
 40
12.0
 40
13.0
 40
13.0
 40
13.0
 40
13.0
 10
65.26319985347587
 20
-151.1425401097838
 10
65.23977320417617
 20
-151.0980983780241
 10
65.21875812171615
 20
-151.0453884170998
 10
65.21651880965074
 20
-150.814567019588
 10
65.21238469506844
 20
-150.5713432783294
 10
65.15312905272214
 20
-150.5014078399788
 10
64.97536212568325
 20
-150.5014078399788
 10
64.97536212568325
 20
-150.5014078399788
 10
64.56711831068114
 20
-150.5014078399788
 10
64.56711831068114
 20
-150.5014078399788
 10
64.56711831068114
 20
-150.5014078399788
 10
64.56711831068114
 20
-151.1425401097838
 10
64.56711831068114
 20
-151.1425401097838
 10
64.56711831068114
 20
-151.1425401097838
 10
64.33233505336136
 20
-151.1425401097838
 10
64.33233505336136
 20
-151.1425401097838
 10
64.33233505336136
 20
-151.1425401097838
 10
64.33233505336136
 20
-149.5981038037463
 10
64.33233505336136
 20
-149.5981038037463
 10
64.33233505336136
 20
-149.5981038037463
 10
65.00705700414754
 20
-149.5981038037463
 10
65.00705700414754
 20
-149.5981038037463
 10
65.31384275710904
 20
-149.5981038037463
 10
65.48110214291792
 20
-149.7696695589117
 10
65.48110214291792
 20
-150.0256401534658
 10
65.48110214291792
 20
-150.076283057099
 10
65.4724894042048
 20
-150.158965348745
 10
65.42804767244508
 20
-150.2392360735513
 10
65.36896428487304
 20
-150.3429334476573
 10
65.30333521587903
 20
-150.3618814728262
 10
65.24201251624159
 20
-150.3787624407039
 10
65.37947182610306
 20
-150.4211371151725
 10
65.44716795238821
 20
-150.4697129615145
 10
65.45147432174477
 20
-150.7849391984149
 10
65.45560843632707
 20
-151.0557237035555
 10
65.49160968414793
 20
-151.0874185820198
 10
65.55930581043309
 20
-151.1425401097838
 10
65.55930581043309
 20
-151.1425401097838
 10
65.26319985347587
 20
-151.1425401097838
 10
65.26319985347587
 20
-151.1425401097838
 97
        0
 97
        0
 92
        1
 93
        1
 72
     4
 94
        3
 73
     0
 74
     1
 95
       20
 96
       16
 40
0.0
 40
0.0
 40
0.0
 40
0.0
 40
1.0
 40
1.0
 40
1.0
 40
2.0
 40
2.0
 40
2.0
 40
3.0
 40
3.0
 40
3.0
 40
4.0
 40
4.0
 40
4.0
 40
5.0
 40
5.0
 40
5.0
 40
5.0
 10
65.01136337350411
 20
-149.8096326665407
 10
65.01136337350411
 20
-149.8096326665407
 10
64.56711831068114
 20
-149.8096326665407
 10
64.56711831068114
 20
-149.8096326665407
 10
64.56711831068114
 20
-149.8096326665407
 10
64.56711831068114
 20
-150.2898789771845
 10
64.56711831068114
 20
-150.2898789771845
 10
64.56711831068114
 20
-150.2898789771845
 10
65.00929631621295
 20
-150.2898789771845
 10
65.00929631621295
 20
-150.2898789771845
 10
65.10868732096242
 20
-150.2898789771845
 10
65.24407957353273
 20
-150.2137423669605
 10
65.24407957353273
 20
-150.0425211213436
 10
65.24407957353273
 20
-149.9643174538284
 10
65.21031763777728
 20
-149.8096326665407
 10
65.01136337350411
 20
-149.8096326665407
 97
        0
 97
        0
 75
     2
 76
     1
 98
        0
  0
SPLINE
  5
B9
330
B2
100
AcDbEntity
  8
_U+30EC_U+30A4_U+30E4_U+30FC 1
370
     0
100
AcDbSpline
210
0.0
220
0.0
230
1.0
 70
    11
 71
     3
 72
    26
 73
    22
 74
     0
 42
0.0000000001
 43
0.0000000001
 12
1.0
 22
0.0
 32
0.0
 13
1.0
 23
0.0
 33
0.0
 40
0.0
 40
0.0
 40
0.0
 40
0.0
 40
1.0
 40
1.0
 40
1.0
 40
2.0
 40
2.0
 40
2.0
 40
3.0
 40
3.0
 40
3.0
 40
4.0
 40
4.0
 40
4.0
 40
5.0
 40
5.0
 40
5.0
 40
6.0
 40
6.0
 40
6.0
 40
7.0
 40
7.0
 40
7.0
 40
7.0
 10
66.15031194092771
 20
-151.1425401097838
 30
0.0
 10
66.15031194092771
 20
-151.1425401097838
 30
0.0
 10
66.15031194092771
 20
-150.0383870067612
 30
0.0
 10
66.15031194092771
 20
-150.0383870067612
 30
0.0
 10
66.15031194092771
 20
-150.0383870067612
 30
0.0
 10
65.82027179344077
 20
-150.0383870067612
 30
0.0
 10
65.82027179344077
 20
-150.0383870067612
 30
0.0
 10
65.82027179344077
 20
-150.0383870067612
 30
0.0
 10
65.82027179344077
 20
-149.8902479008955
 30
0.0
 10
65.82027179344077
 20
-149.8902479008955
 30
0.0
 10
66.15237899821885
 20
-149.8754339903089
 30
0.0
 10
66.19888778726973
 20
-149.7124809738566
 30
0.0
 10
66.22851560844288
 20
-149.5981038037463
 30
0.0
 10
66.22851560844288
 20
-149.5981038037463
 30
0.0
 10
66.37458765701747
 20
-149.5981038037463
 30
0.0
 10
66.37458765701747
 20
-149.5981038037463
 30
0.0
 10
66.37458765701747
 20
-149.5981038037463
 30
0.0
 10
66.37458765701747
 20
-151.1425401097838
 30
0.0
 10
66.37458765701747
 20
-151.1425401097838
 30
0.0
 10
66.37458765701747
 20
-151.1425401097838
 30
0.0
 10
66.15031194092771
 20
-151.1425401097838
 30
0.0
 10
66.15031194092771
 20
-151.1425401097838
 30
0.0
  0
HATCH
  5
BA
330
B2
100
AcDbEntity
  8
_U+30EC_U+30A4_U+30E4_U+30FC 1
 62
     7
420
 16777215
100
AcDbHatch
 10
0.0
 20
0.0
 30
0.0
210
0.0
220
0.0
230
1.0
  2
SOLID
 70
     1
 71
     0
 91
        1
 92
        1
 93
        1
 72
     4
 94
        3
 73
     0
 74
     1
 95
       26
 96
       22
 40
0.0
 40
0.0
 40
0.0
 40
0.0
 40
1.0
 40
1.0
 40
1.0
 40
2.0
 40
2.0
 40
2.0
 40
3.0
 40
3.0
 40
3.0
 40
4.0
 40
4.0
 40
4.0
 40
5.0
 40
5.0
 40
5.0
 40
6.0
 40
6.0
 40
6.0
 40
7.0
 40
7.0
 40
7.0
 40
7.0
 10
66.15031194092771
 20
-151.1425401097838
 10
66.15031194092771
 20
-151.1425401097838
 10
66.15031194092771
 20
-150.0383870067612
 10
66.15031194092771
 20
-150.0383870067612
 10
66.15031194092771
 20
-150.0383870067612
 10
65.82027179344077
 20
-150.0383870067612
 10
65.82027179344077
 20
-150.0383870067612
 10
65.82027179344077
 20
-150.0383870067612
 10
65.82027179344077
 20
-149.8902479008955
 10
65.82027179344077
 20
-149.8902479008955
 10
66.15237899821885
 20
-149.8754339903089
 10
66.19888778726973
 20
-149.7124809738566
 10
66.22851560844288
 20
-149.5981038037463
 10
66.22851560844288
 20
-149.5981038037463
 10
66.37458765701747
 20
-149.5981038037463
 10
66.37458765701747
 20
-149.5981038037463
 10
66.37458765701747
 20
-149.5981038037463
 10
66.37458765701747
 20
-151.1425401097838
 10
66.37458765701747
 20
-151.1425401097838
 10
66.37458765701747
 20
-151.1425401097838
 10
66.15031194092771
 20
-151.1425401097838
 10
66.15031194092771
 20
-151.1425401097838
 97
        0
 97
        0
 75
     2
 76
     1
 98
        0
  0
ENDBLK
  5
B5
330
B2
100
AcDbEntity
  8
0
100
AcDbBlockEnd
  0
ENDSEC
  0
SECTION
  2
ENTITIES
  0
SPLINE
  5
41
330
1F
100
AcDbEntity
  8
_U+30EC_U+30A4_U+30E4_U+30FC 1
370
     0
100
AcDbSpline
210
0.0
220
0.0
230
1.0
 70
    11
 71
     3
 72
    77
 73
    73
 74
     0
 42
0.0000000001
 43
0.0000000001
 12
1.0
 22
0.0
 32
0.0
 13
1.0
 23
0.0
 33
0.0
 40
0.0
 40
0.0
 40
0.0
 40
0.0
 40
1.0
 40
1.0
 40
1.0
 40
2.0
 40
2.0
 40
2.0
 40
3.0
 40
3.0
 40
3.0
 40
4.0
 40
4.0
 40
4.0
 40
5.0
 40
5.0
 40
5.0
 40
6.0
 40
6.0
 40
6.0
 40
7.0
 40
7.0
 40
7.0
 40
8.0
 40
8.0
 40
8.0
 40
9.0
 40
9.0
 40
9.0
 40
10.0
 40
10.0
 40
10.0
 40
11.0
 40
11.0
 40
11.0
 40
12.0
 40
12.0
 40
12.0
 40
13.0
 40
13.0
 40
13.0
 40
14.0
 40
14.0
 40
14.0
 40
15.0
 40
15.0
 40
15.0
 40
16.0
 40
16.0
 40
16.0
 40
17.0
 40
17.0
 40
17.0
 40
18.0
 40
18.0
 40
18.0
 40
19.0
 40
19.0
 40
19.0
 40
20.0
 40
20.0
 40
20.0
 40
21.0
 40
21.0
 40
21.0
 40
22.0
 40
22.0
 40
22.0
 40
23.0
 40
23.0
 40
23.0
 40
24.0
 40
24.0
 40
24.0
 40
24.0
 10
73.77225200680193
 20
-125.323282468669
 30
0.0
 10
73.77225200680193
 20
-125.3234588575579
 30
0.0
 10
73.77225200680193
 20
-122.3246713583076
 30
0.0
 10
73.77225200680193
 20
-122.3246713583076
 30
0.0
 10
73.77225200680193
 20
-122.3246713583076
 30
0.0
 10
79.7722277578348
 20
-122.3246713583076
 30
0.0
 10
79.7722277578348
 20
-122.3246713583076
 30
0.0
 10
79.7722277578348
 20
-122.3246713583076
 30
0.0
 10
79.7722277578348
 20
-105.3196535847811
 30
0.0
 10
79.7722277578348
 20
-105.3196535847811
 30
0.0
 10
79.7722277578348
 20
-105.3196535847811
 30
0.0
 10
80.77231543932656
 20
-105.3196535847811
 30
0.0
 10
80.77231543932656
 20
-105.3196535847811
 30
0.0
 10
80.77231543932656
 20
-105.3196535847811
 30
0.0
 10
80.77231543932656
 20
-123.3323458025003
 30
0.0
 10
80.77231543932656
 20
-123.3323458025003
 30
0.0
 10
80.77231543932656
 20
-123.3323458025003
 30
0.0
 10
74.77234170350975
 20
-123.3325221913892
 30
0.0
 10
74.77234170350975
 20
-123.3325221913892
 30
0.0
 10
74.77234170350975
 20
-123.3325221913892
 30
0.0
 10
74.77234170350975
 20
-126.3326855239724
 30
0.0
 10
74.77234170350975
 20
-126.3326855239724
 30
0.0
 10
74.77234170350975
 20
-126.3326855239724
 30
0.0
 10
70.77706291654891
 20
-126.3325091350835
 30
0.0
 10
70.77706291654891
 20
-126.3325091350835
 30
0.0
 10
70.77706291654891
 20
-126.3325091350835
 30
0.0
 10
70.77706291654891
 20
-143.3731574641565
 30
0.0
 10
70.77706291654891
 20
-143.3731574641565
 30
0.0
 10
70.77706291654891
 20
-143.3731574641565
 30
0.0
 10
70.64614708655553
 20
-144.3267510750295
 30
0.0
 10
71.5639337298075
 20
-144.3267510750295
 30
0.0
 10
71.5639337298075
 20
-144.3267510750295
 30
0.0
 10
88.77218634634396
 20
-144.3267510750295
 30
0.0
 10
88.77218634634396
 20
-144.3267510750295
 30
0.0
 10
88.77218634634396
 20
-144.3267510750295
 30
0.0
 10
88.77218634634396
 20
-140.3269919093626
 30
0.0
 10
88.77218634634396
 20
-140.3269919093626
 30
0.0
 10
88.77218634634396
 20
-140.3269919093626
 30
0.0
 10
91.77217321425236
 20
-140.3269919093626
 30
0.0
 10
91.77217321425236
 20
-140.3269919093626
 30
0.0
 10
91.77217321425236
 20
-140.3269919093626
 30
0.0
 10
91.77217321425236
 20
-134.3270180219739
 30
0.0
 10
91.77217321425236
 20
-134.3270180219739
 30
0.0
 10
91.77217321425236
 20
-134.3270180219739
 30
0.0
 10
109.7686724773456
 20
-134.3270180219739
 30
0.0
 10
109.7686724773456
 20
-134.3270180219739
 30
0.0
 10
109.7686724773456
 20
-134.3270180219739
 30
0.0
 10
109.7686724773456
 20
-135.3267902439458
 30
0.0
 10
109.7686724773456
 20
-135.3267902439458
 30
0.0
 10
109.7686724773456
 20
-135.3267902439458
 30
0.0
 10
92.77229818873705
 20
-135.3267902439458
 30
0.0
 10
92.77229818873705
 20
-135.3267902439458
 30
0.0
 10
92.77229818873705
 20
-135.3267902439458
 30
0.0
 10
92.77229818873705
 20
-141.3267641313352
 30
0.0
 10
92.77229818873705
 20
-141.3267641313352
 30
0.0
 10
92.77229818873705
 20
-141.3267641313352
 30
0.0
 10
89.77231132082865
 20
-141.3267641313352
 30
0.0
 10
89.77231132082865
 20
-141.3267641313352
 30
0.0
 10
89.77231132082865
 20
-141.3267641313352
 30
0.0
 10
89.77231132082865
 20
-145.3268760747792
 30
0.0
 10
89.77231132082865
 20
-145.3268760747792
 30
0.0
 10
89.77231132082865
 20
-145.3268760747792
 30
0.0
 10
70.77226513889354
 20
-145.3237716303356
 30
0.0
 10
70.77226513889354
 20
-145.3237716303356
 30
0.0
 10
70.77226513889354
 20
-145.3237716303356
 30
0.0
 10
69.77214016440885
 20
-145.3268760747792
 30
0.0
 10
69.77214016440885
 20
-144.3267510750295
 30
0.0
 10
69.77214016440885
 20
-144.3267510750295
 30
0.0
 10
69.77214016440885
 20
-125.323282468669
 30
0.0
 10
69.77214016440885
 20
-125.323282468669
 30
0.0
 10
69.77214016440885
 20
-125.323282468669
 30
0.0
 10
73.77225200680193
 20
-125.323282468669
 30
0.0
 10
73.77225200680193
 20
-125.323282468669
 30
0.0
  0
HATCH
  5
42
330
1F
100
AcDbEntity
  8
_U+30EC_U+30A4_U+30E4_U+30FC 1
 62
   253
420
 10855845
100
AcDbHatch
 10
0.0
 20
0.0
 30
0.0
210
0.0
220
0.0
230
1.0
  2
SOLID
 70
     1
 71
     0
 91
        1
 92
        1
 93
        1
 72
     4
 94
        3
 73
     0
 74
     1
 95
       77
 96
       73
 40
0.0
 40
0.0
 40
0.0
 40
0.0
 40
1.0
 40
1.0
 40
1.0
 40
2.0
 40
2.0
 40
2.0
 40
3.0
 40
3.0
 40
3.0
 40
4.0
 40
4.0
 40
4.0
 40
5.0
 40
5.0
 40
5.0
 40
6.0
 40
6.0
 40
6.0
 40
7.0
 40
7.0
 40
7.0
 40
8.0
 40
8.0
 40
8.0
 40
9.0
 40
9.0
 40
9.0
 40
10.0
 40
10.0
 40
10.0
 40
11.0
 40
11.0
 40
11.0
 40
12.0
 40
12.0
 40
12.0
 40
13.0
 40
13.0
 40
13.0
 40
14.0
 40
14.0
 40
14.0
 40
15.0
 40
15.0
 40
15.0
 40
16.0
 40
16.0
 40
16.0
 40
17.0
 40
17.0
 40
17.0
 40
18.0
 40
18.0
 40
18.0
 40
19.0
 40
19.0
 40
19.0
 40
20.0
 40
20.0
 40
20.0
 40
21.0
 40
21.0
 40
21.0
 40
22.0
 40
22.0
 40
22.0
 40
23.0
 40
23.0
 40
23.0
 40
24.0
 40
24.0
 40
24.0
 40
24.0
 10
73.77225200680193
 20
-125.323282468669
 10
73.77225200680193
 20
-125.3234588575579
 10
73.77225200680193
 20
-122.3246713583076
 10
73.77225200680193
 20
-122.3246713583076
 10
73.77225200680193
 20
-122.3246713583076
 10
79.7722277578348
 20
-122.3246713583076
 10
79.7722277578348
 20
-122.3246713583076
 10
79.7722277578348
 20
-122.3246713583076
 10
79.7722277578348
 20
-105.3196535847811
 10
79.7722277578348
 20
-105.3196535847811
 10
79.7722277578348
 20
-105.3196535847811
 10
80.77231543932656
 20
-105.3196535847811
 10
80.77231543932656
 20
-105.3196535847811
 10
80.77231543932656
 20
-105.3196535847811
 10
80.77231543932656
 20
-123.3323458025003
 10
80.77231543932656
 20
-123.3323458025003
 10
80.77231543932656
 20
-123.3323458025003
 10
74.77234170350975
 20
-123.3325221913892
 10
74.77234170350975
 20
-123.3325221913892
 10
74.77234170350975
 20
-123.3325221913892
 10
74.77234170350975
 20
-126.3326855239724
 10
74.77234170350975
 20
-126.3326855239724
 10
74.77234170350975
 20
-126.3326855239724
 10
70.77706291654891
 20
-126.3325091350835
 10
70.77706291654891
 20
-126.3325091350835
 10
70.77706291654891
 20
-126.3325091350835
 10
70.77706291654891
 20
-143.3731574641565
 10
70.77706291654891
 20
-143.3731574641565
 10
70.77706291654891
 20
-143.3731574641565
 10
70.64614708655553
 20
-144.3267510750295
 10
71.5639337298075
 20
-144.3267510750295
 10
71.5639337298075
 20
-144.3267510750295
 10
88.77218634634396
 20
-144.3267510750295
 10
88.77218634634396
 20
-144.3267510750295
 10
88.77218634634396
 20
-144.3267510750295
 10
88.77218634634396
 20
-140.3269919093626
 10
88.77218634634396
 20
-140.3269919093626
 10
88.77218634634396
 20
-140.3269919093626
 10
91.77217321425236
 20
-140.3269919093626
 10
91.77217321425236
 20
-140.3269919093626
 10
91.77217321425236
 20
-140.3269919093626
 10
91.77217321425236
 20
-134.3270180219739
 10
91.77217321425236
 20
-134.3270180219739
 10
91.77217321425236
 20
-134.3270180219739
 10
109.7686724773456
 20
-134.3270180219739
 10
109.7686724773456
 20
-134.3270180219739
 10
109.7686724773456
 20
-134.3270180219739
 10
109.7686724773456
 20
-135.3267902439458
 10
109.7686724773456
 20
-135.3267902439458
 10
109.7686724773456
 20
-135.3267902439458
 10
92.77229818873705
 20
-135.3267902439458
 10
92.77229818873705
 20
-135.3267902439458
 10
92.77229818873705
 20
-135.3267902439458
 10
92.77229818873705
 20
-141.3267641313352
 10
92.77229818873705
 20
-141.3267641313352
 10
92.77229818873705
 20
-141.3267641313352
 10
89.77231132082865
 20
-141.3267641313352
 10
89.77231132082865
 20
-141.3267641313352
 10
89.77231132082865
 20
-141.3267641313352
 10
89.77231132082865
 20
-145.3268760747792
 10
89.77231132082865
 20
-145.3268760747792
 10
89.77231132082865
 20
-145.3268760747792
 10
70.77226513889354
 20
-145.3237716303356
 10
70.77226513889354
 20
-145.3237716303356
 10
70.77226513889354
 20
-145.3237716303356
 10
69.77214016440885
 20
-145.3268760747792
 10
69.77214016440885
 20
-144.3267510750295
 10
69.77214016440885
 20
-144.3267510750295
 10
69.77214016440885
 20
-125.323282468669
 10
69.77214016440885
 20
-125.323282468669
 10
69.77214016440885
 20
-125.323282468669
 10
73.77225200680193
 20
-125.323282468669
 10
73.77225200680193
 20
-125.323282468669
 97
        0
 97
        0
 75
     2
 76
     1
 98
        0
  0
POLYLINE
  5
43
330
1F
100
AcDbEntity
  8
_U+30EC_U+30A4_U+30E4_U+30FC 1
 62
     7
420
 16777215
370
     9
100
AcDb2dPolyline
 66
     1
 10
0.0
 20
0.0
 30
0.0
  0
VERTEX
  5
44
330
43
100
AcDbEntity
  8
_U+30EC_U+30A4_U+30E4_U+30FC 1
 62
     7
420
 16777215
370
     9
100
AcDbVertex
100
AcDb2dVertex
 10
65.97117137249076
 20
-125.0984924687255
 30
0.0
  0
VERTEX
  5
45
330
43
100
AcDbEntity
  8
_U+30EC_U+30A4_U+30E4_U+30FC 1
 62
     7
420
 16777215
370
     9
100
AcDbVertex
100
AcDb2dVertex
 10
65.97117137249076
 20
-105.3196535847811
 30
0.0
  0
SEQEND
  5
46
330
43
100
AcDbEntity
  8
_U+30EC_U+30A4_U+30E4_U+30FC 1
 62
     7
420
 16777215
370
     9
  0
POLYLINE
  5
47
330
1F
100
AcDbEntity
  8
_U+30EC_U+30A4_U+30E4_U+30FC 1
 62
     7
420
 16777215
370
     9
100
AcDb2dPolyline
 66
     1
 10
0.0
 20
0.0
 30
0.0
  0
VERTEX
  5
48
330
47
100
AcDbEntity
  8
_U+30EC_U+30A4_U+30E4_U+30FC 1
 62
     7
420
 16777215
370
     9
100
AcDbVertex
100
AcDb2dVertex
 10
65.97117137249076
 20
-145.3213727414476
 30
0.0
  0
VERTEX
  5
49
330
47
100
AcDbEntity
  8
_U+30EC_U+30A4_U+30E4_U+30FC 1
 62
     7
420
 16777215
370
     9
100
AcDbVertex
100
AcDb2dVertex
 10
65.97117137249076
 20
-125.3484355242185
 30
0.0
  0
SEQEND
  5
4A
330
47
100
AcDbEntity
  8
_U+30EC_U+30A4_U+30E4_U+30FC 1
 62
     7
420
 16777215
370
     9
  0
POLYLINE
  5
4B
330
1F
100
AcDbEntity
  8
_U+30EC_U+30A4_U+30E4_U+30FC 1
 62
     7
420
 16777215
370
     9
100
AcDb2dPolyline
 66
     1
 10
0.0
 20
0.0
 30
0.0
  0
VERTEX
  5
4C
330
4B
100
AcDbEntity
  8
_U+30EC_U+30A4_U+30E4_U+30FC 1
 62
     7
420
 16777215
370
     9
100
AcDbVertex
100
AcDb2dVertex
 10
68.01410743148223
 20
-145.3213727414476
 30
0.0
  0
VERTEX
  5
4D
330
4B
100
AcDbEntity
  8
_U+30EC_U+30A4_U+30E4_U+30FC 1
 62
     7
420
 16777215
370
     9
100
AcDbVertex
100
AcDb2dVertex
 10
64.98103000886248
 20
-145.3213727414476
 30
0.0
  0
SEQEND
  5
4E
330
4B
100
AcDbEntity
  8
_U+30EC_U+30A4_U+30E4_U+30FC 1
 62
     7
420
 16777215
370
     9
  0
POLYLINE
  5
4F
330
1F
100
AcDbEntity
  8
_U+30EC_U+30A4_U+30E4_U+30FC 1
 62
     7
420
 16777215
370
     9
100
AcDb2dPolyline
 66
     1
 10
0.0
 20
0.0
 30
0.0
  0
VERTEX
  5
50
330
4F
100
AcDbEntity
  8
_U+30EC_U+30A4_U+30E4_U+30FC 1
 62
     7
420
 16777215
370
     9
100
AcDbVertex
100
AcDb2dVertex
 10
117.0054145149432
 20
-145.3268760747792
 30
0.0
  0
VERTEX
  5
51
330
4F
100
AcDbEntity
  8
_U+30EC_U+30A4_U+30E4_U+30FC 1
 62
     7
420
 16777215
370
     9
100
AcDbVertex
100
AcDb2dVertex
 10
90.97083851247389
 20
-145.3268760747792
 30
0.0
  0
SEQEND
  5
52
330
4F
100
AcDbEntity
  8
_U+30EC_U+30A4_U+30E4_U+30FC 1
 62
     7
420
 16777215
370
     9
  0
POLYLINE
  5
53
330
1F
100
AcDbEntity
  8
_U+30EC_U+30A4_U+30E4_U+30FC 1
 62
     7
420
 16777215
370
     9
100
AcDb2dPolyline
 66
     1
 10
0.0
 20
0.0
 30
0.0
  0
VERTEX
  5
54
330
53
100
AcDbEntity
  8
_U+30EC_U+30A4_U+30E4_U+30FC 1
 62
     7
420
 16777215
370
     9
100
AcDbVertex
100
AcDb2dVertex
 10
117.0054145149432
 20
-135.3798480217105
 30
0.0
  0
VERTEX
  5
55
330
53
100
AcDbEntity
  8
_U+30EC_U+30A4_U+30E4_U+30FC 1
 62
     7
420
 16777215
370
     9
100
AcDbVertex
100
AcDb2dVertex
 10
110.8170249722959
 20
-135.3798480217105
 30
0.0
  0
SEQEND
  5
56
330
53
100
AcDbEntity
  8
_U+30EC_U+30A4_U+30E4_U+30FC 1
 62
     7
420
 16777215
370
     9
  0
POLYLINE
  5
57
330
1F
100
AcDbEntity
  8
_U+30EC_U+30A4_U+30E4_U+30FC 1
 62
     7
420
 16777215
370
     9
100
AcDb2dPolyline
 66
     1
 10
0.0
 20
0.0
 30
0.0
  0
VERTEX
  5
58
330
57
100
AcDbEntity
  8
_U+30EC_U+30A4_U+30E4_U+30FC 1
 62
     7
420
 16777215
370
     9
100
AcDbVertex
100
AcDb2dVertex
 10
117.0054145149432
 20
-134.3314982997503
 30
0.0
  0
VERTEX
  5
59
330
57
100
AcDbEntity
  8
_U+30EC_U+30A4_U+30E4_U+30FC 1
 62
     7
420
 16777215
370
     9
100
AcDbVertex
100
AcDb2dVertex
 10
110.8170249722959
 20
-134.3314982997503
 30
0.0
  0
SEQEND
  5
5A
330
57
100
AcDbEntity
  8
_U+30EC_U+30A4_U+30E4_U+30FC 1
 62
     7
420
 16777215
370
     9
  0
POLYLINE
  5
5B
330
1F
100
AcDbEntity
  8
_U+30EC_U+30A4_U+30E4_U+30FC 1
 62
     7
420
 16777215
370
     9
100
AcDb2dPolyline
 66
     1
 10
0.0
 20
0.0
 30
0.0
  0
VERTEX
  5
5C
330
5B
100
AcDbEntity
  8
_U+30EC_U+30A4_U+30E4_U+30FC 1
 62
     7
420
 16777215
370
     9
100
AcDbVertex
100
AcDb2dVertex
 10
67.81394132547778
 20
-125.323282468669
 30
0.0
  0
VERTEX
  5
5D
330
5B
100
AcDbEntity
  8
_U+30EC_U+30A4_U+30E4_U+30FC 1
 62
     7
420
 16777215
370
     9
100
AcDbVertex
100
AcDb2dVertex
 10
64.98103000886248
 20
-125.323282468669
 30
0.0
  0
SEQEND
  5
5E
330
5B
100
AcDbEntity
  8
_U+30EC_U+30A4_U+30E4_U+30FC 1
 62
     7
420
 16777215
370
     9
  0
POLYLINE
  5
5F
330
1F
100
AcDbEntity
  8
_U+30EC_U+30A4_U+30E4_U+30FC 1
 62
     7
420
 16777215
370
     9
100
AcDb2dPolyline
 66
     1
 10
0.0
 20
0.0
 30
0.0
  0
VERTEX
  5
60
330
5F
100
AcDbEntity
  8
_U+30EC_U+30A4_U+30E4_U+30FC 1
 62
     7
420
 16777215
370
     9
100
AcDbVertex
100
AcDb2dVertex
 10
79.18516825759583
 20
-105.3196535847811
 30
0.0
  0
VERTEX
  5
61
330
5F
100
AcDbEntity
  8
_U+30EC_U+30A4_U+30E4_U+30FC 1
 62
     7
420
 16777215
370
     9
100
AcDbVertex
100
AcDb2dVertex
 10
64.98103000886248
 20
-105.3196535847811
 30
0.0
  0
SEQEND
  5
62
330
5F
100
AcDbEntity
  8
_U+30EC_U+30A4_U+30E4_U+30FC 1
 62
     7
420
 16777215
370
     9
  0
INSERT
  5
64
330
1F
100
AcDbEntity
  8
_U+30EC_U+30A4_U+30E4_U+30FC 1
100
AcDbBlockReference
  2
block 2
 10
0.0
 20
0.0
 30
0.0
  0
INSERT
  5
6D
330
1F
100
AcDbEntity
  8
_U+30EC_U+30A4_U+30E4_U+30FC 1
100
AcDbBlockReference
  2
block 3
 10
0.0
 20
0.0
 30
0.0
  0
INSERT
  5
76
330
1F
100
AcDbEntity
  8
_U+30EC_U+30A4_U+30E4_U+30FC 1
100
AcDbBlockReference
  2
block 4
 10
0.0
 20
0.0
 30
0.0
  0
INSERT
  5
8F
330
1F
100
AcDbEntity
  8
_U+30EC_U+30A4_U+30E4_U+30FC 1
100
AcDbBlockReference
  2
block 5
 10
0.0
 20
0.0
 30
0.0
  0
INSERT
  5
95
330
1F
100
AcDbEntity
  8
_U+30EC_U+30A4_U+30E4_U+30FC 1
100
AcDbBlockReference
  2
block 6
 10
0.0
 20
0.0
 30
0.0
  0
INSERT
  5
9D
330
1F
100
AcDbEntity
  8
_U+30EC_U+30A4_U+30E4_U+30FC 1
100
AcDbBlockReference
  2
block 7
 10
0.0
 20
0.0
 30
0.0
  0
POLYLINE
  5
A2
330
1F
100
AcDbEntity
  8
_U+30EC_U+30A4_U+30E4_U+30FC 1
 62
     7
420
 16777215
370
     9
100
AcDb2dPolyline
 66
     1
 10
0.0
 20
0.0
 30
0.0
  0
VERTEX
  5
A3
330
A2
100
AcDbEntity
  8
_U+30EC_U+30A4_U+30E4_U+30FC 1
 62
     7
420
 16777215
370
     9
100
AcDbVertex
100
AcDb2dVertex
 10
115.3889867784039
 20
-145.3268760747792
 30
0.0
  0
VERTEX
  5
A4
330
A2
100
AcDbEntity
  8
_U+30EC_U+30A4_U+30E4_U+30FC 1
 62
     7
420
 16777215
370
     9
100
AcDbVertex
100
AcDb2dVertex
 10
115.3889867784039
 20
-134.2874010775391
 30
0.0
  0
SEQEND
  5
A5
330
A2
100
AcDbEntity
  8
_U+30EC_U+30A4_U+30E4_U+30FC 1
 62
     7
420
 16777215
370
     9
  0
POLYLINE
  5
A6
330
1F
100
AcDbEntity
  8
_U+30EC_U+30A4_U+30E4_U+30FC 1
 62
     7
420
 16777215
370
     9
100
AcDb2dPolyline
 66
     1
 10
0.0
 20
0.0
 30
0.0
  0
VERTEX
  5
A7
330
A6
100
AcDbEntity
  8
_U+30EC_U+30A4_U+30E4_U+30FC 1
 62
     7
420
 16777215
370
     9
100
AcDbVertex
100
AcDb2dVertex
 10
68.98699796221727
 20
-145.8956596857483
 30
0.0
  0
VERTEX
  5
A8
330
A6
100
AcDbEntity
  8
_U+30EC_U+30A4_U+30E4_U+30FC 1
 62
     7
420
 16777215
370
     9
100
AcDbVertex
100
AcDb2dVertex
 10
69.84551794031461
 20
-145.4002538525388
 30
0.0
  0
SEQEND
  5
A9
330
A6
100
AcDbEntity
  8
_U+30EC_U+30A4_U+30E4_U+30FC 1
 62
     7
420
 16777215
370
     9
  0
POLYLINE
  5
AA
330
1F
100
AcDbEntity
  8
_U+30EC_U+30A4_U+30E4_U+30FC 1
 62
     7
420
 16777215
370
     9
100
AcDb2dPolyline
 66
     1
 10
0.0
 20
0.0
 30
0.0
  0
VERTEX
  5
AB
330
AA
100
AcDbEntity
  8
_U+30EC_U+30A4_U+30E4_U+30FC 1
 62
     7
420
 16777215
370
     9
100
AcDbVertex
100
AcDb2dVertex
 10
69.3497610937738
 20
-146.2580682967687
 30
0.0
  0
VERTEX
  5
AC
330
AA
100
AcDbEntity
  8
_U+30EC_U+30A4_U+30E4_U+30FC 1
 62
     7
420
 16777215
370
     9
100
AcDbVertex
100
AcDb2dVertex
 10
69.84551794031461
 20
-145.4002538525388
 30
0.0
  0
SEQEND
  5
AD
330
AA
100
AcDbEntity
  8
_U+30EC_U+30A4_U+30E4_U+30FC 1
 62
     7
420
 16777215
370
     9
  0
POLYLINE
  5
AE
330
1F
100
AcDbEntity
  8
_U+30EC_U+30A4_U+30E4_U+30FC 1
 62
     7
420
 16777215
370
     9
100
AcDb2dPolyline
 66
     1
 10
0.0
 20
0.0
 30
0.0
  0
VERTEX
  5
AF
330
AE
100
AcDbEntity
  8
_U+30EC_U+30A4_U+30E4_U+30FC 1
 62
     7
420
 16777215
370
     9
100
AcDbVertex
100
AcDb2dVertex
 10
66.41214358346284
 20
-148.8332755183474
 30
0.0
  0
VERTEX
  5
B0
330
AE
100
AcDbEntity
  8
_U+30EC_U+30A4_U+30E4_U+30FC 1
 62
     7
420
 16777215
370
     9
100
AcDbVertex
100
AcDb2dVertex
 10
69.84551794031461
 20
-145.4002538525388
 30
0.0
  0
SEQEND
  5
B1
330
AE
100
AcDbEntity
  8
_U+30EC_U+30A4_U+30E4_U+30FC 1
 62
     7
420
 16777215
370
     9
  0
INSERT
  5
B3
330
1F
100
AcDbEntity
  8
_U+30EC_U+30A4_U+30E4_U+30FC 1
100
AcDbBlockReference
  2
block 8
 10
0.0
 20
0.0
 30
0.0
  0
SPLINE
  5
BB
330
1F
100
AcDbEntity
  8
_U+30EC_U+30A4_U+30E4_U+30FC 1
 62
     7
420
 16777215
370
     9
100
AcDbSpline
210
0.0
220
0.0
230
1.0
 70
    11
 71
     3
 72
    17
 73
    13
 74
     0
 42
0.0000000001
 43
0.0000000001
 12
1.0
 22
0.0
 32
0.0
 13
1.0
 23
0.0
 33
0.0
 40
0.0
 40
0.0
 40
0.0
 40
0.0
 40
1.0
 40
1.0
 40
1.0
 40
2.0
 40
2.0
 40
2.0
 40
3.0
 40
3.0
 40
3.0
 40
4.0
 40
4.0
 40
4.0
 40
4.0
 10
66.07453525874261
 20
-105.3191596958923
 30
0.0
 10
66.07453525874261
 20
-105.2585171959077
 30
0.0
 10
66.02525220444437
 20
-105.209269418142
 30
0.0
 10
65.96496248376027
 20
-105.209269418142
 30
0.0
 10
65.90400248531549
 20
-105.209269418142
 30
0.0
 10
65.85471943101724
 20
-105.2585171959077
 30
0.0
 10
65.85471943101724
 20
-105.3191596958923
 30
0.0
 10
65.85471943101724
 20
-105.3801196958771
 30
0.0
 10
65.90400248531549
 20
-105.4294027514203
 30
0.0
 10
65.96496248376027
 20
-105.4294027514203
 30
0.0
 10
66.02525220444437
 20
-105.4294027514203
 30
0.0
 10
66.07453525874261
 20
-105.3801196958771
 30
0.0
 10
66.07453525874261
 20
-105.3191596958923
 30
0.0
  0
SPLINE
  5
BC
330
1F
100
AcDbEntity
  8
_U+30EC_U+30A4_U+30E4_U+30FC 1
 62
     7
420
 16777215
370
     9
100
AcDbSpline
210
0.0
220
0.0
230
1.0
 70
    11
 71
     3
 72
    17
 73
    13
 74
     0
 42
0.0000000001
 43
0.0000000001
 12
1.0
 22
0.0
 32
0.0
 13
1.0
 23
0.0
 33
0.0
 40
0.0
 40
0.0
 40
0.0
 40
0.0
 40
1.0
 40
1.0
 40
1.0
 40
2.0
 40
2.0
 40
2.0
 40
3.0
 40
3.0
 40
3.0
 40
4.0
 40
4.0
 40
4.0
 40
4.0
 10
66.09517275821611
 20
-125.3163680242265
 30
0.0
 10
66.09517275821611
 20
-125.2557608020194
 30
0.0
 10
66.04627775946352
 20
-125.2064777464762
 30
0.0
 10
65.98528248324186
 20
-125.2064777464762
 30
0.0
 10
65.92464165018536
 20
-125.2064777464762
 30
0.0
 10
65.87539220826763
 20
-125.2557608020194
 30
0.0
 10
65.87539220826763
 20
-125.3163680242265
 30
0.0
 10
65.87539220826763
 20
-125.3780335797665
 30
0.0
 10
65.92464165018536
 20
-125.4269638575322
 30
0.0
 10
65.98528248324186
 20
-125.4269638575322
 30
0.0
 10
66.04627775946352
 20
-125.4269638575322
 30
0.0
 10
66.09517275821611
 20
-125.3780335797665
 30
0.0
 10
66.09517275821611
 20
-125.3163680242265
 30
0.0
  0
POLYLINE
  5
BD
330
1F
100
AcDbEntity
  8
_U+30EC_U+30A4_U+30E4_U+30FC 1
 62
     7
420
 16777215
370
     9
100
AcDb2dPolyline
 66
     1
 10
0.0
 20
0.0
 30
0.0
  0
VERTEX
  5
BE
330
BD
100
AcDbEntity
  8
_U+30EC_U+30A4_U+30E4_U+30FC 1
 62
     7
420
 16777215
370
     9
100
AcDbVertex
100
AcDb2dVertex
 10
72.27188815619053
 20
-122.3246713583076
 30
0.0
  0
VERTEX
  5
BF
330
BD
100
AcDbEntity
  8
_U+30EC_U+30A4_U+30E4_U+30FC 1
 62
     7
420
 16777215
370
     9
100
AcDbVertex
100
AcDb2dVertex
 10
64.98103000886248
 20
-122.3246713583076
 30
0.0
  0
SEQEND
  5
C0
330
BD
100
AcDbEntity
  8
_U+30EC_U+30A4_U+30E4_U+30FC 1
 62
     7
420
 16777215
370
     9
  0
SPLINE
  5
C1
330
1F
100
AcDbEntity
  8
_U+30EC_U+30A4_U+30E4_U+30FC 1
 62
     7
420
 16777215
370
     9
100
AcDbSpline
210
0.0
220
0.0
230
1.0
 70
    11
 71
     3
 72
    17
 73
    13
 74
     0
 42
0.0000000001
 43
0.0000000001
 12
1.0
 22
0.0
 32
0.0
 13
1.0
 23
0.0
 33
0.0
 40
0.0
 40
0.0
 40
0.0
 40
0.0
 40
1.0
 40
1.0
 40
1.0
 40
2.0
 40
2.0
 40
2.0
 40
3.0
 40
3.0
 40
3.0
 40
4.0
 40
4.0
 40
4.0
 40
4.0
 10
66.09517275821611
 20
-122.317756913865
 30
0.0
 10
66.09517275821611
 20
-122.2571496916579
 30
0.0
 10
66.04627775946352
 20
-122.2078666361148
 30
0.0
 10
65.98528248324186
 20
-122.2078666361148
 30
0.0
 10
65.92464165018536
 20
-122.2078666361148
 30
0.0
 10
65.87539220826763
 20
-122.2571496916579
 30
0.0
 10
65.87539220826763
 20
-122.317756913865
 30
0.0
 10
65.87539220826763
 20
-122.3794224694051
 30
0.0
 10
65.92464165018536
 20
-122.4283527471707
 30
0.0
 10
65.98528248324186
 20
-122.4283527471707
 30
0.0
 10
66.04627775946352
 20
-122.4283527471707
 30
0.0
 10
66.09517275821611
 20
-122.3794224694051
 30
0.0
 10
66.09517275821611
 20
-122.317756913865
 30
0.0
  0
SPLINE
  5
C2
330
1F
100
AcDbEntity
  8
_U+30EC_U+30A4_U+30E4_U+30FC 1
 62
     7
420
 16777215
370
     9
100
AcDbSpline
210
0.0
220
0.0
230
1.0
 70
    11
 71
     3
 72
    17
 73
    13
 74
     0
 42
0.0000000001
 43
0.0000000001
 12
1.0
 22
0.0
 32
0.0
 13
1.0
 23
0.0
 33
0.0
 40
0.0
 40
0.0
 40
0.0
 40
0.0
 40
1.0
 40
1.0
 40
1.0
 40
2.0
 40
2.0
 40
2.0
 40
3.0
 40
3.0
 40
3.0
 40
4.0
 40
4.0
 40
4.0
 40
4.0
 10
66.07453525874261
 20
-145.314458297005
 30
0.0
 10
66.07453525874261
 20
-145.2534982970202
 30
0.0
 10
66.02525220444437
 20
-145.204215241477
 30
0.0
 10
65.96496248376027
 20
-145.204215241477
 30
0.0
 10
65.90400248531549
 20
-145.204215241477
 30
0.0
 10
65.85471943101724
 20
-145.2534982970202
 30
0.0
 10
65.85471943101724
 20
-145.314458297005
 30
0.0
 10
65.85471943101724
 20
-145.3754535747674
 30
0.0
 10
65.90400248531549
 20
-145.4243838525328
 30
0.0
 10
65.96496248376027
 20
-145.4243838525328
 30
0.0
 10
66.02525220444437
 20
-145.4243838525328
 30
0.0
 10
66.07453525874261
 20
-145.3754535747674
 30
0.0
 10
66.07453525874261
 20
-145.314458297005
 30
0.0
  0
SPLINE
  5
C3
330
1F
100
AcDbEntity
  8
_U+30EC_U+30A4_U+30E4_U+30FC 1
 62
     7
420
 16777215
370
     9
100
AcDbSpline
210
0.0
220
0.0
230
1.0
 70
    11
 71
     3
 72
    17
 73
    13
 74
     0
 42
0.0000000001
 43
0.0000000001
 12
1.0
 22
0.0
 32
0.0
 13
1.0
 23
0.0
 33
0.0
 40
0.0
 40
0.0
 40
0.0
 40
0.0
 40
1.0
 40
1.0
 40
1.0
 40
2.0
 40
2.0
 40
2.0
 40
3.0
 40
3.0
 40
3.0
 40
4.0
 40
4.0
 40
4.0
 40
4.0
 10
115.5167981640321
 20
-134.3142827441989
 30
0.0
 10
115.5167981640321
 20
-134.2543457997698
 30
0.0
 10
115.4671976097419
 20
-134.2043924664487
 30
0.0
 10
115.4065551112891
 20
-134.2043924664487
 30
0.0
 10
115.3459126128362
 20
-134.2043924664487
 30
0.0
 10
115.2966648363148
 20
-134.2543457997698
 30
0.0
 10
115.2966648363148
 20
-134.3142827441989
 30
0.0
 10
115.2966648363148
 20
-134.3755955219615
 30
0.0
 10
115.3459126128362
 20
-134.4252313552824
 30
0.0
 10
115.4065551112891
 20
-134.4252313552824
 30
0.0
 10
115.4671976097419
 20
-134.4252313552824
 30
0.0
 10
115.5167981640321
 20
-134.3755955219615
 30
0.0
 10
115.5167981640321
 20
-134.3142827441989
 30
0.0
  0
SPLINE
  5
C4
330
1F
100
AcDbEntity
  8
_U+30EC_U+30A4_U+30E4_U+30FC 1
 62
     7
420
 16777215
370
     9
100
AcDbSpline
210
0.0
220
0.0
230
1.0
 70
    11
 71
     3
 72
    17
 73
    13
 74
     0
 42
0.0000000001
 43
0.0000000001
 12
1.0
 22
0.0
 32
0.0
 13
1.0
 23
0.0
 33
0.0
 40
0.0
 40
0.0
 40
0.0
 40
0.0
 40
1.0
 40
1.0
 40
1.0
 40
2.0
 40
2.0
 40
2.0
 40
3.0
 40
3.0
 40
3.0
 40
4.0
 40
4.0
 40
4.0
 40
4.0
 10
115.5167981640321
 20
-135.3825996883763
 30
0.0
 10
115.5167981640321
 20
-135.3219571883917
 30
0.0
 10
115.4671976097419
 20
-135.2720038550711
 30
0.0
 10
115.4065551112891
 20
-135.2720038550711
 30
0.0
 10
115.3459126128362
 20
-135.2720038550711
 30
0.0
 10
115.2966648363148
 20
-135.3219571883917
 30
0.0
 10
115.2966648363148
 20
-135.3825996883763
 30
0.0
 10
115.2966648363148
 20
-135.4439124661389
 30
0.0
 10
115.3459126128362
 20
-135.4928427439042
 30
0.0
 10
115.4065551112891
 20
-135.4928427439042
 30
0.0
 10
115.4671976097419
 20
-135.4928427439042
 30
0.0
 10
115.5167981640321
 20
-135.4439124661389
 30
0.0
 10
115.5167981640321
 20
-135.3825996883763
 30
0.0
  0
POLYLINE
  5
C5
330
1F
100
AcDbEntity
  8
_U+30EC_U+30A4_U+30E4_U+30FC 1
 62
     7
420
 16777215
370
     9
100
AcDb2dPolyline
 66
     1
 10
0.0
 20
0.0
 30
0.0
  0
VERTEX
  5
C6
330
C5
100
AcDbEntity
  8
_U+30EC_U+30A4_U+30E4_U+30FC 1
 62
     7
420
 16777215
370
     9
100
AcDbVertex
100
AcDb2dVertex
 10
113.4028860827605
 20
-141.3267641313352
 30
0.0
  0
VERTEX
  5
C7
330
C5
100
AcDbEntity
  8
_U+30EC_U+30A4_U+30E4_U+30FC 1
 62
     7
420
 16777215
370
     9
100
AcDbVertex
100
AcDb2dVertex
 10
94.09002898845226
 20
-141.3267641313352
 30
0.0
  0
SEQEND
  5
C8
330
C5
100
AcDbEntity
  8
_U+30EC_U+30A4_U+30E4_U+30FC 1
 62
     7
420
 16777215
370
     9
  0
POLYLINE
  5
C9
330
1F
100
AcDbEntity
  8
_U+30EC_U+30A4_U+30E4_U+30FC 1
 62
     7
420
 16777215
370
     9
100
AcDb2dPolyline
 66
     1
 10
0.0
 20
0.0
 30
0.0
  0
VERTEX
  5
CA
330
C9
100
AcDbEntity
  8
_U+30EC_U+30A4_U+30E4_U+30FC 1
 62
     7
420
 16777215
370
     9
100
AcDbVertex
100
AcDb2dVertex
 10
111.7878313147215
 20
-145.3268760747792
 30
0.0
  0
VERTEX
  5
CB
330
C9
100
AcDbEntity
  8
_U+30EC_U+30A4_U+30E4_U+30FC 1
 62
     7
420
 16777215
370
     9
100
AcDbVertex
100
AcDb2dVertex
 10
111.7878313147215
 20
-141.3271169091129
 30
0.0
  0
SEQEND
  5
CC
330
C9
100
AcDbEntity
  8
_U+30EC_U+30A4_U+30E4_U+30FC 1
 62
     7
420
 16777215
370
     9
  0
SPLINE
  5
CD
330
1F
100
AcDbEntity
  8
_U+30EC_U+30A4_U+30E4_U+30FC 1
 62
     7
420
 16777215
370
     9
100
AcDbSpline
210
0.0
220
0.0
230
1.0
 70
    11
 71
     3
 72
    17
 73
    13
 74
     0
 42
0.0000000001
 43
0.0000000001
 12
1.0
 22
0.0
 32
0.0
 13
1.0
 23
0.0
 33
0.0
 40
0.0
 40
0.0
 40
0.0
 40
0.0
 40
1.0
 40
1.0
 40
1.0
 40
2.0
 40
2.0
 40
2.0
 40
3.0
 40
3.0
 40
3.0
 40
4.0
 40
4.0
 40
4.0
 40
4.0
 10
111.9156427003496
 20
-141.3295157980009
 30
0.0
 10
111.9156427003496
 20
-141.2689085757938
 30
0.0
 10
111.8660421460595
 20
-141.2192727424729
 30
0.0
 10
111.8053996476066
 20
-141.2192727424729
 30
0.0
 10
111.7447571491537
 20
-141.2192727424729
 30
0.0
 10
111.6955093726324
 20
-141.2689085757938
 30
0.0
 10
111.6955093726324
 20
-141.3295157980009
 30
0.0
 10
111.6955093726324
 20
-141.390863853541
 30
0.0
 10
111.7447571491537
 20
-141.4397588535289
 30
0.0
 10
111.8053996476066
 20
-141.4397588535289
 30
0.0
 10
111.8660421460595
 20
-141.4397588535289
 30
0.0
 10
111.9156427003496
 20
-141.390863853541
 30
0.0
 10
111.9156427003496
 20
-141.3295157980009
 30
0.0
  0
SPLINE
  5
CE
330
1F
100
AcDbEntity
  8
_U+30EC_U+30A4_U+30E4_U+30FC 1
 62
     7
420
 16777215
370
     9
100
AcDbSpline
210
0.0
220
0.0
230
1.0
 70
    11
 71
     3
 72
    17
 73
    13
 74
     0
 42
0.0000000001
 43
0.0000000001
 12
1.0
 22
0.0
 32
0.0
 13
1.0
 23
0.0
 33
0.0
 40
0.0
 40
0.0
 40
0.0
 40
0.0
 40
1.0
 40
1.0
 40
1.0
 40
2.0
 40
2.0
 40
2.0
 40
3.0
 40
3.0
 40
3.0
 40
4.0
 40
4.0
 40
4.0
 40
4.0
 10
115.5167981640321
 20
-145.3268760747792
 30
0.0
 10
115.5167981640321
 20
-145.2658807970168
 30
0.0
 10
115.4671976097419
 20
-145.2169857970289
 30
0.0
 10
115.4065551112891
 20
-145.2169857970289
 30
0.0
 10
115.3459126128362
 20
-145.2169857970289
 30
0.0
 10
115.2966648363148
 20
-145.2658807970168
 30
0.0
 10
115.2966648363148
 20
-145.3268760747792
 30
0.0
 10
115.2966648363148
 20
-145.387836074764
 30
0.0
 10
115.3459126128362
 20
-145.4371191303071
 30
0.0
 10
115.4065551112891
 20
-145.4371191303071
 30
0.0
 10
115.4671976097419
 20
-145.4371191303071
 30
0.0
 10
115.5167981640321
 20
-145.387836074764
 30
0.0
 10
115.5167981640321
 20
-145.3268760747792
 30
0.0
  0
SPLINE
  5
CF
330
1F
100
AcDbEntity
  8
_U+30EC_U+30A4_U+30E4_U+30FC 1
 62
     7
420
 16777215
370
     9
100
AcDbSpline
210
0.0
220
0.0
230
1.0
 70
    11
 71
     3
 72
    17
 73
    13
 74
     0
 42
0.0000000001
 43
0.0000000001
 12
1.0
 22
0.0
 32
0.0
 13
1.0
 23
0.0
 33
0.0
 40
0.0
 40
0.0
 40
0.0
 40
0.0
 40
1.0
 40
1.0
 40
1.0
 40
2.0
 40
2.0
 40
2.0
 40
3.0
 40
3.0
 40
3.0
 40
4.0
 40
4.0
 40
4.0
 40
4.0
 10
111.9156427003496
 20
-145.3268760747792
 30
0.0
 10
111.9156427003496
 20
-145.2658807970168
 30
0.0
 10
111.8660421460595
 20
-145.2169857970289
 30
0.0
 10
111.8053996476066
 20
-145.2169857970289
 30
0.0
 10
111.7447571491537
 20
-145.2169857970289
 30
0.0
 10
111.6955093726324
 20
-145.2658807970168
 30
0.0
 10
111.6955093726324
 20
-145.3268760747792
 30
0.0
 10
111.6955093726324
 20
-145.387836074764
 30
0.0
 10
111.7447571491537
 20
-145.4371191303071
 30
0.0
 10
111.8053996476066
 20
-145.4371191303071
 30
0.0
 10
111.8660421460595
 20
-145.4371191303071
 30
0.0
 10
111.9156427003496
 20
-145.387836074764
 30
0.0
 10
111.9156427003496
 20
-145.3268760747792
 30
0.0
  0
SPLINE
  5
D0
330
1F
100
AcDbEntity
  8
_U+30EC_U+30A4_U+30E4_U+30FC 1
 62
     7
420
 16777215
370
    25
100
AcDbSpline
210
0.0
220
0.0
230
1.0
 70
    11
 71
     3
 72
    77
 73
    73
 74
     0
 42
0.0000000001
 43
0.0000000001
 12
1.0
 22
0.0
 32
0.0
 13
1.0
 23
0.0
 33
0.0
 40
0.0
 40
0.0
 40
0.0
 40
0.0
 40
1.0
 40
1.0
 40
1.0
 40
2.0
 40
2.0
 40
2.0
 40
3.0
 40
3.0
 40
3.0
 40
4.0
 40
4.0
 40
4.0
 40
5.0
 40
5.0
 40
5.0
 40
6.0
 40
6.0
 40
6.0
 40
7.0
 40
7.0
 40
7.0
 40
8.0
 40
8.0
 40
8.0
 40
9.0
 40
9.0
 40
9.0
 40
10.0
 40
10.0
 40
10.0
 40
11.0
 40
11.0
 40
11.0
 40
12.0
 40
12.0
 40
12.0
 40
13.0
 40
13.0
 40
13.0
 40
14.0
 40
14.0
 40
14.0
 40
15.0
 40
15.0
 40
15.0
 40
16.0
 40
16.0
 40
16.0
 40
17.0
 40
17.0
 40
17.0
 40
18.0
 40
18.0
 40
18.0
 40
19.0
 40
19.0
 40
19.0
 40
20.0
 40
20.0
 40
20.0
 40
21.0
 40
21.0
 40
21.0
 40
22.0
 40
22.0
 40
22.0
 40
23.0
 40
23.0
 40
23.0
 40
24.0
 40
24.0
 40
24.0
 40
24.0
 10
73.77256950679384
 20
-125.3268808020017
 30
0.0
 10
73.77256950679384
 20
-125.3268808020017
 30
0.0
 10
73.77256950679384
 20
-122.3287988583066
 30
0.0
 10
73.77256950679384
 20
-122.3287988583066
 30
0.0
 10
73.77256950679384
 20
-122.3287988583066
 30
0.0
 10
79.7732487981482
 20
-122.3287988583066
 30
0.0
 10
79.7732487981482
 20
-122.3287988583066
 30
0.0
 10
79.7732487981482
 20
-122.3287988583066
 30
0.0
 10
79.7732487981482
 20
-105.3269208070018
 30
0.0
 10
79.7732487981482
 20
-105.3269208070018
 30
0.0
 10
79.7732487981482
 20
-105.3269208070018
 30
0.0
 10
80.7733737726329
 20
-105.3269208070018
 30
0.0
 10
80.7733737726329
 20
-105.3269208070018
 30
0.0
 10
80.7733737726329
 20
-105.3269208070018
 30
0.0
 10
80.7733737726329
 20
-123.3362969136104
 30
0.0
 10
80.7733737726329
 20
-123.3362969136104
 30
0.0
 10
80.7733737726329
 20
-123.3362969136104
 30
0.0
 10
74.77269448127853
 20
-123.3364733024993
 30
0.0
 10
74.77269448127853
 20
-123.3364733024993
 30
0.0
 10
74.77269448127853
 20
-123.3364733024993
 30
0.0
 10
74.77269448127853
 20
-126.3361427461937
 30
0.0
 10
74.77269448127853
 20
-126.3361427461937
 30
0.0
 10
74.77269448127853
 20
-126.3361427461937
 30
0.0
 10
70.77706291654891
 20
-126.3359663573048
 30
0.0
 10
70.77706291654891
 20
-126.3359663573048
 30
0.0
 10
70.77706291654891
 20
-126.3359663573048
 30
0.0
 10
70.77706291654891
 20
-143.3731574641565
 30
0.0
 10
70.77706291654891
 20
-143.3731574641565
 30
0.0
 10
70.77706291654891
 20
-143.3731574641565
 30
0.0
 10
70.64614708655553
 20
-144.3271038528073
 30
0.0
 10
71.5639337298075
 20
-144.3271038528073
 30
0.0
 10
71.5639337298075
 20
-144.3271038528073
 30
0.0
 10
88.77391495741097
 20
-144.3271038528073
 30
0.0
 10
88.77391495741097
 20
-144.3271038528073
 30
0.0
 10
88.77391495741097
 20
-144.3271038528073
 30
0.0
 10
88.77391495741097
 20
-140.3276974649181
 30
0.0
 10
88.77391495741097
 20
-140.3276974649181
 30
0.0
 10
88.77391495741097
 20
-140.3276974649181
 30
0.0
 10
91.77425460308815
 20
-140.3276974649181
 30
0.0
 10
91.77425460308815
 20
-140.3276974649181
 30
0.0
 10
91.77425460308815
 20
-140.3276974649181
 30
0.0
 10
91.77425460308815
 20
-134.3287466330846
 30
0.0
 10
91.77425460308815
 20
-134.3287466330846
 30
0.0
 10
91.77425460308815
 20
-134.3287466330846
 30
0.0
 10
109.7720971947795
 20
-134.3287466330846
 30
0.0
 10
109.7720971947795
 20
-134.3287466330846
 30
0.0
 10
109.7720971947795
 20
-134.3287466330846
 30
0.0
 10
109.7720971947795
 20
-135.3285188550565
 30
0.0
 10
109.7720971947795
 20
-135.3285188550565
 30
0.0
 10
109.7720971947795
 20
-135.3285188550565
 30
0.0
 10
92.77434429979596
 20
-135.3285188550565
 30
0.0
 10
92.77434429979596
 20
-135.3285188550565
 30
0.0
 10
92.77434429979596
 20
-135.3285188550565
 30
0.0
 10
92.77434429979596
 20
-141.3274696868907
 30
0.0
 10
92.77434429979596
 20
-141.3274696868907
 30
0.0
 10
92.77434429979596
 20
-141.3274696868907
 30
0.0
 10
89.77400465411878
 20
-141.3274696868907
 30
0.0
 10
89.77400465411878
 20
-141.3274696868907
 30
0.0
 10
89.77400465411878
 20
-141.3274696868907
 30
0.0
 10
89.77400465411878
 20
-145.3268760747792
 30
0.0
 10
89.77400465411878
 20
-145.3268760747792
 30
0.0
 10
89.77400465411878
 20
-145.3268760747792
 30
0.0
 10
70.77226513889354
 20
-145.3237716303356
 30
0.0
 10
70.77226513889354
 20
-145.3237716303356
 30
0.0
 10
70.77226513889354
 20
-145.3237716303356
 30
0.0
 10
69.77214016440885
 20
-145.3268760747792
 30
0.0
 10
69.77214016440885
 20
-144.3271038528073
 30
0.0
 10
69.77214016440885
 20
-144.3271038528073
 30
0.0
 10
69.77214016440885
 20
-125.3268808020017
 30
0.0
 10
69.77214016440885
 20
-125.3268808020017
 30
0.0
 10
69.77214016440885
 20
-125.3268808020017
 30
0.0
 10
73.77256950679384
 20
-125.3268808020017
 30
0.0
 10
73.77256950679384
 20
-125.3268808020017
 30
0.0
  0
ENDSEC
  0
SECTION
  2
OBJECTS
  0
DICTIONARY
  5
C
330
0
100
AcDbDictionary
281
     1
  3
ACAD_GROUP
350
D
  3
ACAD_LAYOUT
350
1A
  3
ACAD_MATERIAL
350
3B
  3
ACAD_MLEADERSTYLE
350
D2
  3
ACAD_MLINESTYLE
350
17
  3
ACAD_PLOTSETTINGS
350
19
  3
ACAD_PLOTSTYLENAME
350
E
  3
ACAD_TABLESTYLE
350
D1
  3
ACAD_VISUALSTYLE
350
2A
  0
SUN
  5
3F
330
29
100
AcDbSun
 90
        1
290
     0
 63
     7
421
 16777215
 40
1.0
291
     1
 91
  2455826
 92
 54000000
292
     0
 70
     2
 71
   256
280
     1
  0
DICTIONARY
  5
D
102
{ACAD_REACTORS
330
C
102
}
330
C
100
AcDbDictionary
281
     1
  0
DICTIONARY
  5
1A
102
{ACAD_REACTORS
330
C
102
}
330
C
100
AcDbDictionary
281
     1
  3
Layout1
350
1E
  3
Layout2
350
26
  3
Model
350
22
  0
DICTIONARY
  5
3B
102
{ACAD_REACTORS
330
C
102
}
330
C
100
AcDbDictionary
281
     1
  3
ByBlock
350
3D
  3
ByLayer
350
3C
  3
Global
350
3E
  0
DICTIONARY
  5
D2
102
{ACAD_REACTORS
330
C
102
}
330
C
100
AcDbDictionary
281
     1
  0
DICTIONARY
  5
17
102
{ACAD_REACTORS
330
C
102
}
330
C
100
AcDbDictionary
281
     1
  3
Standard
350
18
  0
DICTIONARY
  5
19
102
{ACAD_REACTORS
330
C
102
}
330
C
100
AcDbDictionary
281
     1
  0
ACDBDICTIONARYWDFLT
  5
E
102
{ACAD_REACTORS
330
C
102
}
330
C
100
AcDbDictionary
281
     1
  3
Normal
350
F
100
AcDbDictionaryWithDefault
340
F
  0
DICTIONARY
  5
D1
102
{ACAD_REACTORS
330
C
102
}
330
C
100
AcDbDictionary
281
     1
  0
DICTIONARY
  5
2A
102
{ACAD_REACTORS
330
C
102
}
330
C
100
AcDbDictionary
281
     1
  3
2dWireframe
350
2F
  3
3D Hidden
350
31
  3
3dWireframe
350
30
  3
Basic
350
32
  3
Brighten
350
36
  3
ColorChange
350
3A
  3
Conceptual
350
34
  3
Dim
350
35
  3
Facepattern
350
39
  3
Flat
350
2B
  3
FlatWithEdges
350
2C
  3
Gouraud
350
2D
  3
GouraudWithEdges
350
2E
  3
Linepattern
350
38
  3
Realistic
350
33
  3
Thicken
350
37
  0
LAYOUT
  5
1E
102
{ACAD_REACTORS
330
1A
102
}
330
1A
100
AcDbPlotSettings
  1

  2
none_device
  4

  6

 40
0.0
 41
0.0
 42
0.0
 43
0.0
 44
0.0
 45
0.0
 46
0.0
 47
0.0
 48
0.0
 49
0.0
140
0.0
141
0.0
142
1.0
143
1.0
 70
   688
 72
     0
 73
     0
 74
     5
  7

 75
    16
 76
     0
 77
     2
 78
   300
147
1.0
148
0.0
149
0.0
100
AcDbLayout
  1
Layout1
 70
     1
 71
     1
 10
0.0
 20
0.0
 11
12.0
 21
9.0
 12
0.0
 22
0.0
 32
0.0
 14
1.000000000000000E+20
 24
1.000000000000000E+20
 34
1.000000000000000E+20
 15
-1.000000000000000E+20
 25
-1.000000000000000E+20
 35
-1.000000000000000E+20
146
0.0
 13
0.0
 23
0.0
 33
0.0
 16
1.0
 26
0.0
 36
0.0
 17
0.0
 27
1.0
 37
0.0
 76
     0
330
1B
  0
LAYOUT
  5
26
102
{ACAD_REACTORS
330
1A
102
}
330
1A
100
AcDbPlotSettings
  1

  2
none_device
  4

  6

 40
0.0
 41
0.0
 42
0.0
 43
0.0
 44
0.0
 45
0.0
 46
0.0
 47
0.0
 48
0.0
 49
0.0
140
0.0
141
0.0
142
1.0
143
1.0
 70
   688
 72
     0
 73
     0
 74
     5
  7

 75
    16
 76
     0
 77
     2
 78
   300
147
1.0
148
0.0
149
0.0
100
AcDbLayout
  1
Layout2
 70
     1
 71
     2
 10
0.0
 20
0.0
 11
0.0
 21
0.0
 12
0.0
 22
0.0
 32
0.0
 14
0.0
 24
0.0
 34
0.0
 15
0.0
 25
0.0
 35
0.0
146
0.0
 13
0.0
 23
0.0
 33
0.0
 16
1.0
 26
0.0
 36
0.0
 17
0.0
 27
1.0
 37
0.0
 76
     0
330
23
  0
LAYOUT
  5
22
102
{ACAD_REACTORS
330
1A
102
}
330
1A
100
AcDbPlotSettings
  1

  2
none_device
  4

  6

 40
0.0
 41
0.0
 42
0.0
 43
0.0
 44
0.0
 45
0.0
 46
0.0
 47
0.0
 48
0.0
 49
0.0
140
0.0
141
0.0
142
1.0
143
1.0
 70
  1712
 72
     0
 73
     0
 74
     0
  7

 75
     0
 76
     0
 77
     2
 78
   300
147
1.0
148
0.0
149
0.0
100
AcDbLayout
  1
Model
 70
     1
 71
     0
 10
0.0
 20
0.0
 11
12.0
 21
9.0
 12
0.0
 22
0.0
 32
0.0
 14
1.000000000000000E+20
 24
1.000000000000000E+20
 34
1.000000000000000E+20
 15
-1.000000000000000E+20
 25
-1.000000000000000E+20
 35
-1.000000000000000E+20
146
0.0
 13
0.0
 23
0.0
 33
0.0
 16
1.0
 26
0.0
 36
0.0
 17
0.0
 27
1.0
 37
0.0
 76
     0
330
1F
331
29
  0
MATERIAL
  5
3D
102
{ACAD_REACTORS
330
3B
102
}
330
3B
100
AcDbMaterial
  1
ByBlock
 72
     1
 94
      127
  0
MATERIAL
  5
3C
102
{ACAD_REACTORS
330
3B
102
}
330
3B
100
AcDbMaterial
  1
ByLayer
 72
     1
 94
      127
  0
MATERIAL
  5
3E
102
{ACAD_REACTORS
330
3B
102
}
330
3B
100
AcDbMaterial
  1
Global
 72
     1
 94
      127
  0
MLINESTYLE
  5
18
102
{ACAD_REACTORS
330
17
102
}
330
17
100
AcDbMlineStyle
  2
Standard
 70
     0
  3

 62
   256
 51
90.0
 52
90.0
 71
     2
 49
0.5
 62
   256
  6
BYLAYER
 49
-0.5
 62
   256
  6
BYLAYER
  0
ACDBPLACEHOLDER
  5
F
102
{ACAD_REACTORS
330
E
102
}
330
E
  0
VISUALSTYLE
  5
2F
102
{ACAD_REACTORS
330
2A
102
}
330
2A
100
AcDbVisualStyle
  2
2dWireframe
 70
     4
177
     2
291
     0
 71
     0
176
     1
 72
     2
176
     1
 73
     0
176
     1
 90
        0
176
     1
 40
-0.6
176
     1
 41
-30.0
176
     1
 62
     5
 63
     7
421
 16777215
176
     1
 74
     1
176
     1
 91
        4
176
     1
 64
     7
176
     1
 65
   257
176
     1
 75
     1
176
     1
175
     1
176
     1
 42
1.0
176
     1
 92
        0
176
     1
 66
   257
176
     1
 43
1.0
176
     1
 76
     1
176
     1
 77
     6
176
     1
 78
     2
176
     1
 67
     7
176
     1
 79
     5
176
     1
170
     0
176
     1
171
     0
176
     1
290
     0
176
     1
 93
        1
176
     1
 44
0.0
176
     1
173
     0
176
     1
  0
VISUALSTYLE
  5
31
102
{ACAD_REACTORS
330
2A
102
}
330
2A
100
AcDbVisualStyle
  2
3D Hidden
 70
     6
177
     2
291
     0
 71
     1
176
     1
 72
     2
176
     1
 73
     2
176
     1
 90
        0
176
     1
 40
-0.6
176
     1
 41
-30.0
176
     1
 62
     5
 63
     7
421
 16777215
176
     1
 74
     2
176
     1
 91
        2
176
     1
 64
     7
176
     1
 65
   257
176
     1
 75
     2
176
     1
175
     1
176
     1
 42
40.0
176
     1
 92
        0
176
     1
 66
   257
176
     1
 43
1.0
176
     1
 76
     1
176
     1
 77
     6
176
     1
 78
     2
176
     1
 67
     7
176
     1
 79
     3
176
     1
170
     0
176
     1
171
     0
176
     1
290
     0
176
     1
 93
        1
176
     1
 44
0.0
176
     1
173
     0
176
     1
  0
VISUALSTYLE
  5
30
102
{ACAD_REACTORS
330
2A
102
}
330
2A
100
AcDbVisualStyle
  2
3dWireframe
 70
     5
177
     2
291
     0
 71
     0
176
     1
 72
     2
176
     1
 73
     0
176
     1
 90
        0
176
     1
 40
-0.6
176
     1
 41
-30.0
176
     1
 62
     5
 63
     7
421
 16777215
176
     1
 74
     1
176
     1
 91
        4
176
     1
 64
     7
176
     1
 65
   257
176
     1
 75
     1
176
     1
175
     1
176
     1
 42
1.0
176
     1
 92
        0
176
     1
 66
   257
176
     1
 43
1.0
176
     1
 76
     1
176
     1
 77
     6
176
     1
 78
     2
176
     1
 67
     7
176
     1
 79
     5
176
     1
170
     0
176
     1
171
     0
176
     1
290
     0
176
     1
 93
        1
176
     1
 44
0.0
176
     1
173
     0
176
     1
  0
VISUALSTYLE
  5
32
102
{ACAD_REACTORS
330
2A
102
}
330
2A
100
AcDbVisualStyle
  2
Basic
 70
     7
177
     2
291
     1
 71
     1
176
     1
 72
     0
176
     1
 73
     1
176
     1
 90
        0
176
     1
 40
-0.6
176
     1
 41
-30.0
176
     1
 62
     5
 63
     7
421
 16777215
176
     1
 74
     0
176
     1
 91
        4
176
     1
 64
     7
176
     1
 65
   257
176
     1
 75
     1
176
     1
175
     1
176
     1
 42
1.0
176
     1
 92
        8
176
     1
 66
     7
176
     1
 43
1.0
176
     1
 76
     1
176
     1
 77
     6
176
     1
 78
     2
176
     1
 67
     7
176
     1
 79
     5
176
     1
170
     0
176
     1
171
     0
176
     1
290
     0
176
     1
 93
        1
176
     1
 44
0.0
176
     1
173
     0
176
     1
  0
VISUALSTYLE
  5
36
102
{ACAD_REACTORS
330
2A
102
}
330
2A
100
AcDbVisualStyle
  2
Brighten
 70
    12
177
     2
291
     1
 71
     2
176
     1
 72
     2
176
     1
 73
     0
176
     1
 90
        0
176
     1
 40
-0.6
176
     1
 41
-30.0
176
     1
 62
     5
 63
     7
421
 16777215
176
     1
 74
     1
176
     1
 91
        4
176
     1
 64
     7
176
     1
 65
   257
176
     1
 75
     1
176
     1
175
     1
176
     1
 42
1.0
176
     1
 92
        8
176
     1
 66
     7
176
     1
 43
1.0
176
     1
 76
     1
176
     1
 77
     6
176
     1
 78
     2
176
     1
 67
     7
176
     1
 79
     5
176
     1
170
     0
176
     1
171
     0
176
     1
290
     0
176
     1
 93
        1
176
     1
 44
50.0
176
     1
173
     0
176
     1
  0
VISUALSTYLE
  5
3A
102
{ACAD_REACTORS
330
2A
102
}
330
2A
100
AcDbVisualStyle
  2
ColorChange
 70
    16
177
     2
291
     1
 71
     2
176
     1
 72
     2
176
     1
 73
     3
176
     1
 90
        0
176
     1
 40
-0.6
176
     1
 41
-30.0
176
     1
 62
     5
 63
     8
421
  8421504
176
     1
 74
     1
176
     1
 91
        4
176
     1
 64
     7
176
     1
 65
   257
176
     1
 75
     1
176
     1
175
     1
176
     1
 42
1.0
176
     1
 92
        8
176
     1
 66
     8
424
  8421504
176
     1
 43
1.0
176
     1
 76
     1
176
     1
 77
     6
176
     1
 78
     2
176
     1
 67
     7
176
     1
 79
     5
176
     1
170
     0
176
     1
171
     0
176
     1
290
     0
176
     1
 93
        1
176
     1
 44
0.0
176
     1
173
     0
176
     1
  0
VISUALSTYLE
  5
34
102
{ACAD_REACTORS
330
2A
102
}
330
2A
100
AcDbVisualStyle
  2
Conceptual
 70
     9
177
     2
291
     0
 71
     3
176
     1
 72
     2
176
     1
 73
     0
176
     1
 90
        0
176
     1
 40
-0.6
176
     1
 41
-30.0
176
     1
 62
     5
 63
     7
421
 16777215
176
     1
 74
     2
176
     1
 91
        2
176
     1
 64
     7
176
     1
 65
   257
176
     1
 75
     1
176
     1
175
     1
176
     1
 42
40.0
176
     1
 92
        8
176
     1
 66
     7
176
     1
 43
1.0
176
     1
 76
     1
176
     1
 77
     6
176
     1
 78
     2
176
     1
 67
     7
176
     1
 79
     3
176
     1
170
     0
176
     1
171
     0
176
     1
290
     0
176
     1
 93
        1
176
     1
 44
0.0
176
     1
173
     0
176
     1
  0
VISUALSTYLE
  5
35
102
{ACAD_REACTORS
330
2A
102
}
330
2A
100
AcDbVisualStyle
  2
Dim
 70
    11
177
     2
291
     1
 71
     2
176
     1
 72
     2
176
     1
 73
     0
176
     1
 90
        0
176
     1
 40
-0.6
176
     1
 41
-30.0
176
     1
 62
     5
 63
     7
421
 16777215
176
     1
 74
     1
176
     1
 91
        4
176
     1
 64
     7
176
     1
 65
   257
176
     1
 75
     1
176
     1
175
     1
176
     1
 42
1.0
176
     1
 92
        8
176
     1
 66
     7
176
     1
 43
1.0
176
     1
 76
     1
176
     1
 77
     6
176
     1
 78
     2
176
     1
 67
     7
176
     1
 79
     5
176
     1
170
     0
176
     1
171
     0
176
     1
290
     0
176
     1
 93
        1
176
     1
 44
-50.0
176
     1
173
     0
176
     1
  0
VISUALSTYLE
  5
39
102
{ACAD_REACTORS
330
2A
102
}
330
2A
100
AcDbVisualStyle
  2
Facepattern
 70
    15
177
     2
291
     1
 71
     2
176
     1
 72
     2
176
     1
 73
     0
176
     1
 90
        0
176
     1
 40
-0.6
176
     1
 41
-30.0
176
     1
 62
     5
 63
     7
421
 16777215
176
     1
 74
     1
176
     1
 91
        4
176
     1
 64
     7
176
     1
 65
   257
176
     1
 75
     1
176
     1
175
     1
176
     1
 42
1.0
176
     1
 92
        8
176
     1
 66
     7
176
     1
 43
1.0
176
     1
 76
     1
176
     1
 77
     6
176
     1
 78
     2
176
     1
 67
     7
176
     1
 79
     5
176
     1
170
     0
176
     1
171
     0
176
     1
290
     0
176
     1
 93
        1
176
     1
 44
0.0
176
     1
173
     0
176
     1
  0
VISUALSTYLE
  5
2B
102
{ACAD_REACTORS
330
2A
102
}
330
2A
100
AcDbVisualStyle
  2
Flat
 70
     0
177
     2
291
     1
 71
     2
176
     1
 72
     1
176
     1
 73
     1
176
     1
 90
        2
176
     1
 40
-0.6
176
     1
 41
30.0
176
     1
 62
     5
 63
     7
421
 16777215
176
     1
 74
     0
176
     1
 91
        4
176
     1
 64
     7
176
     1
 65
   257
176
     1
 75
     1
176
     1
175
     1
176
     1
 42
1.0
176
     1
 92
        8
176
     1
 66
     7
176
     1
 43
1.0
176
     1
 76
     1
176
     1
 77
     6
176
     1
 78
     2
176
     1
 67
     7
176
     1
 79
     5
176
     1
170
     0
176
     1
171
     0
176
     1
290
     0
176
     1
 93
       13
176
     1
 44
0.0
176
     1
173
     0
176
     1
  0
VISUALSTYLE
  5
2C
102
{ACAD_REACTORS
330
2A
102
}
330
2A
100
AcDbVisualStyle
  2
FlatWithEdges
 70
     1
177
     2
291
     1
 71
     2
176
     1
 72
     1
176
     1
 73
     1
176
     1
 90
        2
176
     1
 40
-0.6
176
     1
 41
30.0
176
     1
 62
     5
 63
     7
421
 16777215
176
     1
 74
     1
176
     1
 91
        4
176
     1
 64
     7
176
     1
 65
   257
176
     1
 75
     1
176
     1
175
     1
176
     1
 42
1.0
176
     1
 92
        0
176
     1
 66
   257
176
     1
 43
1.0
176
     1
 76
     1
176
     1
 77
     6
176
     1
 78
     2
176
     1
 67
     7
176
     1
 79
     5
176
     1
170
     0
176
     1
171
     0
176
     1
290
     0
176
     1
 93
       13
176
     1
 44
0.0
176
     1
173
     0
176
     1
  0
VISUALSTYLE
  5
2D
102
{ACAD_REACTORS
330
2A
102
}
330
2A
100
AcDbVisualStyle
  2
Gouraud
 70
     2
177
     2
291
     1
 71
     2
176
     1
 72
     2
176
     1
 73
     1
176
     1
 90
        2
176
     1
 40
-0.6
176
     1
 41
30.0
176
     1
 62
     5
 63
     7
421
 16777215
176
     1
 74
     0
176
     1
 91
        4
176
     1
 64
     7
176
     1
 65
   257
176
     1
 75
     1
176
     1
175
     1
176
     1
 42
1.0
176
     1
 92
        0
176
     1
 66
     7
176
     1
 43
1.0
176
     1
 76
     1
176
     1
 77
     6
176
     1
 78
     2
176
     1
 67
     7
176
     1
 79
     5
176
     1
170
     0
176
     1
171
     0
176
     1
290
     0
176
     1
 93
       13
176
     1
 44
0.0
176
     1
173
     0
176
     1
  0
VISUALSTYLE
  5
2E
102
{ACAD_REACTORS
330
2A
102
}
330
2A
100
AcDbVisualStyle
  2
GouraudWithEdges
 70
     3
177
     2
291
     1
 71
     2
176
     1
 72
     2
176
     1
 73
     1
176
     1
 90
        2
176
     1
 40
-0.6
176
     1
 41
30.0
176
     1
 62
     5
 63
     7
421
 16777215
176
     1
 74
     1
176
     1
 91
        4
176
     1
 64
     7
176
     1
 65
   257
176
     1
 75
     1
176
     1
175
     1
176
     1
 42
1.0
176
     1
 92
        0
176
     1
 66
   257
176
     1
 43
1.0
176
     1
 76
     1
176
     1
 77
     6
176
     1
 78
     2
176
     1
 67
     7
176
     1
 79
     5
176
     1
170
     0
176
     1
171
     0
176
     1
290
     0
176
     1
 93
       13
176
     1
 44
0.0
176
     1
173
     0
176
     1
  0
VISUALSTYLE
  5
38
102
{ACAD_REACTORS
330
2A
102
}
330
2A
100
AcDbVisualStyle
  2
Linepattern
 70
    14
177
     2
291
     1
 71
     2
176
     1
 72
     2
176
     1
 73
     0
176
     1
 90
        0
176
     1
 40
-0.6
176
     1
 41
-30.0
176
     1
 62
     5
 63
     7
421
 16777215
176
     1
 74
     1
176
     1
 91
        4
176
     1
 64
     7
176
     1
 65
   257
176
     1
 75
     7
176
     1
175
     7
176
     1
 42
1.0
176
     1
 92
        8
176
     1
 66
     7
176
     1
 43
1.0
176
     1
 76
     1
176
     1
 77
     6
176
     1
 78
     2
176
     1
 67
     7
176
     1
 79
     5
176
     1
170
     0
176
     1
171
     0
176
     1
290
     0
176
     1
 93
        1
176
     1
 44
0.0
176
     1
173
     0
176
     1
  0
VISUALSTYLE
  5
33
102
{ACAD_REACTORS
330
2A
102
}
330
2A
100
AcDbVisualStyle
  2
Realistic
 70
     8
177
     2
291
     0
 71
     2
176
     1
 72
     2
176
     1
 73
     0
176
     1
 90
        0
176
     1
 40
-0.6
176
     1
 41
-30.0
176
     1
 62
     5
 63
     7
421
 16777215
176
     1
 74
     1
176
     1
 91
        0
176
     1
 64
     7
176
     1
 65
   257
176
     1
 75
     1
176
     1
175
     1
176
     1
 42
1.0
176
     1
 92
        8
176
     1
 66
     8
424
  7895160
176
     1
 43
1.0
176
     1
 76
     1
176
     1
 77
     6
176
     1
 78
     2
176
     1
 67
     7
176
     1
 79
     5
176
     1
170
     0
176
     1
171
     0
176
     1
290
     0
176
     1
 93
       13
176
     1
 44
0.0
176
     1
173
     0
176
     1
  0
VISUALSTYLE
  5
37
102
{ACAD_REACTORS
330
2A
102
}
330
2A
100
AcDbVisualStyle
  2
Thicken
 70
    13
177
     2
291
     1
 71
     2
176
     1
 72
     2
176
     1
 73
     0
176
     1
 90
        0
176
     1
 40
-0.6
176
     1
 41
-30.0
176
     1
 62
     5
 63
     7
421
 16777215
176
     1
 74
     1
176
     1
 91
        4
176
     1
 64
     7
176
     1
 65
   257
176
     1
 75
     1
176
     1
175
     1
176
     1
 42
1.0
176
     1
 92
       12
176
     1
 66
     7
176
     1
 43
1.0
176
     1
 76
     1
176
     1
 77
     6
176
     1
 78
     2
176
     1
 67
     7
176
     1
 79
     5
176
     1
170
     0
176
     1
171
     0
176
     1
290
     0
176
     1
 93
        1
176
     1
 44
0.0
176
     1
173
     0
176
     1
  0
ENDSEC
  0
EOF
