  0
SECTION
  2
HEADER
  9
$ACADVER
  1
AC1024
  9
$ACADMAINTVER
 70
     6
  9
$DWGCODEPAGE
  3
UNDEFINED
  9
$INSBASE
 10
0.0
 20
0.0
 30
0.0
  9
$EXTMIN
 10
1.000000000000000E+20
 20
1.000000000000000E+20
 30
1.000000000000000E+20
  9
$EXTMAX
 10
-1.000000000000000E+20
 20
-1.000000000000000E+20
 30
-1.000000000000000E+20
  9
$LIMMIN
 10
0.0
 20
0.0
  9
$LIMMAX
 10
12.0
 20
9.0
  9
$ORTHOMODE
 70
     0
  9
$REGENMODE
 70
     1
  9
$FILLMODE
 70
     1
  9
$QTEXTMODE
 70
     0
  9
$MIRRTEXT
 70
     1
  9
$LTSCALE
 40
1.0
  9
$ATTMODE
 70
     1
  9
$TEXTSIZE
 40
0.2
  9
$TRACEWID
 40
0.05
  9
$TEXTSTYLE
  7
Standard
  9
$CLAYER
  8
0
  9
$CELTYPE
  6
ByLayer
  9
$CECOLOR
 62
   256
  9
$CELTSCALE
 40
1.0
  9
$DISPSILH
 70
     0
  9
$DIMSCALE
 40
1.0
  9
$DIMASZ
 40
0.18
  9
$DIMEXO
 40
0.0625
  9
$DIMDLI
 40
0.38
  9
$DIMRND
 40
0.0
  9
$DIMDLE
 40
0.0
  9
$DIMEXE
 40
0.18
  9
$DIMTP
 40
0.0
  9
$DIMTM
 40
0.0
  9
$DIMTXT
 40
0.18
  9
$DIMCEN
 40
0.09
  9
$DIMTSZ
 40
0.0
  9
$DIMTOL
 70
     0
  9
$DIMLIM
 70
     0
  9
$DIMTIH
 70
     1
  9
$DIMTOH
 70
     1
  9
$DIMSE1
 70
     0
  9
$DIMSE2
 70
     0
  9
$DIMTAD
 70
     0
  9
$DIMZIN
 70
     0
  9
$DIMBLK
  1

  9
$DIMASO
 70
     1
  9
$DIMSHO
 70
     1
  9
$DIMPOST
  1

  9
$DIMAPOST
  1

  9
$DIMALT
 70
     0
  9
$DIMALTD
 70
     2
  9
$DIMALTF
 40
25.4
  9
$DIMLFAC
 40
1.0
  9
$DIMTOFL
 70
     0
  9
$DIMTVP
 40
0.0
  9
$DIMTIX
 70
     0
  9
$DIMSOXD
 70
     0
  9
$DIMSAH
 70
     0
  9
$DIMBLK1
  1

  9
$DIMBLK2
  1

  9
$DIMSTYLE
  2
Standard
  9
$DIMCLRD
 70
     0
  9
$DIMCLRE
 70
     0
  9
$DIMCLRT
 70
     0
  9
$DIMTFAC
 40
1.0
  9
$DIMGAP
 40
0.09
  9
$DIMJUST
 70
     0
  9
$DIMSD1
 70
     0
  9
$DIMSD2
 70
     0
  9
$DIMTOLJ
 70
     1
  9
$DIMTZIN
 70
     0
  9
$DIMALTZ
 70
     0
  9
$DIMALTTZ
 70
     0
  9
$DIMUPT
 70
     0
  9
$DIMDEC
 70
     4
  9
$DIMTDEC
 70
     4
  9
$DIMALTU
 70
     2
  9
$DIMALTTD
 70
     2
  9
$DIMTXSTY
  7
Standard
  9
$DIMAUNIT
 70
     0
  9
$DIMADEC
 70
     0
  9
$DIMALTRND
 40
0.0
  9
$DIMAZIN
 70
     0
  9
$DIMDSEP
 70
    46
  9
$DIMATFIT
 70
     3
  9
$DIMFRAC
 70
     0
  9
$DIMLDRBLK
  1

  9
$DIMLUNIT
 70
     2
  9
$DIMLWD
 70
    -2
  9
$DIMLWE
 70
    -2
  9
$DIMTMOVE
 70
     0
  9
$DIMFXL
 40
1.0
  9
$DIMFXLON
 70
     0
  9
$DIMJOGANG
 40
0.7853981633974483
  9
$DIMTFILL
 70
     0
  9
$DIMTFILLCLR
 70
     0
  9
$DIMARCSYM
 70
     0
  9
$DIMLTYPE
  6

  9
$DIMLTEX1
  6

  9
$DIMLTEX2
  6

  9
$DIMTXTDIRECTION
 70
     0
  9
$LUNITS
 70
     2
  9
$LUPREC
 70
     4
  9
$SKETCHINC
 40
0.1
  9
$FILLETRAD
 40
0.5
  9
$AUNITS
 70
     0
  9
$AUPREC
 70
     0
  9
$MENU
  1
.
  9
$ELEVATION
 40
0.0
  9
$PELEVATION
 40
0.0
  9
$THICKNESS
 40
0.0
  9
$LIMCHECK
 70
     0
  9
$CHAMFERA
 40
0.5
  9
$CHAMFERB
 40
0.5
  9
$CHAMFERC
 40
1.0
  9
$CHAMFERD
 40
0.0
  9
$SKPOLY
 70
     0
  9
$TDCREATE
 40
2457917.622951377
  9
$TDUCREATE
 40
2457917.247951389
  9
$TDUPDATE
 40
2457917.622951377
  9
$TDUUPDATE
 40
2457917.247951389
  9
$TDINDWG
 40
0.0000000116
  9
$TDUSRTIMER
 40
0.0000000116
  9
$USRTIMER
 70
     1
  9
$ANGBASE
 50
0.0
  9
$ANGDIR
 70
     0
  9
$PDMODE
 70
     0
  9
$PDSIZE
 40
0.0
  9
$PLINEWID
 40
0.0
  9
$SPLFRAME
 70
     0
  9
$SPLINETYPE
 70
     6
  9
$SPLINESEGS
 70
     8
  9
$HANDSEED
  5
D7
  9
$SURFTAB1
 70
     6
  9
$SURFTAB2
 70
     6
  9
$SURFTYPE
 70
     6
  9
$SURFU
 70
     6
  9
$SURFV
 70
     6
  9
$UCSBASE
  2

  9
$UCSNAME
  2

  9
$UCSORG
 10
0.0
 20
0.0
 30
0.0
  9
$UCSXDIR
 10
1.0
 20
0.0
 30
0.0
  9
$UCSYDIR
 10
0.0
 20
1.0
 30
0.0
  9
$UCSORTHOREF
  2

  9
$UCSORTHOVIEW
 70
     0
  9
$UCSORGTOP
 10
0.0
 20
0.0
 30
0.0
  9
$UCSORGBOTTOM
 10
0.0
 20
0.0
 30
0.0
  9
$UCSORGLEFT
 10
0.0
 20
0.0
 30
0.0
  9
$UCSORGRIGHT
 10
0.0
 20
0.0
 30
0.0
  9
$UCSORGFRONT
 10
0.0
 20
0.0
 30
0.0
  9
$UCSORGBACK
 10
0.0
 20
0.0
 30
0.0
  9
$PUCSBASE
  2

  9
$PUCSNAME
  2

  9
$PUCSORG
 10
0.0
 20
0.0
 30
0.0
  9
$PUCSXDIR
 10
1.0
 20
0.0
 30
0.0
  9
$PUCSYDIR
 10
0.0
 20
1.0
 30
0.0
  9
$PUCSORTHOREF
  2

  9
$PUCSORTHOVIEW
 70
     0
  9
$PUCSORGTOP
 10
0.0
 20
0.0
 30
0.0
  9
$PUCSORGBOTTOM
 10
0.0
 20
0.0
 30
0.0
  9
$PUCSORGLEFT
 10
0.0
 20
0.0
 30
0.0
  9
$PUCSORGRIGHT
 10
0.0
 20
0.0
 30
0.0
  9
$PUCSORGFRONT
 10
0.0
 20
0.0
 30
0.0
  9
$PUCSORGBACK
 10
0.0
 20
0.0
 30
0.0
  9
$USERI1
 70
     0
  9
$USERI2
 70
     0
  9
$USERI3
 70
     0
  9
$USERI4
 70
     0
  9
$USERI5
 70
     0
  9
$USERR1
 40
0.0
  9
$USERR2
 40
0.0
  9
$USERR3
 40
0.0
  9
$USERR4
 40
0.0
  9
$USERR5
 40
0.0
  9
$WORLDVIEW
 70
     1
  9
$SHADEDGE
 70
     3
  9
$SHADEDIF
 70
    70
  9
$TILEMODE
 70
     1
  9
$MAXACTVP
 70
    64
  9
$PINSBASE
 10
0.0
 20
0.0
 30
0.0
  9
$PLIMCHECK
 70
     0
  9
$PEXTMIN
 10
1.000000000000000E+20
 20
1.000000000000000E+20
 30
1.000000000000000E+20
  9
$PEXTMAX
 10
-1.000000000000000E+20
 20
-1.000000000000000E+20
 30
-1.000000000000000E+20
  9
$PLIMMIN
 10
0.0
 20
0.0
  9
$PLIMMAX
 10
12.0
 20
9.0
  9
$UNITMODE
 70
     0
  9
$VISRETAIN
 70
     1
  9
$PLINEGEN
 70
     0
  9
$PSLTSCALE
 70
     1
  9
$TREEDEPTH
 70
  3020
  9
$CMLSTYLE
  2
Standard
  9
$CMLJUST
 70
     0
  9
$CMLSCALE
 40
1.0
  9
$PROXYGRAPHICS
 70
     1
  9
$MEASUREMENT
 70
     0
  9
$CELWEIGHT
370
    -1
  9
$ENDCAPS
280
     0
  9
$JOINSTYLE
280
     0
  9
$LWDISPLAY
290
     1
  9
$INSUNITS
 70
     1
  9
$HYPERLINKBASE
  1

  9
$STYLESHEET
  1

  9
$XEDIT
290
     1
  9
$CEPSNTYPE
380
     0
  9
$PSTYLEMODE
290
     1
  9
$FINGERPRINTGUID
  2
{19639CFA-1ABD-3AC7-AB34-1B23BAC5D03D}
  9
$VERSIONGUID
  2
{FAEB1C32-E019-11D5-929B-00C0DF256EC4}
  9
$EXTNAMES
290
     1
  9
$PSVPSCALE
 40
0.0
  9
$OLESTARTUP
290
     0
  9
$SORTENTS
280
   127
  9
$INDEXCTL
280
     0
  9
$HIDETEXT
280
     1
  9
$XCLIPFRAME
280
     2
  9
$HALOGAP
280
     0
  9
$OBSCOLOR
 70
   257
  9
$OBSLTYPE
280
     0
  9
$INTERSECTIONDISPLAY
280
     0
  9
$INTERSECTIONCOLOR
 70
   257
  9
$DIMASSOC
280
     2
  9
$PROJECTNAME
  1

  9
$CAMERADISPLAY
290
     0
  9
$LENSLENGTH
 40
50.0
  9
$CAMERAHEIGHT
 40
0.0
  9
$STEPSPERSEC
 40
2.0
  9
$STEPSIZE
 40
6.0
  9
$3DDWFPREC
 40
2.0
  9
$PSOLWIDTH
 40
0.25
  9
$PSOLHEIGHT
 40
4.0
  9
$LOFTANG1
 40
1.570796326794897
  9
$LOFTANG2
 40
1.570796326794897
  9
$LOFTMAG1
 40
0.0
  9
$LOFTMAG2
 40
0.0
  9
$LOFTPARAM
 70
     7
  9
$LOFTNORMALS
280
     1
  9
$LATITUDE
 40
37.795
  9
$LONGITUDE
 40
-122.394
  9
$NORTHDIRECTION
 40
0.0
  9
$TIMEZONE
 70
 -8000
  9
$LIGHTGLYPHDISPLAY
280
     1
  9
$TILEMODELIGHTSYNCH
280
     1
  9
$CMATERIAL
347
3C
  9
$SOLIDHIST
280
     1
  9
$SHOWHIST
280
     1
  9
$DWFFRAME
280
     2
  9
$DGNFRAME
280
     2
  9
$REALWORLDSCALE
290
     1
  9
$INTERFERECOLOR
 62
   256
  9
$CSHADOW
280
     0
  9
$SHADOWPLANELOCATION
 40
0.0
  0
ENDSEC
  0
SECTION
  2
CLASSES
  0
CLASS
  1
ACDBDICTIONARYWDFLT
  2
AcDbDictionaryWithDefault
  3
ObjectDBX Classes
 90
        0
 91
        4
280
     0
281
     0
  0
CLASS
  1
VISUALSTYLE
  2
AcDbVisualStyle
  3
ObjectDBX Classes
 90
     4095
 91
        4
280
     0
281
     0
  0
CLASS
  1
MATERIAL
  2
AcDbMaterial
  3
ObjectDBX Classes
 90
     1153
 91
        4
280
     0
281
     0
  0
CLASS
  1
SUN
  2
AcDbSun
  3
SCENEOE
 90
     1024
 91
        4
280
     0
281
     0
  0
ENDSEC
  0
SECTION
  2
TABLES
  0
TABLE
  2
VPORT
  5
8
330
0
100
AcDbSymbolTable
 70
     1
  0
VPORT
  5
29
330
8
100
AcDbSymbolTableRecord
100
AcDbViewportTableRecord
  2
*Active
 70
     0
 10
0.0
 20
0.0
 11
1.0
 21
1.0
 12
0.0
 22
0.0
 13
0.0
 23
0.0
 14
0.5
 24
0.5
 15
0.5
 25
0.5
 16
0.0
 26
0.0
 36
1.0
 17
91.00082462281999
 27
-128.4993055234307
 37
0.0
 40
256.9986110468615
 41
0.7081814508812795
 42
50.0
 43
0.0
 44
0.0
 50
0.0
 51
0.0
 71
     0
 72
   100
 73
     1
 74
     3
 75
     0
 76
     0
 77
     0
 78
     0
281
     0
 65
     1
110
0.0
120
0.0
130
0.0
111
1.0
121
0.0
131
0.0
112
0.0
122
1.0
132
0.0
 79
     0
146
0.0
 60
     3
 61
     5
292
     1
282
     1
141
0.0
142
0.0
 63
   250
361
3F
  0
ENDTAB
  0
TABLE
  2
LTYPE
  5
5
330
0
100
AcDbSymbolTable
 70
     1
  0
LTYPE
  5
14
330
5
100
AcDbSymbolTableRecord
100
AcDbLinetypeTableRecord
  2
ByBlock
 70
     0
  3

 72
    65
 73
     0
 40
0.0
  0
LTYPE
  5
15
330
5
100
AcDbSymbolTableRecord
100
AcDbLinetypeTableRecord
  2
ByLayer
 70
     0
  3

 72
    65
 73
     0
 40
0.0
  0
LTYPE
  5
16
330
5
100
AcDbSymbolTableRecord
100
AcDbLinetypeTableRecord
  2
Continuous
 70
     0
  3
Solid line
 72
    65
 73
     0
 40
0.0
  0
ENDTAB
  0
TABLE
  2
LAYER
  5
2
330
0
100
AcDbSymbolTable
 70
     2
  0
LAYER
  5
10
330
2
100
AcDbSymbolTableRecord
100
AcDbLayerTableRecord
  2
0
 70
     0
 62
     7
  6
Continuous
370
    -3
390
F
347
3E
  0
LAYER
  5
40
330
2
100
AcDbSymbolTableRecord
100
AcDbLayerTableRecord
  2
_U+30EC_U+30A4_U+30E4_U+30FC 1
 70
     0
 62
     7
  6
Continuous
370
    -3
390
F
347
3E
  0
ENDTAB
  0
TABLE
  2
STYLE
  5
3
330
0
100
AcDbSymbolTable
 70
     1
  0
STYLE
  5
11
330
3
100
AcDbSymbolTableRecord
100
AcDbTextStyleTableRecord
  2
Standard
 70
     0
 40
0.0
 41
1.0
 50
0.0
 71
     0
 42
0.2
  3
txt
  4

  0
ENDTAB
  0
TABLE
  2
VIEW
  5
6
330
0
100
AcDbSymbolTable
 70
     0
  0
ENDTAB
  0
TABLE
  2
UCS
  5
7
330
0
100
AcDbSymbolTable
 70
     0
  0
ENDTAB
  0
TABLE
  2
APPID
  5
9
330
0
100
AcDbSymbolTable
 70
     1
  0
APPID
  5
12
330
9
100
AcDbSymbolTableRecord
100
AcDbRegAppTableRecord
  2
ACAD
 70
     0
  0
ENDTAB
  0
TABLE
  2
DIMSTYLE
  5
A
330
0
100
AcDbSymbolTable
 70
     1
100
AcDbDimStyleTable
  0
DIMSTYLE
105
27
330
A
100
AcDbSymbolTableRecord
100
AcDbDimStyleTableRecord
  2
Standard
 70
     0
178
     0
340
11
  0
ENDTAB
  0
TABLE
  2
BLOCK_RECORD
  5
1
330
0
100
AcDbSymbolTable
 70
     8
  0
BLOCK_RECORD
  5
1F
330
1
100
AcDbSymbolTableRecord
100
AcDbBlockTableRecord
  2
*Model_Space
340
22
 70
     0
280
     1
281
     0
  0
BLOCK_RECORD
  5
1B
330
1
100
AcDbSymbolTableRecord
100
AcDbBlockTableRecord
  2
*Paper_Space
340
1E
 70
     0
280
     1
281
     0
  0
BLOCK_RECORD
  5
23
330
1
100
AcDbSymbolTableRecord
100
AcDbBlockTableRecord
  2
*Paper_Space0
340
26
 70
     0
280
     1
281
     0
  0
BLOCK_RECORD
  5
63
330
1
100
AcDbSymbolTableRecord
100
AcDbBlockTableRecord
  2
block 2
340
0
102
{BLKREFS
331
64
102
}
 70
     0
280
     1
281
     0
  0
BLOCK_RECORD
  5
6C
330
1
100
AcDbSymbolTableRecord
100
AcDbBlockTableRecord
  2
block 3
340
0
102
{BLKREFS
331
6D
102
}
 70
     0
280
     1
281
     0
  0
BLOCK_RECORD
  5
7D
330
1
100
AcDbSymbolTableRecord
100
AcDbBlockTableRecord
  2
block 4
340
0
102
{BLKREFS
331
7E
102
}
 70
     0
280
     1
281
     0
  0
BLOCK_RECORD
  5
96
330
1
100
AcDbSymbolTableRecord
100
AcDbBlockTableRecord
  2
block 5
340
0
102
{BLKREFS
331
97
102
}
 70
     0
280
     1
281
     0
  0
BLOCK_RECORD
  5
9C
330
1
100
AcDbSymbolTableRecord
100
AcDbBlockTableRecord
  2
block 6
340
0
102
{BLKREFS
331
9D
102
}
 70
     0
280
     1
281
     0
  0
BLOCK_RECORD
  5
A4
330
1
100
AcDbSymbolTableRecord
100
AcDbBlockTableRecord
  2
block 7
340
0
102
{BLKREFS
331
A5
102
}
 70
     0
280
     1
281
     0
  0
BLOCK_RECORD
  5
BA
330
1
100
AcDbSymbolTableRecord
100
AcDbBlockTableRecord
  2
block 8
340
0
102
{BLKREFS
331
BB
102
}
 70
     0
280
     1
281
     0
  0
ENDTAB
  0
ENDSEC
  0
SECTION
  2
BLOCKS
  0
BLOCK
  5
20
330
1F
100
AcDbEntity
  8
0
100
AcDbBlockBegin
  2
*Model_Space
 70
     0
 10
0.0
 20
0.0
 30
0.0
  3
*Model_Space
  1

  0
ENDBLK
  5
21
330
1F
100
AcDbEntity
  8
0
100
AcDbBlockEnd
  0
BLOCK
  5
1C
330
1B
100
AcDbEntity
 67
     1
  8
0
100
AcDbBlockBegin
  2
*Paper_Space
 70
     0
 10
0.0
 20
0.0
 30
0.0
  3
*Paper_Space
  1

  0
ENDBLK
  5
1D
330
1B
100
AcDbEntity
 67
     1
  8
0
100
AcDbBlockEnd
  0
BLOCK
  5
24
330
23
100
AcDbEntity
  8
0
100
AcDbBlockBegin
  2
*Paper_Space0
 70
     0
 10
0.0
 20
0.0
 30
0.0
  3
*Paper_Space0
  1

  0
ENDBLK
  5
25
330
23
100
AcDbEntity
  8
0
100
AcDbBlockEnd
  0
BLOCK
  5
65
330
63
100
AcDbEntity
  8
0
100
AcDbBlockBegin
  2
block 2
 70
     0
 10
0.0
 20
0.0
 30
0.0
  3
block 2
  1

  0
SPLINE
  5
67
330
63
100
AcDbEntity
  8
_U+30EC_U+30A4_U+30E4_U+30FC 1
370
     0
100
AcDbSpline
210
0.0
220
0.0
230
1.0
 70
    11
 71
     3
 72
    44
 73
    40
 74
     0
 42
0.0000000001
 43
0.0000000001
 12
1.0
 22
0.0
 32
0.0
 13
1.0
 23
0.0
 33
0.0
 40
0.0
 40
0.0
 40
0.0
 40
0.0
 40
1.0
 40
1.0
 40
1.0
 40
2.0
 40
2.0
 40
2.0
 40
3.0
 40
3.0
 40
3.0
 40
4.0
 40
4.0
 40
4.0
 40
5.0
 40
5.0
 40
5.0
 40
6.0
 40
6.0
 40
6.0
 40
7.0
 40
7.0
 40
7.0
 40
8.0
 40
8.0
 40
8.0
 40
9.0
 40
9.0
 40
9.0
 40
10.0
 40
10.0
 40
10.0
 40
11.0
 40
11.0
 40
11.0
 40
12.0
 40
12.0
 40
12.0
 40
13.0
 40
13.0
 40
13.0
 40
13.0
 10
65.4705946016879
 20
-135.7936061943502
 30
0.0
 10
65.62924124878367
 20
-136.011336229018
 30
0.0
 10
65.70331080171654
 20
-136.1043538071198
 30
0.0
 10
65.84714353822572
 20
-136.1532741630103
 30
0.0
 10
65.84714353822572
 20
-136.1532741630103
 30
0.0
 10
65.84714353822572
 20
-135.3746825833438
 30
0.0
 10
65.84714353822572
 20
-135.3746825833438
 30
0.0
 10
65.84714353822572
 20
-135.3746825833438
 30
0.0
 10
66.05229897437235
 20
-135.3746825833438
 30
0.0
 10
66.05229897437235
 20
-135.3746825833438
 30
0.0
 10
66.05229897437235
 20
-135.3746825833438
 30
0.0
 10
66.05229897437235
 20
-136.4026990761424
 30
0.0
 10
66.05229897437235
 20
-136.4026990761424
 30
0.0
 10
65.69469806300341
 20
-136.3710041976781
 30
0.0
 10
65.61649439548825
 20
-136.3055473834583
 30
0.0
 10
65.3181491264656
 20
-135.9203857082074
 30
0.0
 10
65.11936711696669
 20
-135.6644151136533
 30
0.0
 10
65.05167099068153
 20
-135.5989582994336
 30
0.0
 10
64.91421168082006
 20
-135.5989582994336
 30
0.0
 10
64.79570039612747
 20
-135.5989582994336
 30
0.0
 10
64.66461451291372
 20
-135.6709607950753
 30
0.0
 10
64.66461451291372
 20
-135.8676757472831
 30
0.0
 10
64.66461451291372
 20
-136.1277804564195
 30
0.0
 10
64.89509140087692
 20
-136.1363931951326
 30
0.0
 10
65.01153562827837
 20
-136.1405273097149
 30
0.0
 10
65.01153562827837
 20
-136.1405273097149
 30
0.0
 10
65.01153562827837
 20
-136.3648030258046
 30
0.0
 10
65.01153562827837
 20
-136.3648030258046
 30
0.0
 10
64.88458385964691
 20
-136.3561902870915
 30
0.0
 10
64.77244600160203
 20
-136.3455104910873
 30
0.0
 10
64.65393471690943
 20
-136.2652397662809
 30
0.0
 10
64.49322101252253
 20
-136.1553412203014
 30
0.0
 10
64.45928682199282
 20
-135.9689615545494
 30
0.0
 10
64.45928682199282
 20
-135.8528618366965
 30
0.0
 10
64.45928682199282
 20
-135.5755316501339
 30
0.0
 10
64.64342717567942
 20
-135.3681369019219
 30
0.0
 10
64.91627873811122
 20
-135.3681369019219
 30
0.0
 10
65.14468856878328
 20
-135.3681369019219
 30
0.0
 10
65.244251828307
 20
-135.4845811293233
 30
0.0
 10
65.4705946016879
 20
-135.7936061943502
 30
0.0
  0
HATCH
  5
68
330
63
100
AcDbEntity
  8
_U+30EC_U+30A4_U+30E4_U+30FC 1
 62
     7
420
 16777215
100
AcDbHatch
 10
0.0
 20
0.0
 30
0.0
210
0.0
220
0.0
230
1.0
  2
SOLID
 70
     1
 71
     0
 91
        1
 92
        1
 93
        1
 72
     4
 94
        3
 73
     0
 74
     1
 95
       44
 96
       40
 40
0.0
 40
0.0
 40
0.0
 40
0.0
 40
1.0
 40
1.0
 40
1.0
 40
2.0
 40
2.0
 40
2.0
 40
3.0
 40
3.0
 40
3.0
 40
4.0
 40
4.0
 40
4.0
 40
5.0
 40
5.0
 40
5.0
 40
6.0
 40
6.0
 40
6.0
 40
7.0
 40
7.0
 40
7.0
 40
8.0
 40
8.0
 40
8.0
 40
9.0
 40
9.0
 40
9.0
 40
10.0
 40
10.0
 40
10.0
 40
11.0
 40
11.0
 40
11.0
 40
12.0
 40
12.0
 40
12.0
 40
13.0
 40
13.0
 40
13.0
 40
13.0
 10
65.4705946016879
 20
-135.7936061943502
 10
65.62924124878367
 20
-136.011336229018
 10
65.70331080171654
 20
-136.1043538071198
 10
65.84714353822572
 20
-136.1532741630103
 10
65.84714353822572
 20
-136.1532741630103
 10
65.84714353822572
 20
-135.3746825833438
 10
65.84714353822572
 20
-135.3746825833438
 10
65.84714353822572
 20
-135.3746825833438
 10
66.05229897437235
 20
-135.3746825833438
 10
66.05229897437235
 20
-135.3746825833438
 10
66.05229897437235
 20
-135.3746825833438
 10
66.05229897437235
 20
-136.4026990761424
 10
66.05229897437235
 20
-136.4026990761424
 10
65.69469806300341
 20
-136.3710041976781
 10
65.61649439548825
 20
-136.3055473834583
 10
65.3181491264656
 20
-135.9203857082074
 10
65.11936711696669
 20
-135.6644151136533
 10
65.05167099068153
 20
-135.5989582994336
 10
64.91421168082006
 20
-135.5989582994336
 10
64.79570039612747
 20
-135.5989582994336
 10
64.66461451291372
 20
-135.6709607950753
 10
64.66461451291372
 20
-135.8676757472831
 10
64.66461451291372
 20
-136.1277804564195
 10
64.89509140087692
 20
-136.1363931951326
 10
65.01153562827837
 20
-136.1405273097149
 10
65.01153562827837
 20
-136.1405273097149
 10
65.01153562827837
 20
-136.3648030258046
 10
65.01153562827837
 20
-136.3648030258046
 10
64.88458385964691
 20
-136.3561902870915
 10
64.77244600160203
 20
-136.3455104910873
 10
64.65393471690943
 20
-136.2652397662809
 10
64.49322101252253
 20
-136.1553412203014
 10
64.45928682199282
 20
-135.9689615545494
 10
64.45928682199282
 20
-135.8528618366965
 10
64.45928682199282
 20
-135.5755316501339
 10
64.64342717567942
 20
-135.3681369019219
 10
64.91627873811122
 20
-135.3681369019219
 10
65.14468856878328
 20
-135.3681369019219
 10
65.244251828307
 20
-135.4845811293233
 10
65.4705946016879
 20
-135.7936061943502
 97
        0
 97
        0
 75
     2
 76
     1
 98
        0
  0
SPLINE
  5
69
330
63
100
AcDbEntity
  8
_U+30EC_U+30A4_U+30E4_U+30FC 1
370
     0
100
AcDbSpline
210
0.0
220
0.0
230
1.0
 70
    11
 71
     3
 72
    29
 73
    25
 74
     0
 42
0.0000000001
 43
0.0000000001
 12
1.0
 22
0.0
 32
0.0
 13
1.0
 23
0.0
 33
0.0
 40
0.0
 40
0.0
 40
0.0
 40
0.0
 40
1.0
 40
1.0
 40
1.0
 40
2.0
 40
2.0
 40
2.0
 40
3.0
 40
3.0
 40
3.0
 40
4.0
 40
4.0
 40
4.0
 40
5.0
 40
5.0
 40
5.0
 40
6.0
 40
6.0
 40
6.0
 40
7.0
 40
7.0
 40
7.0
 40
8.0
 40
8.0
 40
8.0
 40
8.0
 10
65.87453204733346
 20
-134.3118706261443
 30
0.0
 10
66.08399385283664
 20
-134.4200466243811
 30
0.0
 10
66.10311413277978
 20
-134.5933349272892
 30
0.0
 10
66.10311413277978
 20
-134.7097791546906
 30
0.0
 10
66.10311413277978
 20
-134.8706651138518
 30
0.0
 10
66.0566053437289
 20
-135.0122585382956
 30
0.0
 10
65.87453204733346
 20
-135.1073431736884
 30
0.0
 10
65.67988415241683
 20
-135.2110405477945
 30
0.0
 10
65.44303383780591
 20
-135.2303330825119
 30
0.0
 10
65.2800808213536
 20
-135.2303330825119
 30
0.0
 10
65.13624808484441
 20
-135.2303330825119
 30
0.0
 10
64.88458385964691
 20
-135.2131076050856
 30
0.0
 10
64.68562959537374
 20
-135.1073431736884
 30
0.0
 10
64.48254121651826
 20
-134.9995116850001
 30
0.0
 10
64.45928682199282
 20
-134.838625725839
 30
0.0
 10
64.45928682199282
 20
-134.7097791546906
 30
0.0
 10
64.45928682199282
 20
-134.5509602528206
 30
0.0
 10
64.50372855375254
 20
-134.4072997710857
 30
0.0
 10
64.68562959537374
 20
-134.3118706261443
 30
0.0
 10
64.8782104329992
 20
-134.2126518761691
 30
0.0
 10
65.10662026367126
 20
-134.1892252268694
 30
0.0
 10
65.2800808213536
 20
-134.1892252268694
 30
0.0
 10
65.45147432174477
 20
-134.1892252268694
 30
0.0
 10
65.68212346448225
 20
-134.2105848188779
 30
0.0
 10
65.87453204733346
 20
-134.3118706261443
 30
0.0
  0
SPLINE
  5
6A
330
63
100
AcDbEntity
  8
_U+30EC_U+30A4_U+30E4_U+30FC 1
370
     0
100
AcDbSpline
210
0.0
220
0.0
230
1.0
 70
    11
 71
     3
 72
    17
 73
    13
 74
     0
 42
0.0000000001
 43
0.0000000001
 12
1.0
 22
0.0
 32
0.0
 13
1.0
 23
0.0
 33
0.0
 40
0.0
 40
0.0
 40
0.0
 40
0.0
 40
1.0
 40
1.0
 40
1.0
 40
2.0
 40
2.0
 40
2.0
 40
3.0
 40
3.0
 40
3.0
 40
4.0
 40
4.0
 40
4.0
 40
4.0
 10
64.65186765961829
 20
-134.7097791546906
 30
0.0
 10
64.65186765961829
 20
-134.9595485773712
 30
0.0
 10
64.93539901805434
 20
-135.0060573664221
 30
0.0
 10
65.2800808213536
 20
-135.0060573664221
 30
0.0
 10
65.59961342761052
 20
-135.0060573664221
 30
0.0
 10
65.90846623786317
 20
-134.969883863827
 30
0.0
 10
65.90846623786317
 20
-134.7097791546906
 30
0.0
 10
65.90846623786317
 20
-134.4620767893012
 30
0.0
 10
65.62700193671826
 20
-134.4135009429591
 30
0.0
 10
65.2800808213536
 20
-134.4135009429591
 30
0.0
 10
64.96072046987094
 20
-134.4135009429591
 30
0.0
 10
64.65186765961829
 20
-134.4517415028454
 30
0.0
 10
64.65186765961829
 20
-134.7097791546906
 30
0.0
  0
HATCH
  5
6B
330
63
100
AcDbEntity
  8
_U+30EC_U+30A4_U+30E4_U+30FC 1
 62
     7
420
 16777215
100
AcDbHatch
 10
0.0
 20
0.0
 30
0.0
210
0.0
220
0.0
230
1.0
  2
SOLID
 70
     1
 71
     0
 91
        2
 92
        1
 93
        1
 72
     4
 94
        3
 73
     0
 74
     1
 95
       29
 96
       25
 40
0.0
 40
0.0
 40
0.0
 40
0.0
 40
1.0
 40
1.0
 40
1.0
 40
2.0
 40
2.0
 40
2.0
 40
3.0
 40
3.0
 40
3.0
 40
4.0
 40
4.0
 40
4.0
 40
5.0
 40
5.0
 40
5.0
 40
6.0
 40
6.0
 40
6.0
 40
7.0
 40
7.0
 40
7.0
 40
8.0
 40
8.0
 40
8.0
 40
8.0
 10
65.87453204733346
 20
-134.3118706261443
 10
66.08399385283664
 20
-134.4200466243811
 10
66.10311413277978
 20
-134.5933349272892
 10
66.10311413277978
 20
-134.7097791546906
 10
66.10311413277978
 20
-134.8706651138518
 10
66.0566053437289
 20
-135.0122585382956
 10
65.87453204733346
 20
-135.1073431736884
 10
65.67988415241683
 20
-135.2110405477945
 10
65.44303383780591
 20
-135.2303330825119
 10
65.2800808213536
 20
-135.2303330825119
 10
65.13624808484441
 20
-135.2303330825119
 10
64.88458385964691
 20
-135.2131076050856
 10
64.68562959537374
 20
-135.1073431736884
 10
64.48254121651826
 20
-134.9995116850001
 10
64.45928682199282
 20
-134.838625725839
 10
64.45928682199282
 20
-134.7097791546906
 10
64.45928682199282
 20
-134.5509602528206
 10
64.50372855375254
 20
-134.4072997710857
 10
64.68562959537374
 20
-134.3118706261443
 10
64.8782104329992
 20
-134.2126518761691
 10
65.10662026367126
 20
-134.1892252268694
 10
65.2800808213536
 20
-134.1892252268694
 10
65.45147432174477
 20
-134.1892252268694
 10
65.68212346448225
 20
-134.2105848188779
 10
65.87453204733346
 20
-134.3118706261443
 97
        0
 97
        0
 92
        1
 93
        1
 72
     4
 94
        3
 73
     0
 74
     1
 95
       17
 96
       13
 40
0.0
 40
0.0
 40
0.0
 40
0.0
 40
1.0
 40
1.0
 40
1.0
 40
2.0
 40
2.0
 40
2.0
 40
3.0
 40
3.0
 40
3.0
 40
4.0
 40
4.0
 40
4.0
 40
4.0
 10
64.65186765961829
 20
-134.7097791546906
 10
64.65186765961829
 20
-134.9595485773712
 10
64.93539901805434
 20
-135.0060573664221
 10
65.2800808213536
 20
-135.0060573664221
 10
65.59961342761052
 20
-135.0060573664221
 10
65.90846623786317
 20
-134.969883863827
 10
65.90846623786317
 20
-134.7097791546906
 10
65.90846623786317
 20
-134.4620767893012
 10
65.62700193671826
 20
-134.4135009429591
 10
65.2800808213536
 20
-134.4135009429591
 10
64.96072046987094
 20
-134.4135009429591
 10
64.65186765961829
 20
-134.4517415028454
 10
64.65186765961829
 20
-134.7097791546906
 97
        0
 97
        0
 75
     2
 76
     1
 98
        0
  0
ENDBLK
  5
66
330
63
100
AcDbEntity
  8
0
100
AcDbBlockEnd
  0
BLOCK
  5
6E
330
6C
100
AcDbEntity
  8
0
100
AcDbBlockBegin
  2
block 3
 70
     0
 10
0.0
 20
0.0
 30
0.0
  3
block 3
  1

  0
SPLINE
  5
70
330
6C
100
AcDbEntity
  8
_U+30EC_U+30A4_U+30E4_U+30FC 1
370
     0
100
AcDbSpline
210
0.0
220
0.0
230
1.0
 70
    11
 71
     3
 72
    32
 73
    28
 74
     0
 42
0.0000000001
 43
0.0000000001
 12
1.0
 22
0.0
 32
0.0
 13
1.0
 23
0.0
 33
0.0
 40
0.0
 40
0.0
 40
0.0
 40
0.0
 40
1.0
 40
1.0
 40
1.0
 40
2.0
 40
2.0
 40
2.0
 40
3.0
 40
3.0
 40
3.0
 40
4.0
 40
4.0
 40
4.0
 40
5.0
 40
5.0
 40
5.0
 40
6.0
 40
6.0
 40
6.0
 40
7.0
 40
7.0
 40
7.0
 40
8.0
 40
8.0
 40
8.0
 40
9.0
 40
9.0
 40
9.0
 40
9.0
 10
117.2624375791913
 20
-142.8567409582094
 30
0.0
 10
117.2624375791913
 20
-143.3728162618999
 30
0.0
 10
116.7081217156146
 20
-143.381429000613
 30
0.0
 10
116.4945257955292
 20
-143.381429000613
 30
0.0
 10
116.2637043980174
 20
-143.381429000613
 30
0.0
 10
115.6167154658875
 20
-143.3621364658956
 30
0.0
 10
115.6167154658875
 20
-142.8185003983232
 30
0.0
 10
115.6167154658875
 20
-142.6452120954151
 30
0.0
 10
115.6863063946895
 20
-142.3995767873168
 30
0.0
 10
116.0184135994676
 20
-142.361680736979
 30
0.0
 10
116.0184135994676
 20
-142.361680736979
 30
0.0
 10
116.0184135994676
 20
-142.5752766570645
 30
0.0
 10
116.0184135994676
 20
-142.5752766570645
 30
0.0
 10
115.9612250144125
 20
-142.5859564530688
 30
0.0
 10
115.8130859085467
 20
-142.6176513315331
 30
0.0
 10
115.8130859085467
 20
-142.8205674556143
 30
0.0
 10
115.8130859085467
 20
-143.1127115527635
 30
0.0
 10
116.1410589987425
 20
-143.1526746603924
 30
0.0
 10
116.3463866896634
 20
-143.1654215136878
 30
0.0
 10
116.2681830221482
 20
-143.0724039355861
 30
0.0
 10
116.2089273798019
 20
-143.0045355545267
 30
0.0
 10
116.2089273798019
 20
-142.8226345129055
 30
0.0
 10
116.2089273798019
 20
-142.6428005285754
 30
0.0
 10
116.3167588684903
 20
-142.3403211449705
 30
0.0
 10
116.7229356262012
 20
-142.3403211449705
 30
0.0
 10
117.0422959776839
 20
-142.3403211449705
 30
0.0
 10
117.2624375791913
 20
-142.5394476640179
 30
0.0
 10
117.2624375791913
 20
-142.8567409582094
 30
0.0
  0
SPLINE
  5
71
330
6C
100
AcDbEntity
  8
_U+30EC_U+30A4_U+30E4_U+30FC 1
370
     0
100
AcDbSpline
210
0.0
220
0.0
230
1.0
 70
    11
 71
     3
 72
    17
 73
    13
 74
     0
 42
0.0000000001
 43
0.0000000001
 12
1.0
 22
0.0
 32
0.0
 13
1.0
 23
0.0
 33
0.0
 40
0.0
 40
0.0
 40
0.0
 40
0.0
 40
1.0
 40
1.0
 40
1.0
 40
2.0
 40
2.0
 40
2.0
 40
3.0
 40
3.0
 40
3.0
 40
4.0
 40
4.0
 40
4.0
 40
4.0
 10
116.4035752747186
 20
-142.8398599903317
 30
0.0
 10
116.4035752747186
 20
-143.1020317567592
 30
0.0
 10
116.6151041375129
 20
-143.139927807097
 30
0.0
 10
116.7315483649143
 20
-143.139927807097
 30
0.0
 10
116.9072482346621
 20
-143.139927807097
 30
0.0
 10
117.0698567415659
 20
-143.0448431717041
 30
0.0
 10
117.0698567415659
 20
-142.8608750727917
 30
0.0
 10
117.0698567415659
 20
-142.740296730808
 30
0.0
 10
117.0106010992196
 20
-142.5645968610602
 30
0.0
 10
116.7250026834924
 20
-142.5645968610602
 30
0.0
 10
116.5007269674026
 20
-142.5645968610602
 30
0.0
 10
116.4035752747186
 20
-142.7041232282129
 30
0.0
 10
116.4035752747186
 20
-142.8398599903317
 30
0.0
  0
HATCH
  5
72
330
6C
100
AcDbEntity
  8
_U+30EC_U+30A4_U+30E4_U+30FC 1
 62
     7
420
 16777215
100
AcDbHatch
 10
0.0
 20
0.0
 30
0.0
210
0.0
220
0.0
230
1.0
  2
SOLID
 70
     1
 71
     0
 91
        2
 92
        1
 93
        1
 72
     4
 94
        3
 73
     0
 74
     1
 95
       32
 96
       28
 40
0.0
 40
0.0
 40
0.0
 40
0.0
 40
1.0
 40
1.0
 40
1.0
 40
2.0
 40
2.0
 40
2.0
 40
3.0
 40
3.0
 40
3.0
 40
4.0
 40
4.0
 40
4.0
 40
5.0
 40
5.0
 40
5.0
 40
6.0
 40
6.0
 40
6.0
 40
7.0
 40
7.0
 40
7.0
 40
8.0
 40
8.0
 40
8.0
 40
9.0
 40
9.0
 40
9.0
 40
9.0
 10
117.2624375791913
 20
-142.8567409582094
 10
117.2624375791913
 20
-143.3728162618999
 10
116.7081217156146
 20
-143.381429000613
 10
116.4945257955292
 20
-143.381429000613
 10
116.2637043980174
 20
-143.381429000613
 10
115.6167154658875
 20
-143.3621364658956
 10
115.6167154658875
 20
-142.8185003983232
 10
115.6167154658875
 20
-142.6452120954151
 10
115.6863063946895
 20
-142.3995767873168
 10
116.0184135994676
 20
-142.361680736979
 10
116.0184135994676
 20
-142.361680736979
 10
116.0184135994676
 20
-142.5752766570645
 10
116.0184135994676
 20
-142.5752766570645
 10
115.9612250144125
 20
-142.5859564530688
 10
115.8130859085467
 20
-142.6176513315331
 10
115.8130859085467
 20
-142.8205674556143
 10
115.8130859085467
 20
-143.1127115527635
 10
116.1410589987425
 20
-143.1526746603924
 10
116.3463866896634
 20
-143.1654215136878
 10
116.2681830221482
 20
-143.0724039355861
 10
116.2089273798019
 20
-143.0045355545267
 10
116.2089273798019
 20
-142.8226345129055
 10
116.2089273798019
 20
-142.6428005285754
 10
116.3167588684903
 20
-142.3403211449705
 10
116.7229356262012
 20
-142.3403211449705
 10
117.0422959776839
 20
-142.3403211449705
 10
117.2624375791913
 20
-142.5394476640179
 10
117.2624375791913
 20
-142.8567409582094
 97
        0
 97
        0
 92
        1
 93
        1
 72
     4
 94
        3
 73
     0
 74
     1
 95
       17
 96
       13
 40
0.0
 40
0.0
 40
0.0
 40
0.0
 40
1.0
 40
1.0
 40
1.0
 40
2.0
 40
2.0
 40
2.0
 40
3.0
 40
3.0
 40
3.0
 40
4.0
 40
4.0
 40
4.0
 40
4.0
 10
116.4035752747186
 20
-142.8398599903317
 10
116.4035752747186
 20
-143.1020317567592
 10
116.6151041375129
 20
-143.139927807097
 10
116.7315483649143
 20
-143.139927807097
 10
116.9072482346621
 20
-143.139927807097
 10
117.0698567415659
 20
-143.0448431717041
 10
117.0698567415659
 20
-142.8608750727917
 10
117.0698567415659
 20
-142.740296730808
 10
117.0106010992196
 20
-142.5645968610602
 10
116.7250026834924
 20
-142.5645968610602
 10
116.5007269674026
 20
-142.5645968610602
 10
116.4035752747186
 20
-142.7041232282129
 10
116.4035752747186
 20
-142.8398599903317
 97
        0
 97
        0
 75
     2
 76
     1
 98
        0
  0
POLYLINE
  5
73
330
6C
100
AcDbEntity
  8
_U+30EC_U+30A4_U+30E4_U+30FC 1
370
     0
100
AcDb2dPolyline
 66
     1
 10
0.0
 20
0.0
 30
0.0
  0
VERTEX
  5
74
330
73
100
AcDbEntity
  8
_U+30EC_U+30A4_U+30E4_U+30FC 1
370
     0
100
AcDbVertex
100
AcDb2dVertex
 10
117.2117946755582
 20
-142.1239691484968
 30
0.0
  0
VERTEX
  5
75
330
73
100
AcDbEntity
  8
_U+30EC_U+30A4_U+30E4_U+30FC 1
370
     0
100
AcDbVertex
100
AcDb2dVertex
 10
116.9599581955864
 20
-142.1239691484968
 30
0.0
  0
VERTEX
  5
76
330
73
100
AcDbEntity
  8
_U+30EC_U+30A4_U+30E4_U+30FC 1
370
     0
100
AcDbVertex
100
AcDb2dVertex
 10
116.9599581955864
 20
-141.872132668525
 30
0.0
  0
VERTEX
  5
77
330
73
100
AcDbEntity
  8
_U+30EC_U+30A4_U+30E4_U+30FC 1
370
     0
100
AcDbVertex
100
AcDb2dVertex
 10
117.2117946755582
 20
-141.872132668525
 30
0.0
  0
VERTEX
  5
78
330
73
100
AcDbEntity
  8
_U+30EC_U+30A4_U+30E4_U+30FC 1
370
     0
100
AcDbVertex
100
AcDb2dVertex
 10
117.2117946755582
 20
-142.1239691484968
 30
0.0
  0
SEQEND
  5
79
330
73
100
AcDbEntity
  8
_U+30EC_U+30A4_U+30E4_U+30FC 1
370
     0
  0
HATCH
  5
7A
330
6C
100
AcDbEntity
  8
_U+30EC_U+30A4_U+30E4_U+30FC 1
 62
     7
420
 16777215
100
AcDbHatch
 10
0.0
 20
0.0
 30
0.0
210
0.0
220
0.0
230
1.0
  2
SOLID
 70
     1
 71
     0
 91
        1
 92
        1
 93
        4
 72
     1
 10
117.2117946755582
 20
-142.1239691484968
 11
116.9599581955864
 21
-142.1239691484968
 72
     1
 10
116.9599581955864
 20
-142.1239691484968
 11
116.9599581955864
 21
-141.872132668525
 72
     1
 10
116.9599581955864
 20
-141.872132668525
 11
117.2117946755582
 21
-141.872132668525
 72
     1
 10
117.2117946755582
 20
-141.872132668525
 11
117.2117946755582
 21
-142.1239691484968
 97
        0
 75
     2
 76
     1
 98
        0
  0
SPLINE
  5
7B
330
6C
100
AcDbEntity
  8
_U+30EC_U+30A4_U+30E4_U+30FC 1
370
     0
100
AcDbSpline
210
0.0
220
0.0
230
1.0
 70
    11
 71
     3
 72
    53
 73
    49
 74
     0
 42
0.0000000001
 43
0.0000000001
 12
1.0
 22
0.0
 32
0.0
 13
1.0
 23
0.0
 33
0.0
 40
0.0
 40
0.0
 40
0.0
 40
0.0
 40
1.0
 40
1.0
 40
1.0
 40
2.0
 40
2.0
 40
2.0
 40
3.0
 40
3.0
 40
3.0
 40
4.0
 40
4.0
 40
4.0
 40
5.0
 40
5.0
 40
5.0
 40
6.0
 40
6.0
 40
6.0
 40
7.0
 40
7.0
 40
7.0
 40
8.0
 40
8.0
 40
8.0
 40
9.0
 40
9.0
 40
9.0
 40
10.0
 40
10.0
 40
10.0
 40
11.0
 40
11.0
 40
11.0
 40
12.0
 40
12.0
 40
12.0
 40
13.0
 40
13.0
 40
13.0
 40
14.0
 40
14.0
 40
14.0
 40
15.0
 40
15.0
 40
15.0
 40
16.0
 40
16.0
 40
16.0
 40
16.0
 10
117.2624375791913
 20
-141.154863788496
 30
0.0
 10
117.2624375791913
 20
-141.2330674560112
 30
0.0
 10
117.2455566113136
 20
-141.334697772826
 30
0.0
 10
117.182166854385
 20
-141.4363280896409
 30
0.0
 10
117.071923798857
 20
-141.609616392549
 30
0.0
 10
116.9410101704175
 20
-141.6309759845576
 30
0.0
 10
116.8328341721807
 20
-141.6499240097264
 30
0.0
 10
116.8328341721807
 20
-141.6499240097264
 30
0.0
 10
116.8328341721807
 20
-141.4277153509278
 30
0.0
 10
116.8328341721807
 20
-141.4277153509278
 30
0.0
 10
117.0319606912281
 20
-141.3729383327123
 30
0.0
 10
117.0615885124013
 20
-141.2458143093066
 30
0.0
 10
117.0615885124013
 20
-141.1527967312049
 30
0.0
 10
117.0615885124013
 20
-141.0132703640522
 30
0.0
 10
116.9620252528776
 20
-140.8609971436042
 30
0.0
 10
116.7294813076232
 20
-140.8609971436042
 30
0.0
 10
116.4731662035206
 20
-140.8609971436042
 30
0.0
 10
116.4035752747186
 20
-141.0408311279342
 30
0.0
 10
116.4035752747186
 20
-141.161409469918
 30
0.0
 10
116.4035752747186
 20
-141.1931043483823
 30
0.0
 10
116.4035752747186
 20
-141.334697772826
 30
0.0
 10
116.5324218458669
 20
-141.4235812363455
 30
0.0
 10
116.5324218458669
 20
-141.4235812363455
 30
0.0
 10
116.513473820698
 20
-141.5992811060932
 30
0.0
 10
116.513473820698
 20
-141.5992811060932
 30
0.0
 10
116.513473820698
 20
-141.5992811060932
 30
0.0
 10
115.6673583695207
 20
-141.4787027641095
 30
0.0
 10
115.6673583695207
 20
-141.4787027641095
 30
0.0
 10
115.6673583695207
 20
-141.4787027641095
 30
0.0
 10
115.6673583695207
 20
-140.700111184443
 30
0.0
 10
115.6673583695207
 20
-140.700111184443
 30
0.0
 10
115.6673583695207
 20
-140.700111184443
 30
0.0
 10
115.8620062644373
 20
-140.700111184443
 30
0.0
 10
115.8620062644373
 20
-140.700111184443
 30
0.0
 10
115.8620062644373
 20
-140.700111184443
 30
0.0
 10
115.8620062644373
 20
-141.3157497476572
 30
0.0
 10
115.8620062644373
 20
-141.3157497476572
 30
0.0
 10
115.8620062644373
 20
-141.3157497476572
 30
0.0
 10
116.285063990026
 20
-141.3812065618769
 30
0.0
 10
116.285063990026
 20
-141.3812065618769
 30
0.0
 10
116.2513020542705
 20
-141.3198838622395
 30
0.0
 10
116.2109944370931
 20
-141.237546080142
 30
0.0
 10
116.2109944370931
 20
-141.1190347954494
 30
0.0
 10
116.2109944370931
 20
-140.8651312581865
 30
0.0
 10
116.3973741028451
 20
-140.6281086888013
 30
0.0
 10
116.7101887729058
 20
-140.6281086888013
 30
0.0
 10
117.0278265766458
 20
-140.6281086888013
 30
0.0
 10
117.2624375791913
 20
-140.8523844048911
 30
0.0
 10
117.2624375791913
 20
-141.154863788496
 30
0.0
  0
HATCH
  5
7C
330
6C
100
AcDbEntity
  8
_U+30EC_U+30A4_U+30E4_U+30FC 1
 62
     7
420
 16777215
100
AcDbHatch
 10
0.0
 20
0.0
 30
0.0
210
0.0
220
0.0
230
1.0
  2
SOLID
 70
     1
 71
     0
 91
        1
 92
        1
 93
        1
 72
     4
 94
        3
 73
     0
 74
     1
 95
       53
 96
       49
 40
0.0
 40
0.0
 40
0.0
 40
0.0
 40
1.0
 40
1.0
 40
1.0
 40
2.0
 40
2.0
 40
2.0
 40
3.0
 40
3.0
 40
3.0
 40
4.0
 40
4.0
 40
4.0
 40
5.0
 40
5.0
 40
5.0
 40
6.0
 40
6.0
 40
6.0
 40
7.0
 40
7.0
 40
7.0
 40
8.0
 40
8.0
 40
8.0
 40
9.0
 40
9.0
 40
9.0
 40
10.0
 40
10.0
 40
10.0
 40
11.0
 40
11.0
 40
11.0
 40
12.0
 40
12.0
 40
12.0
 40
13.0
 40
13.0
 40
13.0
 40
14.0
 40
14.0
 40
14.0
 40
15.0
 40
15.0
 40
15.0
 40
16.0
 40
16.0
 40
16.0
 40
16.0
 10
117.2624375791913
 20
-141.154863788496
 10
117.2624375791913
 20
-141.2330674560112
 10
117.2455566113136
 20
-141.334697772826
 10
117.182166854385
 20
-141.4363280896409
 10
117.071923798857
 20
-141.609616392549
 10
116.9410101704175
 20
-141.6309759845576
 10
116.8328341721807
 20
-141.6499240097264
 10
116.8328341721807
 20
-141.6499240097264
 10
116.8328341721807
 20
-141.4277153509278
 10
116.8328341721807
 20
-141.4277153509278
 10
117.0319606912281
 20
-141.3729383327123
 10
117.0615885124013
 20
-141.2458143093066
 10
117.0615885124013
 20
-141.1527967312049
 10
117.0615885124013
 20
-141.0132703640522
 10
116.9620252528776
 20
-140.8609971436042
 10
116.7294813076232
 20
-140.8609971436042
 10
116.4731662035206
 20
-140.8609971436042
 10
116.4035752747186
 20
-141.0408311279342
 10
116.4035752747186
 20
-141.161409469918
 10
116.4035752747186
 20
-141.1931043483823
 10
116.4035752747186
 20
-141.334697772826
 10
116.5324218458669
 20
-141.4235812363455
 10
116.5324218458669
 20
-141.4235812363455
 10
116.513473820698
 20
-141.5992811060932
 10
116.513473820698
 20
-141.5992811060932
 10
116.513473820698
 20
-141.5992811060932
 10
115.6673583695207
 20
-141.4787027641095
 10
115.6673583695207
 20
-141.4787027641095
 10
115.6673583695207
 20
-141.4787027641095
 10
115.6673583695207
 20
-140.700111184443
 10
115.6673583695207
 20
-140.700111184443
 10
115.6673583695207
 20
-140.700111184443
 10
115.8620062644373
 20
-140.700111184443
 10
115.8620062644373
 20
-140.700111184443
 10
115.8620062644373
 20
-140.700111184443
 10
115.8620062644373
 20
-141.3157497476572
 10
115.8620062644373
 20
-141.3157497476572
 10
115.8620062644373
 20
-141.3157497476572
 10
116.285063990026
 20
-141.3812065618769
 10
116.285063990026
 20
-141.3812065618769
 10
116.2513020542705
 20
-141.3198838622395
 10
116.2109944370931
 20
-141.237546080142
 10
116.2109944370931
 20
-141.1190347954494
 10
116.2109944370931
 20
-140.8651312581865
 10
116.3973741028451
 20
-140.6281086888013
 10
116.7101887729058
 20
-140.6281086888013
 10
117.0278265766458
 20
-140.6281086888013
 10
117.2624375791913
 20
-140.8523844048911
 10
117.2624375791913
 20
-141.154863788496
 97
        0
 97
        0
 75
     2
 76
     1
 98
        0
  0
ENDBLK
  5
6F
330
6C
100
AcDbEntity
  8
0
100
AcDbBlockEnd
  0
BLOCK
  5
7F
330
7D
100
AcDbEntity
  8
0
100
AcDbBlockBegin
  2
block 4
 70
     0
 10
0.0
 20
0.0
 30
0.0
  3
block 4
  1

  0
POLYLINE
  5
81
330
7D
100
AcDbEntity
  8
_U+30EC_U+30A4_U+30E4_U+30FC 1
370
     0
100
AcDb2dPolyline
 66
     1
 10
0.0
 20
0.0
 30
0.0
  0
VERTEX
  5
82
330
81
100
AcDbEntity
  8
_U+30EC_U+30A4_U+30E4_U+30FC 1
370
     0
100
AcDbVertex
100
AcDb2dVertex
 10
113.8586832397645
 20
-143.0417425857673
 30
0.0
  0
VERTEX
  5
83
330
81
100
AcDbEntity
  8
_U+30EC_U+30A4_U+30E4_U+30FC 1
370
     0
100
AcDbVertex
100
AcDb2dVertex
 10
114.2056043551292
 20
-143.0417425857673
 30
0.0
  0
VERTEX
  5
84
330
81
100
AcDbEntity
  8
_U+30EC_U+30A4_U+30E4_U+30FC 1
370
     0
100
AcDbVertex
100
AcDb2dVertex
 10
114.2056043551292
 20
-143.2594726204351
 30
0.0
  0
VERTEX
  5
85
330
81
100
AcDbEntity
  8
_U+30EC_U+30A4_U+30E4_U+30FC 1
370
     0
100
AcDbVertex
100
AcDb2dVertex
 10
113.8586832397645
 20
-143.2594726204351
 30
0.0
  0
VERTEX
  5
86
330
81
100
AcDbEntity
  8
_U+30EC_U+30A4_U+30E4_U+30FC 1
370
     0
100
AcDbVertex
100
AcDb2dVertex
 10
113.8586832397645
 20
-143.9154188008267
 30
0.0
  0
VERTEX
  5
87
330
81
100
AcDbEntity
  8
_U+30EC_U+30A4_U+30E4_U+30FC 1
370
     0
100
AcDbVertex
100
AcDb2dVertex
 10
113.6344075236747
 20
-143.9154188008267
 30
0.0
  0
VERTEX
  5
88
330
81
100
AcDbEntity
  8
_U+30EC_U+30A4_U+30E4_U+30FC 1
370
     0
100
AcDbVertex
100
AcDb2dVertex
 10
112.6615125586402
 20
-143.236390480684
 30
0.0
  0
VERTEX
  5
89
330
81
100
AcDbEntity
  8
_U+30EC_U+30A4_U+30E4_U+30FC 1
370
     0
100
AcDbVertex
100
AcDb2dVertex
 10
112.6615125586402
 20
-143.0417425857673
 30
0.0
  0
VERTEX
  5
8A
330
81
100
AcDbEntity
  8
_U+30EC_U+30A4_U+30E4_U+30FC 1
370
     0
100
AcDbVertex
100
AcDb2dVertex
 10
113.6599012302656
 20
-143.0417425857673
 30
0.0
  0
VERTEX
  5
8B
330
81
100
AcDbEntity
  8
_U+30EC_U+30A4_U+30E4_U+30FC 1
370
     0
100
AcDbVertex
100
AcDb2dVertex
 10
113.6599012302656
 20
-142.8343478375553
 30
0.0
  0
VERTEX
  5
8C
330
81
100
AcDbEntity
  8
_U+30EC_U+30A4_U+30E4_U+30FC 1
370
     0
100
AcDbVertex
100
AcDb2dVertex
 10
113.8586832397645
 20
-142.8343478375553
 30
0.0
  0
VERTEX
  5
8D
330
81
100
AcDbEntity
  8
_U+30EC_U+30A4_U+30E4_U+30FC 1
370
     0
100
AcDbVertex
100
AcDb2dVertex
 10
113.8586832397645
 20
-143.0417425857673
 30
0.0
  0
SEQEND
  5
8E
330
81
100
AcDbEntity
  8
_U+30EC_U+30A4_U+30E4_U+30FC 1
370
     0
  0
POLYLINE
  5
8F
330
7D
100
AcDbEntity
  8
_U+30EC_U+30A4_U+30E4_U+30FC 1
370
     0
100
AcDb2dPolyline
 66
     1
 10
0.0
 20
0.0
 30
0.0
  0
VERTEX
  5
90
330
8F
100
AcDbEntity
  8
_U+30EC_U+30A4_U+30E4_U+30FC 1
370
     0
100
AcDbVertex
100
AcDb2dVertex
 10
113.003955049874
 20
-143.2594726204351
 30
0.0
  0
VERTEX
  5
91
330
8F
100
AcDbEntity
  8
_U+30EC_U+30A4_U+30E4_U+30FC 1
370
     0
100
AcDbVertex
100
AcDb2dVertex
 10
113.6599012302656
 20
-143.7166367913278
 30
0.0
  0
VERTEX
  5
92
330
8F
100
AcDbEntity
  8
_U+30EC_U+30A4_U+30E4_U+30FC 1
370
     0
100
AcDbVertex
100
AcDb2dVertex
 10
113.6599012302656
 20
-143.2594726204351
 30
0.0
  0
VERTEX
  5
93
330
8F
100
AcDbEntity
  8
_U+30EC_U+30A4_U+30E4_U+30FC 1
370
     0
100
AcDbVertex
100
AcDb2dVertex
 10
113.003955049874
 20
-143.2594726204351
 30
0.0
  0
SEQEND
  5
94
330
8F
100
AcDbEntity
  8
_U+30EC_U+30A4_U+30E4_U+30FC 1
370
     0
  0
HATCH
  5
95
330
7D
100
AcDbEntity
  8
_U+30EC_U+30A4_U+30E4_U+30FC 1
 62
     7
420
 16777215
100
AcDbHatch
 10
0.0
 20
0.0
 30
0.0
210
0.0
220
0.0
230
1.0
  2
SOLID
 70
     1
 71
     0
 91
        2
 92
        1
 93
       11
 72
     1
 10
113.8586832397645
 20
-143.0417425857673
 11
114.2056043551292
 21
-143.0417425857673
 72
     1
 10
114.2056043551292
 20
-143.0417425857673
 11
114.2056043551292
 21
-143.2594726204351
 72
     1
 10
114.2056043551292
 20
-143.2594726204351
 11
113.8586832397645
 21
-143.2594726204351
 72
     1
 10
113.8586832397645
 20
-143.2594726204351
 11
113.8586832397645
 21
-143.9154188008267
 72
     1
 10
113.8586832397645
 20
-143.9154188008267
 11
113.6344075236747
 21
-143.9154188008267
 72
     1
 10
113.6344075236747
 20
-143.9154188008267
 11
112.6615125586402
 21
-143.236390480684
 72
     1
 10
112.6615125586402
 20
-143.236390480684
 11
112.6615125586402
 21
-143.0417425857673
 72
     1
 10
112.6615125586402
 20
-143.0417425857673
 11
113.6599012302656
 21
-143.0417425857673
 72
     1
 10
113.6599012302656
 20
-143.0417425857673
 11
113.6599012302656
 21
-142.8343478375553
 72
     1
 10
113.6599012302656
 20
-142.8343478375553
 11
113.8586832397645
 21
-142.8343478375553
 72
     1
 10
113.8586832397645
 20
-142.8343478375553
 11
113.8586832397645
 21
-143.0417425857673
 97
        0
 92
        1
 93
        3
 72
     1
 10
113.003955049874
 20
-143.2594726204351
 11
113.6599012302656
 21
-143.7166367913278
 72
     1
 10
113.6599012302656
 20
-143.7166367913278
 11
113.6599012302656
 21
-143.2594726204351
 72
     1
 10
113.6599012302656
 20
-143.2594726204351
 11
113.003955049874
 21
-143.2594726204351
 97
        0
 75
     2
 76
     1
 98
        0
  0
ENDBLK
  5
80
330
7D
100
AcDbEntity
  8
0
100
AcDbBlockEnd
  0
BLOCK
  5
98
330
96
100
AcDbEntity
  8
0
100
AcDbBlockBegin
  2
block 5
 70
     0
 10
0.0
 20
0.0
 30
0.0
  3
block 5
  1

  0
SPLINE
  5
9A
330
96
100
AcDbEntity
  8
_U+30EC_U+30A4_U+30E4_U+30FC 1
370
     0
100
AcDbSpline
210
0.0
220
0.0
230
1.0
 70
    11
 71
     3
 72
    26
 73
    22
 74
     0
 42
0.0000000001
 43
0.0000000001
 12
1.0
 22
0.0
 32
0.0
 13
1.0
 23
0.0
 33
0.0
 40
0.0
 40
0.0
 40
0.0
 40
0.0
 40
1.0
 40
1.0
 40
1.0
 40
2.0
 40
2.0
 40
2.0
 40
3.0
 40
3.0
 40
3.0
 40
4.0
 40
4.0
 40
4.0
 40
5.0
 40
5.0
 40
5.0
 40
6.0
 40
6.0
 40
6.0
 40
7.0
 40
7.0
 40
7.0
 40
7.0
 10
117.2117946755582
 20
-136.5880452132488
 30
0.0
 10
117.2117946755582
 20
-136.5880452132488
 30
0.0
 10
116.1072970629871
 20
-136.5880452132488
 30
0.0
 10
116.1072970629871
 20
-136.5880452132488
 30
0.0
 10
116.1072970629871
 20
-136.5880452132488
 30
0.0
 10
116.1072970629871
 20
-136.9180853607358
 30
0.0
 10
116.1072970629871
 20
-136.9180853607358
 30
0.0
 10
116.1072970629871
 20
-136.9180853607358
 30
0.0
 10
115.9591579571213
 20
-136.9180853607358
 30
0.0
 10
115.9591579571213
 20
-136.9180853607358
 30
0.0
 10
115.9446885560833
 20
-136.5859781559577
 30
0.0
 10
115.7813910300824
 20
-136.5394693669068
 30
0.0
 10
115.6673583695207
 20
-136.5098415457337
 30
0.0
 10
115.6673583695207
 20
-136.5098415457337
 30
0.0
 10
115.6673583695207
 20
-136.3637694971591
 30
0.0
 10
115.6673583695207
 20
-136.3637694971591
 30
0.0
 10
115.6673583695207
 20
-136.3637694971591
 30
0.0
 10
117.2117946755582
 20
-136.3637694971591
 30
0.0
 10
117.2117946755582
 20
-136.3637694971591
 30
0.0
 10
117.2117946755582
 20
-136.3637694971591
 30
0.0
 10
117.2117946755582
 20
-136.5880452132488
 30
0.0
 10
117.2117946755582
 20
-136.5880452132488
 30
0.0
  0
HATCH
  5
9B
330
96
100
AcDbEntity
  8
_U+30EC_U+30A4_U+30E4_U+30FC 1
 62
     7
420
 16777215
100
AcDbHatch
 10
0.0
 20
0.0
 30
0.0
210
0.0
220
0.0
230
1.0
  2
SOLID
 70
     1
 71
     0
 91
        1
 92
        1
 93
        1
 72
     4
 94
        3
 73
     0
 74
     1
 95
       26
 96
       22
 40
0.0
 40
0.0
 40
0.0
 40
0.0
 40
1.0
 40
1.0
 40
1.0
 40
2.0
 40
2.0
 40
2.0
 40
3.0
 40
3.0
 40
3.0
 40
4.0
 40
4.0
 40
4.0
 40
5.0
 40
5.0
 40
5.0
 40
6.0
 40
6.0
 40
6.0
 40
7.0
 40
7.0
 40
7.0
 40
7.0
 10
117.2117946755582
 20
-136.5880452132488
 10
117.2117946755582
 20
-136.5880452132488
 10
116.1072970629871
 20
-136.5880452132488
 10
116.1072970629871
 20
-136.5880452132488
 10
116.1072970629871
 20
-136.5880452132488
 10
116.1072970629871
 20
-136.9180853607358
 10
116.1072970629871
 20
-136.9180853607358
 10
116.1072970629871
 20
-136.9180853607358
 10
115.9591579571213
 20
-136.9180853607358
 10
115.9591579571213
 20
-136.9180853607358
 10
115.9446885560833
 20
-136.5859781559577
 10
115.7813910300824
 20
-136.5394693669068
 10
115.6673583695207
 20
-136.5098415457337
 10
115.6673583695207
 20
-136.5098415457337
 10
115.6673583695207
 20
-136.3637694971591
 10
115.6673583695207
 20
-136.3637694971591
 10
115.6673583695207
 20
-136.3637694971591
 10
117.2117946755582
 20
-136.3637694971591
 10
117.2117946755582
 20
-136.3637694971591
 10
117.2117946755582
 20
-136.3637694971591
 10
117.2117946755582
 20
-136.5880452132488
 10
117.2117946755582
 20
-136.5880452132488
 97
        0
 97
        0
 75
     2
 76
     1
 98
        0
  0
ENDBLK
  5
99
330
96
100
AcDbEntity
  8
0
100
AcDbBlockEnd
  0
BLOCK
  5
9E
330
9C
100
AcDbEntity
  8
0
100
AcDbBlockBegin
  2
block 6
 70
     0
 10
0.0
 20
0.0
 30
0.0
  3
block 6
  1

  0
SPLINE
  5
A0
330
9C
100
AcDbEntity
  8
_U+30EC_U+30A4_U+30E4_U+30FC 1
370
     0
100
AcDbSpline
210
0.0
220
0.0
230
1.0
 70
    11
 71
     3
 72
    26
 73
    22
 74
     0
 42
0.0000000001
 43
0.0000000001
 12
1.0
 22
0.0
 32
0.0
 13
1.0
 23
0.0
 33
0.0
 40
0.0
 40
0.0
 40
0.0
 40
0.0
 40
1.0
 40
1.0
 40
1.0
 40
2.0
 40
2.0
 40
2.0
 40
3.0
 40
3.0
 40
3.0
 40
4.0
 40
4.0
 40
4.0
 40
5.0
 40
5.0
 40
5.0
 40
6.0
 40
6.0
 40
6.0
 40
7.0
 40
7.0
 40
7.0
 40
7.0
 10
66.05229897437235
 20
-114.4233343897969
 30
0.0
 10
66.05229897437235
 20
-114.4233343897969
 30
0.0
 10
64.94797361657551
 20
-114.4233343897969
 30
0.0
 10
64.94797361657551
 20
-114.4233343897969
 30
0.0
 10
64.94797361657551
 20
-114.4233343897969
 30
0.0
 10
64.94797361657551
 20
-114.7533745372839
 30
0.0
 10
64.94797361657551
 20
-114.7533745372839
 30
0.0
 10
64.94797361657551
 20
-114.7533745372839
 30
0.0
 10
64.80000676548403
 20
-114.7533745372839
 30
0.0
 10
64.80000676548403
 20
-114.7533745372839
 30
0.0
 10
64.78519285489746
 20
-114.4212673325058
 30
0.0
 10
64.62223983844514
 20
-114.3747585434549
 30
0.0
 10
64.50803492310911
 20
-114.3451307222818
 30
0.0
 10
64.50803492310911
 20
-114.3451307222818
 30
0.0
 10
64.50803492310911
 20
-114.1990586737072
 30
0.0
 10
64.50803492310911
 20
-114.1990586737072
 30
0.0
 10
64.50803492310911
 20
-114.1990586737072
 30
0.0
 10
66.05229897437235
 20
-114.1990586737072
 30
0.0
 10
66.05229897437235
 20
-114.1990586737072
 30
0.0
 10
66.05229897437235
 20
-114.1990586737072
 30
0.0
 10
66.05229897437235
 20
-114.4233343897969
 30
0.0
 10
66.05229897437235
 20
-114.4233343897969
 30
0.0
  0
HATCH
  5
A1
330
9C
100
AcDbEntity
  8
_U+30EC_U+30A4_U+30E4_U+30FC 1
 62
     7
420
 16777215
100
AcDbHatch
 10
0.0
 20
0.0
 30
0.0
210
0.0
220
0.0
230
1.0
  2
SOLID
 70
     1
 71
     0
 91
        1
 92
        1
 93
        1
 72
     4
 94
        3
 73
     0
 74
     1
 95
       26
 96
       22
 40
0.0
 40
0.0
 40
0.0
 40
0.0
 40
1.0
 40
1.0
 40
1.0
 40
2.0
 40
2.0
 40
2.0
 40
3.0
 40
3.0
 40
3.0
 40
4.0
 40
4.0
 40
4.0
 40
5.0
 40
5.0
 40
5.0
 40
6.0
 40
6.0
 40
6.0
 40
7.0
 40
7.0
 40
7.0
 40
7.0
 10
66.05229897437235
 20
-114.4233343897969
 10
66.05229897437235
 20
-114.4233343897969
 10
64.94797361657551
 20
-114.4233343897969
 10
64.94797361657551
 20
-114.4233343897969
 10
64.94797361657551
 20
-114.4233343897969
 10
64.94797361657551
 20
-114.7533745372839
 10
64.94797361657551
 20
-114.7533745372839
 10
64.94797361657551
 20
-114.7533745372839
 10
64.80000676548403
 20
-114.7533745372839
 10
64.80000676548403
 20
-114.7533745372839
 10
64.78519285489746
 20
-114.4212673325058
 10
64.62223983844514
 20
-114.3747585434549
 10
64.50803492310911
 20
-114.3451307222818
 10
64.50803492310911
 20
-114.3451307222818
 10
64.50803492310911
 20
-114.1990586737072
 10
64.50803492310911
 20
-114.1990586737072
 10
64.50803492310911
 20
-114.1990586737072
 10
66.05229897437235
 20
-114.1990586737072
 10
66.05229897437235
 20
-114.1990586737072
 10
66.05229897437235
 20
-114.1990586737072
 10
66.05229897437235
 20
-114.4233343897969
 10
66.05229897437235
 20
-114.4233343897969
 97
        0
 97
        0
 75
     2
 76
     1
 98
        0
  0
SPLINE
  5
A2
330
9C
100
AcDbEntity
  8
_U+30EC_U+30A4_U+30E4_U+30FC 1
370
     0
100
AcDbSpline
210
0.0
220
0.0
230
1.0
 70
    11
 71
     3
 72
    26
 73
    22
 74
     0
 42
0.0000000001
 43
0.0000000001
 12
1.0
 22
0.0
 32
0.0
 13
1.0
 23
0.0
 33
0.0
 40
0.0
 40
0.0
 40
0.0
 40
0.0
 40
1.0
 40
1.0
 40
1.0
 40
2.0
 40
2.0
 40
2.0
 40
3.0
 40
3.0
 40
3.0
 40
4.0
 40
4.0
 40
4.0
 40
5.0
 40
5.0
 40
5.0
 40
6.0
 40
6.0
 40
6.0
 40
7.0
 40
7.0
 40
7.0
 40
7.0
 10
66.05229897437235
 20
-113.286797389213
 30
0.0
 10
66.05229897437235
 20
-113.286797389213
 30
0.0
 10
66.05229897437235
 20
-113.5238199585982
 30
0.0
 10
66.05229897437235
 20
-113.5238199585982
 30
0.0
 10
65.7434461641197
 20
-113.4983262520074
 30
0.0
 10
65.22513154836386
 20
-113.3057454143819
 30
0.0
 10
64.71956378590345
 20
-112.899568656671
 30
0.0
 10
64.71956378590345
 20
-112.899568656671
 30
0.0
 10
64.71956378590345
 20
-113.7374158786837
 30
0.0
 10
64.71956378590345
 20
-113.7374158786837
 30
0.0
 10
64.71956378590345
 20
-113.7374158786837
 30
0.0
 10
64.50803492310911
 20
-113.7374158786837
 30
0.0
 10
64.50803492310911
 20
-113.7374158786837
 30
0.0
 10
64.50803492310911
 20
-113.7374158786837
 30
0.0
 10
64.50803492310911
 20
-112.6625460872858
 30
0.0
 10
64.50803492310911
 20
-112.6625460872858
 30
0.0
 10
64.50803492310911
 20
-112.6625460872858
 30
0.0
 10
64.71956378590345
 20
-112.6625460872858
 30
0.0
 10
64.71956378590345
 20
-112.6625460872858
 30
0.0
 10
65.00929631621295
 20
-112.9863850628992
 30
0.0
 10
65.60168048490166
 20
-113.2530354534576
 30
0.0
 10
66.05229897437235
 20
-113.286797389213
 30
0.0
  0
HATCH
  5
A3
330
9C
100
AcDbEntity
  8
_U+30EC_U+30A4_U+30E4_U+30FC 1
 62
     7
420
 16777215
100
AcDbHatch
 10
0.0
 20
0.0
 30
0.0
210
0.0
220
0.0
230
1.0
  2
SOLID
 70
     1
 71
     0
 91
        1
 92
        1
 93
        1
 72
     4
 94
        3
 73
     0
 74
     1
 95
       26
 96
       22
 40
0.0
 40
0.0
 40
0.0
 40
0.0
 40
1.0
 40
1.0
 40
1.0
 40
2.0
 40
2.0
 40
2.0
 40
3.0
 40
3.0
 40
3.0
 40
4.0
 40
4.0
 40
4.0
 40
5.0
 40
5.0
 40
5.0
 40
6.0
 40
6.0
 40
6.0
 40
7.0
 40
7.0
 40
7.0
 40
7.0
 10
66.05229897437235
 20
-113.286797389213
 10
66.05229897437235
 20
-113.286797389213
 10
66.05229897437235
 20
-113.5238199585982
 10
66.05229897437235
 20
-113.5238199585982
 10
65.7434461641197
 20
-113.4983262520074
 10
65.22513154836386
 20
-113.3057454143819
 10
64.71956378590345
 20
-112.899568656671
 10
64.71956378590345
 20
-112.899568656671
 10
64.71956378590345
 20
-113.7374158786837
 10
64.71956378590345
 20
-113.7374158786837
 10
64.71956378590345
 20
-113.7374158786837
 10
64.50803492310911
 20
-113.7374158786837
 10
64.50803492310911
 20
-113.7374158786837
 10
64.50803492310911
 20
-113.7374158786837
 10
64.50803492310911
 20
-112.6625460872858
 10
64.50803492310911
 20
-112.6625460872858
 10
64.50803492310911
 20
-112.6625460872858
 10
64.71956378590345
 20
-112.6625460872858
 10
64.71956378590345
 20
-112.6625460872858
 10
65.00929631621295
 20
-112.9863850628992
 10
65.60168048490166
 20
-113.2530354534576
 10
66.05229897437235
 20
-113.286797389213
 97
        0
 97
        0
 75
     2
 76
     1
 98
        0
  0
ENDBLK
  5
9F
330
9C
100
AcDbEntity
  8
0
100
AcDbBlockEnd
  0
BLOCK
  5
A6
330
A4
100
AcDbEntity
  8
0
100
AcDbBlockBegin
  2
block 7
 70
     0
 10
0.0
 20
0.0
 30
0.0
  3
block 7
  1

  0
SPLINE
  5
A8
330
A4
100
AcDbEntity
  8
_U+30EC_U+30A4_U+30E4_U+30FC 1
370
     0
100
AcDbSpline
210
0.0
220
0.0
230
1.0
 70
    11
 71
     3
 72
    62
 73
    58
 74
     0
 42
0.0000000001
 43
0.0000000001
 12
1.0
 22
0.0
 32
0.0
 13
1.0
 23
0.0
 33
0.0
 40
0.0
 40
0.0
 40
0.0
 40
0.0
 40
1.0
 40
1.0
 40
1.0
 40
2.0
 40
2.0
 40
2.0
 40
3.0
 40
3.0
 40
3.0
 40
4.0
 40
4.0
 40
4.0
 40
5.0
 40
5.0
 40
5.0
 40
6.0
 40
6.0
 40
6.0
 40
7.0
 40
7.0
 40
7.0
 40
8.0
 40
8.0
 40
8.0
 40
9.0
 40
9.0
 40
9.0
 40
10.0
 40
10.0
 40
10.0
 40
11.0
 40
11.0
 40
11.0
 40
12.0
 40
12.0
 40
12.0
 40
13.0
 40
13.0
 40
13.0
 40
14.0
 40
14.0
 40
14.0
 40
15.0
 40
15.0
 40
15.0
 40
16.0
 40
16.0
 40
16.0
 40
17.0
 40
17.0
 40
17.0
 40
18.0
 40
18.0
 40
18.0
 40
19.0
 40
19.0
 40
19.0
 40
19.0
 10
66.10311413277978
 20
-123.8639295480271
 30
0.0
 10
66.10311413277978
 20
-123.9593586929685
 30
0.0
 10
66.0819267955455
 20
-124.1770887276363
 30
0.0
 10
65.89571938456774
 20
-124.3021456937509
 30
0.0
 10
65.78358152652285
 20
-124.3758707371352
 30
0.0
 10
65.6841905217734
 20
-124.380349361266
 30
0.0
 10
65.59961342761052
 20
-124.3844834758483
 30
0.0
 10
65.59961342761052
 20
-124.3844834758483
 30
0.0
 10
65.59961342761052
 20
-124.1643418743409
 30
0.0
 10
65.59961342761052
 20
-124.1643418743409
 30
0.0
 10
65.67368298054339
 20
-124.1622748170497
 30
0.0
 10
65.90846623786317
 20
-124.151939530594
 30
0.0
 10
65.90846623786317
 20
-123.8684081721579
 30
0.0
 10
65.90846623786317
 20
-123.7309488622964
 30
0.0
 10
65.83870305428685
 20
-123.5783311322999
 30
0.0
 10
65.61012096884053
 20
-123.5783311322999
 30
0.0
 10
65.49384899621334
 20
-123.5783311322999
 30
0.0
 10
65.44510089509706
 20
-123.6165716921861
 30
0.0
 10
65.41340601663276
 20
-123.6482665706504
 30
0.0
 10
65.3393364636999
 20
-123.7223361235833
 30
0.0
 10
65.32676186517872
 20
-123.8387803509847
 30
0.0
 10
65.32676186517872
 20
-123.8935573692002
 30
0.0
 10
65.32676186517872
 20
-123.9128499039176
 30
0.0
 10
65.32882892246988
 20
-123.9486788969642
 30
0.0
 10
65.33296303705218
 20
-123.9762396608462
 30
0.0
 10
65.33296303705218
 20
-123.9762396608462
 30
0.0
 10
65.13831514213557
 20
-123.9762396608462
 30
0.0
 10
65.13831514213557
 20
-123.9762396608462
 30
0.0
 10
65.14468856878328
 20
-123.93799910096
 30
0.0
 10
65.1469278808487
 20
-123.8959689360399
 30
0.0
 10
65.1469278808487
 20
-123.8894232546179
 30
0.0
 10
65.1469278808487
 20
-123.8239664403982
 30
0.0
 10
65.1257405436144
 20
-123.6251844308993
 30
0.0
 10
64.88871797422921
 20
-123.6251844308993
 30
0.0
 10
64.71112330196458
 20
-123.6251844308993
 30
0.0
 10
64.65600177420059
 20
-123.7560980593388
 30
0.0
 10
64.65600177420059
 20
-123.8663411148668
 30
0.0
 10
64.65600177420059
 20
-124.1305799385854
 30
0.0
 10
64.88871797422921
 20
-124.1391926772985
 30
0.0
 10
64.96072046987094
 20
-124.1433267918808
 30
0.0
 10
64.96072046987094
 20
-124.1433267918808
 30
0.0
 10
64.96072046987094
 20
-124.3465874255106
 30
0.0
 10
64.96072046987094
 20
-124.3465874255106
 30
0.0
 10
64.83583575853062
 20
-124.3379746867975
 30
0.0
 10
64.45928682199282
 20
-124.3104139229155
 30
0.0
 10
64.45928682199282
 20
-123.8535942615713
 30
0.0
 10
64.45928682199282
 20
-123.6293185454816
 30
0.0
 10
64.58623859062428
 20
-123.3881618615141
 30
0.0
 10
64.8823445475815
 20
-123.3881618615141
 30
0.0
 10
65.06855195855925
 20
-123.3881618615141
 30
0.0
 10
65.151061995431
 20
-123.483246496907
 30
0.0
 10
65.21238469506844
 20
-123.5828097564307
 30
0.0
 10
65.23994545895043
 20
-123.5214870567932
 30
0.0
 10
65.32038843853101
 20
-123.3395860151721
 30
0.0
 10
65.59754637031936
 20
-123.3395860151721
 30
0.0
 10
65.93602700174516
 20
-123.3395860151721
 30
0.0
 10
66.10311413277978
 20
-123.586943871013
 30
0.0
 10
66.10311413277978
 20
-123.8639295480271
 30
0.0
  0
HATCH
  5
A9
330
A4
100
AcDbEntity
  8
_U+30EC_U+30A4_U+30E4_U+30FC 1
 62
     7
420
 16777215
100
AcDbHatch
 10
0.0
 20
0.0
 30
0.0
210
0.0
220
0.0
230
1.0
  2
SOLID
 70
     1
 71
     0
 91
        1
 92
        1
 93
        1
 72
     4
 94
        3
 73
     0
 74
     1
 95
       62
 96
       58
 40
0.0
 40
0.0
 40
0.0
 40
0.0
 40
1.0
 40
1.0
 40
1.0
 40
2.0
 40
2.0
 40
2.0
 40
3.0
 40
3.0
 40
3.0
 40
4.0
 40
4.0
 40
4.0
 40
5.0
 40
5.0
 40
5.0
 40
6.0
 40
6.0
 40
6.0
 40
7.0
 40
7.0
 40
7.0
 40
8.0
 40
8.0
 40
8.0
 40
9.0
 40
9.0
 40
9.0
 40
10.0
 40
10.0
 40
10.0
 40
11.0
 40
11.0
 40
11.0
 40
12.0
 40
12.0
 40
12.0
 40
13.0
 40
13.0
 40
13.0
 40
14.0
 40
14.0
 40
14.0
 40
15.0
 40
15.0
 40
15.0
 40
16.0
 40
16.0
 40
16.0
 40
17.0
 40
17.0
 40
17.0
 40
18.0
 40
18.0
 40
18.0
 40
19.0
 40
19.0
 40
19.0
 40
19.0
 10
66.10311413277978
 20
-123.8639295480271
 10
66.10311413277978
 20
-123.9593586929685
 10
66.0819267955455
 20
-124.1770887276363
 10
65.89571938456774
 20
-124.3021456937509
 10
65.78358152652285
 20
-124.3758707371352
 10
65.6841905217734
 20
-124.380349361266
 10
65.59961342761052
 20
-124.3844834758483
 10
65.59961342761052
 20
-124.3844834758483
 10
65.59961342761052
 20
-124.1643418743409
 10
65.59961342761052
 20
-124.1643418743409
 10
65.67368298054339
 20
-124.1622748170497
 10
65.90846623786317
 20
-124.151939530594
 10
65.90846623786317
 20
-123.8684081721579
 10
65.90846623786317
 20
-123.7309488622964
 10
65.83870305428685
 20
-123.5783311322999
 10
65.61012096884053
 20
-123.5783311322999
 10
65.49384899621334
 20
-123.5783311322999
 10
65.44510089509706
 20
-123.6165716921861
 10
65.41340601663276
 20
-123.6482665706504
 10
65.3393364636999
 20
-123.7223361235833
 10
65.32676186517872
 20
-123.8387803509847
 10
65.32676186517872
 20
-123.8935573692002
 10
65.32676186517872
 20
-123.9128499039176
 10
65.32882892246988
 20
-123.9486788969642
 10
65.33296303705218
 20
-123.9762396608462
 10
65.33296303705218
 20
-123.9762396608462
 10
65.13831514213557
 20
-123.9762396608462
 10
65.13831514213557
 20
-123.9762396608462
 10
65.14468856878328
 20
-123.93799910096
 10
65.1469278808487
 20
-123.8959689360399
 10
65.1469278808487
 20
-123.8894232546179
 10
65.1469278808487
 20
-123.8239664403982
 10
65.1257405436144
 20
-123.6251844308993
 10
64.88871797422921
 20
-123.6251844308993
 10
64.71112330196458
 20
-123.6251844308993
 10
64.65600177420059
 20
-123.7560980593388
 10
64.65600177420059
 20
-123.8663411148668
 10
64.65600177420059
 20
-124.1305799385854
 10
64.88871797422921
 20
-124.1391926772985
 10
64.96072046987094
 20
-124.1433267918808
 10
64.96072046987094
 20
-124.1433267918808
 10
64.96072046987094
 20
-124.3465874255106
 10
64.96072046987094
 20
-124.3465874255106
 10
64.83583575853062
 20
-124.3379746867975
 10
64.45928682199282
 20
-124.3104139229155
 10
64.45928682199282
 20
-123.8535942615713
 10
64.45928682199282
 20
-123.6293185454816
 10
64.58623859062428
 20
-123.3881618615141
 10
64.8823445475815
 20
-123.3881618615141
 10
65.06855195855925
 20
-123.3881618615141
 10
65.151061995431
 20
-123.483246496907
 10
65.21238469506844
 20
-123.5828097564307
 10
65.23994545895043
 20
-123.5214870567932
 10
65.32038843853101
 20
-123.3395860151721
 10
65.59754637031936
 20
-123.3395860151721
 10
65.93602700174516
 20
-123.3395860151721
 10
66.10311413277978
 20
-123.586943871013
 10
66.10311413277978
 20
-123.8639295480271
 97
        0
 97
        0
 75
     2
 76
     1
 98
        0
  0
ENDBLK
  5
A7
330
A4
100
AcDbEntity
  8
0
100
AcDbBlockEnd
  0
BLOCK
  5
BC
330
BA
100
AcDbEntity
  8
0
100
AcDbBlockBegin
  2
block 8
 70
     0
 10
0.0
 20
0.0
 30
0.0
  3
block 8
  1

  0
SPLINE
  5
BE
330
BA
100
AcDbEntity
  8
_U+30EC_U+30A4_U+30E4_U+30FC 1
370
     0
100
AcDbSpline
210
0.0
220
0.0
230
1.0
 70
    11
 71
     3
 72
    44
 73
    40
 74
     0
 42
0.0000000001
 43
0.0000000001
 12
1.0
 22
0.0
 32
0.0
 13
1.0
 23
0.0
 33
0.0
 40
0.0
 40
0.0
 40
0.0
 40
0.0
 40
1.0
 40
1.0
 40
1.0
 40
2.0
 40
2.0
 40
2.0
 40
3.0
 40
3.0
 40
3.0
 40
4.0
 40
4.0
 40
4.0
 40
5.0
 40
5.0
 40
5.0
 40
6.0
 40
6.0
 40
6.0
 40
7.0
 40
7.0
 40
7.0
 40
8.0
 40
8.0
 40
8.0
 40
9.0
 40
9.0
 40
9.0
 40
10.0
 40
10.0
 40
10.0
 40
11.0
 40
11.0
 40
11.0
 40
12.0
 40
12.0
 40
12.0
 40
13.0
 40
13.0
 40
13.0
 40
13.0
 10
66.15237899821885
 20
-150.5978705135658
 30
0.0
 10
66.12895234891916
 20
-150.5534287818061
 30
0.0
 10
66.10793726645913
 20
-150.5007188208818
 30
0.0
 10
66.10569795439372
 20
-150.26989742337
 30
0.0
 10
66.10156383981142
 20
-150.0266736821114
 30
0.0
 10
66.04230819746512
 20
-149.9567382437608
 30
0.0
 10
65.86454127042623
 20
-149.9567382437608
 30
0.0
 10
65.86454127042623
 20
-149.9567382437608
 30
0.0
 10
65.45629745542412
 20
-149.9567382437608
 30
0.0
 10
65.45629745542412
 20
-149.9567382437608
 30
0.0
 10
65.45629745542412
 20
-149.9567382437608
 30
0.0
 10
65.45629745542412
 20
-150.5978705135658
 30
0.0
 10
65.45629745542412
 20
-150.5978705135658
 30
0.0
 10
65.45629745542412
 20
-150.5978705135658
 30
0.0
 10
65.22151419810434
 20
-150.5978705135658
 30
0.0
 10
65.22151419810434
 20
-150.5978705135658
 30
0.0
 10
65.22151419810434
 20
-150.5978705135658
 30
0.0
 10
65.22151419810434
 20
-149.0534342075283
 30
0.0
 10
65.22151419810434
 20
-149.0534342075283
 30
0.0
 10
65.22151419810434
 20
-149.0534342075283
 30
0.0
 10
65.89623614889052
 20
-149.0534342075283
 30
0.0
 10
65.89623614889052
 20
-149.0534342075283
 30
0.0
 10
66.20302190185203
 20
-149.0534342075283
 30
0.0
 10
66.3702812876609
 20
-149.2249999626937
 30
0.0
 10
66.3702812876609
 20
-149.4809705572478
 30
0.0
 10
66.3702812876609
 20
-149.531613460881
 30
0.0
 10
66.36166854894778
 20
-149.614295752527
 30
0.0
 10
66.31722681718806
 20
-149.6945664773333
 30
0.0
 10
66.25814342961603
 20
-149.7982638514393
 30
0.0
 10
66.19251436062201
 20
-149.8172118766082
 30
0.0
 10
66.13119166098457
 20
-149.8340928444859
 30
0.0
 10
66.26865097084604
 20
-149.8764675189545
 30
0.0
 10
66.3363470971312
 20
-149.9250433652965
 30
0.0
 10
66.34065346648775
 20
-150.2402696021969
 30
0.0
 10
66.34478758107005
 20
-150.5110541073375
 30
0.0
 10
66.38078882889091
 20
-150.5427489858018
 30
0.0
 10
66.44848495517607
 20
-150.5978705135658
 30
0.0
 10
66.44848495517607
 20
-150.5978705135658
 30
0.0
 10
66.15237899821885
 20
-150.5978705135658
 30
0.0
 10
66.15237899821885
 20
-150.5978705135658
 30
0.0
  0
SPLINE
  5
BF
330
BA
100
AcDbEntity
  8
_U+30EC_U+30A4_U+30E4_U+30FC 1
370
     0
100
AcDbSpline
210
0.0
220
0.0
230
1.0
 70
    11
 71
     3
 72
    20
 73
    16
 74
     0
 42
0.0000000001
 43
0.0000000001
 12
1.0
 22
0.0
 32
0.0
 13
1.0
 23
0.0
 33
0.0
 40
0.0
 40
0.0
 40
0.0
 40
0.0
 40
1.0
 40
1.0
 40
1.0
 40
2.0
 40
2.0
 40
2.0
 40
3.0
 40
3.0
 40
3.0
 40
4.0
 40
4.0
 40
4.0
 40
5.0
 40
5.0
 40
5.0
 40
5.0
 10
65.9005425182471
 20
-149.2649630703227
 30
0.0
 10
65.9005425182471
 20
-149.2649630703227
 30
0.0
 10
65.45629745542412
 20
-149.2649630703227
 30
0.0
 10
65.45629745542412
 20
-149.2649630703227
 30
0.0
 10
65.45629745542412
 20
-149.2649630703227
 30
0.0
 10
65.45629745542412
 20
-149.7452093809665
 30
0.0
 10
65.45629745542412
 20
-149.7452093809665
 30
0.0
 10
65.45629745542412
 20
-149.7452093809665
 30
0.0
 10
65.89847546095594
 20
-149.7452093809665
 30
0.0
 10
65.89847546095594
 20
-149.7452093809665
 30
0.0
 10
65.9978664657054
 20
-149.7452093809665
 30
0.0
 10
66.13325871827571
 20
-149.6690727707425
 30
0.0
 10
66.13325871827571
 20
-149.4978515251256
 30
0.0
 10
66.13325871827571
 20
-149.4196478576104
 30
0.0
 10
66.09949678252026
 20
-149.2649630703227
 30
0.0
 10
65.9005425182471
 20
-149.2649630703227
 30
0.0
  0
HATCH
  5
C0
330
BA
100
AcDbEntity
  8
_U+30EC_U+30A4_U+30E4_U+30FC 1
 62
     7
420
 16777215
100
AcDbHatch
 10
0.0
 20
0.0
 30
0.0
210
0.0
220
0.0
230
1.0
  2
SOLID
 70
     1
 71
     0
 91
        2
 92
        1
 93
        1
 72
     4
 94
        3
 73
     0
 74
     1
 95
       44
 96
       40
 40
0.0
 40
0.0
 40
0.0
 40
0.0
 40
1.0
 40
1.0
 40
1.0
 40
2.0
 40
2.0
 40
2.0
 40
3.0
 40
3.0
 40
3.0
 40
4.0
 40
4.0
 40
4.0
 40
5.0
 40
5.0
 40
5.0
 40
6.0
 40
6.0
 40
6.0
 40
7.0
 40
7.0
 40
7.0
 40
8.0
 40
8.0
 40
8.0
 40
9.0
 40
9.0
 40
9.0
 40
10.0
 40
10.0
 40
10.0
 40
11.0
 40
11.0
 40
11.0
 40
12.0
 40
12.0
 40
12.0
 40
13.0
 40
13.0
 40
13.0
 40
13.0
 10
66.15237899821885
 20
-150.5978705135658
 10
66.12895234891916
 20
-150.5534287818061
 10
66.10793726645913
 20
-150.5007188208818
 10
66.10569795439372
 20
-150.26989742337
 10
66.10156383981142
 20
-150.0266736821114
 10
66.04230819746512
 20
-149.9567382437608
 10
65.86454127042623
 20
-149.9567382437608
 10
65.86454127042623
 20
-149.9567382437608
 10
65.45629745542412
 20
-149.9567382437608
 10
65.45629745542412
 20
-149.9567382437608
 10
65.45629745542412
 20
-149.9567382437608
 10
65.45629745542412
 20
-150.5978705135658
 10
65.45629745542412
 20
-150.5978705135658
 10
65.45629745542412
 20
-150.5978705135658
 10
65.22151419810434
 20
-150.5978705135658
 10
65.22151419810434
 20
-150.5978705135658
 10
65.22151419810434
 20
-150.5978705135658
 10
65.22151419810434
 20
-149.0534342075283
 10
65.22151419810434
 20
-149.0534342075283
 10
65.22151419810434
 20
-149.0534342075283
 10
65.89623614889052
 20
-149.0534342075283
 10
65.89623614889052
 20
-149.0534342075283
 10
66.20302190185203
 20
-149.0534342075283
 10
66.3702812876609
 20
-149.2249999626937
 10
66.3702812876609
 20
-149.4809705572478
 10
66.3702812876609
 20
-149.531613460881
 10
66.36166854894778
 20
-149.614295752527
 10
66.31722681718806
 20
-149.6945664773333
 10
66.25814342961603
 20
-149.7982638514393
 10
66.19251436062201
 20
-149.8172118766082
 10
66.13119166098457
 20
-149.8340928444859
 10
66.26865097084604
 20
-149.8764675189545
 10
66.3363470971312
 20
-149.9250433652965
 10
66.34065346648775
 20
-150.2402696021969
 10
66.34478758107005
 20
-150.5110541073375
 10
66.38078882889091
 20
-150.5427489858018
 10
66.44848495517607
 20
-150.5978705135658
 10
66.44848495517607
 20
-150.5978705135658
 10
66.15237899821885
 20
-150.5978705135658
 10
66.15237899821885
 20
-150.5978705135658
 97
        0
 97
        0
 92
        1
 93
        1
 72
     4
 94
        3
 73
     0
 74
     1
 95
       20
 96
       16
 40
0.0
 40
0.0
 40
0.0
 40
0.0
 40
1.0
 40
1.0
 40
1.0
 40
2.0
 40
2.0
 40
2.0
 40
3.0
 40
3.0
 40
3.0
 40
4.0
 40
4.0
 40
4.0
 40
5.0
 40
5.0
 40
5.0
 40
5.0
 10
65.9005425182471
 20
-149.2649630703227
 10
65.9005425182471
 20
-149.2649630703227
 10
65.45629745542412
 20
-149.2649630703227
 10
65.45629745542412
 20
-149.2649630703227
 10
65.45629745542412
 20
-149.2649630703227
 10
65.45629745542412
 20
-149.7452093809665
 10
65.45629745542412
 20
-149.7452093809665
 10
65.45629745542412
 20
-149.7452093809665
 10
65.89847546095594
 20
-149.7452093809665
 10
65.89847546095594
 20
-149.7452093809665
 10
65.9978664657054
 20
-149.7452093809665
 10
66.13325871827571
 20
-149.6690727707425
 10
66.13325871827571
 20
-149.4978515251256
 10
66.13325871827571
 20
-149.4196478576104
 10
66.09949678252026
 20
-149.2649630703227
 10
65.9005425182471
 20
-149.2649630703227
 97
        0
 97
        0
 75
     2
 76
     1
 98
        0
  0
SPLINE
  5
C1
330
BA
100
AcDbEntity
  8
_U+30EC_U+30A4_U+30E4_U+30FC 1
370
     0
100
AcDbSpline
210
0.0
220
0.0
230
1.0
 70
    11
 71
     3
 72
    26
 73
    22
 74
     0
 42
0.0000000001
 43
0.0000000001
 12
1.0
 22
0.0
 32
0.0
 13
1.0
 23
0.0
 33
0.0
 40
0.0
 40
0.0
 40
0.0
 40
0.0
 40
1.0
 40
1.0
 40
1.0
 40
2.0
 40
2.0
 40
2.0
 40
3.0
 40
3.0
 40
3.0
 40
4.0
 40
4.0
 40
4.0
 40
5.0
 40
5.0
 40
5.0
 40
6.0
 40
6.0
 40
6.0
 40
7.0
 40
7.0
 40
7.0
 40
7.0
 10
67.03949108567069
 20
-150.5978705135658
 30
0.0
 10
67.03949108567069
 20
-150.5978705135658
 30
0.0
 10
67.03949108567069
 20
-149.4937174105432
 30
0.0
 10
67.03949108567069
 20
-149.4937174105432
 30
0.0
 10
67.03949108567069
 20
-149.4937174105432
 30
0.0
 10
66.70945093818375
 20
-149.4937174105432
 30
0.0
 10
66.70945093818375
 20
-149.4937174105432
 30
0.0
 10
66.70945093818375
 20
-149.4937174105432
 30
0.0
 10
66.70945093818375
 20
-149.3455783046775
 30
0.0
 10
66.70945093818375
 20
-149.3455783046775
 30
0.0
 10
67.04155814296183
 20
-149.3307643940909
 30
0.0
 10
67.08806693201271
 20
-149.1678113776386
 30
0.0
 10
67.11769475318586
 20
-149.0534342075283
 30
0.0
 10
67.11769475318586
 20
-149.0534342075283
 30
0.0
 10
67.26376680176045
 20
-149.0534342075283
 30
0.0
 10
67.26376680176045
 20
-149.0534342075283
 30
0.0
 10
67.26376680176045
 20
-149.0534342075283
 30
0.0
 10
67.26376680176045
 20
-150.5978705135658
 30
0.0
 10
67.26376680176045
 20
-150.5978705135658
 30
0.0
 10
67.26376680176045
 20
-150.5978705135658
 30
0.0
 10
67.03949108567069
 20
-150.5978705135658
 30
0.0
 10
67.03949108567069
 20
-150.5978705135658
 30
0.0
  0
HATCH
  5
C2
330
BA
100
AcDbEntity
  8
_U+30EC_U+30A4_U+30E4_U+30FC 1
 62
     7
420
 16777215
100
AcDbHatch
 10
0.0
 20
0.0
 30
0.0
210
0.0
220
0.0
230
1.0
  2
SOLID
 70
     1
 71
     0
 91
        1
 92
        1
 93
        1
 72
     4
 94
        3
 73
     0
 74
     1
 95
       26
 96
       22
 40
0.0
 40
0.0
 40
0.0
 40
0.0
 40
1.0
 40
1.0
 40
1.0
 40
2.0
 40
2.0
 40
2.0
 40
3.0
 40
3.0
 40
3.0
 40
4.0
 40
4.0
 40
4.0
 40
5.0
 40
5.0
 40
5.0
 40
6.0
 40
6.0
 40
6.0
 40
7.0
 40
7.0
 40
7.0
 40
7.0
 10
67.03949108567069
 20
-150.5978705135658
 10
67.03949108567069
 20
-150.5978705135658
 10
67.03949108567069
 20
-149.4937174105432
 10
67.03949108567069
 20
-149.4937174105432
 10
67.03949108567069
 20
-149.4937174105432
 10
66.70945093818375
 20
-149.4937174105432
 10
66.70945093818375
 20
-149.4937174105432
 10
66.70945093818375
 20
-149.4937174105432
 10
66.70945093818375
 20
-149.3455783046775
 10
66.70945093818375
 20
-149.3455783046775
 10
67.04155814296183
 20
-149.3307643940909
 10
67.08806693201271
 20
-149.1678113776386
 10
67.11769475318586
 20
-149.0534342075283
 10
67.11769475318586
 20
-149.0534342075283
 10
67.26376680176045
 20
-149.0534342075283
 10
67.26376680176045
 20
-149.0534342075283
 10
67.26376680176045
 20
-149.0534342075283
 10
67.26376680176045
 20
-150.5978705135658
 10
67.26376680176045
 20
-150.5978705135658
 10
67.26376680176045
 20
-150.5978705135658
 10
67.03949108567069
 20
-150.5978705135658
 10
67.03949108567069
 20
-150.5978705135658
 97
        0
 97
        0
 75
     2
 76
     1
 98
        0
  0
ENDBLK
  5
BD
330
BA
100
AcDbEntity
  8
0
100
AcDbBlockEnd
  0
ENDSEC
  0
SECTION
  2
ENTITIES
  0
SPLINE
  5
41
330
1F
100
AcDbEntity
  8
_U+30EC_U+30A4_U+30E4_U+30FC 1
 62
   253
420
 10855845
370
     9
100
AcDbSpline
210
0.0
220
0.0
230
1.0
 70
    11
 71
     3
 72
    83
 73
    79
 74
     0
 42
0.0000000001
 43
0.0000000001
 12
1.0
 22
0.0
 32
0.0
 13
1.0
 23
0.0
 33
0.0
 40
0.0
 40
0.0
 40
0.0
 40
0.0
 40
1.0
 40
1.0
 40
1.0
 40
2.0
 40
2.0
 40
2.0
 40
3.0
 40
3.0
 40
3.0
 40
4.0
 40
4.0
 40
4.0
 40
5.0
 40
5.0
 40
5.0
 40
6.0
 40
6.0
 40
6.0
 40
7.0
 40
7.0
 40
7.0
 40
8.0
 40
8.0
 40
8.0
 40
9.0
 40
9.0
 40
9.0
 40
10.0
 40
10.0
 40
10.0
 40
11.0
 40
11.0
 40
11.0
 40
12.0
 40
12.0
 40
12.0
 40
13.0
 40
13.0
 40
13.0
 40
14.0
 40
14.0
 40
14.0
 40
15.0
 40
15.0
 40
15.0
 40
16.0
 40
16.0
 40
16.0
 40
17.0
 40
17.0
 40
17.0
 40
18.0
 40
18.0
 40
18.0
 40
19.0
 40
19.0
 40
19.0
 40
20.0
 40
20.0
 40
20.0
 40
21.0
 40
21.0
 40
21.0
 40
22.0
 40
22.0
 40
22.0
 40
23.0
 40
23.0
 40
23.0
 40
24.0
 40
24.0
 40
24.0
 40
25.0
 40
25.0
 40
25.0
 40
26.0
 40
26.0
 40
26.0
 40
26.0
 10
90.14696131127053
 20
-145.4605435747463
 30
0.0
 10
90.14696131127053
 20
-145.4605435747463
 30
0.0
 10
90.14696131127053
 20
-141.4273763535323
 30
0.0
 10
90.14696131127053
 20
-141.4273763535323
 30
0.0
 10
90.14696131127053
 20
-141.4273763535323
 30
0.0
 10
93.14574873476509
 20
-141.4273763535323
 30
0.0
 10
93.14574873476509
 20
-141.4273763535323
 30
0.0
 10
93.14574873476509
 20
-141.4273763535323
 30
0.0
 10
93.14574873476509
 20
-138.9248413541578
 30
0.0
 10
93.14574873476509
 20
-138.9248413541578
 30
0.0
 10
93.14574873476509
 20
-138.9248413541578
 30
0.0
 10
93.1316023462371
 20
-138.9248413541578
 30
0.0
 10
93.1316023462371
 20
-138.9248413541578
 30
0.0
 10
93.1316023462371
 20
-138.9248413541578
 30
0.0
 10
110.1431460789031
 20
-138.9248413541578
 30
0.0
 10
110.1431460789031
 20
-138.9248413541578
 30
0.0
 10
110.1431460789031
 20
-138.9248413541578
 30
0.0
 10
110.1431460789031
 20
-137.8947655210817
 30
0.0
 10
110.1431460789031
 20
-137.8947655210817
 30
0.0
 10
110.1431460789031
 20
-137.8947655210817
 30
0.0
 10
92.1315126495293
 20
-137.8947655210817
 30
0.0
 10
92.1315126495293
 20
-137.8947655210817
 30
0.0
 10
92.1315126495293
 20
-137.8947655210817
 30
0.0
 10
92.1315126495293
 20
-137.9106052433002
 30
0.0
 10
92.1315126495293
 20
-137.9106052433002
 30
0.0
 10
92.1315126495293
 20
-137.9106052433002
 30
0.0
 10
92.1315126495293
 20
-140.4241469093385
 30
0.0
 10
92.1315126495293
 20
-140.4241469093385
 30
0.0
 10
92.1315126495293
 20
-140.4241469093385
 30
0.0
 10
89.13184328161279
 20
-140.4241469093385
 30
0.0
 10
89.13184328161279
 20
-140.4241469093385
 30
0.0
 10
89.13184328161279
 20
-140.4241469093385
 30
0.0
 10
89.13184328161279
 20
-144.4514932972207
 30
0.0
 10
89.13184328161279
 20
-144.4514932972207
 30
0.0
 10
89.13184328161279
 20
-144.4514932972207
 30
0.0
 10
71.7752828910822
 20
-144.4514932972207
 30
0.0
 10
71.7752828910822
 20
-144.4514932972207
 30
0.0
 10
71.04457429861301
 20
-144.4514932972207
 30
0.0
 10
71.15636957353867
 20
-143.5412913530034
 30
0.0
 10
71.15636957353867
 20
-143.5412913530034
 30
0.0
 10
71.15636957353867
 20
-143.5412913530034
 30
0.0
 10
71.15636957353867
 20
-126.4384483017237
 30
0.0
 10
71.15636957353867
 20
-126.4384483017237
 30
0.0
 10
71.15636957353867
 20
-126.4384483017237
 30
0.0
 10
75.12804752776827
 20
-126.4305108017256
 30
0.0
 10
75.12804752776827
 20
-126.4305108017256
 30
0.0
 10
75.12804752776827
 20
-126.4305108017256
 30
0.0
 10
75.14681530506725
 20
-123.4110858024804
 30
0.0
 10
75.14681530506725
 20
-123.4110858024804
 30
0.0
 10
75.14681530506725
 20
-123.4110858024804
 30
0.0
 10
77.67348024060665
 20
-123.4171183024789
 30
0.0
 10
77.67348024060665
 20
-123.4171183024789
 30
0.0
 10
77.67348024060665
 20
-123.4171183024789
 30
0.0
 10
77.67348024060665
 20
-105.4364583069742
 30
0.0
 10
77.67348024060665
 20
-105.4364583069742
 30
0.0
 10
77.67348024060665
 20
-105.4364583069742
 30
0.0
 10
76.64682637790989
 20
-105.4364583069742
 30
0.0
 10
76.64682637790989
 20
-105.4364583069742
 30
0.0
 10
76.64682637790989
 20
-105.4364583069742
 30
0.0
 10
76.64682637790989
 20
-122.4095849693976
 30
0.0
 10
76.64682637790989
 20
-122.4095849693976
 30
0.0
 10
76.64682637790989
 20
-122.4095849693976
 30
0.0
 10
74.14690199724383
 20
-122.4123366360637
 30
0.0
 10
74.14690199724383
 20
-122.4123366360637
 30
0.0
 10
74.14690199724383
 20
-122.4123366360637
 30
0.0
 10
74.14654921947505
 20
-125.420578579756
 30
0.0
 10
74.14654921947505
 20
-125.420578579756
 30
0.0
 10
74.14654921947505
 20
-125.420578579756
 30
0.0
 10
70.14696654373512
 20
-125.4384996908626
 30
0.0
 10
70.14696654373512
 20
-125.4384996908626
 30
0.0
 10
70.14696654373512
 20
-125.4384996908626
 30
0.0
 10
70.14696654373512
 20
-144.4304677416702
 30
0.0
 10
70.14696654373512
 20
-144.4304677416702
 30
0.0
 10
70.14696654373512
 20
-145.4450566303055
 30
0.0
 10
71.14603318491348
 20
-145.4312630191978
 30
0.0
 10
71.14603318491348
 20
-145.4312630191978
 30
0.0
 10
71.14603318491348
 20
-145.4312630191978
 30
0.0
 10
90.14696131127053
 20
-145.4605435747463
 30
0.0
 10
90.14696131127053
 20
-145.4605435747463
 30
0.0
  0
HATCH
  5
42
330
1F
100
AcDbEntity
  8
_U+30EC_U+30A4_U+30E4_U+30FC 1
 62
   253
420
 10855845
100
AcDbHatch
 10
0.0
 20
0.0
 30
0.0
210
0.0
220
0.0
230
1.0
  2
SOLID
 70
     1
 71
     0
 91
        1
 92
        1
 93
        2
 72
     4
 94
        3
 73
     0
 74
     0
 95
       83
 96
       79
 40
0.0
 40
0.0
 40
0.0
 40
0.0
 40
0.3527777776895833
 40
0.3527777776895833
 40
0.3527777776895833
 40
0.7055555553791667
 40
0.7055555553791667
 40
0.7055555553791667
 40
1.05833333306875
 40
1.05833333306875
 40
1.05833333306875
 40
1.411111110758333
 40
1.411111110758333
 40
1.411111110758333
 40
1.763888888447917
 40
1.763888888447917
 40
1.763888888447917
 40
2.1166666661375
 40
2.1166666661375
 40
2.1166666661375
 40
2.469444443827083
 40
2.469444443827083
 40
2.469444443827083
 40
2.822222221516667
 40
2.822222221516667
 40
2.822222221516667
 40
3.17499999920625
 40
3.17499999920625
 40
3.17499999920625
 40
3.527777776895833
 40
3.527777776895833
 40
3.527777776895833
 40
3.880555554585417
 40
3.880555554585417
 40
3.880555554585417
 40
4.233333332275
 40
4.233333332275
 40
4.233333332275
 40
4.586111109964584
 40
4.586111109964584
 40
4.586111109964584
 40
4.938888887654167
 40
4.938888887654167
 40
4.938888887654167
 40
5.29166666534375
 40
5.29166666534375
 40
5.29166666534375
 40
5.644444443033334
 40
5.644444443033334
 40
5.644444443033334
 40
5.997222220722917
 40
5.997222220722917
 40
5.997222220722917
 40
6.349999998412501
 40
6.349999998412501
 40
6.349999998412501
 40
6.702777776102083
 40
6.702777776102083
 40
6.702777776102083
 40
7.055555553791667
 40
7.055555553791667
 40
7.055555553791667
 40
7.40833333148125
 40
7.40833333148125
 40
7.40833333148125
 40
7.761111109170834
 40
7.761111109170834
 40
7.761111109170834
 40
8.113888886860417
 40
8.113888886860417
 40
8.113888886860417
 40
8.46666666455
 40
8.46666666455
 40
8.46666666455
 40
8.819444442239584
 40
8.819444442239584
 40
8.819444442239584
 40
9.172222219929168
 40
9.172222219929168
 40
9.172222219929168
 40
9.172222219929168
 10
90.14696131127053
 20
-145.4605435747463
 10
90.14696131127053
 20
-145.4605435747463
 10
90.14696131127053
 20
-141.4273763535323
 10
90.14696131127053
 20
-141.4273763535323
 10
90.14696131127053
 20
-141.4273763535323
 10
93.14574873476509
 20
-141.4273763535323
 10
93.14574873476509
 20
-141.4273763535323
 10
93.14574873476509
 20
-141.4273763535323
 10
93.14574873476509
 20
-138.9248413541578
 10
93.14574873476509
 20
-138.9248413541578
 10
93.14574873476509
 20
-138.9248413541578
 10
93.1316023462371
 20
-138.9248413541578
 10
93.1316023462371
 20
-138.9248413541578
 10
93.1316023462371
 20
-138.9248413541578
 10
110.1431460789031
 20
-138.9248413541578
 10
110.1431460789031
 20
-138.9248413541578
 10
110.1431460789031
 20
-138.9248413541578
 10
110.1431460789031
 20
-137.8947655210817
 10
110.1431460789031
 20
-137.8947655210817
 10
110.1431460789031
 20
-137.8947655210817
 10
92.1315126495293
 20
-137.8947655210817
 10
92.1315126495293
 20
-137.8947655210817
 10
92.1315126495293
 20
-137.8947655210817
 10
92.1315126495293
 20
-137.9106052433002
 10
92.1315126495293
 20
-137.9106052433002
 10
92.1315126495293
 20
-137.9106052433002
 10
92.1315126495293
 20
-140.4241469093385
 10
92.1315126495293
 20
-140.4241469093385
 10
92.1315126495293
 20
-140.4241469093385
 10
89.13184328161279
 20
-140.4241469093385
 10
89.13184328161279
 20
-140.4241469093385
 10
89.13184328161279
 20
-140.4241469093385
 10
89.13184328161279
 20
-144.4514932972207
 10
89.13184328161279
 20
-144.4514932972207
 10
89.13184328161279
 20
-144.4514932972207
 10
71.7752828910822
 20
-144.4514932972207
 10
71.7752828910822
 20
-144.4514932972207
 10
71.04457429861301
 20
-144.4514932972207
 10
71.15636957353867
 20
-143.5412913530034
 10
71.15636957353867
 20
-143.5412913530034
 10
71.15636957353867
 20
-143.5412913530034
 10
71.15636957353867
 20
-126.4384483017237
 10
71.15636957353867
 20
-126.4384483017237
 10
71.15636957353867
 20
-126.4384483017237
 10
75.12804752776827
 20
-126.4305108017256
 10
75.12804752776827
 20
-126.4305108017256
 10
75.12804752776827
 20
-126.4305108017256
 10
75.14681530506725
 20
-123.4110858024804
 10
75.14681530506725
 20
-123.4110858024804
 10
75.14681530506725
 20
-123.4110858024804
 10
77.67348024060665
 20
-123.4171183024789
 10
77.67348024060665
 20
-123.4171183024789
 10
77.67348024060665
 20
-123.4171183024789
 10
77.67348024060665
 20
-105.4364583069742
 10
77.67348024060665
 20
-105.4364583069742
 10
77.67348024060665
 20
-105.4364583069742
 10
76.64682637790989
 20
-105.4364583069742
 10
76.64682637790989
 20
-105.4364583069742
 10
76.64682637790989
 20
-105.4364583069742
 10
76.64682637790989
 20
-122.4095849693976
 10
76.64682637790989
 20
-122.4095849693976
 10
76.64682637790989
 20
-122.4095849693976
 10
74.14690199724383
 20
-122.4123366360637
 10
74.14690199724383
 20
-122.4123366360637
 10
74.14690199724383
 20
-122.4123366360637
 10
74.14654921947505
 20
-125.420578579756
 10
74.14654921947505
 20
-125.420578579756
 10
74.14654921947505
 20
-125.420578579756
 10
70.14696654373512
 20
-125.4384996908626
 10
70.14696654373512
 20
-125.4384996908626
 10
70.14696654373512
 20
-125.4384996908626
 10
70.14696654373512
 20
-144.4304677416702
 10
70.14696654373512
 20
-144.4304677416702
 10
70.14696654373512
 20
-145.4450566303055
 10
71.14603318491348
 20
-145.4312630191978
 10
71.14603318491348
 20
-145.4312630191978
 10
71.14603318491348
 20
-145.4312630191978
 10
90.14696131127053
 20
-145.4605435747463
 10
90.14696131127053
 20
-145.4605435747463
 97
        0
 72
     1
 10
90.14696131127053
 20
-145.4605435747463
 11
90.14696131127053
 21
-145.4605435747463
 97
        0
 75
     2
 76
     1
 98
        0
  0
POLYLINE
  5
43
330
1F
100
AcDbEntity
  8
_U+30EC_U+30A4_U+30E4_U+30FC 1
 62
     7
420
 16777215
370
     9
100
AcDb2dPolyline
 66
     1
 10
0.0
 20
0.0
 30
0.0
  0
VERTEX
  5
44
330
43
100
AcDbEntity
  8
_U+30EC_U+30A4_U+30E4_U+30FC 1
 62
     7
420
 16777215
370
     9
100
AcDbVertex
100
AcDb2dVertex
 10
66.69429524293122
 20
-145.4384949636407
 30
0.0
  0
VERTEX
  5
45
330
43
100
AcDbEntity
  8
_U+30EC_U+30A4_U+30E4_U+30FC 1
 62
     7
420
 16777215
370
     9
100
AcDbVertex
100
AcDb2dVertex
 10
66.69429524293122
 20
-105.4364583069742
 30
0.0
  0
SEQEND
  5
46
330
43
100
AcDbEntity
  8
_U+30EC_U+30A4_U+30E4_U+30FC 1
 62
     7
420
 16777215
370
     9
  0
POLYLINE
  5
47
330
1F
100
AcDbEntity
  8
_U+30EC_U+30A4_U+30E4_U+30FC 1
 62
     7
420
 16777215
370
     9
100
AcDb2dPolyline
 66
     1
 10
0.0
 20
0.0
 30
0.0
  0
VERTEX
  5
48
330
47
100
AcDbEntity
  8
_U+30EC_U+30A4_U+30E4_U+30FC 1
 62
     7
420
 16777215
370
     9
100
AcDbVertex
100
AcDb2dVertex
 10
68.54948297337921
 20
-145.4364135747523
 30
0.0
  0
VERTEX
  5
49
330
47
100
AcDbEntity
  8
_U+30EC_U+30A4_U+30E4_U+30FC 1
 62
     7
420
 16777215
370
     9
100
AcDbVertex
100
AcDb2dVertex
 10
65.79442971033315
 20
-145.4364135747523
 30
0.0
  0
SEQEND
  5
4A
330
47
100
AcDbEntity
  8
_U+30EC_U+30A4_U+30E4_U+30FC 1
 62
     7
420
 16777215
370
     9
  0
POLYLINE
  5
4B
330
1F
100
AcDbEntity
  8
_U+30EC_U+30A4_U+30E4_U+30FC 1
 62
     7
420
 16777215
370
     9
100
AcDb2dPolyline
 66
     1
 10
0.0
 20
0.0
 30
0.0
  0
VERTEX
  5
4C
330
4B
100
AcDbEntity
  8
_U+30EC_U+30A4_U+30E4_U+30FC 1
 62
     7
420
 16777215
370
     9
100
AcDbVertex
100
AcDb2dVertex
 10
116.6633259125595
 20
-145.4605435747463
 30
0.0
  0
VERTEX
  5
4D
330
4B
100
AcDbEntity
  8
_U+30EC_U+30A4_U+30E4_U+30FC 1
 62
     7
420
 16777215
370
     9
100
AcDbVertex
100
AcDb2dVertex
 10
91.12775406402619
 20
-145.4605435747463
 30
0.0
  0
SEQEND
  5
4E
330
4B
100
AcDbEntity
  8
_U+30EC_U+30A4_U+30E4_U+30FC 1
 62
     7
420
 16777215
370
     9
  0
POLYLINE
  5
4F
330
1F
100
AcDbEntity
  8
_U+30EC_U+30A4_U+30E4_U+30FC 1
 62
     7
420
 16777215
370
     9
100
AcDb2dPolyline
 66
     1
 10
0.0
 20
0.0
 30
0.0
  0
VERTEX
  5
50
330
4F
100
AcDbEntity
  8
_U+30EC_U+30A4_U+30E4_U+30FC 1
 62
     7
420
 16777215
370
     9
100
AcDbVertex
100
AcDb2dVertex
 10
113.6605873780546
 20
-141.4604316313016
 30
0.0
  0
VERTEX
  5
51
330
4F
100
AcDbEntity
  8
_U+30EC_U+30A4_U+30E4_U+30FC 1
 62
     7
420
 16777215
370
     9
100
AcDbVertex
100
AcDb2dVertex
 10
94.12174370986538
 20
-141.4604316313016
 30
0.0
  0
SEQEND
  5
52
330
4F
100
AcDbEntity
  8
_U+30EC_U+30A4_U+30E4_U+30FC 1
 62
     7
420
 16777215
370
     9
  0
POLYLINE
  5
53
330
1F
100
AcDbEntity
  8
_U+30EC_U+30A4_U+30E4_U+30FC 1
 62
     7
420
 16777215
370
     9
100
AcDb2dPolyline
 66
     1
 10
0.0
 20
0.0
 30
0.0
  0
VERTEX
  5
54
330
53
100
AcDbEntity
  8
_U+30EC_U+30A4_U+30E4_U+30FC 1
 62
     7
420
 16777215
370
     9
100
AcDbVertex
100
AcDb2dVertex
 10
116.6633259125595
 20
-138.9134819097163
 30
0.0
  0
VERTEX
  5
55
330
53
100
AcDbEntity
  8
_U+30EC_U+30A4_U+30E4_U+30FC 1
 62
     7
420
 16777215
370
     9
100
AcDbVertex
100
AcDb2dVertex
 10
111.0957194166703
 20
-138.9134819097163
 30
0.0
  0
SEQEND
  5
56
330
53
100
AcDbEntity
  8
_U+30EC_U+30A4_U+30E4_U+30FC 1
 62
     7
420
 16777215
370
     9
  0
POLYLINE
  5
57
330
1F
100
AcDbEntity
  8
_U+30EC_U+30A4_U+30E4_U+30FC 1
 62
     7
420
 16777215
370
     9
100
AcDb2dPolyline
 66
     1
 10
0.0
 20
0.0
 30
0.0
  0
VERTEX
  5
58
330
57
100
AcDbEntity
  8
_U+30EC_U+30A4_U+30E4_U+30FC 1
 62
     7
420
 16777215
370
     9
100
AcDbVertex
100
AcDb2dVertex
 10
116.6633259125595
 20
-137.8947655210817
 30
0.0
  0
VERTEX
  5
59
330
57
100
AcDbEntity
  8
_U+30EC_U+30A4_U+30E4_U+30FC 1
 62
     7
420
 16777215
370
     9
100
AcDbVertex
100
AcDb2dVertex
 10
111.0957194166703
 20
-137.8947655210817
 30
0.0
  0
SEQEND
  5
5A
330
57
100
AcDbEntity
  8
_U+30EC_U+30A4_U+30E4_U+30FC 1
 62
     7
420
 16777215
370
     9
  0
POLYLINE
  5
5B
330
1F
100
AcDbEntity
  8
_U+30EC_U+30A4_U+30E4_U+30FC 1
 62
     7
420
 16777215
370
     9
100
AcDb2dPolyline
 66
     1
 10
0.0
 20
0.0
 30
0.0
  0
VERTEX
  5
5C
330
5B
100
AcDbEntity
  8
_U+30EC_U+30A4_U+30E4_U+30FC 1
 62
     7
420
 16777215
370
     9
100
AcDbVertex
100
AcDb2dVertex
 10
68.36790825578935
 20
-125.4276694130874
 30
0.0
  0
VERTEX
  5
5D
330
5B
100
AcDbEntity
  8
_U+30EC_U+30A4_U+30E4_U+30FC 1
 62
     7
420
 16777215
370
     9
100
AcDbVertex
100
AcDb2dVertex
 10
65.79442971033315
 20
-125.4276694130874
 30
0.0
  0
SEQEND
  5
5E
330
5B
100
AcDbEntity
  8
_U+30EC_U+30A4_U+30E4_U+30FC 1
 62
     7
420
 16777215
370
     9
  0
POLYLINE
  5
5F
330
1F
100
AcDbEntity
  8
_U+30EC_U+30A4_U+30E4_U+30FC 1
 62
     7
420
 16777215
370
     9
100
AcDb2dPolyline
 66
     1
 10
0.0
 20
0.0
 30
0.0
  0
VERTEX
  5
60
330
5F
100
AcDbEntity
  8
_U+30EC_U+30A4_U+30E4_U+30FC 1
 62
     7
420
 16777215
370
     9
100
AcDbVertex
100
AcDb2dVertex
 10
76.13007750220436
 20
-105.4364583069742
 30
0.0
  0
VERTEX
  5
61
330
5F
100
AcDbEntity
  8
_U+30EC_U+30A4_U+30E4_U+30FC 1
 62
     7
420
 16777215
370
     9
100
AcDbVertex
100
AcDb2dVertex
 10
65.79442971033315
 20
-105.4364583069742
 30
0.0
  0
SEQEND
  5
62
330
5F
100
AcDbEntity
  8
_U+30EC_U+30A4_U+30E4_U+30FC 1
 62
     7
420
 16777215
370
     9
  0
INSERT
  5
64
330
1F
100
AcDbEntity
  8
_U+30EC_U+30A4_U+30E4_U+30FC 1
100
AcDbBlockReference
  2
block 2
 10
0.0
 20
0.0
 30
0.0
  0
INSERT
  5
6D
330
1F
100
AcDbEntity
  8
_U+30EC_U+30A4_U+30E4_U+30FC 1
100
AcDbBlockReference
  2
block 3
 10
0.0
 20
0.0
 30
0.0
  0
INSERT
  5
7E
330
1F
100
AcDbEntity
  8
_U+30EC_U+30A4_U+30E4_U+30FC 1
100
AcDbBlockReference
  2
block 4
 10
0.0
 20
0.0
 30
0.0
  0
INSERT
  5
97
330
1F
100
AcDbEntity
  8
_U+30EC_U+30A4_U+30E4_U+30FC 1
100
AcDbBlockReference
  2
block 5
 10
0.0
 20
0.0
 30
0.0
  0
INSERT
  5
9D
330
1F
100
AcDbEntity
  8
_U+30EC_U+30A4_U+30E4_U+30FC 1
100
AcDbBlockReference
  2
block 6
 10
0.0
 20
0.0
 30
0.0
  0
INSERT
  5
A5
330
1F
100
AcDbEntity
  8
_U+30EC_U+30A4_U+30E4_U+30FC 1
100
AcDbBlockReference
  2
block 7
 10
0.0
 20
0.0
 30
0.0
  0
POLYLINE
  5
AA
330
1F
100
AcDbEntity
  8
_U+30EC_U+30A4_U+30E4_U+30FC 1
 62
     7
420
 16777215
370
     9
100
AcDb2dPolyline
 66
     1
 10
0.0
 20
0.0
 30
0.0
  0
VERTEX
  5
AB
330
AA
100
AcDbEntity
  8
_U+30EC_U+30A4_U+30E4_U+30FC 1
 62
     7
420
 16777215
370
     9
100
AcDbVertex
100
AcDb2dVertex
 10
115.19502956113
 20
-145.4464324636384
 30
0.0
  0
VERTEX
  5
AC
330
AA
100
AcDbEntity
  8
_U+30EC_U+30A4_U+30E4_U+30FC 1
 62
     7
420
 16777215
370
     9
100
AcDbVertex
100
AcDb2dVertex
 10
115.19502956113
 20
-137.9106052433002
 30
0.0
  0
SEQEND
  5
AD
330
AA
100
AcDbEntity
  8
_U+30EC_U+30A4_U+30E4_U+30FC 1
 62
     7
420
 16777215
370
     9
  0
POLYLINE
  5
AE
330
1F
100
AcDbEntity
  8
_U+30EC_U+30A4_U+30E4_U+30FC 1
 62
     7
420
 16777215
370
     9
100
AcDb2dPolyline
 66
     1
 10
0.0
 20
0.0
 30
0.0
  0
VERTEX
  5
AF
330
AE
100
AcDbEntity
  8
_U+30EC_U+30A4_U+30E4_U+30FC 1
 62
     7
420
 16777215
370
     9
100
AcDbVertex
100
AcDb2dVertex
 10
69.43382628415107
 20
-145.8329710746528
 30
0.0
  0
VERTEX
  5
B0
330
AE
100
AcDbEntity
  8
_U+30EC_U+30A4_U+30E4_U+30FC 1
 62
     7
420
 16777215
370
     9
100
AcDbVertex
100
AcDb2dVertex
 10
70.21346515314971
 20
-145.3830382969874
 30
0.0
  0
SEQEND
  5
B1
330
AE
100
AcDbEntity
  8
_U+30EC_U+30A4_U+30E4_U+30FC 1
 62
     7
420
 16777215
370
     9
  0
POLYLINE
  5
B2
330
1F
100
AcDbEntity
  8
_U+30EC_U+30A4_U+30E4_U+30FC 1
 62
     7
420
 16777215
370
     9
100
AcDb2dPolyline
 66
     1
 10
0.0
 20
0.0
 30
0.0
  0
VERTEX
  5
B3
330
B2
100
AcDbEntity
  8
_U+30EC_U+30A4_U+30E4_U+30FC 1
 62
     7
420
 16777215
370
     9
100
AcDbVertex
100
AcDb2dVertex
 10
69.7631796090819
 20
-146.1623244079039
 30
0.0
  0
VERTEX
  5
B4
330
B2
100
AcDbEntity
  8
_U+30EC_U+30A4_U+30E4_U+30FC 1
 62
     7
420
 16777215
370
     9
100
AcDbVertex
100
AcDb2dVertex
 10
70.21346515314971
 20
-145.3830382969874
 30
0.0
  0
SEQEND
  5
B5
330
B2
100
AcDbEntity
  8
_U+30EC_U+30A4_U+30E4_U+30FC 1
 62
     7
420
 16777215
370
     9
  0
POLYLINE
  5
B6
330
1F
100
AcDbEntity
  8
_U+30EC_U+30A4_U+30E4_U+30FC 1
 62
     7
420
 16777215
370
     9
100
AcDb2dPolyline
 66
     1
 10
0.0
 20
0.0
 30
0.0
  0
VERTEX
  5
B7
330
B6
100
AcDbEntity
  8
_U+30EC_U+30A4_U+30E4_U+30FC 1
 62
     7
420
 16777215
370
     9
100
AcDbVertex
100
AcDb2dVertex
 10
67.09494495493202
 20
-148.5011705184305
 30
0.0
  0
VERTEX
  5
B8
330
B6
100
AcDbEntity
  8
_U+30EC_U+30A4_U+30E4_U+30FC 1
 62
     7
420
 16777215
370
     9
100
AcDbVertex
100
AcDb2dVertex
 10
70.21346515314971
 20
-145.3830382969874
 30
0.0
  0
SEQEND
  5
B9
330
B6
100
AcDbEntity
  8
_U+30EC_U+30A4_U+30E4_U+30FC 1
 62
     7
420
 16777215
370
     9
  0
INSERT
  5
BB
330
1F
100
AcDbEntity
  8
_U+30EC_U+30A4_U+30E4_U+30FC 1
100
AcDbBlockReference
  2
block 8
 10
0.0
 20
0.0
 30
0.0
  0
SPLINE
  5
C3
330
1F
100
AcDbEntity
  8
_U+30EC_U+30A4_U+30E4_U+30FC 1
 62
     7
420
 16777215
370
     9
100
AcDbSpline
210
0.0
220
0.0
230
1.0
 70
    11
 71
     3
 72
    17
 73
    13
 74
     0
 42
0.0000000001
 43
0.0000000001
 12
1.0
 22
0.0
 32
0.0
 13
1.0
 23
0.0
 33
0.0
 40
0.0
 40
0.0
 40
0.0
 40
0.0
 40
1.0
 40
1.0
 40
1.0
 40
2.0
 40
2.0
 40
2.0
 40
3.0
 40
3.0
 40
3.0
 40
4.0
 40
4.0
 40
4.0
 40
4.0
 10
66.78834579608734
 20
-105.4709246958546
 30
0.0
 10
66.78834579608734
 20
-105.4157855292015
 30
0.0
 10
66.74354301945257
 20
-105.3710180292129
 30
0.0
 10
66.6884391319695
 20
-105.3710180292129
 30
0.0
 10
66.63329996670956
 20
-105.3710180292129
 30
0.0
 10
66.58853246785168
 20
-105.4157855292015
 30
0.0
 10
66.58853246785168
 20
-105.4709246958546
 30
0.0
 10
66.58853246785168
 20
-105.526734140285
 30
0.0
 10
66.63329996670956
 20
-105.5715016402739
 30
0.0
 10
66.6884391319695
 20
-105.5715016402739
 30
0.0
 10
66.74354301945257
 20
-105.5715016402739
 30
0.0
 10
66.78834579608734
 20
-105.526734140285
 30
0.0
 10
66.78834579608734
 20
-105.4709246958546
 30
0.0
  0
SPLINE
  5
C4
330
1F
100
AcDbEntity
  8
_U+30EC_U+30A4_U+30E4_U+30FC 1
 62
     7
420
 16777215
370
     9
100
AcDbSpline
210
0.0
220
0.0
230
1.0
 70
    11
 71
     3
 72
    17
 73
    13
 74
     0
 42
0.0000000001
 43
0.0000000001
 12
1.0
 22
0.0
 32
0.0
 13
1.0
 23
0.0
 33
0.0
 40
0.0
 40
0.0
 40
0.0
 40
0.0
 40
1.0
 40
1.0
 40
1.0
 40
2.0
 40
2.0
 40
2.0
 40
3.0
 40
3.0
 40
3.0
 40
4.0
 40
4.0
 40
4.0
 40
4.0
 10
66.80693887218709
 20
-125.4214605242004
 30
0.0
 10
66.80693887218709
 20
-125.3663213575473
 30
0.0
 10
66.76216968564404
 20
-125.3215538575584
 30
0.0
 10
66.7070305203841
 20
-125.3215538575584
 30
0.0
 10
66.65192663290102
 20
-125.3215538575584
 30
0.0
 10
66.60712385626626
 20
-125.3663213575473
 30
0.0
 10
66.60712385626626
 20
-125.4214605242004
 30
0.0
 10
66.60712385626626
 20
-125.476917190853
 30
0.0
 10
66.65192663290102
 20
-125.5217199686194
 30
0.0
 10
66.7070305203841
 20
-125.5217199686194
 30
0.0
 10
66.76216968564404
 20
-125.5217199686194
 30
0.0
 10
66.80693887218709
 20
-125.476917190853
 30
0.0
 10
66.80693887218709
 20
-125.4214605242004
 30
0.0
  0
POLYLINE
  5
C5
330
1F
100
AcDbEntity
  8
_U+30EC_U+30A4_U+30E4_U+30FC 1
 62
     7
420
 16777215
370
     9
100
AcDb2dPolyline
 66
     1
 10
0.0
 20
0.0
 30
0.0
  0
VERTEX
  5
C6
330
C5
100
AcDbEntity
  8
_U+30EC_U+30A4_U+30E4_U+30FC 1
 62
     7
420
 16777215
370
     9
100
AcDbVertex
100
AcDb2dVertex
 10
72.29517148892985
 20
-122.4292346916148
 30
0.0
  0
VERTEX
  5
C7
330
C5
100
AcDbEntity
  8
_U+30EC_U+30A4_U+30E4_U+30FC 1
 62
     7
420
 16777215
370
     9
100
AcDbVertex
100
AcDb2dVertex
 10
65.79442971033315
 20
-122.4292346916148
 30
0.0
  0
SEQEND
  5
C8
330
C5
100
AcDbEntity
  8
_U+30EC_U+30A4_U+30E4_U+30FC 1
 62
     7
420
 16777215
370
     9
  0
SPLINE
  5
C9
330
1F
100
AcDbEntity
  8
_U+30EC_U+30A4_U+30E4_U+30FC 1
 62
     7
420
 16777215
370
     9
100
AcDbSpline
210
0.0
220
0.0
230
1.0
 70
    11
 71
     3
 72
    17
 73
    13
 74
     0
 42
0.0000000001
 43
0.0000000001
 12
1.0
 22
0.0
 32
0.0
 13
1.0
 23
0.0
 33
0.0
 40
0.0
 40
0.0
 40
0.0
 40
0.0
 40
1.0
 40
1.0
 40
1.0
 40
2.0
 40
2.0
 40
2.0
 40
3.0
 40
3.0
 40
3.0
 40
4.0
 40
4.0
 40
4.0
 40
4.0
 10
66.80693887218709
 20
-122.4230258027275
 30
0.0
 10
66.80693887218709
 20
-122.3678866360747
 30
0.0
 10
66.76216968564404
 20
-122.3231191360858
 30
0.0
 10
66.7070305203841
 20
-122.3231191360858
 30
0.0
 10
66.65192663290102
 20
-122.3231191360858
 30
0.0
 10
66.60712385626626
 20
-122.3678866360747
 30
0.0
 10
66.60712385626626
 20
-122.4230258027275
 30
0.0
 10
66.60712385626626
 20
-122.4784824693805
 30
0.0
 10
66.65192663290102
 20
-122.5232852471469
 30
0.0
 10
66.7070305203841
 20
-122.5232852471469
 30
0.0
 10
66.76216968564404
 20
-122.5232852471469
 30
0.0
 10
66.80693887218709
 20
-122.4784824693805
 30
0.0
 10
66.80693887218709
 20
-122.4230258027275
 30
0.0
  0
SPLINE
  5
CA
330
1F
100
AcDbEntity
  8
_U+30EC_U+30A4_U+30E4_U+30FC 1
 62
     7
420
 16777215
370
     9
100
AcDbSpline
210
0.0
220
0.0
230
1.0
 70
    11
 71
     3
 72
    17
 73
    13
 74
     0
 42
0.0000000001
 43
0.0000000001
 12
1.0
 22
0.0
 32
0.0
 13
1.0
 23
0.0
 33
0.0
 40
0.0
 40
0.0
 40
0.0
 40
0.0
 40
1.0
 40
1.0
 40
1.0
 40
2.0
 40
2.0
 40
2.0
 40
3.0
 40
3.0
 40
3.0
 40
4.0
 40
4.0
 40
4.0
 40
4.0
 10
66.78834579608734
 20
-145.4381421858629
 30
0.0
 10
66.78834579608734
 20
-145.3830382969874
 30
0.0
 10
66.74354301945257
 20
-145.3382355192213
 30
0.0
 10
66.6884391319695
 20
-145.3382355192213
 30
0.0
 10
66.63329996670956
 20
-145.3382355192213
 30
0.0
 10
66.58853246785168
 20
-145.3830382969874
 30
0.0
 10
66.58853246785168
 20
-145.4381421858629
 30
0.0
 10
66.58853246785168
 20
-145.4939516302934
 30
0.0
 10
66.63329996670956
 20
-145.5387544080601
 30
0.0
 10
66.6884391319695
 20
-145.5387544080601
 30
0.0
 10
66.74354301945257
 20
-145.5387544080601
 30
0.0
 10
66.78834579608734
 20
-145.4939516302934
 30
0.0
 10
66.78834579608734
 20
-145.4381421858629
 30
0.0
  0
SPLINE
  5
CB
330
1F
100
AcDbEntity
  8
_U+30EC_U+30A4_U+30E4_U+30FC 1
 62
     7
420
 16777215
370
     9
100
AcDbSpline
210
0.0
220
0.0
230
1.0
 70
    11
 71
     3
 72
    17
 73
    13
 74
     0
 42
0.0000000001
 43
0.0000000001
 12
1.0
 22
0.0
 32
0.0
 13
1.0
 23
0.0
 33
0.0
 40
0.0
 40
0.0
 40
0.0
 40
0.0
 40
1.0
 40
1.0
 40
1.0
 40
2.0
 40
2.0
 40
2.0
 40
3.0
 40
3.0
 40
3.0
 40
4.0
 40
4.0
 40
4.0
 40
4.0
 10
115.3107759470659
 20
-137.9002688544138
 30
0.0
 10
115.3107759470659
 20
-137.8451649655389
 30
0.0
 10
115.266008448208
 20
-137.8003621877722
 30
0.0
 10
115.2108721934196
 20
-137.8003621877722
 30
0.0
 10
115.155765395465
 20
-137.8003621877722
 30
0.0
 10
115.1109626188302
 20
-137.8451649655389
 30
0.0
 10
115.1109626188302
 20
-137.9002688544138
 30
0.0
 10
115.1109626188302
 20
-137.9554080210669
 30
0.0
 10
115.155765395465
 20
-138.0001755210555
 30
0.0
 10
115.2108721934196
 20
-138.0001755210555
 30
0.0
 10
115.266008448208
 20
-138.0001755210555
 30
0.0
 10
115.3107759470659
 20
-137.9554080210669
 30
0.0
 10
115.3107759470659
 20
-137.9002688544138
 30
0.0
  0
SPLINE
  5
CC
330
1F
100
AcDbEntity
  8
_U+30EC_U+30A4_U+30E4_U+30FC 1
 62
     7
420
 16777215
370
     9
100
AcDbSpline
210
0.0
220
0.0
230
1.0
 70
    11
 71
     3
 72
    17
 73
    13
 74
     0
 42
0.0000000001
 43
0.0000000001
 12
1.0
 22
0.0
 32
0.0
 13
1.0
 23
0.0
 33
0.0
 40
0.0
 40
0.0
 40
0.0
 40
0.0
 40
1.0
 40
1.0
 40
1.0
 40
2.0
 40
2.0
 40
2.0
 40
3.0
 40
3.0
 40
3.0
 40
4.0
 40
4.0
 40
4.0
 40
4.0
 10
115.3107759470659
 20
-138.9362360763768
 30
0.0
 10
115.3107759470659
 20
-138.8810969097243
 30
0.0
 10
115.266008448208
 20
-138.8363294097351
 30
0.0
 10
115.2108721934196
 20
-138.8363294097351
 30
0.0
 10
115.155765395465
 20
-138.8363294097351
 30
0.0
 10
115.1109626188302
 20
-138.8810969097243
 30
0.0
 10
115.1109626188302
 20
-138.9362360763768
 30
0.0
 10
115.1109626188302
 20
-138.9913399652523
 30
0.0
 10
115.155765395465
 20
-139.036142743019
 30
0.0
 10
115.2108721934196
 20
-139.036142743019
 30
0.0
 10
115.266008448208
 20
-139.036142743019
 30
0.0
 10
115.3107759470659
 20
-138.9913399652523
 30
0.0
 10
115.3107759470659
 20
-138.9362360763768
 30
0.0
  0
SPLINE
  5
CD
330
1F
100
AcDbEntity
  8
_U+30EC_U+30A4_U+30E4_U+30FC 1
 62
     7
420
 16777215
370
     9
100
AcDbSpline
210
0.0
220
0.0
230
1.0
 70
    11
 71
     3
 72
    17
 73
    13
 74
     0
 42
0.0000000001
 43
0.0000000001
 12
1.0
 22
0.0
 32
0.0
 13
1.0
 23
0.0
 33
0.0
 40
0.0
 40
0.0
 40
0.0
 40
0.0
 40
1.0
 40
1.0
 40
1.0
 40
2.0
 40
2.0
 40
2.0
 40
3.0
 40
3.0
 40
3.0
 40
4.0
 40
4.0
 40
4.0
 40
4.0
 10
115.3107759470659
 20
-145.4464324636384
 30
0.0
 10
115.3107759470659
 20
-145.3912932969853
 30
0.0
 10
115.266008448208
 20
-145.3465257969968
 30
0.0
 10
115.2108721934196
 20
-145.3465257969968
 30
0.0
 10
115.155765395465
 20
-145.3465257969968
 30
0.0
 10
115.1109626188302
 20
-145.3912932969853
 30
0.0
 10
115.1109626188302
 20
-145.4464324636384
 30
0.0
 10
115.1109626188302
 20
-145.5015363525133
 30
0.0
 10
115.155765395465
 20
-145.54633913028
 30
0.0
 10
115.2108721934196
 20
-145.54633913028
 30
0.0
 10
115.266008448208
 20
-145.54633913028
 30
0.0
 10
115.3107759470659
 20
-145.5015363525133
 30
0.0
 10
115.3107759470659
 20
-145.4464324636384
 30
0.0
  0
POLYLINE
  5
CE
330
1F
100
AcDbEntity
  8
_U+30EC_U+30A4_U+30E4_U+30FC 1
 62
     7
420
 16777215
370
     9
100
AcDb2dPolyline
 66
     1
 10
0.0
 20
0.0
 30
0.0
  0
VERTEX
  5
CF
330
CE
100
AcDbEntity
  8
_U+30EC_U+30A4_U+30E4_U+30FC 1
 62
     7
420
 16777215
370
     9
100
AcDbVertex
100
AcDb2dVertex
 10
112.0441596415153
 20
-145.4464324636384
 30
0.0
  0
VERTEX
  5
D0
330
CE
100
AcDbEntity
  8
_U+30EC_U+30A4_U+30E4_U+30FC 1
 62
     7
420
 16777215
370
     9
100
AcDbVertex
100
AcDb2dVertex
 10
112.0441596415153
 20
-141.4463205201938
 30
0.0
  0
SEQEND
  5
D1
330
CE
100
AcDbEntity
  8
_U+30EC_U+30A4_U+30E4_U+30FC 1
 62
     7
420
 16777215
370
     9
  0
SPLINE
  5
D2
330
1F
100
AcDbEntity
  8
_U+30EC_U+30A4_U+30E4_U+30FC 1
 62
     7
420
 16777215
370
     9
100
AcDbSpline
210
0.0
220
0.0
230
1.0
 70
    11
 71
     3
 72
    17
 73
    13
 74
     0
 42
0.0000000001
 43
0.0000000001
 12
1.0
 22
0.0
 32
0.0
 13
1.0
 23
0.0
 33
0.0
 40
0.0
 40
0.0
 40
0.0
 40
0.0
 40
1.0
 40
1.0
 40
1.0
 40
2.0
 40
2.0
 40
2.0
 40
3.0
 40
3.0
 40
3.0
 40
4.0
 40
4.0
 40
4.0
 40
4.0
 10
112.1599060274513
 20
-141.4463205201938
 30
0.0
 10
112.1599060274513
 20
-141.3911813535413
 30
0.0
 10
112.1151032508165
 20
-141.3464138535521
 30
0.0
 10
112.0599993633335
 20
-141.3464138535521
 30
0.0
 10
112.0048601980735
 20
-141.3464138535521
 30
0.0
 10
111.9600926992156
 20
-141.3911813535413
 30
0.0
 10
111.9600926992156
 20
-141.4463205201938
 30
0.0
 10
111.9600926992156
 20
-141.5014244090693
 30
0.0
 10
112.0048601980735
 20
-141.5462271868354
 30
0.0
 10
112.0599993633335
 20
-141.5462271868354
 30
0.0
 10
112.1151032508165
 20
-141.5462271868354
 30
0.0
 10
112.1599060274513
 20
-141.5014244090693
 30
0.0
 10
112.1599060274513
 20
-141.4463205201938
 30
0.0
  0
SPLINE
  5
D3
330
1F
100
AcDbEntity
  8
_U+30EC_U+30A4_U+30E4_U+30FC 1
 62
     7
420
 16777215
370
     9
100
AcDbSpline
210
0.0
220
0.0
230
1.0
 70
    11
 71
     3
 72
    17
 73
    13
 74
     0
 42
0.0000000001
 43
0.0000000001
 12
1.0
 22
0.0
 32
0.0
 13
1.0
 23
0.0
 33
0.0
 40
0.0
 40
0.0
 40
0.0
 40
0.0
 40
1.0
 40
1.0
 40
1.0
 40
2.0
 40
2.0
 40
2.0
 40
3.0
 40
3.0
 40
3.0
 40
4.0
 40
4.0
 40
4.0
 40
4.0
 10
112.1599060274513
 20
-145.4464324636384
 30
0.0
 10
112.1599060274513
 20
-145.3912932969853
 30
0.0
 10
112.1151032508165
 20
-145.3465257969968
 30
0.0
 10
112.0599993633335
 20
-145.3465257969968
 30
0.0
 10
112.0048601980735
 20
-145.3465257969968
 30
0.0
 10
111.9600926992156
 20
-145.3912932969853
 30
0.0
 10
111.9600926992156
 20
-145.4464324636384
 30
0.0
 10
111.9600926992156
 20
-145.5015363525133
 30
0.0
 10
112.0048601980735
 20
-145.54633913028
 30
0.0
 10
112.0599993633335
 20
-145.54633913028
 30
0.0
 10
112.1151032508165
 20
-145.54633913028
 30
0.0
 10
112.1599060274513
 20
-145.5015363525133
 30
0.0
 10
112.1599060274513
 20
-145.4464324636384
 30
0.0
  0
SPLINE
  5
D4
330
1F
100
AcDbEntity
  8
_U+30EC_U+30A4_U+30E4_U+30FC 1
 62
     7
420
 16777215
370
    25
100
AcDbSpline
210
0.0
220
0.0
230
1.0
 70
    11
 71
     3
 72
    83
 73
    79
 74
     0
 42
0.0000000001
 43
0.0000000001
 12
1.0
 22
0.0
 32
0.0
 13
1.0
 23
0.0
 33
0.0
 40
0.0
 40
0.0
 40
0.0
 40
0.0
 40
1.0
 40
1.0
 40
1.0
 40
2.0
 40
2.0
 40
2.0
 40
3.0
 40
3.0
 40
3.0
 40
4.0
 40
4.0
 40
4.0
 40
5.0
 40
5.0
 40
5.0
 40
6.0
 40
6.0
 40
6.0
 40
7.0
 40
7.0
 40
7.0
 40
8.0
 40
8.0
 40
8.0
 40
9.0
 40
9.0
 40
9.0
 40
10.0
 40
10.0
 40
10.0
 40
11.0
 40
11.0
 40
11.0
 40
12.0
 40
12.0
 40
12.0
 40
13.0
 40
13.0
 40
13.0
 40
14.0
 40
14.0
 40
14.0
 40
15.0
 40
15.0
 40
15.0
 40
16.0
 40
16.0
 40
16.0
 40
17.0
 40
17.0
 40
17.0
 40
18.0
 40
18.0
 40
18.0
 40
19.0
 40
19.0
 40
19.0
 40
20.0
 40
20.0
 40
20.0
 40
21.0
 40
21.0
 40
21.0
 40
22.0
 40
22.0
 40
22.0
 40
23.0
 40
23.0
 40
23.0
 40
24.0
 40
24.0
 40
24.0
 40
25.0
 40
25.0
 40
25.0
 40
26.0
 40
26.0
 40
26.0
 40
26.0
 10
90.14883331079612
 20
-145.4605435747463
 30
0.0
 10
90.14883331079612
 20
-145.4605435747463
 30
0.0
 10
90.14883331079612
 20
-141.4297752424203
 30
0.0
 10
90.14883331079612
 20
-141.4297752424203
 30
0.0
 10
90.14883331079612
 20
-141.4297752424203
 30
0.0
 10
93.14779719893501
 20
-141.4297752424203
 30
0.0
 10
93.14779719893501
 20
-141.4297752424203
 30
0.0
 10
93.14779719893501
 20
-141.4297752424203
 30
0.0
 10
93.14779719893501
 20
-138.9290041319346
 30
0.0
 10
93.14779719893501
 20
-138.9290041319346
 30
0.0
 10
93.14779719893501
 20
-138.9290041319346
 30
0.0
 10
93.13403886560553
 20
-138.9290041319346
 30
0.0
 10
93.13403886560553
 20
-138.9290041319346
 30
0.0
 10
93.13403886560553
 20
-138.9290041319346
 30
0.0
 10
110.1469208010291
 20
-138.9290041319346
 30
0.0
 10
110.1469208010291
 20
-138.9290041319346
 30
0.0
 10
110.1469208010291
 20
-138.9290041319346
 30
0.0
 10
110.1469208010291
 20
-137.8995985766365
 30
0.0
 10
110.1469208010291
 20
-137.8995985766365
 30
0.0
 10
110.1469208010291
 20
-137.8995985766365
 30
0.0
 10
92.13356108807746
 20
-137.8995985766365
 30
0.0
 10
92.13356108807746
 20
-137.8995985766365
 30
0.0
 10
92.13356108807746
 20
-137.8995985766365
 30
0.0
 10
92.13356108807746
 20
-137.9150855210766
 30
0.0
 10
92.13356108807746
 20
-137.9150855210766
 30
0.0
 10
92.13356108807746
 20
-137.9150855210766
 30
0.0
 10
92.13356108807746
 20
-140.427251353782
 30
0.0
 10
92.13356108807746
 20
-140.427251353782
 30
0.0
 10
92.13356108807746
 20
-140.427251353782
 30
0.0
 10
89.1337482815642
 20
-140.427251353782
 30
0.0
 10
89.1337482815642
 20
-140.427251353782
 30
0.0
 10
89.1337482815642
 20
-140.427251353782
 30
0.0
 10
89.1337482815642
 20
-144.452163574998
 30
0.0
 10
89.1337482815642
 20
-144.452163574998
 30
0.0
 10
89.1337482815642
 20
-144.452163574998
 30
0.0
 10
71.77546109316712
 20
-144.452163574998
 30
0.0
 10
71.77546109316712
 20
-144.452163574998
 30
0.0
 10
71.04475068749741
 20
-144.452163574998
 30
0.0
 10
71.15654596242305
 20
-143.5423144085592
 30
0.0
 10
71.15654596242305
 20
-143.5423144085592
 30
0.0
 10
71.15654596242305
 20
-143.5423144085592
 30
0.0
 10
71.15654596242305
 20
-126.4498077461655
 30
0.0
 10
71.15654596242305
 20
-126.4498077461655
 30
0.0
 10
71.15654596242305
 20
-126.4498077461655
 30
0.0
 10
75.14681530506725
 20
-126.4511835794984
 30
0.0
 10
75.14681530506725
 20
-126.4511835794984
 30
0.0
 10
75.14681530506725
 20
-126.4511835794984
 30
0.0
 10
75.14734447172042
 20
-123.4406838580288
 30
0.0
 10
75.14734447172042
 20
-123.4406838580288
 30
0.0
 10
75.14734447172042
 20
-123.4406838580288
 30
0.0
 10
77.67415051836733
 20
-123.4405427469177
 30
0.0
 10
77.67415051836733
 20
-123.4406838580288
 30
0.0
 10
77.67415051836733
 20
-123.4406838580288
 30
0.0
 10
77.67415051836733
 20
-105.4605883069682
 30
0.0
 10
77.67415051836733
 20
-105.4605883069682
 30
0.0
 10
77.67415051836733
 20
-105.4605883069682
 30
0.0
 10
76.64753193344744
 20
-105.4605883069682
 30
0.0
 10
76.64753193344744
 20
-105.4605883069682
 30
0.0
 10
76.64753193344744
 20
-105.4605883069682
 30
0.0
 10
76.64753193344744
 20
-122.4414408027229
 30
0.0
 10
76.64753193344744
 20
-122.4414408027229
 30
0.0
 10
76.64753193344744
 20
-122.4414408027229
 30
0.0
 10
74.1472547750126
 20
-122.4431694138335
 30
0.0
 10
74.1472547750126
 20
-122.4431694138335
 30
0.0
 10
74.1472547750126
 20
-122.4431694138335
 30
0.0
 10
74.14690199724383
 20
-125.4431563575282
 30
0.0
 10
74.14690199724383
 20
-125.4431563575282
 30
0.0
 10
74.14690199724383
 20
-125.4431563575282
 30
0.0
 10
70.14696654373512
 20
-125.4395580241955
 30
0.0
 10
70.14696654373512
 20
-125.4395580241955
 30
0.0
 10
70.14696654373512
 20
-125.4395580241955
 30
0.0
 10
70.14696654373512
 20
-144.4311380194476
 30
0.0
 10
70.14696654373512
 20
-144.4311380194476
 30
0.0
 10
70.14696654373512
 20
-145.4450566303055
 30
0.0
 10
71.14620957379786
 20
-145.4312630191978
 30
0.0
 10
71.14620957379786
 20
-145.4312630191978
 30
0.0
 10
71.14620957379786
 20
-145.4312630191978
 30
0.0
 10
90.14883331079612
 20
-145.4605435747463
 30
0.0
 10
90.14883331079612
 20
-145.4605435747463
 30
0.0
  0
ENDSEC
  0
SECTION
  2
OBJECTS
  0
DICTIONARY
  5
C
330
0
100
AcDbDictionary
281
     1
  3
ACAD_GROUP
350
D
  3
ACAD_LAYOUT
350
1A
  3
ACAD_MATERIAL
350
3B
  3
ACAD_MLEADERSTYLE
350
D6
  3
ACAD_MLINESTYLE
350
17
  3
ACAD_PLOTSETTINGS
350
19
  3
ACAD_PLOTSTYLENAME
350
E
  3
ACAD_TABLESTYLE
350
D5
  3
ACAD_VISUALSTYLE
350
2A
  0
SUN
  5
3F
330
29
100
AcDbSun
 90
        1
290
     0
 63
     7
421
 16777215
 40
1.0
291
     1
 91
  2455826
 92
 54000000
292
     0
 70
     2
 71
   256
280
     1
  0
DICTIONARY
  5
D
102
{ACAD_REACTORS
330
C
102
}
330
C
100
AcDbDictionary
281
     1
  0
DICTIONARY
  5
1A
102
{ACAD_REACTORS
330
C
102
}
330
C
100
AcDbDictionary
281
     1
  3
Layout1
350
1E
  3
Layout2
350
26
  3
Model
350
22
  0
DICTIONARY
  5
3B
102
{ACAD_REACTORS
330
C
102
}
330
C
100
AcDbDictionary
281
     1
  3
ByBlock
350
3D
  3
ByLayer
350
3C
  3
Global
350
3E
  0
DICTIONARY
  5
D6
102
{ACAD_REACTORS
330
C
102
}
330
C
100
AcDbDictionary
281
     1
  0
DICTIONARY
  5
17
102
{ACAD_REACTORS
330
C
102
}
330
C
100
AcDbDictionary
281
     1
  3
Standard
350
18
  0
DICTIONARY
  5
19
102
{ACAD_REACTORS
330
C
102
}
330
C
100
AcDbDictionary
281
     1
  0
ACDBDICTIONARYWDFLT
  5
E
102
{ACAD_REACTORS
330
C
102
}
330
C
100
AcDbDictionary
281
     1
  3
Normal
350
F
100
AcDbDictionaryWithDefault
340
F
  0
DICTIONARY
  5
D5
102
{ACAD_REACTORS
330
C
102
}
330
C
100
AcDbDictionary
281
     1
  0
DICTIONARY
  5
2A
102
{ACAD_REACTORS
330
C
102
}
330
C
100
AcDbDictionary
281
     1
  3
2dWireframe
350
2F
  3
3D Hidden
350
31
  3
3dWireframe
350
30
  3
Basic
350
32
  3
Brighten
350
36
  3
ColorChange
350
3A
  3
Conceptual
350
34
  3
Dim
350
35
  3
Facepattern
350
39
  3
Flat
350
2B
  3
FlatWithEdges
350
2C
  3
Gouraud
350
2D
  3
GouraudWithEdges
350
2E
  3
Linepattern
350
38
  3
Realistic
350
33
  3
Thicken
350
37
  0
LAYOUT
  5
1E
102
{ACAD_REACTORS
330
1A
102
}
330
1A
100
AcDbPlotSettings
  1

  2
none_device
  4

  6

 40
0.0
 41
0.0
 42
0.0
 43
0.0
 44
0.0
 45
0.0
 46
0.0
 47
0.0
 48
0.0
 49
0.0
140
0.0
141
0.0
142
1.0
143
1.0
 70
   688
 72
     0
 73
     0
 74
     5
  7

 75
    16
 76
     0
 77
     2
 78
   300
147
1.0
148
0.0
149
0.0
100
AcDbLayout
  1
Layout1
 70
     1
 71
     1
 10
0.0
 20
0.0
 11
12.0
 21
9.0
 12
0.0
 22
0.0
 32
0.0
 14
1.000000000000000E+20
 24
1.000000000000000E+20
 34
1.000000000000000E+20
 15
-1.000000000000000E+20
 25
-1.000000000000000E+20
 35
-1.000000000000000E+20
146
0.0
 13
0.0
 23
0.0
 33
0.0
 16
1.0
 26
0.0
 36
0.0
 17
0.0
 27
1.0
 37
0.0
 76
     0
330
1B
  0
LAYOUT
  5
26
102
{ACAD_REACTORS
330
1A
102
}
330
1A
100
AcDbPlotSettings
  1

  2
none_device
  4

  6

 40
0.0
 41
0.0
 42
0.0
 43
0.0
 44
0.0
 45
0.0
 46
0.0
 47
0.0
 48
0.0
 49
0.0
140
0.0
141
0.0
142
1.0
143
1.0
 70
   688
 72
     0
 73
     0
 74
     5
  7

 75
    16
 76
     0
 77
     2
 78
   300
147
1.0
148
0.0
149
0.0
100
AcDbLayout
  1
Layout2
 70
     1
 71
     2
 10
0.0
 20
0.0
 11
0.0
 21
0.0
 12
0.0
 22
0.0
 32
0.0
 14
0.0
 24
0.0
 34
0.0
 15
0.0
 25
0.0
 35
0.0
146
0.0
 13
0.0
 23
0.0
 33
0.0
 16
1.0
 26
0.0
 36
0.0
 17
0.0
 27
1.0
 37
0.0
 76
     0
330
23
  0
LAYOUT
  5
22
102
{ACAD_REACTORS
330
1A
102
}
330
1A
100
AcDbPlotSettings
  1

  2
none_device
  4

  6

 40
0.0
 41
0.0
 42
0.0
 43
0.0
 44
0.0
 45
0.0
 46
0.0
 47
0.0
 48
0.0
 49
0.0
140
0.0
141
0.0
142
1.0
143
1.0
 70
  1712
 72
     0
 73
     0
 74
     0
  7

 75
     0
 76
     0
 77
     2
 78
   300
147
1.0
148
0.0
149
0.0
100
AcDbLayout
  1
Model
 70
     1
 71
     0
 10
0.0
 20
0.0
 11
12.0
 21
9.0
 12
0.0
 22
0.0
 32
0.0
 14
1.000000000000000E+20
 24
1.000000000000000E+20
 34
1.000000000000000E+20
 15
-1.000000000000000E+20
 25
-1.000000000000000E+20
 35
-1.000000000000000E+20
146
0.0
 13
0.0
 23
0.0
 33
0.0
 16
1.0
 26
0.0
 36
0.0
 17
0.0
 27
1.0
 37
0.0
 76
     0
330
1F
331
29
  0
MATERIAL
  5
3D
102
{ACAD_REACTORS
330
3B
102
}
330
3B
100
AcDbMaterial
  1
ByBlock
 72
     1
 94
      127
  0
MATERIAL
  5
3C
102
{ACAD_REACTORS
330
3B
102
}
330
3B
100
AcDbMaterial
  1
ByLayer
 72
     1
 94
      127
  0
MATERIAL
  5
3E
102
{ACAD_REACTORS
330
3B
102
}
330
3B
100
AcDbMaterial
  1
Global
 72
     1
 94
      127
  0
MLINESTYLE
  5
18
102
{ACAD_REACTORS
330
17
102
}
330
17
100
AcDbMlineStyle
  2
Standard
 70
     0
  3

 62
   256
 51
90.0
 52
90.0
 71
     2
 49
0.5
 62
   256
  6
BYLAYER
 49
-0.5
 62
   256
  6
BYLAYER
  0
ACDBPLACEHOLDER
  5
F
102
{ACAD_REACTORS
330
E
102
}
330
E
  0
VISUALSTYLE
  5
2F
102
{ACAD_REACTORS
330
2A
102
}
330
2A
100
AcDbVisualStyle
  2
2dWireframe
 70
     4
177
     2
291
     0
 71
     0
176
     1
 72
     2
176
     1
 73
     0
176
     1
 90
        0
176
     1
 40
-0.6
176
     1
 41
-30.0
176
     1
 62
     5
 63
     7
421
 16777215
176
     1
 74
     1
176
     1
 91
        4
176
     1
 64
     7
176
     1
 65
   257
176
     1
 75
     1
176
     1
175
     1
176
     1
 42
1.0
176
     1
 92
        0
176
     1
 66
   257
176
     1
 43
1.0
176
     1
 76
     1
176
     1
 77
     6
176
     1
 78
     2
176
     1
 67
     7
176
     1
 79
     5
176
     1
170
     0
176
     1
171
     0
176
     1
290
     0
176
     1
 93
        1
176
     1
 44
0.0
176
     1
173
     0
176
     1
  0
VISUALSTYLE
  5
31
102
{ACAD_REACTORS
330
2A
102
}
330
2A
100
AcDbVisualStyle
  2
3D Hidden
 70
     6
177
     2
291
     0
 71
     1
176
     1
 72
     2
176
     1
 73
     2
176
     1
 90
        0
176
     1
 40
-0.6
176
     1
 41
-30.0
176
     1
 62
     5
 63
     7
421
 16777215
176
     1
 74
     2
176
     1
 91
        2
176
     1
 64
     7
176
     1
 65
   257
176
     1
 75
     2
176
     1
175
     1
176
     1
 42
40.0
176
     1
 92
        0
176
     1
 66
   257
176
     1
 43
1.0
176
     1
 76
     1
176
     1
 77
     6
176
     1
 78
     2
176
     1
 67
     7
176
     1
 79
     3
176
     1
170
     0
176
     1
171
     0
176
     1
290
     0
176
     1
 93
        1
176
     1
 44
0.0
176
     1
173
     0
176
     1
  0
VISUALSTYLE
  5
30
102
{ACAD_REACTORS
330
2A
102
}
330
2A
100
AcDbVisualStyle
  2
3dWireframe
 70
     5
177
     2
291
     0
 71
     0
176
     1
 72
     2
176
     1
 73
     0
176
     1
 90
        0
176
     1
 40
-0.6
176
     1
 41
-30.0
176
     1
 62
     5
 63
     7
421
 16777215
176
     1
 74
     1
176
     1
 91
        4
176
     1
 64
     7
176
     1
 65
   257
176
     1
 75
     1
176
     1
175
     1
176
     1
 42
1.0
176
     1
 92
        0
176
     1
 66
   257
176
     1
 43
1.0
176
     1
 76
     1
176
     1
 77
     6
176
     1
 78
     2
176
     1
 67
     7
176
     1
 79
     5
176
     1
170
     0
176
     1
171
     0
176
     1
290
     0
176
     1
 93
        1
176
     1
 44
0.0
176
     1
173
     0
176
     1
  0
VISUALSTYLE
  5
32
102
{ACAD_REACTORS
330
2A
102
}
330
2A
100
AcDbVisualStyle
  2
Basic
 70
     7
177
     2
291
     1
 71
     1
176
     1
 72
     0
176
     1
 73
     1
176
     1
 90
        0
176
     1
 40
-0.6
176
     1
 41
-30.0
176
     1
 62
     5
 63
     7
421
 16777215
176
     1
 74
     0
176
     1
 91
        4
176
     1
 64
     7
176
     1
 65
   257
176
     1
 75
     1
176
     1
175
     1
176
     1
 42
1.0
176
     1
 92
        8
176
     1
 66
     7
176
     1
 43
1.0
176
     1
 76
     1
176
     1
 77
     6
176
     1
 78
     2
176
     1
 67
     7
176
     1
 79
     5
176
     1
170
     0
176
     1
171
     0
176
     1
290
     0
176
     1
 93
        1
176
     1
 44
0.0
176
     1
173
     0
176
     1
  0
VISUALSTYLE
  5
36
102
{ACAD_REACTORS
330
2A
102
}
330
2A
100
AcDbVisualStyle
  2
Brighten
 70
    12
177
     2
291
     1
 71
     2
176
     1
 72
     2
176
     1
 73
     0
176
     1
 90
        0
176
     1
 40
-0.6
176
     1
 41
-30.0
176
     1
 62
     5
 63
     7
421
 16777215
176
     1
 74
     1
176
     1
 91
        4
176
     1
 64
     7
176
     1
 65
   257
176
     1
 75
     1
176
     1
175
     1
176
     1
 42
1.0
176
     1
 92
        8
176
     1
 66
     7
176
     1
 43
1.0
176
     1
 76
     1
176
     1
 77
     6
176
     1
 78
     2
176
     1
 67
     7
176
     1
 79
     5
176
     1
170
     0
176
     1
171
     0
176
     1
290
     0
176
     1
 93
        1
176
     1
 44
50.0
176
     1
173
     0
176
     1
  0
VISUALSTYLE
  5
3A
102
{ACAD_REACTORS
330
2A
102
}
330
2A
100
AcDbVisualStyle
  2
ColorChange
 70
    16
177
     2
291
     1
 71
     2
176
     1
 72
     2
176
     1
 73
     3
176
     1
 90
        0
176
     1
 40
-0.6
176
     1
 41
-30.0
176
     1
 62
     5
 63
     8
421
  8421504
176
     1
 74
     1
176
     1
 91
        4
176
     1
 64
     7
176
     1
 65
   257
176
     1
 75
     1
176
     1
175
     1
176
     1
 42
1.0
176
     1
 92
        8
176
     1
 66
     8
424
  8421504
176
     1
 43
1.0
176
     1
 76
     1
176
     1
 77
     6
176
     1
 78
     2
176
     1
 67
     7
176
     1
 79
     5
176
     1
170
     0
176
     1
171
     0
176
     1
290
     0
176
     1
 93
        1
176
     1
 44
0.0
176
     1
173
     0
176
     1
  0
VISUALSTYLE
  5
34
102
{ACAD_REACTORS
330
2A
102
}
330
2A
100
AcDbVisualStyle
  2
Conceptual
 70
     9
177
     2
291
     0
 71
     3
176
     1
 72
     2
176
     1
 73
     0
176
     1
 90
        0
176
     1
 40
-0.6
176
     1
 41
-30.0
176
     1
 62
     5
 63
     7
421
 16777215
176
     1
 74
     2
176
     1
 91
        2
176
     1
 64
     7
176
     1
 65
   257
176
     1
 75
     1
176
     1
175
     1
176
     1
 42
40.0
176
     1
 92
        8
176
     1
 66
     7
176
     1
 43
1.0
176
     1
 76
     1
176
     1
 77
     6
176
     1
 78
     2
176
     1
 67
     7
176
     1
 79
     3
176
     1
170
     0
176
     1
171
     0
176
     1
290
     0
176
     1
 93
        1
176
     1
 44
0.0
176
     1
173
     0
176
     1
  0
VISUALSTYLE
  5
35
102
{ACAD_REACTORS
330
2A
102
}
330
2A
100
AcDbVisualStyle
  2
Dim
 70
    11
177
     2
291
     1
 71
     2
176
     1
 72
     2
176
     1
 73
     0
176
     1
 90
        0
176
     1
 40
-0.6
176
     1
 41
-30.0
176
     1
 62
     5
 63
     7
421
 16777215
176
     1
 74
     1
176
     1
 91
        4
176
     1
 64
     7
176
     1
 65
   257
176
     1
 75
     1
176
     1
175
     1
176
     1
 42
1.0
176
     1
 92
        8
176
     1
 66
     7
176
     1
 43
1.0
176
     1
 76
     1
176
     1
 77
     6
176
     1
 78
     2
176
     1
 67
     7
176
     1
 79
     5
176
     1
170
     0
176
     1
171
     0
176
     1
290
     0
176
     1
 93
        1
176
     1
 44
-50.0
176
     1
173
     0
176
     1
  0
VISUALSTYLE
  5
39
102
{ACAD_REACTORS
330
2A
102
}
330
2A
100
AcDbVisualStyle
  2
Facepattern
 70
    15
177
     2
291
     1
 71
     2
176
     1
 72
     2
176
     1
 73
     0
176
     1
 90
        0
176
     1
 40
-0.6
176
     1
 41
-30.0
176
     1
 62
     5
 63
     7
421
 16777215
176
     1
 74
     1
176
     1
 91
        4
176
     1
 64
     7
176
     1
 65
   257
176
     1
 75
     1
176
     1
175
     1
176
     1
 42
1.0
176
     1
 92
        8
176
     1
 66
     7
176
     1
 43
1.0
176
     1
 76
     1
176
     1
 77
     6
176
     1
 78
     2
176
     1
 67
     7
176
     1
 79
     5
176
     1
170
     0
176
     1
171
     0
176
     1
290
     0
176
     1
 93
        1
176
     1
 44
0.0
176
     1
173
     0
176
     1
  0
VISUALSTYLE
  5
2B
102
{ACAD_REACTORS
330
2A
102
}
330
2A
100
AcDbVisualStyle
  2
Flat
 70
     0
177
     2
291
     1
 71
     2
176
     1
 72
     1
176
     1
 73
     1
176
     1
 90
        2
176
     1
 40
-0.6
176
     1
 41
30.0
176
     1
 62
     5
 63
     7
421
 16777215
176
     1
 74
     0
176
     1
 91
        4
176
     1
 64
     7
176
     1
 65
   257
176
     1
 75
     1
176
     1
175
     1
176
     1
 42
1.0
176
     1
 92
        8
176
     1
 66
     7
176
     1
 43
1.0
176
     1
 76
     1
176
     1
 77
     6
176
     1
 78
     2
176
     1
 67
     7
176
     1
 79
     5
176
     1
170
     0
176
     1
171
     0
176
     1
290
     0
176
     1
 93
       13
176
     1
 44
0.0
176
     1
173
     0
176
     1
  0
VISUALSTYLE
  5
2C
102
{ACAD_REACTORS
330
2A
102
}
330
2A
100
AcDbVisualStyle
  2
FlatWithEdges
 70
     1
177
     2
291
     1
 71
     2
176
     1
 72
     1
176
     1
 73
     1
176
     1
 90
        2
176
     1
 40
-0.6
176
     1
 41
30.0
176
     1
 62
     5
 63
     7
421
 16777215
176
     1
 74
     1
176
     1
 91
        4
176
     1
 64
     7
176
     1
 65
   257
176
     1
 75
     1
176
     1
175
     1
176
     1
 42
1.0
176
     1
 92
        0
176
     1
 66
   257
176
     1
 43
1.0
176
     1
 76
     1
176
     1
 77
     6
176
     1
 78
     2
176
     1
 67
     7
176
     1
 79
     5
176
     1
170
     0
176
     1
171
     0
176
     1
290
     0
176
     1
 93
       13
176
     1
 44
0.0
176
     1
173
     0
176
     1
  0
VISUALSTYLE
  5
2D
102
{ACAD_REACTORS
330
2A
102
}
330
2A
100
AcDbVisualStyle
  2
Gouraud
 70
     2
177
     2
291
     1
 71
     2
176
     1
 72
     2
176
     1
 73
     1
176
     1
 90
        2
176
     1
 40
-0.6
176
     1
 41
30.0
176
     1
 62
     5
 63
     7
421
 16777215
176
     1
 74
     0
176
     1
 91
        4
176
     1
 64
     7
176
     1
 65
   257
176
     1
 75
     1
176
     1
175
     1
176
     1
 42
1.0
176
     1
 92
        0
176
     1
 66
     7
176
     1
 43
1.0
176
     1
 76
     1
176
     1
 77
     6
176
     1
 78
     2
176
     1
 67
     7
176
     1
 79
     5
176
     1
170
     0
176
     1
171
     0
176
     1
290
     0
176
     1
 93
       13
176
     1
 44
0.0
176
     1
173
     0
176
     1
  0
VISUALSTYLE
  5
2E
102
{ACAD_REACTORS
330
2A
102
}
330
2A
100
AcDbVisualStyle
  2
GouraudWithEdges
 70
     3
177
     2
291
     1
 71
     2
176
     1
 72
     2
176
     1
 73
     1
176
     1
 90
        2
176
     1
 40
-0.6
176
     1
 41
30.0
176
     1
 62
     5
 63
     7
421
 16777215
176
     1
 74
     1
176
     1
 91
        4
176
     1
 64
     7
176
     1
 65
   257
176
     1
 75
     1
176
     1
175
     1
176
     1
 42
1.0
176
     1
 92
        0
176
     1
 66
   257
176
     1
 43
1.0
176
     1
 76
     1
176
     1
 77
     6
176
     1
 78
     2
176
     1
 67
     7
176
     1
 79
     5
176
     1
170
     0
176
     1
171
     0
176
     1
290
     0
176
     1
 93
       13
176
     1
 44
0.0
176
     1
173
     0
176
     1
  0
VISUALSTYLE
  5
38
102
{ACAD_REACTORS
330
2A
102
}
330
2A
100
AcDbVisualStyle
  2
Linepattern
 70
    14
177
     2
291
     1
 71
     2
176
     1
 72
     2
176
     1
 73
     0
176
     1
 90
        0
176
     1
 40
-0.6
176
     1
 41
-30.0
176
     1
 62
     5
 63
     7
421
 16777215
176
     1
 74
     1
176
     1
 91
        4
176
     1
 64
     7
176
     1
 65
   257
176
     1
 75
     7
176
     1
175
     7
176
     1
 42
1.0
176
     1
 92
        8
176
     1
 66
     7
176
     1
 43
1.0
176
     1
 76
     1
176
     1
 77
     6
176
     1
 78
     2
176
     1
 67
     7
176
     1
 79
     5
176
     1
170
     0
176
     1
171
     0
176
     1
290
     0
176
     1
 93
        1
176
     1
 44
0.0
176
     1
173
     0
176
     1
  0
VISUALSTYLE
  5
33
102
{ACAD_REACTORS
330
2A
102
}
330
2A
100
AcDbVisualStyle
  2
Realistic
 70
     8
177
     2
291
     0
 71
     2
176
     1
 72
     2
176
     1
 73
     0
176
     1
 90
        0
176
     1
 40
-0.6
176
     1
 41
-30.0
176
     1
 62
     5
 63
     7
421
 16777215
176
     1
 74
     1
176
     1
 91
        0
176
     1
 64
     7
176
     1
 65
   257
176
     1
 75
     1
176
     1
175
     1
176
     1
 42
1.0
176
     1
 92
        8
176
     1
 66
     8
424
  7895160
176
     1
 43
1.0
176
     1
 76
     1
176
     1
 77
     6
176
     1
 78
     2
176
     1
 67
     7
176
     1
 79
     5
176
     1
170
     0
176
     1
171
     0
176
     1
290
     0
176
     1
 93
       13
176
     1
 44
0.0
176
     1
173
     0
176
     1
  0
VISUALSTYLE
  5
37
102
{ACAD_REACTORS
330
2A
102
}
330
2A
100
AcDbVisualStyle
  2
Thicken
 70
    13
177
     2
291
     1
 71
     2
176
     1
 72
     2
176
     1
 73
     0
176
     1
 90
        0
176
     1
 40
-0.6
176
     1
 41
-30.0
176
     1
 62
     5
 63
     7
421
 16777215
176
     1
 74
     1
176
     1
 91
        4
176
     1
 64
     7
176
     1
 65
   257
176
     1
 75
     1
176
     1
175
     1
176
     1
 42
1.0
176
     1
 92
       12
176
     1
 66
     7
176
     1
 43
1.0
176
     1
 76
     1
176
     1
 77
     6
176
     1
 78
     2
176
     1
 67
     7
176
     1
 79
     5
176
     1
170
     0
176
     1
171
     0
176
     1
290
     0
176
     1
 93
        1
176
     1
 44
0.0
176
     1
173
     0
176
     1
  0
ENDSEC
  0
EOF
