  0
SECTION
  2
HEADER
  9
$ACADVER
  1
AC1024
  9
$ACADMAINTVER
 70
     6
  9
$DWGCODEPAGE
  3
UNDEFINED
  9
$INSBASE
 10
0.0
 20
0.0
 30
0.0
  9
$EXTMIN
 10
1.000000000000000E+20
 20
1.000000000000000E+20
 30
1.000000000000000E+20
  9
$EXTMAX
 10
-1.000000000000000E+20
 20
-1.000000000000000E+20
 30
-1.000000000000000E+20
  9
$LIMMIN
 10
0.0
 20
0.0
  9
$LIMMAX
 10
12.0
 20
9.0
  9
$ORTHOMODE
 70
     0
  9
$REGENMODE
 70
     1
  9
$FILLMODE
 70
     1
  9
$QTEXTMODE
 70
     0
  9
$MIRRTEXT
 70
     1
  9
$LTSCALE
 40
1.0
  9
$ATTMODE
 70
     1
  9
$TEXTSIZE
 40
0.2
  9
$TRACEWID
 40
0.05
  9
$TEXTSTYLE
  7
Standard
  9
$CLAYER
  8
0
  9
$CELTYPE
  6
ByLayer
  9
$CECOLOR
 62
   256
  9
$CELTSCALE
 40
1.0
  9
$DISPSILH
 70
     0
  9
$DIMSCALE
 40
1.0
  9
$DIMASZ
 40
0.18
  9
$DIMEXO
 40
0.0625
  9
$DIMDLI
 40
0.38
  9
$DIMRND
 40
0.0
  9
$DIMDLE
 40
0.0
  9
$DIMEXE
 40
0.18
  9
$DIMTP
 40
0.0
  9
$DIMTM
 40
0.0
  9
$DIMTXT
 40
0.18
  9
$DIMCEN
 40
0.09
  9
$DIMTSZ
 40
0.0
  9
$DIMTOL
 70
     0
  9
$DIMLIM
 70
     0
  9
$DIMTIH
 70
     1
  9
$DIMTOH
 70
     1
  9
$DIMSE1
 70
     0
  9
$DIMSE2
 70
     0
  9
$DIMTAD
 70
     0
  9
$DIMZIN
 70
     0
  9
$DIMBLK
  1

  9
$DIMASO
 70
     1
  9
$DIMSHO
 70
     1
  9
$DIMPOST
  1

  9
$DIMAPOST
  1

  9
$DIMALT
 70
     0
  9
$DIMALTD
 70
     2
  9
$DIMALTF
 40
25.4
  9
$DIMLFAC
 40
1.0
  9
$DIMTOFL
 70
     0
  9
$DIMTVP
 40
0.0
  9
$DIMTIX
 70
     0
  9
$DIMSOXD
 70
     0
  9
$DIMSAH
 70
     0
  9
$DIMBLK1
  1

  9
$DIMBLK2
  1

  9
$DIMSTYLE
  2
Standard
  9
$DIMCLRD
 70
     0
  9
$DIMCLRE
 70
     0
  9
$DIMCLRT
 70
     0
  9
$DIMTFAC
 40
1.0
  9
$DIMGAP
 40
0.09
  9
$DIMJUST
 70
     0
  9
$DIMSD1
 70
     0
  9
$DIMSD2
 70
     0
  9
$DIMTOLJ
 70
     1
  9
$DIMTZIN
 70
     0
  9
$DIMALTZ
 70
     0
  9
$DIMALTTZ
 70
     0
  9
$DIMUPT
 70
     0
  9
$DIMDEC
 70
     4
  9
$DIMTDEC
 70
     4
  9
$DIMALTU
 70
     2
  9
$DIMALTTD
 70
     2
  9
$DIMTXSTY
  7
Standard
  9
$DIMAUNIT
 70
     0
  9
$DIMADEC
 70
     0
  9
$DIMALTRND
 40
0.0
  9
$DIMAZIN
 70
     0
  9
$DIMDSEP
 70
    46
  9
$DIMATFIT
 70
     3
  9
$DIMFRAC
 70
     0
  9
$DIMLDRBLK
  1

  9
$DIMLUNIT
 70
     2
  9
$DIMLWD
 70
    -2
  9
$DIMLWE
 70
    -2
  9
$DIMTMOVE
 70
     0
  9
$DIMFXL
 40
1.0
  9
$DIMFXLON
 70
     0
  9
$DIMJOGANG
 40
0.7853981633974483
  9
$DIMTFILL
 70
     0
  9
$DIMTFILLCLR
 70
     0
  9
$DIMARCSYM
 70
     0
  9
$DIMLTYPE
  6

  9
$DIMLTEX1
  6

  9
$DIMLTEX2
  6

  9
$DIMTXTDIRECTION
 70
     0
  9
$LUNITS
 70
     2
  9
$LUPREC
 70
     4
  9
$SKETCHINC
 40
0.1
  9
$FILLETRAD
 40
0.5
  9
$AUNITS
 70
     0
  9
$AUPREC
 70
     0
  9
$MENU
  1
.
  9
$ELEVATION
 40
0.0
  9
$PELEVATION
 40
0.0
  9
$THICKNESS
 40
0.0
  9
$LIMCHECK
 70
     0
  9
$CHAMFERA
 40
0.5
  9
$CHAMFERB
 40
0.5
  9
$CHAMFERC
 40
1.0
  9
$CHAMFERD
 40
0.0
  9
$SKPOLY
 70
     0
  9
$TDCREATE
 40
2457917.622928241
  9
$TDUCREATE
 40
2457917.247928241
  9
$TDUPDATE
 40
2457917.622928241
  9
$TDUUPDATE
 40
2457917.247928241
  9
$TDINDWG
 40
0.0000000116
  9
$TDUSRTIMER
 40
0.0000000116
  9
$USRTIMER
 70
     1
  9
$ANGBASE
 50
0.0
  9
$ANGDIR
 70
     0
  9
$PDMODE
 70
     0
  9
$PDSIZE
 40
0.0
  9
$PLINEWID
 40
0.0
  9
$SPLFRAME
 70
     0
  9
$SPLINETYPE
 70
     6
  9
$SPLINESEGS
 70
     8
  9
$HANDSEED
  5
EC
  9
$SURFTAB1
 70
     6
  9
$SURFTAB2
 70
     6
  9
$SURFTYPE
 70
     6
  9
$SURFU
 70
     6
  9
$SURFV
 70
     6
  9
$UCSBASE
  2

  9
$UCSNAME
  2

  9
$UCSORG
 10
0.0
 20
0.0
 30
0.0
  9
$UCSXDIR
 10
1.0
 20
0.0
 30
0.0
  9
$UCSYDIR
 10
0.0
 20
1.0
 30
0.0
  9
$UCSORTHOREF
  2

  9
$UCSORTHOVIEW
 70
     0
  9
$UCSORGTOP
 10
0.0
 20
0.0
 30
0.0
  9
$UCSORGBOTTOM
 10
0.0
 20
0.0
 30
0.0
  9
$UCSORGLEFT
 10
0.0
 20
0.0
 30
0.0
  9
$UCSORGRIGHT
 10
0.0
 20
0.0
 30
0.0
  9
$UCSORGFRONT
 10
0.0
 20
0.0
 30
0.0
  9
$UCSORGBACK
 10
0.0
 20
0.0
 30
0.0
  9
$PUCSBASE
  2

  9
$PUCSNAME
  2

  9
$PUCSORG
 10
0.0
 20
0.0
 30
0.0
  9
$PUCSXDIR
 10
1.0
 20
0.0
 30
0.0
  9
$PUCSYDIR
 10
0.0
 20
1.0
 30
0.0
  9
$PUCSORTHOREF
  2

  9
$PUCSORTHOVIEW
 70
     0
  9
$PUCSORGTOP
 10
0.0
 20
0.0
 30
0.0
  9
$PUCSORGBOTTOM
 10
0.0
 20
0.0
 30
0.0
  9
$PUCSORGLEFT
 10
0.0
 20
0.0
 30
0.0
  9
$PUCSORGRIGHT
 10
0.0
 20
0.0
 30
0.0
  9
$PUCSORGFRONT
 10
0.0
 20
0.0
 30
0.0
  9
$PUCSORGBACK
 10
0.0
 20
0.0
 30
0.0
  9
$USERI1
 70
     0
  9
$USERI2
 70
     0
  9
$USERI3
 70
     0
  9
$USERI4
 70
     0
  9
$USERI5
 70
     0
  9
$USERR1
 40
0.0
  9
$USERR2
 40
0.0
  9
$USERR3
 40
0.0
  9
$USERR4
 40
0.0
  9
$USERR5
 40
0.0
  9
$WORLDVIEW
 70
     1
  9
$SHADEDGE
 70
     3
  9
$SHADEDIF
 70
    70
  9
$TILEMODE
 70
     1
  9
$MAXACTVP
 70
    64
  9
$PINSBASE
 10
0.0
 20
0.0
 30
0.0
  9
$PLIMCHECK
 70
     0
  9
$PEXTMIN
 10
1.000000000000000E+20
 20
1.000000000000000E+20
 30
1.000000000000000E+20
  9
$PEXTMAX
 10
-1.000000000000000E+20
 20
-1.000000000000000E+20
 30
-1.000000000000000E+20
  9
$PLIMMIN
 10
0.0
 20
0.0
  9
$PLIMMAX
 10
12.0
 20
9.0
  9
$UNITMODE
 70
     0
  9
$VISRETAIN
 70
     1
  9
$PLINEGEN
 70
     0
  9
$PSLTSCALE
 70
     1
  9
$TREEDEPTH
 70
  3020
  9
$CMLSTYLE
  2
Standard
  9
$CMLJUST
 70
     0
  9
$CMLSCALE
 40
1.0
  9
$PROXYGRAPHICS
 70
     1
  9
$MEASUREMENT
 70
     0
  9
$CELWEIGHT
370
    -1
  9
$ENDCAPS
280
     0
  9
$JOINSTYLE
280
     0
  9
$LWDISPLAY
290
     1
  9
$INSUNITS
 70
     1
  9
$HYPERLINKBASE
  1

  9
$STYLESHEET
  1

  9
$XEDIT
290
     1
  9
$CEPSNTYPE
380
     0
  9
$PSTYLEMODE
290
     1
  9
$FINGERPRINTGUID
  2
{94CE2F16-3F6D-247F-EEBD-B3654AFEA41F}
  9
$VERSIONGUID
  2
{FAEB1C32-E019-11D5-929B-00C0DF256EC4}
  9
$EXTNAMES
290
     1
  9
$PSVPSCALE
 40
0.0
  9
$OLESTARTUP
290
     0
  9
$SORTENTS
280
   127
  9
$INDEXCTL
280
     0
  9
$HIDETEXT
280
     1
  9
$XCLIPFRAME
280
     2
  9
$HALOGAP
280
     0
  9
$OBSCOLOR
 70
   257
  9
$OBSLTYPE
280
     0
  9
$INTERSECTIONDISPLAY
280
     0
  9
$INTERSECTIONCOLOR
 70
   257
  9
$DIMASSOC
280
     2
  9
$PROJECTNAME
  1

  9
$CAMERADISPLAY
290
     0
  9
$LENSLENGTH
 40
50.0
  9
$CAMERAHEIGHT
 40
0.0
  9
$STEPSPERSEC
 40
2.0
  9
$STEPSIZE
 40
6.0
  9
$3DDWFPREC
 40
2.0
  9
$PSOLWIDTH
 40
0.25
  9
$PSOLHEIGHT
 40
4.0
  9
$LOFTANG1
 40
1.570796326794897
  9
$LOFTANG2
 40
1.570796326794897
  9
$LOFTMAG1
 40
0.0
  9
$LOFTMAG2
 40
0.0
  9
$LOFTPARAM
 70
     7
  9
$LOFTNORMALS
280
     1
  9
$LATITUDE
 40
37.795
  9
$LONGITUDE
 40
-122.394
  9
$NORTHDIRECTION
 40
0.0
  9
$TIMEZONE
 70
 -8000
  9
$LIGHTGLYPHDISPLAY
280
     1
  9
$TILEMODELIGHTSYNCH
280
     1
  9
$CMATERIAL
347
3C
  9
$SOLIDHIST
280
     1
  9
$SHOWHIST
280
     1
  9
$DWFFRAME
280
     2
  9
$DGNFRAME
280
     2
  9
$REALWORLDSCALE
290
     1
  9
$INTERFERECOLOR
 62
   256
  9
$CSHADOW
280
     0
  9
$SHADOWPLANELOCATION
 40
0.0
  0
ENDSEC
  0
SECTION
  2
CLASSES
  0
CLASS
  1
ACDBDICTIONARYWDFLT
  2
AcDbDictionaryWithDefault
  3
ObjectDBX Classes
 90
        0
 91
        4
280
     0
281
     0
  0
CLASS
  1
VISUALSTYLE
  2
AcDbVisualStyle
  3
ObjectDBX Classes
 90
     4095
 91
        4
280
     0
281
     0
  0
CLASS
  1
MATERIAL
  2
AcDbMaterial
  3
ObjectDBX Classes
 90
     1153
 91
        4
280
     0
281
     0
  0
CLASS
  1
SUN
  2
AcDbSun
  3
SCENEOE
 90
     1024
 91
        4
280
     0
281
     0
  0
ENDSEC
  0
SECTION
  2
TABLES
  0
TABLE
  2
VPORT
  5
8
330
0
100
AcDbSymbolTable
 70
     1
  0
VPORT
  5
29
330
8
100
AcDbSymbolTableRecord
100
AcDbViewportTableRecord
  2
*Active
 70
     0
 10
0.0
 20
0.0
 11
1.0
 21
1.0
 12
0.0
 22
0.0
 13
0.0
 23
0.0
 14
0.5
 24
0.5
 15
0.5
 25
0.5
 16
0.0
 26
0.0
 36
1.0
 17
91.00082462281999
 27
-128.4993055234307
 37
0.0
 40
256.9986110468615
 41
0.7081814508812795
 42
50.0
 43
0.0
 44
0.0
 50
0.0
 51
0.0
 71
     0
 72
   100
 73
     1
 74
     3
 75
     0
 76
     0
 77
     0
 78
     0
281
     0
 65
     1
110
0.0
120
0.0
130
0.0
111
1.0
121
0.0
131
0.0
112
0.0
122
1.0
132
0.0
 79
     0
146
0.0
 60
     3
 61
     5
292
     1
282
     1
141
0.0
142
0.0
 63
   250
361
3F
  0
ENDTAB
  0
TABLE
  2
LTYPE
  5
5
330
0
100
AcDbSymbolTable
 70
     1
  0
LTYPE
  5
14
330
5
100
AcDbSymbolTableRecord
100
AcDbLinetypeTableRecord
  2
ByBlock
 70
     0
  3

 72
    65
 73
     0
 40
0.0
  0
LTYPE
  5
15
330
5
100
AcDbSymbolTableRecord
100
AcDbLinetypeTableRecord
  2
ByLayer
 70
     0
  3

 72
    65
 73
     0
 40
0.0
  0
LTYPE
  5
16
330
5
100
AcDbSymbolTableRecord
100
AcDbLinetypeTableRecord
  2
Continuous
 70
     0
  3
Solid line
 72
    65
 73
     0
 40
0.0
  0
ENDTAB
  0
TABLE
  2
LAYER
  5
2
330
0
100
AcDbSymbolTable
 70
     2
  0
LAYER
  5
10
330
2
100
AcDbSymbolTableRecord
100
AcDbLayerTableRecord
  2
0
 70
     0
 62
     7
  6
Continuous
370
    -3
390
F
347
3E
  0
LAYER
  5
40
330
2
100
AcDbSymbolTableRecord
100
AcDbLayerTableRecord
  2
_U+30EC_U+30A4_U+30E4_U+30FC 1
 70
     0
 62
     7
  6
Continuous
370
    -3
390
F
347
3E
  0
ENDTAB
  0
TABLE
  2
STYLE
  5
3
330
0
100
AcDbSymbolTable
 70
     1
  0
STYLE
  5
11
330
3
100
AcDbSymbolTableRecord
100
AcDbTextStyleTableRecord
  2
Standard
 70
     0
 40
0.0
 41
1.0
 50
0.0
 71
     0
 42
0.2
  3
txt
  4

  0
ENDTAB
  0
TABLE
  2
VIEW
  5
6
330
0
100
AcDbSymbolTable
 70
     0
  0
ENDTAB
  0
TABLE
  2
UCS
  5
7
330
0
100
AcDbSymbolTable
 70
     0
  0
ENDTAB
  0
TABLE
  2
APPID
  5
9
330
0
100
AcDbSymbolTable
 70
     1
  0
APPID
  5
12
330
9
100
AcDbSymbolTableRecord
100
AcDbRegAppTableRecord
  2
ACAD
 70
     0
  0
ENDTAB
  0
TABLE
  2
DIMSTYLE
  5
A
330
0
100
AcDbSymbolTable
 70
     1
100
AcDbDimStyleTable
  0
DIMSTYLE
105
27
330
A
100
AcDbSymbolTableRecord
100
AcDbDimStyleTableRecord
  2
Standard
 70
     0
178
     0
340
11
  0
ENDTAB
  0
TABLE
  2
BLOCK_RECORD
  5
1
330
0
100
AcDbSymbolTable
 70
     7
  0
BLOCK_RECORD
  5
1F
330
1
100
AcDbSymbolTableRecord
100
AcDbBlockTableRecord
  2
*Model_Space
340
22
 70
     0
280
     1
281
     0
  0
BLOCK_RECORD
  5
1B
330
1
100
AcDbSymbolTableRecord
100
AcDbBlockTableRecord
  2
*Paper_Space
340
1E
 70
     0
280
     1
281
     0
  0
BLOCK_RECORD
  5
23
330
1
100
AcDbSymbolTableRecord
100
AcDbBlockTableRecord
  2
*Paper_Space0
340
26
 70
     0
280
     1
281
     0
  0
BLOCK_RECORD
  5
67
330
1
100
AcDbSymbolTableRecord
100
AcDbBlockTableRecord
  2
block 2
340
0
102
{BLKREFS
331
68
102
}
 70
     0
280
     1
281
     0
  0
BLOCK_RECORD
  5
76
330
1
100
AcDbSymbolTableRecord
100
AcDbBlockTableRecord
  2
block 3
340
0
102
{BLKREFS
331
77
102
}
 70
     0
280
     1
281
     0
  0
BLOCK_RECORD
  5
98
330
1
100
AcDbSymbolTableRecord
100
AcDbBlockTableRecord
  2
block 4
340
0
102
{BLKREFS
331
99
102
}
 70
     0
280
     1
281
     0
  0
BLOCK_RECORD
  5
9E
330
1
100
AcDbSymbolTableRecord
100
AcDbBlockTableRecord
  2
block 5
340
0
102
{BLKREFS
331
9F
102
}
 70
     0
280
     1
281
     0
  0
BLOCK_RECORD
  5
BE
330
1
100
AcDbSymbolTableRecord
100
AcDbBlockTableRecord
  2
block 6
340
0
102
{BLKREFS
331
BF
102
}
 70
     0
280
     1
281
     0
  0
BLOCK_RECORD
  5
D1
330
1
100
AcDbSymbolTableRecord
100
AcDbBlockTableRecord
  2
block 7
340
0
102
{BLKREFS
331
D2
102
}
 70
     0
280
     1
281
     0
  0
ENDTAB
  0
ENDSEC
  0
SECTION
  2
BLOCKS
  0
BLOCK
  5
20
330
1F
100
AcDbEntity
  8
0
100
AcDbBlockBegin
  2
*Model_Space
 70
     0
 10
0.0
 20
0.0
 30
0.0
  3
*Model_Space
  1

  0
ENDBLK
  5
21
330
1F
100
AcDbEntity
  8
0
100
AcDbBlockEnd
  0
BLOCK
  5
1C
330
1B
100
AcDbEntity
 67
     1
  8
0
100
AcDbBlockBegin
  2
*Paper_Space
 70
     0
 10
0.0
 20
0.0
 30
0.0
  3
*Paper_Space
  1

  0
ENDBLK
  5
1D
330
1B
100
AcDbEntity
 67
     1
  8
0
100
AcDbBlockEnd
  0
BLOCK
  5
24
330
23
100
AcDbEntity
  8
0
100
AcDbBlockBegin
  2
*Paper_Space0
 70
     0
 10
0.0
 20
0.0
 30
0.0
  3
*Paper_Space0
  1

  0
ENDBLK
  5
25
330
23
100
AcDbEntity
  8
0
100
AcDbBlockEnd
  0
BLOCK
  5
69
330
67
100
AcDbEntity
  8
0
100
AcDbBlockBegin
  2
block 2
 70
     0
 10
0.0
 20
0.0
 30
0.0
  3
block 2
  1

  0
SPLINE
  5
6B
330
67
100
AcDbEntity
  8
_U+30EC_U+30A4_U+30E4_U+30FC 1
370
     0
100
AcDbSpline
210
0.0
220
0.0
230
1.0
 70
    11
 71
     3
 72
    62
 73
    58
 74
     0
 42
0.0000000001
 43
0.0000000001
 12
1.0
 22
0.0
 32
0.0
 13
1.0
 23
0.0
 33
0.0
 40
0.0
 40
0.0
 40
0.0
 40
0.0
 40
1.0
 40
1.0
 40
1.0
 40
2.0
 40
2.0
 40
2.0
 40
3.0
 40
3.0
 40
3.0
 40
4.0
 40
4.0
 40
4.0
 40
5.0
 40
5.0
 40
5.0
 40
6.0
 40
6.0
 40
6.0
 40
7.0
 40
7.0
 40
7.0
 40
8.0
 40
8.0
 40
8.0
 40
9.0
 40
9.0
 40
9.0
 40
10.0
 40
10.0
 40
10.0
 40
11.0
 40
11.0
 40
11.0
 40
12.0
 40
12.0
 40
12.0
 40
13.0
 40
13.0
 40
13.0
 40
14.0
 40
14.0
 40
14.0
 40
15.0
 40
15.0
 40
15.0
 40
16.0
 40
16.0
 40
16.0
 40
17.0
 40
17.0
 40
17.0
 40
18.0
 40
18.0
 40
18.0
 40
19.0
 40
19.0
 40
19.0
 40
19.0
 10
101.8304768625632
 20
-121.8513047655441
 30
0.0
 10
101.8304768625632
 20
-121.952935082359
 30
0.0
 10
101.8094617801032
 20
-122.1858235371619
 30
0.0
 10
101.6234266238997
 20
-122.3191487324411
 30
0.0
 10
101.5111165110806
 20
-122.3983859286018
 30
0.0
 10
101.4118977611054
 20
-122.4028645527326
 30
0.0
 10
101.3271484121682
 20
-122.4073431768634
 30
0.0
 10
101.3271484121682
 20
-122.4073431768634
 30
0.0
 10
101.3271484121682
 20
-122.1723876647694
 30
0.0
 10
101.3271484121682
 20
-122.1723876647694
 30
0.0
 10
101.4012179651011
 20
-122.1699760979297
 30
0.0
 10
101.6358289676466
 20
-122.1586072828284
 30
0.0
 10
101.6358289676466
 20
-121.855783389675
 30
0.0
 10
101.6358289676466
 20
-121.7086778124548
 30
0.0
 10
101.5662380388446
 20
-121.546069305551
 30
0.0
 10
101.3378282081725
 20
-121.546069305551
 30
0.0
 10
101.2213839807711
 20
-121.546069305551
 30
0.0
 10
101.172808134429
 20
-121.5867214322769
 30
0.0
 10
101.1411132559647
 20
-121.6204833680324
 30
0.0
 10
101.0670437030319
 20
-121.6997205641931
 30
0.0
 10
101.0542968497364
 20
-121.8240885112106
 30
0.0
 10
101.0542968497364
 20
-121.8829996440084
 30
0.0
 10
101.0542968497364
 20
-121.9033257073714
 30
0.0
 10
101.0563639070276
 20
-121.9415662672577
 30
0.0
 10
101.0604980216099
 20
-121.9711940884308
 30
0.0
 10
101.0604980216099
 20
-121.9711940884308
 30
0.0
 10
100.8658501266933
 20
-121.9711940884308
 30
0.0
 10
100.8658501266933
 20
-121.9711940884308
 30
0.0
 10
100.8723958081152
 20
-121.9305419617049
 30
0.0
 10
100.8744628654064
 20
-121.8850667012996
 30
0.0
 10
100.8744628654064
 20
-121.8785210198776
 30
0.0
 10
100.8744628654064
 20
-121.8082410719785
 30
0.0
 10
100.8531032733978
 20
-121.5956786805386
 30
0.0
 10
100.6164252135612
 20
-121.5956786805386
 30
0.0
 10
100.4386582865223
 20
-121.5956786805386
 30
0.0
 10
100.3835367587583
 20
-121.7358940667882
 30
0.0
 10
100.3835367587583
 20
-121.8533718228353
 30
0.0
 10
100.3835367587583
 20
-122.1362141621743
 30
0.0
 10
100.6164252135612
 20
-122.1451714104359
 30
0.0
 10
100.6880831996544
 20
-122.1496500345668
 30
0.0
 10
100.6880831996544
 20
-122.1496500345668
 30
0.0
 10
100.6880831996544
 20
-122.3666910501375
 30
0.0
 10
100.6880831996544
 20
-122.3666910501375
 30
0.0
 10
100.5633707430883
 20
-122.3577338018759
 30
0.0
 10
100.1868218065505
 20
-122.3284504902512
 30
0.0
 10
100.1868218065505
 20
-121.8399359504428
 30
0.0
 10
100.1868218065505
 20
-121.6001573046694
 30
0.0
 10
100.3139458299562
 20
-121.3424641623727
 30
0.0
 10
100.6098795321392
 20
-121.3424641623727
 30
0.0
 10
100.7962591978912
 20
-121.3424641623727
 30
0.0
 10
100.8785969799887
 20
-121.4444389887361
 30
0.0
 10
100.9399196796261
 20
-121.5505479296818
 30
0.0
 10
100.9674804435081
 20
-121.4850911154621
 30
0.0
 10
101.0477511683145
 20
-121.2904432205455
 30
0.0
 10
101.3250813548771
 20
-121.2904432205455
 30
0.0
 10
101.6633897315286
 20
-121.2904432205455
 30
0.0
 10
101.8304768625632
 20
-121.5550265538126
 30
0.0
 10
101.8304768625632
 20
-121.8513047655441
 30
0.0
  0
HATCH
  5
6C
330
67
100
AcDbEntity
  8
_U+30EC_U+30A4_U+30E4_U+30FC 1
 62
     7
420
 16777215
100
AcDbHatch
 10
0.0
 20
0.0
 30
0.0
210
0.0
220
0.0
230
1.0
  2
SOLID
 70
     1
 71
     0
 91
        1
 92
        1
 93
        1
 72
     4
 94
        3
 73
     0
 74
     1
 95
       62
 96
       58
 40
0.0
 40
0.0
 40
0.0
 40
0.0
 40
1.0
 40
1.0
 40
1.0
 40
2.0
 40
2.0
 40
2.0
 40
3.0
 40
3.0
 40
3.0
 40
4.0
 40
4.0
 40
4.0
 40
5.0
 40
5.0
 40
5.0
 40
6.0
 40
6.0
 40
6.0
 40
7.0
 40
7.0
 40
7.0
 40
8.0
 40
8.0
 40
8.0
 40
9.0
 40
9.0
 40
9.0
 40
10.0
 40
10.0
 40
10.0
 40
11.0
 40
11.0
 40
11.0
 40
12.0
 40
12.0
 40
12.0
 40
13.0
 40
13.0
 40
13.0
 40
14.0
 40
14.0
 40
14.0
 40
15.0
 40
15.0
 40
15.0
 40
16.0
 40
16.0
 40
16.0
 40
17.0
 40
17.0
 40
17.0
 40
18.0
 40
18.0
 40
18.0
 40
19.0
 40
19.0
 40
19.0
 40
19.0
 10
101.8304768625632
 20
-121.8513047655441
 10
101.8304768625632
 20
-121.952935082359
 10
101.8094617801032
 20
-122.1858235371619
 10
101.6234266238997
 20
-122.3191487324411
 10
101.5111165110806
 20
-122.3983859286018
 10
101.4118977611054
 20
-122.4028645527326
 10
101.3271484121682
 20
-122.4073431768634
 10
101.3271484121682
 20
-122.4073431768634
 10
101.3271484121682
 20
-122.1723876647694
 10
101.3271484121682
 20
-122.1723876647694
 10
101.4012179651011
 20
-122.1699760979297
 10
101.6358289676466
 20
-122.1586072828284
 10
101.6358289676466
 20
-121.855783389675
 10
101.6358289676466
 20
-121.7086778124548
 10
101.5662380388446
 20
-121.546069305551
 10
101.3378282081725
 20
-121.546069305551
 10
101.2213839807711
 20
-121.546069305551
 10
101.172808134429
 20
-121.5867214322769
 10
101.1411132559647
 20
-121.6204833680324
 10
101.0670437030319
 20
-121.6997205641931
 10
101.0542968497364
 20
-121.8240885112106
 10
101.0542968497364
 20
-121.8829996440084
 10
101.0542968497364
 20
-121.9033257073714
 10
101.0563639070276
 20
-121.9415662672577
 10
101.0604980216099
 20
-121.9711940884308
 10
101.0604980216099
 20
-121.9711940884308
 10
100.8658501266933
 20
-121.9711940884308
 10
100.8658501266933
 20
-121.9711940884308
 10
100.8723958081152
 20
-121.9305419617049
 10
100.8744628654064
 20
-121.8850667012996
 10
100.8744628654064
 20
-121.8785210198776
 10
100.8744628654064
 20
-121.8082410719785
 10
100.8531032733978
 20
-121.5956786805386
 10
100.6164252135612
 20
-121.5956786805386
 10
100.4386582865223
 20
-121.5956786805386
 10
100.3835367587583
 20
-121.7358940667882
 10
100.3835367587583
 20
-121.8533718228353
 10
100.3835367587583
 20
-122.1362141621743
 10
100.6164252135612
 20
-122.1451714104359
 10
100.6880831996544
 20
-122.1496500345668
 10
100.6880831996544
 20
-122.1496500345668
 10
100.6880831996544
 20
-122.3666910501375
 10
100.6880831996544
 20
-122.3666910501375
 10
100.5633707430883
 20
-122.3577338018759
 10
100.1868218065505
 20
-122.3284504902512
 10
100.1868218065505
 20
-121.8399359504428
 10
100.1868218065505
 20
-121.6001573046694
 10
100.3139458299562
 20
-121.3424641623727
 10
100.6098795321392
 20
-121.3424641623727
 10
100.7962591978912
 20
-121.3424641623727
 10
100.8785969799887
 20
-121.4444389887361
 10
100.9399196796261
 20
-121.5505479296818
 10
100.9674804435081
 20
-121.4850911154621
 10
101.0477511683145
 20
-121.2904432205455
 10
101.3250813548771
 20
-121.2904432205455
 10
101.6633897315286
 20
-121.2904432205455
 10
101.8304768625632
 20
-121.5550265538126
 10
101.8304768625632
 20
-121.8513047655441
 97
        0
 97
        0
 75
     2
 76
     1
 98
        0
  0
ENDBLK
  5
6A
330
67
100
AcDbEntity
  8
0
100
AcDbBlockEnd
  0
BLOCK
  5
78
330
76
100
AcDbEntity
  8
0
100
AcDbBlockBegin
  2
block 3
 70
     0
 10
0.0
 20
0.0
 30
0.0
  3
block 3
  1

  0
SPLINE
  5
7A
330
76
100
AcDbEntity
  8
_U+30EC_U+30A4_U+30E4_U+30FC 1
370
     0
100
AcDbSpline
210
0.0
220
0.0
230
1.0
 70
    11
 71
     3
 72
    26
 73
    22
 74
     0
 42
0.0000000001
 43
0.0000000001
 12
1.0
 22
0.0
 32
0.0
 13
1.0
 23
0.0
 33
0.0
 40
0.0
 40
0.0
 40
0.0
 40
0.0
 40
1.0
 40
1.0
 40
1.0
 40
2.0
 40
2.0
 40
2.0
 40
3.0
 40
3.0
 40
3.0
 40
4.0
 40
4.0
 40
4.0
 40
5.0
 40
5.0
 40
5.0
 40
6.0
 40
6.0
 40
6.0
 40
7.0
 40
7.0
 40
7.0
 40
7.0
 10
101.77983395893
 20
-131.1813123586977
 30
0.0
 10
101.77983395893
 20
-131.1813123586977
 30
0.0
 10
100.6756808559075
 20
-131.1813123586977
 30
0.0
 10
100.6756808559075
 20
-131.1813123586977
 30
0.0
 10
100.6756808559075
 20
-131.1813123586977
 30
0.0
 10
100.6756808559075
 20
-131.5337456268388
 30
0.0
 10
100.6756808559075
 20
-131.5337456268388
 30
0.0
 10
100.6756808559075
 20
-131.5337456268388
 30
0.0
 10
100.5275417500417
 20
-131.5337456268388
 30
0.0
 10
100.5275417500417
 20
-131.5337456268388
 30
0.0
 10
100.5127278394552
 20
-131.1789007918581
 30
0.0
 10
100.3497748230028
 20
-131.1292914168705
 30
0.0
 10
100.2353976528925
 20
-131.0975965384062
 30
0.0
 10
100.2353976528925
 20
-131.0975965384062
 30
0.0
 10
100.2353976528925
 20
-130.9415337129244
 30
0.0
 10
100.2353976528925
 20
-130.9415337129244
 30
0.0
 10
100.2353976528925
 20
-130.9415337129244
 30
0.0
 10
101.77983395893
 20
-130.9415337129244
 30
0.0
 10
101.77983395893
 20
-130.9415337129244
 30
0.0
 10
101.77983395893
 20
-130.9415337129244
 30
0.0
 10
101.77983395893
 20
-131.1813123586977
 30
0.0
 10
101.77983395893
 20
-131.1813123586977
 30
0.0
  0
HATCH
  5
7B
330
76
100
AcDbEntity
  8
_U+30EC_U+30A4_U+30E4_U+30FC 1
 62
     7
420
 16777215
100
AcDbHatch
 10
0.0
 20
0.0
 30
0.0
210
0.0
220
0.0
230
1.0
  2
SOLID
 70
     1
 71
     0
 91
        1
 92
        1
 93
        1
 72
     4
 94
        3
 73
     0
 74
     1
 95
       26
 96
       22
 40
0.0
 40
0.0
 40
0.0
 40
0.0
 40
1.0
 40
1.0
 40
1.0
 40
2.0
 40
2.0
 40
2.0
 40
3.0
 40
3.0
 40
3.0
 40
4.0
 40
4.0
 40
4.0
 40
5.0
 40
5.0
 40
5.0
 40
6.0
 40
6.0
 40
6.0
 40
7.0
 40
7.0
 40
7.0
 40
7.0
 10
101.77983395893
 20
-131.1813123586977
 10
101.77983395893
 20
-131.1813123586977
 10
100.6756808559075
 20
-131.1813123586977
 10
100.6756808559075
 20
-131.1813123586977
 10
100.6756808559075
 20
-131.1813123586977
 10
100.6756808559075
 20
-131.5337456268388
 10
100.6756808559075
 20
-131.5337456268388
 10
100.6756808559075
 20
-131.5337456268388
 10
100.5275417500417
 20
-131.5337456268388
 10
100.5275417500417
 20
-131.5337456268388
 10
100.5127278394552
 20
-131.1789007918581
 10
100.3497748230028
 20
-131.1292914168705
 10
100.2353976528925
 20
-131.0975965384062
 10
100.2353976528925
 20
-131.0975965384062
 10
100.2353976528925
 20
-130.9415337129244
 10
100.2353976528925
 20
-130.9415337129244
 10
100.2353976528925
 20
-130.9415337129244
 10
101.77983395893
 20
-130.9415337129244
 10
101.77983395893
 20
-130.9415337129244
 10
101.77983395893
 20
-130.9415337129244
 10
101.77983395893
 20
-131.1813123586977
 10
101.77983395893
 20
-131.1813123586977
 97
        0
 97
        0
 75
     2
 76
     1
 98
        0
  0
SPLINE
  5
7C
330
76
100
AcDbEntity
  8
_U+30EC_U+30A4_U+30E4_U+30FC 1
370
     0
100
AcDbSpline
210
0.0
220
0.0
230
1.0
 70
    11
 71
     3
 72
    44
 73
    40
 74
     0
 42
0.0000000001
 43
0.0000000001
 12
1.0
 22
0.0
 32
0.0
 13
1.0
 23
0.0
 33
0.0
 40
0.0
 40
0.0
 40
0.0
 40
0.0
 40
1.0
 40
1.0
 40
1.0
 40
2.0
 40
2.0
 40
2.0
 40
3.0
 40
3.0
 40
3.0
 40
4.0
 40
4.0
 40
4.0
 40
5.0
 40
5.0
 40
5.0
 40
6.0
 40
6.0
 40
6.0
 40
7.0
 40
7.0
 40
7.0
 40
8.0
 40
8.0
 40
8.0
 40
9.0
 40
9.0
 40
9.0
 40
10.0
 40
10.0
 40
10.0
 40
11.0
 40
11.0
 40
11.0
 40
12.0
 40
12.0
 40
12.0
 40
13.0
 40
13.0
 40
13.0
 40
13.0
 10
101.1979573314713
 20
-129.771923795682
 30
0.0
 10
101.3567762333414
 20
-130.0048122504849
 30
0.0
 10
101.4308457862742
 20
-130.1043755100086
 30
0.0
 10
101.5745062680092
 20
-130.1563964518359
 30
0.0
 10
101.5745062680092
 20
-130.1563964518359
 30
0.0
 10
101.5745062680092
 20
-129.3240613825996
 30
0.0
 10
101.5745062680092
 20
-129.3240613825996
 30
0.0
 10
101.5745062680092
 20
-129.3240613825996
 30
0.0
 10
101.77983395893
 20
-129.3240613825996
 30
0.0
 10
101.77983395893
 20
-129.3240613825996
 30
0.0
 10
101.77983395893
 20
-129.3240613825996
 30
0.0
 10
101.77983395893
 20
-130.4230468423943
 30
0.0
 10
101.77983395893
 20
-130.4230468423943
 30
0.0
 10
101.4222330475611
 20
-130.3889403970903
 30
0.0
 10
101.3440293800459
 20
-130.3190049587397
 30
0.0
 10
101.0456841110233
 20
-129.9076605578009
 30
0.0
 10
100.8469021015244
 20
-129.634119976272
 30
0.0
 10
100.779033720465
 20
-129.5638400283729
 30
0.0
 10
100.6415744106035
 20
-129.5638400283729
 30
0.0
 10
100.5230631259109
 20
-129.5638400283729
 30
0.0
 10
100.3921494974714
 20
-129.640665657694
 30
0.0
 10
100.3921494974714
 20
-129.8511609918428
 30
0.0
 10
100.3921494974714
 20
-130.1291801975024
 30
0.0
 10
100.6226263854346
 20
-130.1381374457641
 30
0.0
 10
100.7390706128361
 20
-130.1426160698949
 30
0.0
 10
100.7390706128361
 20
-130.1426160698949
 30
0.0
 10
100.7390706128361
 20
-130.3823947156683
 30
0.0
 10
100.7390706128361
 20
-130.3823947156683
 30
0.0
 10
100.6119465894303
 20
-130.3734374674067
 30
0.0
 10
100.4999809861597
 20
-130.3620686523053
 30
0.0
 10
100.3814697014671
 20
-130.2759412651741
 30
0.0
 10
100.220583742306
 20
-130.158463509127
 30
0.0
 10
100.1868218065505
 20
-129.9596814996281
 30
0.0
 10
100.1868218065505
 20
-129.8353135526106
 30
0.0
 10
100.1868218065505
 20
-129.5390353408791
 30
0.0
 10
100.3707899054629
 20
-129.3175157011776
 30
0.0
 10
100.6436414678947
 20
-129.3175157011776
 30
0.0
 10
100.8723958081152
 20
-129.3175157011776
 30
0.0
 10
100.9716145580904
 20
-129.4418836481951
 30
0.0
 10
101.1979573314713
 20
-129.771923795682
 30
0.0
  0
HATCH
  5
7D
330
76
100
AcDbEntity
  8
_U+30EC_U+30A4_U+30E4_U+30FC 1
 62
     7
420
 16777215
100
AcDbHatch
 10
0.0
 20
0.0
 30
0.0
210
0.0
220
0.0
230
1.0
  2
SOLID
 70
     1
 71
     0
 91
        1
 92
        1
 93
        1
 72
     4
 94
        3
 73
     0
 74
     1
 95
       44
 96
       40
 40
0.0
 40
0.0
 40
0.0
 40
0.0
 40
1.0
 40
1.0
 40
1.0
 40
2.0
 40
2.0
 40
2.0
 40
3.0
 40
3.0
 40
3.0
 40
4.0
 40
4.0
 40
4.0
 40
5.0
 40
5.0
 40
5.0
 40
6.0
 40
6.0
 40
6.0
 40
7.0
 40
7.0
 40
7.0
 40
8.0
 40
8.0
 40
8.0
 40
9.0
 40
9.0
 40
9.0
 40
10.0
 40
10.0
 40
10.0
 40
11.0
 40
11.0
 40
11.0
 40
12.0
 40
12.0
 40
12.0
 40
13.0
 40
13.0
 40
13.0
 40
13.0
 10
101.1979573314713
 20
-129.771923795682
 10
101.3567762333414
 20
-130.0048122504849
 10
101.4308457862742
 20
-130.1043755100086
 10
101.5745062680092
 20
-130.1563964518359
 10
101.5745062680092
 20
-130.1563964518359
 10
101.5745062680092
 20
-129.3240613825996
 10
101.5745062680092
 20
-129.3240613825996
 10
101.5745062680092
 20
-129.3240613825996
 10
101.77983395893
 20
-129.3240613825996
 10
101.77983395893
 20
-129.3240613825996
 10
101.77983395893
 20
-129.3240613825996
 10
101.77983395893
 20
-130.4230468423943
 10
101.77983395893
 20
-130.4230468423943
 10
101.4222330475611
 20
-130.3889403970903
 10
101.3440293800459
 20
-130.3190049587397
 10
101.0456841110233
 20
-129.9076605578009
 10
100.8469021015244
 20
-129.634119976272
 10
100.779033720465
 20
-129.5638400283729
 10
100.6415744106035
 20
-129.5638400283729
 10
100.5230631259109
 20
-129.5638400283729
 10
100.3921494974714
 20
-129.640665657694
 10
100.3921494974714
 20
-129.8511609918428
 10
100.3921494974714
 20
-130.1291801975024
 10
100.6226263854346
 20
-130.1381374457641
 10
100.7390706128361
 20
-130.1426160698949
 10
100.7390706128361
 20
-130.1426160698949
 10
100.7390706128361
 20
-130.3823947156683
 10
100.7390706128361
 20
-130.3823947156683
 10
100.6119465894303
 20
-130.3734374674067
 10
100.4999809861597
 20
-130.3620686523053
 10
100.3814697014671
 20
-130.2759412651741
 10
100.220583742306
 20
-130.158463509127
 10
100.1868218065505
 20
-129.9596814996281
 10
100.1868218065505
 20
-129.8353135526106
 10
100.1868218065505
 20
-129.5390353408791
 10
100.3707899054629
 20
-129.3175157011776
 10
100.6436414678947
 20
-129.3175157011776
 10
100.8723958081152
 20
-129.3175157011776
 10
100.9716145580904
 20
-129.4418836481951
 10
101.1979573314713
 20
-129.771923795682
 97
        0
 97
        0
 75
     2
 76
     1
 98
        0
  0
POLYLINE
  5
7E
330
76
100
AcDbEntity
  8
_U+30EC_U+30A4_U+30E4_U+30FC 1
370
     0
100
AcDb2dPolyline
 66
     1
 10
0.0
 20
0.0
 30
0.0
  0
VERTEX
  5
7F
330
7E
100
AcDbEntity
  8
_U+30EC_U+30A4_U+30E4_U+30FC 1
370
     0
100
AcDbVertex
100
AcDb2dVertex
 10
101.77983395893
 20
-129.0839382272776
 30
0.0
  0
VERTEX
  5
80
330
7E
100
AcDbEntity
  8
_U+30EC_U+30A4_U+30E4_U+30FC 1
370
     0
100
AcDbVertex
100
AcDb2dVertex
 10
101.5279974789583
 20
-129.0839382272776
 30
0.0
  0
VERTEX
  5
81
330
7E
100
AcDbEntity
  8
_U+30EC_U+30A4_U+30E4_U+30FC 1
370
     0
100
AcDbVertex
100
AcDb2dVertex
 10
101.5279974789583
 20
-128.8148762698796
 30
0.0
  0
VERTEX
  5
82
330
7E
100
AcDbEntity
  8
_U+30EC_U+30A4_U+30E4_U+30FC 1
370
     0
100
AcDbVertex
100
AcDb2dVertex
 10
101.77983395893
 20
-128.8148762698796
 30
0.0
  0
VERTEX
  5
83
330
7E
100
AcDbEntity
  8
_U+30EC_U+30A4_U+30E4_U+30FC 1
370
     0
100
AcDbVertex
100
AcDb2dVertex
 10
101.77983395893
 20
-129.0839382272776
 30
0.0
  0
SEQEND
  5
84
330
7E
100
AcDbEntity
  8
_U+30EC_U+30A4_U+30E4_U+30FC 1
370
     0
  0
HATCH
  5
85
330
76
100
AcDbEntity
  8
_U+30EC_U+30A4_U+30E4_U+30FC 1
 62
     7
420
 16777215
100
AcDbHatch
 10
0.0
 20
0.0
 30
0.0
210
0.0
220
0.0
230
1.0
  2
SOLID
 70
     1
 71
     0
 91
        1
 92
        1
 93
        4
 72
     1
 10
101.77983395893
 20
-129.0839382272776
 11
101.5279974789583
 21
-129.0839382272776
 72
     1
 10
101.5279974789583
 20
-129.0839382272776
 11
101.5279974789583
 21
-128.8148762698796
 72
     1
 10
101.5279974789583
 20
-128.8148762698796
 11
101.77983395893
 21
-128.8148762698796
 72
     1
 10
101.77983395893
 20
-128.8148762698796
 11
101.77983395893
 21
-129.0839382272776
 97
        0
 75
     2
 76
     1
 98
        0
  0
SPLINE
  5
86
330
76
100
AcDbEntity
  8
_U+30EC_U+30A4_U+30E4_U+30FC 1
370
     0
100
AcDbSpline
210
0.0
220
0.0
230
1.0
 70
    11
 71
     3
 72
    53
 73
    49
 74
     0
 42
0.0000000001
 43
0.0000000001
 12
1.0
 22
0.0
 32
0.0
 13
1.0
 23
0.0
 33
0.0
 40
0.0
 40
0.0
 40
0.0
 40
0.0
 40
1.0
 40
1.0
 40
1.0
 40
2.0
 40
2.0
 40
2.0
 40
3.0
 40
3.0
 40
3.0
 40
4.0
 40
4.0
 40
4.0
 40
5.0
 40
5.0
 40
5.0
 40
6.0
 40
6.0
 40
6.0
 40
7.0
 40
7.0
 40
7.0
 40
8.0
 40
8.0
 40
8.0
 40
9.0
 40
9.0
 40
9.0
 40
10.0
 40
10.0
 40
10.0
 40
11.0
 40
11.0
 40
11.0
 40
12.0
 40
12.0
 40
12.0
 40
13.0
 40
13.0
 40
13.0
 40
14.0
 40
14.0
 40
14.0
 40
15.0
 40
15.0
 40
15.0
 40
16.0
 40
16.0
 40
16.0
 40
16.0
 10
101.8304768625632
 20
-128.047998014863
 30
0.0
 10
101.8304768625632
 20
-128.131369325606
 30
0.0
 10
101.8135958946855
 20
-128.2402343429399
 30
0.0
 10
101.7502061377569
 20
-128.3484103411768
 30
0.0
 10
101.6403075917774
 20
-128.5341009878317
 30
0.0
 10
101.5090494537894
 20
-128.5564941084859
 30
0.0
 10
101.4012179651011
 20
-128.5768201718489
 30
0.0
 10
101.4012179651011
 20
-128.5768201718489
 30
0.0
 10
101.4012179651011
 20
-128.3394530929151
 30
0.0
 10
101.4012179651011
 20
-128.3394530929151
 30
0.0
 10
101.5999999746
 20
-128.2808864696659
 30
0.0
 10
101.6296277957731
 20
-128.1451497075471
 30
0.0
 10
101.6296277957731
 20
-128.0455864480233
 30
0.0
 10
101.6296277957731
 20
-127.896413813512
 30
0.0
 10
101.5300645362494
 20
-127.7338053066082
 30
0.0
 10
101.2975205909951
 20
-127.7338053066082
 30
0.0
 10
101.041549996441
 20
-127.7338053066082
 30
0.0
 10
100.9716145580904
 20
-127.9256971251366
 30
0.0
 10
100.9716145580904
 20
-128.054543696285
 30
0.0
 10
100.9716145580904
 20
-128.0886501415889
 30
0.0
 10
100.9716145580904
 20
-128.2402343429399
 30
0.0
 10
101.1008056387873
 20
-128.3349744687843
 30
0.0
 10
101.1008056387873
 20
-128.3349744687843
 30
0.0
 10
101.0818576136184
 20
-128.5227321727304
 30
0.0
 10
101.0818576136184
 20
-128.5227321727304
 30
0.0
 10
101.0818576136184
 20
-128.5227321727304
 30
0.0
 10
100.2353976528925
 20
-128.3938856015821
 30
0.0
 10
100.2353976528925
 20
-128.3938856015821
 30
0.0
 10
100.2353976528925
 20
-128.3938856015821
 30
0.0
 10
100.2353976528925
 20
-127.5618950418943
 30
0.0
 10
100.2353976528925
 20
-127.5618950418943
 30
0.0
 10
100.2353976528925
 20
-127.5618950418943
 30
0.0
 10
100.4300455478092
 20
-127.5618950418943
 30
0.0
 10
100.4300455478092
 20
-127.5618950418943
 30
0.0
 10
100.4300455478092
 20
-127.5618950418943
 30
0.0
 10
100.4300455478092
 20
-128.2195637700285
 30
0.0
 10
100.4300455478092
 20
-128.2195637700285
 30
0.0
 10
100.4300455478092
 20
-128.2195637700285
 30
0.0
 10
100.8531032733978
 20
-128.2898437179275
 30
0.0
 10
100.8531032733978
 20
-128.2898437179275
 30
0.0
 10
100.8193413376424
 20
-128.2243869037078
 30
0.0
 10
100.779033720465
 20
-128.1361924592854
 30
0.0
 10
100.779033720465
 20
-128.0094129454282
 30
0.0
 10
100.779033720465
 20
-127.738283930739
 30
0.0
 10
100.965413386217
 20
-127.4850694125732
 30
0.0
 10
101.2785725658262
 20
-127.4850694125732
 30
0.0
 10
101.5958658600177
 20
-127.4850694125732
 30
0.0
 10
101.8304768625632
 20
-127.724503548798
 30
0.0
 10
101.8304768625632
 20
-128.047998014863
 30
0.0
  0
HATCH
  5
87
330
76
100
AcDbEntity
  8
_U+30EC_U+30A4_U+30E4_U+30FC 1
 62
     7
420
 16777215
100
AcDbHatch
 10
0.0
 20
0.0
 30
0.0
210
0.0
220
0.0
230
1.0
  2
SOLID
 70
     1
 71
     0
 91
        1
 92
        1
 93
        1
 72
     4
 94
        3
 73
     0
 74
     1
 95
       53
 96
       49
 40
0.0
 40
0.0
 40
0.0
 40
0.0
 40
1.0
 40
1.0
 40
1.0
 40
2.0
 40
2.0
 40
2.0
 40
3.0
 40
3.0
 40
3.0
 40
4.0
 40
4.0
 40
4.0
 40
5.0
 40
5.0
 40
5.0
 40
6.0
 40
6.0
 40
6.0
 40
7.0
 40
7.0
 40
7.0
 40
8.0
 40
8.0
 40
8.0
 40
9.0
 40
9.0
 40
9.0
 40
10.0
 40
10.0
 40
10.0
 40
11.0
 40
11.0
 40
11.0
 40
12.0
 40
12.0
 40
12.0
 40
13.0
 40
13.0
 40
13.0
 40
14.0
 40
14.0
 40
14.0
 40
15.0
 40
15.0
 40
15.0
 40
16.0
 40
16.0
 40
16.0
 40
16.0
 10
101.8304768625632
 20
-128.047998014863
 10
101.8304768625632
 20
-128.131369325606
 10
101.8135958946855
 20
-128.2402343429399
 10
101.7502061377569
 20
-128.3484103411768
 10
101.6403075917774
 20
-128.5341009878317
 10
101.5090494537894
 20
-128.5564941084859
 10
101.4012179651011
 20
-128.5768201718489
 10
101.4012179651011
 20
-128.5768201718489
 10
101.4012179651011
 20
-128.3394530929151
 10
101.4012179651011
 20
-128.3394530929151
 10
101.5999999746
 20
-128.2808864696659
 10
101.6296277957731
 20
-128.1451497075471
 10
101.6296277957731
 20
-128.0455864480233
 10
101.6296277957731
 20
-127.896413813512
 10
101.5300645362494
 20
-127.7338053066082
 10
101.2975205909951
 20
-127.7338053066082
 10
101.041549996441
 20
-127.7338053066082
 10
100.9716145580904
 20
-127.9256971251366
 10
100.9716145580904
 20
-128.054543696285
 10
100.9716145580904
 20
-128.0886501415889
 10
100.9716145580904
 20
-128.2402343429399
 10
101.1008056387873
 20
-128.3349744687843
 10
101.1008056387873
 20
-128.3349744687843
 10
101.0818576136184
 20
-128.5227321727304
 10
101.0818576136184
 20
-128.5227321727304
 10
101.0818576136184
 20
-128.5227321727304
 10
100.2353976528925
 20
-128.3938856015821
 10
100.2353976528925
 20
-128.3938856015821
 10
100.2353976528925
 20
-128.3938856015821
 10
100.2353976528925
 20
-127.5618950418943
 10
100.2353976528925
 20
-127.5618950418943
 10
100.2353976528925
 20
-127.5618950418943
 10
100.4300455478092
 20
-127.5618950418943
 10
100.4300455478092
 20
-127.5618950418943
 10
100.4300455478092
 20
-127.5618950418943
 10
100.4300455478092
 20
-128.2195637700285
 10
100.4300455478092
 20
-128.2195637700285
 10
100.4300455478092
 20
-128.2195637700285
 10
100.8531032733978
 20
-128.2898437179275
 10
100.8531032733978
 20
-128.2898437179275
 10
100.8193413376424
 20
-128.2243869037078
 10
100.779033720465
 20
-128.1361924592854
 10
100.779033720465
 20
-128.0094129454282
 10
100.779033720465
 20
-127.738283930739
 10
100.965413386217
 20
-127.4850694125732
 10
101.2785725658262
 20
-127.4850694125732
 10
101.5958658600177
 20
-127.4850694125732
 10
101.8304768625632
 20
-127.724503548798
 10
101.8304768625632
 20
-128.047998014863
 97
        0
 97
        0
 75
     2
 76
     1
 98
        0
  0
ENDBLK
  5
79
330
76
100
AcDbEntity
  8
0
100
AcDbBlockEnd
  0
BLOCK
  5
9A
330
98
100
AcDbEntity
  8
0
100
AcDbBlockBegin
  2
block 4
 70
     0
 10
0.0
 20
0.0
 30
0.0
  3
block 4
  1

  0
SPLINE
  5
9C
330
98
100
AcDbEntity
  8
_U+30EC_U+30A4_U+30E4_U+30FC 1
370
     0
100
AcDbSpline
210
0.0
220
0.0
230
1.0
 70
    11
 71
     3
 72
    26
 73
    22
 74
     0
 42
0.0000000001
 43
0.0000000001
 12
1.0
 22
0.0
 32
0.0
 13
1.0
 23
0.0
 33
0.0
 40
0.0
 40
0.0
 40
0.0
 40
0.0
 40
1.0
 40
1.0
 40
1.0
 40
2.0
 40
2.0
 40
2.0
 40
3.0
 40
3.0
 40
3.0
 40
4.0
 40
4.0
 40
4.0
 40
5.0
 40
5.0
 40
5.0
 40
6.0
 40
6.0
 40
6.0
 40
7.0
 40
7.0
 40
7.0
 40
7.0
 10
105.1587836108631
 20
-136.3961533947204
 30
0.0
 10
105.1587836108631
 20
-136.3961533947204
 30
0.0
 10
104.0546305078405
 20
-136.3961533947204
 30
0.0
 10
104.0546305078405
 20
-136.3961533947204
 30
0.0
 10
104.0546305078405
 20
-136.3961533947204
 30
0.0
 10
104.0546305078405
 20
-136.7485866628615
 30
0.0
 10
104.0546305078405
 20
-136.7485866628615
 30
0.0
 10
104.0546305078405
 20
-136.7485866628615
 30
0.0
 10
103.9064914019748
 20
-136.7485866628615
 30
0.0
 10
103.9064914019748
 20
-136.7485866628615
 30
0.0
 10
103.8916774913882
 20
-136.3937418278807
 30
0.0
 10
103.7287244749359
 20
-136.3441324528931
 30
0.0
 10
103.6143473048256
 20
-136.3124375744288
 30
0.0
 10
103.6143473048256
 20
-136.3124375744288
 30
0.0
 10
103.6143473048256
 20
-136.156374748947
 30
0.0
 10
103.6143473048256
 20
-136.156374748947
 30
0.0
 10
103.6143473048256
 20
-136.156374748947
 30
0.0
 10
105.1587836108631
 20
-136.156374748947
 30
0.0
 10
105.1587836108631
 20
-136.156374748947
 30
0.0
 10
105.1587836108631
 20
-136.156374748947
 30
0.0
 10
105.1587836108631
 20
-136.3961533947204
 30
0.0
 10
105.1587836108631
 20
-136.3961533947204
 30
0.0
  0
HATCH
  5
9D
330
98
100
AcDbEntity
  8
_U+30EC_U+30A4_U+30E4_U+30FC 1
 62
     7
420
 16777215
100
AcDbHatch
 10
0.0
 20
0.0
 30
0.0
210
0.0
220
0.0
230
1.0
  2
SOLID
 70
     1
 71
     0
 91
        1
 92
        1
 93
        1
 72
     4
 94
        3
 73
     0
 74
     1
 95
       26
 96
       22
 40
0.0
 40
0.0
 40
0.0
 40
0.0
 40
1.0
 40
1.0
 40
1.0
 40
2.0
 40
2.0
 40
2.0
 40
3.0
 40
3.0
 40
3.0
 40
4.0
 40
4.0
 40
4.0
 40
5.0
 40
5.0
 40
5.0
 40
6.0
 40
6.0
 40
6.0
 40
7.0
 40
7.0
 40
7.0
 40
7.0
 10
105.1587836108631
 20
-136.3961533947204
 10
105.1587836108631
 20
-136.3961533947204
 10
104.0546305078405
 20
-136.3961533947204
 10
104.0546305078405
 20
-136.3961533947204
 10
104.0546305078405
 20
-136.3961533947204
 10
104.0546305078405
 20
-136.7485866628615
 10
104.0546305078405
 20
-136.7485866628615
 10
104.0546305078405
 20
-136.7485866628615
 10
103.9064914019748
 20
-136.7485866628615
 10
103.9064914019748
 20
-136.7485866628615
 10
103.8916774913882
 20
-136.3937418278807
 10
103.7287244749359
 20
-136.3441324528931
 10
103.6143473048256
 20
-136.3124375744288
 10
103.6143473048256
 20
-136.3124375744288
 10
103.6143473048256
 20
-136.156374748947
 10
103.6143473048256
 20
-136.156374748947
 10
103.6143473048256
 20
-136.156374748947
 10
105.1587836108631
 20
-136.156374748947
 10
105.1587836108631
 20
-136.156374748947
 10
105.1587836108631
 20
-136.156374748947
 10
105.1587836108631
 20
-136.3961533947204
 10
105.1587836108631
 20
-136.3961533947204
 97
        0
 97
        0
 75
     2
 76
     1
 98
        0
  0
ENDBLK
  5
9B
330
98
100
AcDbEntity
  8
0
100
AcDbBlockEnd
  0
BLOCK
  5
A0
330
9E
100
AcDbEntity
  8
0
100
AcDbBlockBegin
  2
block 5
 70
     0
 10
0.0
 20
0.0
 30
0.0
  3
block 5
  1

  0
SPLINE
  5
A2
330
9E
100
AcDbEntity
  8
_U+30EC_U+30A4_U+30E4_U+30FC 1
370
     0
100
AcDbSpline
210
0.0
220
0.0
230
1.0
 70
    11
 71
     3
 72
    26
 73
    22
 74
     0
 42
0.0000000001
 43
0.0000000001
 12
1.0
 22
0.0
 32
0.0
 13
1.0
 23
0.0
 33
0.0
 40
0.0
 40
0.0
 40
0.0
 40
0.0
 40
1.0
 40
1.0
 40
1.0
 40
2.0
 40
2.0
 40
2.0
 40
3.0
 40
3.0
 40
3.0
 40
4.0
 40
4.0
 40
4.0
 40
5.0
 40
5.0
 40
5.0
 40
6.0
 40
6.0
 40
6.0
 40
7.0
 40
7.0
 40
7.0
 40
7.0
 10
105.1587836108631
 20
-129.6809732748714
 30
0.0
 10
105.1587836108631
 20
-129.6809732748714
 30
0.0
 10
104.0546305078405
 20
-129.6809732748714
 30
0.0
 10
104.0546305078405
 20
-129.6809732748714
 30
0.0
 10
104.0546305078405
 20
-129.6809732748714
 30
0.0
 10
104.0546305078405
 20
-130.0334065430125
 30
0.0
 10
104.0546305078405
 20
-130.0334065430125
 30
0.0
 10
104.0546305078405
 20
-130.0334065430125
 30
0.0
 10
103.9064914019748
 20
-130.0334065430125
 30
0.0
 10
103.9064914019748
 20
-130.0334065430125
 30
0.0
 10
103.8916774913882
 20
-129.6785617080318
 30
0.0
 10
103.7287244749359
 20
-129.6289523330442
 30
0.0
 10
103.6143473048256
 20
-129.5972574545798
 30
0.0
 10
103.6143473048256
 20
-129.5972574545798
 30
0.0
 10
103.6143473048256
 20
-129.441194629098
 30
0.0
 10
103.6143473048256
 20
-129.441194629098
 30
0.0
 10
103.6143473048256
 20
-129.441194629098
 30
0.0
 10
105.1587836108631
 20
-129.441194629098
 30
0.0
 10
105.1587836108631
 20
-129.441194629098
 30
0.0
 10
105.1587836108631
 20
-129.441194629098
 30
0.0
 10
105.1587836108631
 20
-129.6809732748714
 30
0.0
 10
105.1587836108631
 20
-129.6809732748714
 30
0.0
  0
HATCH
  5
A3
330
9E
100
AcDbEntity
  8
_U+30EC_U+30A4_U+30E4_U+30FC 1
 62
     7
420
 16777215
100
AcDbHatch
 10
0.0
 20
0.0
 30
0.0
210
0.0
220
0.0
230
1.0
  2
SOLID
 70
     1
 71
     0
 91
        1
 92
        1
 93
        1
 72
     4
 94
        3
 73
     0
 74
     1
 95
       26
 96
       22
 40
0.0
 40
0.0
 40
0.0
 40
0.0
 40
1.0
 40
1.0
 40
1.0
 40
2.0
 40
2.0
 40
2.0
 40
3.0
 40
3.0
 40
3.0
 40
4.0
 40
4.0
 40
4.0
 40
5.0
 40
5.0
 40
5.0
 40
6.0
 40
6.0
 40
6.0
 40
7.0
 40
7.0
 40
7.0
 40
7.0
 10
105.1587836108631
 20
-129.6809732748714
 10
105.1587836108631
 20
-129.6809732748714
 10
104.0546305078405
 20
-129.6809732748714
 10
104.0546305078405
 20
-129.6809732748714
 10
104.0546305078405
 20
-129.6809732748714
 10
104.0546305078405
 20
-130.0334065430125
 10
104.0546305078405
 20
-130.0334065430125
 10
104.0546305078405
 20
-130.0334065430125
 10
103.9064914019748
 20
-130.0334065430125
 10
103.9064914019748
 20
-130.0334065430125
 10
103.8916774913882
 20
-129.6785617080318
 10
103.7287244749359
 20
-129.6289523330442
 10
103.6143473048256
 20
-129.5972574545798
 10
103.6143473048256
 20
-129.5972574545798
 10
103.6143473048256
 20
-129.441194629098
 10
103.6143473048256
 20
-129.441194629098
 10
103.6143473048256
 20
-129.441194629098
 10
105.1587836108631
 20
-129.441194629098
 10
105.1587836108631
 20
-129.441194629098
 10
105.1587836108631
 20
-129.441194629098
 10
105.1587836108631
 20
-129.6809732748714
 10
105.1587836108631
 20
-129.6809732748714
 97
        0
 97
        0
 75
     2
 76
     1
 98
        0
  0
SPLINE
  5
A4
330
9E
100
AcDbEntity
  8
_U+30EC_U+30A4_U+30E4_U+30FC 1
370
     0
100
AcDbSpline
210
0.0
220
0.0
230
1.0
 70
    11
 71
     3
 72
    53
 73
    49
 74
     0
 42
0.0000000001
 43
0.0000000001
 12
1.0
 22
0.0
 32
0.0
 13
1.0
 23
0.0
 33
0.0
 40
0.0
 40
0.0
 40
0.0
 40
0.0
 40
1.0
 40
1.0
 40
1.0
 40
2.0
 40
2.0
 40
2.0
 40
3.0
 40
3.0
 40
3.0
 40
4.0
 40
4.0
 40
4.0
 40
5.0
 40
5.0
 40
5.0
 40
6.0
 40
6.0
 40
6.0
 40
7.0
 40
7.0
 40
7.0
 40
8.0
 40
8.0
 40
8.0
 40
9.0
 40
9.0
 40
9.0
 40
10.0
 40
10.0
 40
10.0
 40
11.0
 40
11.0
 40
11.0
 40
12.0
 40
12.0
 40
12.0
 40
13.0
 40
13.0
 40
13.0
 40
14.0
 40
14.0
 40
14.0
 40
15.0
 40
15.0
 40
15.0
 40
16.0
 40
16.0
 40
16.0
 40
16.0
 10
105.2094265144963
 20
-128.3914740347424
 30
0.0
 10
105.2094265144963
 20
-128.4748453454854
 30
0.0
 10
105.1925455466185
 20
-128.5837103628193
 30
0.0
 10
105.1291557896899
 20
-128.6918863610562
 30
0.0
 10
105.0192572437105
 20
-128.8775770077112
 30
0.0
 10
104.8879991057224
 20
-128.8999701283653
 30
0.0
 10
104.7801676170341
 20
-128.9202961917283
 30
0.0
 10
104.7801676170341
 20
-128.9202961917283
 30
0.0
 10
104.7801676170341
 20
-128.6829291127945
 30
0.0
 10
104.7801676170341
 20
-128.6829291127945
 30
0.0
 10
104.9789496265331
 20
-128.6243624895453
 30
0.0
 10
105.0085774477062
 20
-128.4886257274265
 30
0.0
 10
105.0085774477062
 20
-128.3890624679027
 30
0.0
 10
105.0085774477062
 20
-128.2398898333914
 30
0.0
 10
104.9090141881825
 20
-128.0772813264876
 30
0.0
 10
104.6764702429281
 20
-128.0772813264876
 30
0.0
 10
104.420499648374
 20
-128.0772813264876
 30
0.0
 10
104.3505642100235
 20
-128.2691731450161
 30
0.0
 10
104.3505642100235
 20
-128.3980197161644
 30
0.0
 10
104.3505642100235
 20
-128.4321261614684
 30
0.0
 10
104.3505642100235
 20
-128.5837103628193
 30
0.0
 10
104.4797552907203
 20
-128.6784504886637
 30
0.0
 10
104.4797552907203
 20
-128.6784504886637
 30
0.0
 10
104.4608072655515
 20
-128.8662081926098
 30
0.0
 10
104.4608072655515
 20
-128.8662081926098
 30
0.0
 10
104.4608072655515
 20
-128.8662081926098
 30
0.0
 10
103.6143473048256
 20
-128.7373616214615
 30
0.0
 10
103.6143473048256
 20
-128.7373616214615
 30
0.0
 10
103.6143473048256
 20
-128.7373616214615
 30
0.0
 10
103.6143473048256
 20
-127.9053710617737
 30
0.0
 10
103.6143473048256
 20
-127.9053710617737
 30
0.0
 10
103.6143473048256
 20
-127.9053710617737
 30
0.0
 10
103.8089951997422
 20
-127.9053710617737
 30
0.0
 10
103.8089951997422
 20
-127.9053710617737
 30
0.0
 10
103.8089951997422
 20
-127.9053710617737
 30
0.0
 10
103.8089951997422
 20
-128.5630397899079
 30
0.0
 10
103.8089951997422
 20
-128.5630397899079
 30
0.0
 10
103.8089951997422
 20
-128.5630397899079
 30
0.0
 10
104.2320529253309
 20
-128.6333197378069
 30
0.0
 10
104.2320529253309
 20
-128.6333197378069
 30
0.0
 10
104.1982909895754
 20
-128.5678629235872
 30
0.0
 10
104.157983372398
 20
-128.4796684791648
 30
0.0
 10
104.157983372398
 20
-128.3528889653076
 30
0.0
 10
104.157983372398
 20
-128.0817599506184
 30
0.0
 10
104.34436303815
 20
-127.8285454324526
 30
0.0
 10
104.6575222177592
 20
-127.8285454324526
 30
0.0
 10
104.9748155119508
 20
-127.8285454324526
 30
0.0
 10
105.2094265144963
 20
-128.0679795686775
 30
0.0
 10
105.2094265144963
 20
-128.3914740347424
 30
0.0
  0
HATCH
  5
A5
330
9E
100
AcDbEntity
  8
_U+30EC_U+30A4_U+30E4_U+30FC 1
 62
     7
420
 16777215
100
AcDbHatch
 10
0.0
 20
0.0
 30
0.0
210
0.0
220
0.0
230
1.0
  2
SOLID
 70
     1
 71
     0
 91
        1
 92
        1
 93
        1
 72
     4
 94
        3
 73
     0
 74
     1
 95
       53
 96
       49
 40
0.0
 40
0.0
 40
0.0
 40
0.0
 40
1.0
 40
1.0
 40
1.0
 40
2.0
 40
2.0
 40
2.0
 40
3.0
 40
3.0
 40
3.0
 40
4.0
 40
4.0
 40
4.0
 40
5.0
 40
5.0
 40
5.0
 40
6.0
 40
6.0
 40
6.0
 40
7.0
 40
7.0
 40
7.0
 40
8.0
 40
8.0
 40
8.0
 40
9.0
 40
9.0
 40
9.0
 40
10.0
 40
10.0
 40
10.0
 40
11.0
 40
11.0
 40
11.0
 40
12.0
 40
12.0
 40
12.0
 40
13.0
 40
13.0
 40
13.0
 40
14.0
 40
14.0
 40
14.0
 40
15.0
 40
15.0
 40
15.0
 40
16.0
 40
16.0
 40
16.0
 40
16.0
 10
105.2094265144963
 20
-128.3914740347424
 10
105.2094265144963
 20
-128.4748453454854
 10
105.1925455466185
 20
-128.5837103628193
 10
105.1291557896899
 20
-128.6918863610562
 10
105.0192572437105
 20
-128.8775770077112
 10
104.8879991057224
 20
-128.8999701283653
 10
104.7801676170341
 20
-128.9202961917283
 10
104.7801676170341
 20
-128.9202961917283
 10
104.7801676170341
 20
-128.6829291127945
 10
104.7801676170341
 20
-128.6829291127945
 10
104.9789496265331
 20
-128.6243624895453
 10
105.0085774477062
 20
-128.4886257274265
 10
105.0085774477062
 20
-128.3890624679027
 10
105.0085774477062
 20
-128.2398898333914
 10
104.9090141881825
 20
-128.0772813264876
 10
104.6764702429281
 20
-128.0772813264876
 10
104.420499648374
 20
-128.0772813264876
 10
104.3505642100235
 20
-128.2691731450161
 10
104.3505642100235
 20
-128.3980197161644
 10
104.3505642100235
 20
-128.4321261614684
 10
104.3505642100235
 20
-128.5837103628193
 10
104.4797552907203
 20
-128.6784504886637
 10
104.4797552907203
 20
-128.6784504886637
 10
104.4608072655515
 20
-128.8662081926098
 10
104.4608072655515
 20
-128.8662081926098
 10
104.4608072655515
 20
-128.8662081926098
 10
103.6143473048256
 20
-128.7373616214615
 10
103.6143473048256
 20
-128.7373616214615
 10
103.6143473048256
 20
-128.7373616214615
 10
103.6143473048256
 20
-127.9053710617737
 10
103.6143473048256
 20
-127.9053710617737
 10
103.6143473048256
 20
-127.9053710617737
 10
103.8089951997422
 20
-127.9053710617737
 10
103.8089951997422
 20
-127.9053710617737
 10
103.8089951997422
 20
-127.9053710617737
 10
103.8089951997422
 20
-128.5630397899079
 10
103.8089951997422
 20
-128.5630397899079
 10
103.8089951997422
 20
-128.5630397899079
 10
104.2320529253309
 20
-128.6333197378069
 10
104.2320529253309
 20
-128.6333197378069
 10
104.1982909895754
 20
-128.5678629235872
 10
104.157983372398
 20
-128.4796684791648
 10
104.157983372398
 20
-128.3528889653076
 10
104.157983372398
 20
-128.0817599506184
 10
104.34436303815
 20
-127.8285454324526
 10
104.6575222177592
 20
-127.8285454324526
 10
104.9748155119508
 20
-127.8285454324526
 10
105.2094265144963
 20
-128.0679795686775
 10
105.2094265144963
 20
-128.3914740347424
 97
        0
 97
        0
 75
     2
 76
     1
 98
        0
  0
POLYLINE
  5
A6
330
9E
100
AcDbEntity
  8
_U+30EC_U+30A4_U+30E4_U+30FC 1
370
     0
100
AcDb2dPolyline
 66
     1
 10
0.0
 20
0.0
 30
0.0
  0
VERTEX
  5
A7
330
A6
100
AcDbEntity
  8
_U+30EC_U+30A4_U+30E4_U+30FC 1
370
     0
100
AcDbVertex
100
AcDb2dVertex
 10
105.1587836108631
 20
-127.5835991434513
 30
0.0
  0
VERTEX
  5
A8
330
A6
100
AcDbEntity
  8
_U+30EC_U+30A4_U+30E4_U+30FC 1
370
     0
100
AcDbVertex
100
AcDb2dVertex
 10
104.9069471308913
 20
-127.5835991434513
 30
0.0
  0
VERTEX
  5
A9
330
A6
100
AcDbEntity
  8
_U+30EC_U+30A4_U+30E4_U+30FC 1
370
     0
100
AcDbVertex
100
AcDb2dVertex
 10
104.9069471308913
 20
-127.3145371860533
 30
0.0
  0
VERTEX
  5
AA
330
A6
100
AcDbEntity
  8
_U+30EC_U+30A4_U+30E4_U+30FC 1
370
     0
100
AcDbVertex
100
AcDb2dVertex
 10
105.1587836108631
 20
-127.3145371860533
 30
0.0
  0
VERTEX
  5
AB
330
A6
100
AcDbEntity
  8
_U+30EC_U+30A4_U+30E4_U+30FC 1
370
     0
100
AcDbVertex
100
AcDb2dVertex
 10
105.1587836108631
 20
-127.5835991434513
 30
0.0
  0
SEQEND
  5
AC
330
A6
100
AcDbEntity
  8
_U+30EC_U+30A4_U+30E4_U+30FC 1
370
     0
  0
HATCH
  5
AD
330
9E
100
AcDbEntity
  8
_U+30EC_U+30A4_U+30E4_U+30FC 1
 62
     7
420
 16777215
100
AcDbHatch
 10
0.0
 20
0.0
 30
0.0
210
0.0
220
0.0
230
1.0
  2
SOLID
 70
     1
 71
     0
 91
        1
 92
        1
 93
        4
 72
     1
 10
105.1587836108631
 20
-127.5835991434513
 11
104.9069471308913
 21
-127.5835991434513
 72
     1
 10
104.9069471308913
 20
-127.5835991434513
 11
104.9069471308913
 21
-127.3145371860533
 72
     1
 10
104.9069471308913
 20
-127.3145371860533
 11
105.1587836108631
 21
-127.3145371860533
 72
     1
 10
105.1587836108631
 20
-127.3145371860533
 11
105.1587836108631
 21
-127.5835991434513
 97
        0
 75
     2
 76
     1
 98
        0
  0
SPLINE
  5
AE
330
9E
100
AcDbEntity
  8
_U+30EC_U+30A4_U+30E4_U+30FC 1
370
     0
100
AcDbSpline
210
0.0
220
0.0
230
1.0
 70
    11
 71
     3
 72
    53
 73
    49
 74
     0
 42
0.0000000001
 43
0.0000000001
 12
1.0
 22
0.0
 32
0.0
 13
1.0
 23
0.0
 33
0.0
 40
0.0
 40
0.0
 40
0.0
 40
0.0
 40
1.0
 40
1.0
 40
1.0
 40
2.0
 40
2.0
 40
2.0
 40
3.0
 40
3.0
 40
3.0
 40
4.0
 40
4.0
 40
4.0
 40
5.0
 40
5.0
 40
5.0
 40
6.0
 40
6.0
 40
6.0
 40
7.0
 40
7.0
 40
7.0
 40
8.0
 40
8.0
 40
8.0
 40
9.0
 40
9.0
 40
9.0
 40
10.0
 40
10.0
 40
10.0
 40
11.0
 40
11.0
 40
11.0
 40
12.0
 40
12.0
 40
12.0
 40
13.0
 40
13.0
 40
13.0
 40
14.0
 40
14.0
 40
14.0
 40
15.0
 40
15.0
 40
15.0
 40
16.0
 40
16.0
 40
16.0
 40
16.0
 10
105.2094265144963
 20
-126.5476589310367
 30
0.0
 10
105.2094265144963
 20
-126.6310302417798
 30
0.0
 10
105.1925455466185
 20
-126.7398952591136
 30
0.0
 10
105.1291557896899
 20
-126.8480712573505
 30
0.0
 10
105.0192572437105
 20
-127.0337619040055
 30
0.0
 10
104.8879991057224
 20
-127.0561550246596
 30
0.0
 10
104.7801676170341
 20
-127.0764810880225
 30
0.0
 10
104.7801676170341
 20
-127.0764810880225
 30
0.0
 10
104.7801676170341
 20
-126.8391140090888
 30
0.0
 10
104.7801676170341
 20
-126.8391140090888
 30
0.0
 10
104.9789496265331
 20
-126.7805473858396
 30
0.0
 10
105.0085774477062
 20
-126.6448106237207
 30
0.0
 10
105.0085774477062
 20
-126.545247364197
 30
0.0
 10
105.0085774477062
 20
-126.3960747296857
 30
0.0
 10
104.9090141881825
 20
-126.2334662227819
 30
0.0
 10
104.6764702429281
 20
-126.2334662227819
 30
0.0
 10
104.420499648374
 20
-126.2334662227819
 30
0.0
 10
104.3505642100235
 20
-126.4253580413103
 30
0.0
 10
104.3505642100235
 20
-126.5542046124587
 30
0.0
 10
104.3505642100235
 20
-126.5883110577627
 30
0.0
 10
104.3505642100235
 20
-126.7398952591136
 30
0.0
 10
104.4797552907203
 20
-126.834635384958
 30
0.0
 10
104.4797552907203
 20
-126.834635384958
 30
0.0
 10
104.4608072655515
 20
-127.0223930889041
 30
0.0
 10
104.4608072655515
 20
-127.0223930889041
 30
0.0
 10
104.4608072655515
 20
-127.0223930889041
 30
0.0
 10
103.6143473048256
 20
-126.8935465177558
 30
0.0
 10
103.6143473048256
 20
-126.8935465177558
 30
0.0
 10
103.6143473048256
 20
-126.8935465177558
 30
0.0
 10
103.6143473048256
 20
-126.061555958068
 30
0.0
 10
103.6143473048256
 20
-126.061555958068
 30
0.0
 10
103.6143473048256
 20
-126.061555958068
 30
0.0
 10
103.8089951997422
 20
-126.061555958068
 30
0.0
 10
103.8089951997422
 20
-126.061555958068
 30
0.0
 10
103.8089951997422
 20
-126.061555958068
 30
0.0
 10
103.8089951997422
 20
-126.7192246862021
 30
0.0
 10
103.8089951997422
 20
-126.7192246862021
 30
0.0
 10
103.8089951997422
 20
-126.7192246862021
 30
0.0
 10
104.2320529253309
 20
-126.7895046341012
 30
0.0
 10
104.2320529253309
 20
-126.7895046341012
 30
0.0
 10
104.1982909895754
 20
-126.7240478198815
 30
0.0
 10
104.157983372398
 20
-126.6358533754591
 30
0.0
 10
104.157983372398
 20
-126.5090738616019
 30
0.0
 10
104.157983372398
 20
-126.2379448469127
 30
0.0
 10
104.34436303815
 20
-125.9847303287469
 30
0.0
 10
104.6575222177592
 20
-125.9847303287469
 30
0.0
 10
104.9748155119508
 20
-125.9847303287469
 30
0.0
 10
105.2094265144963
 20
-126.2241644649717
 30
0.0
 10
105.2094265144963
 20
-126.5476589310367
 30
0.0
  0
HATCH
  5
AF
330
9E
100
AcDbEntity
  8
_U+30EC_U+30A4_U+30E4_U+30FC 1
 62
     7
420
 16777215
100
AcDbHatch
 10
0.0
 20
0.0
 30
0.0
210
0.0
220
0.0
230
1.0
  2
SOLID
 70
     1
 71
     0
 91
        1
 92
        1
 93
        1
 72
     4
 94
        3
 73
     0
 74
     1
 95
       53
 96
       49
 40
0.0
 40
0.0
 40
0.0
 40
0.0
 40
1.0
 40
1.0
 40
1.0
 40
2.0
 40
2.0
 40
2.0
 40
3.0
 40
3.0
 40
3.0
 40
4.0
 40
4.0
 40
4.0
 40
5.0
 40
5.0
 40
5.0
 40
6.0
 40
6.0
 40
6.0
 40
7.0
 40
7.0
 40
7.0
 40
8.0
 40
8.0
 40
8.0
 40
9.0
 40
9.0
 40
9.0
 40
10.0
 40
10.0
 40
10.0
 40
11.0
 40
11.0
 40
11.0
 40
12.0
 40
12.0
 40
12.0
 40
13.0
 40
13.0
 40
13.0
 40
14.0
 40
14.0
 40
14.0
 40
15.0
 40
15.0
 40
15.0
 40
16.0
 40
16.0
 40
16.0
 40
16.0
 10
105.2094265144963
 20
-126.5476589310367
 10
105.2094265144963
 20
-126.6310302417798
 10
105.1925455466185
 20
-126.7398952591136
 10
105.1291557896899
 20
-126.8480712573505
 10
105.0192572437105
 20
-127.0337619040055
 10
104.8879991057224
 20
-127.0561550246596
 10
104.7801676170341
 20
-127.0764810880225
 10
104.7801676170341
 20
-127.0764810880225
 10
104.7801676170341
 20
-126.8391140090888
 10
104.7801676170341
 20
-126.8391140090888
 10
104.9789496265331
 20
-126.7805473858396
 10
105.0085774477062
 20
-126.6448106237207
 10
105.0085774477062
 20
-126.545247364197
 10
105.0085774477062
 20
-126.3960747296857
 10
104.9090141881825
 20
-126.2334662227819
 10
104.6764702429281
 20
-126.2334662227819
 10
104.420499648374
 20
-126.2334662227819
 10
104.3505642100235
 20
-126.4253580413103
 10
104.3505642100235
 20
-126.5542046124587
 10
104.3505642100235
 20
-126.5883110577627
 10
104.3505642100235
 20
-126.7398952591136
 10
104.4797552907203
 20
-126.834635384958
 10
104.4797552907203
 20
-126.834635384958
 10
104.4608072655515
 20
-127.0223930889041
 10
104.4608072655515
 20
-127.0223930889041
 10
104.4608072655515
 20
-127.0223930889041
 10
103.6143473048256
 20
-126.8935465177558
 10
103.6143473048256
 20
-126.8935465177558
 10
103.6143473048256
 20
-126.8935465177558
 10
103.6143473048256
 20
-126.061555958068
 10
103.6143473048256
 20
-126.061555958068
 10
103.6143473048256
 20
-126.061555958068
 10
103.8089951997422
 20
-126.061555958068
 10
103.8089951997422
 20
-126.061555958068
 10
103.8089951997422
 20
-126.061555958068
 10
103.8089951997422
 20
-126.7192246862021
 10
103.8089951997422
 20
-126.7192246862021
 10
103.8089951997422
 20
-126.7192246862021
 10
104.2320529253309
 20
-126.7895046341012
 10
104.2320529253309
 20
-126.7895046341012
 10
104.1982909895754
 20
-126.7240478198815
 10
104.157983372398
 20
-126.6358533754591
 10
104.157983372398
 20
-126.5090738616019
 10
104.157983372398
 20
-126.2379448469127
 10
104.34436303815
 20
-125.9847303287469
 10
104.6575222177592
 20
-125.9847303287469
 10
104.9748155119508
 20
-125.9847303287469
 10
105.2094265144963
 20
-126.2241644649717
 10
105.2094265144963
 20
-126.5476589310367
 97
        0
 97
        0
 75
     2
 76
     1
 98
        0
  0
ENDBLK
  5
A1
330
9E
100
AcDbEntity
  8
0
100
AcDbBlockEnd
  0
BLOCK
  5
C0
330
BE
100
AcDbEntity
  8
0
100
AcDbBlockBegin
  2
block 6
 70
     0
 10
0.0
 20
0.0
 30
0.0
  3
block 6
  1

  0
SPLINE
  5
C2
330
BE
100
AcDbEntity
  8
_U+30EC_U+30A4_U+30E4_U+30FC 1
370
     0
100
AcDbSpline
210
0.0
220
0.0
230
1.0
 70
    11
 71
     3
 72
    53
 73
    49
 74
     0
 42
0.0000000001
 43
0.0000000001
 12
1.0
 22
0.0
 32
0.0
 13
1.0
 23
0.0
 33
0.0
 40
0.0
 40
0.0
 40
0.0
 40
0.0
 40
1.0
 40
1.0
 40
1.0
 40
2.0
 40
2.0
 40
2.0
 40
3.0
 40
3.0
 40
3.0
 40
4.0
 40
4.0
 40
4.0
 40
5.0
 40
5.0
 40
5.0
 40
6.0
 40
6.0
 40
6.0
 40
7.0
 40
7.0
 40
7.0
 40
8.0
 40
8.0
 40
8.0
 40
9.0
 40
9.0
 40
9.0
 40
10.0
 40
10.0
 40
10.0
 40
11.0
 40
11.0
 40
11.0
 40
12.0
 40
12.0
 40
12.0
 40
13.0
 40
13.0
 40
13.0
 40
14.0
 40
14.0
 40
14.0
 40
15.0
 40
15.0
 40
15.0
 40
16.0
 40
16.0
 40
16.0
 40
16.0
 10
87.35487465264045
 20
-117.8567165503969
 30
0.0
 10
87.27115883234887
 20
-117.8567165503969
 30
0.0
 10
87.16298283411204
 20
-117.8398355825192
 30
0.0
 10
87.05411781677815
 20
-117.7764458255906
 30
0.0
 10
86.8687716796717
 20
-117.6665472796112
 30
0.0
 10
86.84637855901758
 20
-117.5352891416231
 30
0.0
 10
86.82605249565461
 20
-117.4274576529348
 30
0.0
 10
86.82605249565461
 20
-117.4274576529348
 30
0.0
 10
87.06341957458831
 20
-117.4274576529348
 30
0.0
 10
87.06341957458831
 20
-117.4274576529348
 30
0.0
 10
87.12198619783756
 20
-117.6262396624337
 30
0.0
 10
87.25772295995641
 20
-117.6558674836069
 30
0.0
 10
87.35728621948013
 20
-117.6558674836069
 30
0.0
 10
87.50645885399145
 20
-117.6558674836069
 30
0.0
 10
87.66941187044377
 20
-117.5563042240831
 30
0.0
 10
87.66941187044377
 20
-117.3237602788288
 30
0.0
 10
87.66941187044377
 20
-117.0677896842747
 30
0.0
 10
87.47717554236682
 20
-116.9978542459242
 30
0.0
 10
87.34832897121848
 20
-116.9978542459242
 30
0.0
 10
87.3142225259145
 20
-116.9978542459242
 30
0.0
 10
87.16298283411204
 20
-116.9978542459242
 30
0.0
 10
87.06789819871913
 20
-117.127045326621
 30
0.0
 10
87.06789819871913
 20
-117.127045326621
 30
0.0
 10
86.88014049477303
 20
-117.1080973014521
 30
0.0
 10
86.88014049477303
 20
-117.1080973014521
 30
0.0
 10
86.88014049477303
 20
-117.1080973014521
 30
0.0
 10
87.00898706592137
 20
-116.2616373407263
 30
0.0
 10
87.00898706592137
 20
-116.2616373407263
 30
0.0
 10
87.00898706592137
 20
-116.2616373407263
 30
0.0
 10
87.8409776256092
 20
-116.2616373407263
 30
0.0
 10
87.8409776256092
 20
-116.2616373407263
 30
0.0
 10
87.8409776256092
 20
-116.2616373407263
 30
0.0
 10
87.8409776256092
 20
-116.4562852356429
 30
0.0
 10
87.8409776256092
 20
-116.4562852356429
 30
0.0
 10
87.8409776256092
 20
-116.4562852356429
 30
0.0
 10
87.18330889747502
 20
-116.4562852356429
 30
0.0
 10
87.18330889747502
 20
-116.4562852356429
 30
0.0
 10
87.18330889747502
 20
-116.4562852356429
 30
0.0
 10
87.11302894957592
 20
-116.8793429612316
 30
0.0
 10
87.11302894957592
 20
-116.8793429612316
 30
0.0
 10
87.17848576379566
 20
-116.8455810254761
 30
0.0
 10
87.26668020821806
 20
-116.8052734082987
 30
0.0
 10
87.39345972207525
 20
-116.8052734082987
 30
0.0
 10
87.66458873676441
 20
-116.8052734082987
 30
0.0
 10
87.91780325493028
 20
-116.9916530740507
 30
0.0
 10
87.91780325493028
 20
-117.3048122536599
 30
0.0
 10
87.91780325493028
 20
-117.6221055478514
 30
0.0
 10
87.67836911870542
 20
-117.8567165503969
 30
0.0
 10
87.35487465264045
 20
-117.8567165503969
 30
0.0
  0
HATCH
  5
C3
330
BE
100
AcDbEntity
  8
_U+30EC_U+30A4_U+30E4_U+30FC 1
 62
     7
420
 16777215
100
AcDbHatch
 10
0.0
 20
0.0
 30
0.0
210
0.0
220
0.0
230
1.0
  2
SOLID
 70
     1
 71
     0
 91
        1
 92
        1
 93
        1
 72
     4
 94
        3
 73
     0
 74
     1
 95
       53
 96
       49
 40
0.0
 40
0.0
 40
0.0
 40
0.0
 40
1.0
 40
1.0
 40
1.0
 40
2.0
 40
2.0
 40
2.0
 40
3.0
 40
3.0
 40
3.0
 40
4.0
 40
4.0
 40
4.0
 40
5.0
 40
5.0
 40
5.0
 40
6.0
 40
6.0
 40
6.0
 40
7.0
 40
7.0
 40
7.0
 40
8.0
 40
8.0
 40
8.0
 40
9.0
 40
9.0
 40
9.0
 40
10.0
 40
10.0
 40
10.0
 40
11.0
 40
11.0
 40
11.0
 40
12.0
 40
12.0
 40
12.0
 40
13.0
 40
13.0
 40
13.0
 40
14.0
 40
14.0
 40
14.0
 40
15.0
 40
15.0
 40
15.0
 40
16.0
 40
16.0
 40
16.0
 40
16.0
 10
87.35487465264045
 20
-117.8567165503969
 10
87.27115883234887
 20
-117.8567165503969
 10
87.16298283411204
 20
-117.8398355825192
 10
87.05411781677815
 20
-117.7764458255906
 10
86.8687716796717
 20
-117.6665472796112
 10
86.84637855901758
 20
-117.5352891416231
 10
86.82605249565461
 20
-117.4274576529348
 10
86.82605249565461
 20
-117.4274576529348
 10
87.06341957458831
 20
-117.4274576529348
 10
87.06341957458831
 20
-117.4274576529348
 10
87.12198619783756
 20
-117.6262396624337
 10
87.25772295995641
 20
-117.6558674836069
 10
87.35728621948013
 20
-117.6558674836069
 10
87.50645885399145
 20
-117.6558674836069
 10
87.66941187044377
 20
-117.5563042240831
 10
87.66941187044377
 20
-117.3237602788288
 10
87.66941187044377
 20
-117.0677896842747
 10
87.47717554236682
 20
-116.9978542459242
 10
87.34832897121848
 20
-116.9978542459242
 10
87.3142225259145
 20
-116.9978542459242
 10
87.16298283411204
 20
-116.9978542459242
 10
87.06789819871913
 20
-117.127045326621
 10
87.06789819871913
 20
-117.127045326621
 10
86.88014049477303
 20
-117.1080973014521
 10
86.88014049477303
 20
-117.1080973014521
 10
86.88014049477303
 20
-117.1080973014521
 10
87.00898706592137
 20
-116.2616373407263
 10
87.00898706592137
 20
-116.2616373407263
 10
87.00898706592137
 20
-116.2616373407263
 10
87.8409776256092
 20
-116.2616373407263
 10
87.8409776256092
 20
-116.2616373407263
 10
87.8409776256092
 20
-116.2616373407263
 10
87.8409776256092
 20
-116.4562852356429
 10
87.8409776256092
 20
-116.4562852356429
 10
87.8409776256092
 20
-116.4562852356429
 10
87.18330889747502
 20
-116.4562852356429
 10
87.18330889747502
 20
-116.4562852356429
 10
87.18330889747502
 20
-116.4562852356429
 10
87.11302894957592
 20
-116.8793429612316
 10
87.11302894957592
 20
-116.8793429612316
 10
87.17848576379566
 20
-116.8455810254761
 10
87.26668020821806
 20
-116.8052734082987
 10
87.39345972207525
 20
-116.8052734082987
 10
87.66458873676441
 20
-116.8052734082987
 10
87.91780325493028
 20
-116.9916530740507
 10
87.91780325493028
 20
-117.3048122536599
 10
87.91780325493028
 20
-117.6221055478514
 10
87.67836911870542
 20
-117.8567165503969
 10
87.35487465264045
 20
-117.8567165503969
 97
        0
 97
        0
 75
     2
 76
     1
 98
        0
  0
ENDBLK
  5
C1
330
BE
100
AcDbEntity
  8
0
100
AcDbBlockEnd
  0
BLOCK
  5
D3
330
D1
100
AcDbEntity
  8
0
100
AcDbBlockBegin
  2
block 7
 70
     0
 10
0.0
 20
0.0
 30
0.0
  3
block 7
  1

  0
SPLINE
  5
D5
330
D1
100
AcDbEntity
  8
_U+30EC_U+30A4_U+30E4_U+30FC 1
370
     0
100
AcDbSpline
210
0.0
220
0.0
230
1.0
 70
    11
 71
     3
 72
    44
 73
    40
 74
     0
 42
0.0000000001
 43
0.0000000001
 12
1.0
 22
0.0
 32
0.0
 13
1.0
 23
0.0
 33
0.0
 40
0.0
 40
0.0
 40
0.0
 40
0.0
 40
1.0
 40
1.0
 40
1.0
 40
2.0
 40
2.0
 40
2.0
 40
3.0
 40
3.0
 40
3.0
 40
4.0
 40
4.0
 40
4.0
 40
5.0
 40
5.0
 40
5.0
 40
6.0
 40
6.0
 40
6.0
 40
7.0
 40
7.0
 40
7.0
 40
8.0
 40
8.0
 40
8.0
 40
9.0
 40
9.0
 40
9.0
 40
10.0
 40
10.0
 40
10.0
 40
11.0
 40
11.0
 40
11.0
 40
12.0
 40
12.0
 40
12.0
 40
13.0
 40
13.0
 40
13.0
 40
13.0
 10
87.00984833979268
 20
-138.9448350347082
 30
0.0
 10
86.7769598849898
 20
-139.1036539365783
 30
0.0
 10
86.67739662546607
 20
-139.1777234895111
 30
0.0
 10
86.62572019318732
 20
-139.321383971246
 30
0.0
 10
86.62572019318732
 20
-139.321383971246
 30
0.0
 10
87.45736624332663
 20
-139.321383971246
 30
0.0
 10
87.45736624332663
 20
-139.321383971246
 30
0.0
 10
87.45736624332663
 20
-139.321383971246
 30
0.0
 10
87.45736624332663
 20
-139.5267116621669
 30
0.0
 10
87.45736624332663
 20
-139.5267116621669
 30
0.0
 10
87.45736624332663
 20
-139.5267116621669
 30
0.0
 10
86.35872529308047
 20
-139.5267116621669
 30
0.0
 10
86.35872529308047
 20
-139.5267116621669
 30
0.0
 10
86.39283173838443
 20
-139.169110750798
 30
0.0
 10
86.46276717673501
 20
-139.0909070832828
 30
0.0
 10
86.87411157767384
 20
-138.7925618142602
 30
0.0
 10
87.14765215920268
 20
-138.5937798047613
 30
0.0
 10
87.21793210710177
 20
-138.5259114237019
 30
0.0
 10
87.21793210710177
 20
-138.3884521138404
 30
0.0
 10
87.21793210710177
 20
-138.2699408291478
 30
0.0
 10
87.1411064777807
 20
-138.1390272007083
 30
0.0
 10
86.93061114363194
 20
-138.1390272007083
 30
0.0
 10
86.65259193797228
 20
-138.1390272007083
 30
0.0
 10
86.64363468971062
 20
-138.3695040886715
 30
0.0
 10
86.6391560655798
 20
-138.4859483160729
 30
0.0
 10
86.6391560655798
 20
-138.4859483160729
 30
0.0
 10
86.39937741980641
 20
-138.4859483160729
 30
0.0
 10
86.39937741980641
 20
-138.4859483160729
 30
0.0
 10
86.40867917761659
 20
-138.3588242926672
 30
0.0
 10
86.41970348316939
 20
-138.2468586893966
 30
0.0
 10
86.50583087030063
 20
-138.128347404704
 30
0.0
 10
86.62330862634765
 20
-137.9674614455429
 30
0.0
 10
86.82209063584656
 20
-137.9336995097874
 30
0.0
 10
86.94645858286408
 20
-137.9336995097874
 30
0.0
 10
87.24273679459557
 20
-137.9336995097874
 30
0.0
 10
87.46425643429714
 20
-138.1176676086997
 30
0.0
 10
87.46425643429714
 20
-138.3905191711315
 30
0.0
 10
87.46425643429714
 20
-138.6192735113521
 30
0.0
 10
87.33988848727961
 20
-138.7184922613273
 30
0.0
 10
87.00984833979268
 20
-138.9448350347082
 30
0.0
  0
HATCH
  5
D6
330
D1
100
AcDbEntity
  8
_U+30EC_U+30A4_U+30E4_U+30FC 1
 62
     7
420
 16777215
100
AcDbHatch
 10
0.0
 20
0.0
 30
0.0
210
0.0
220
0.0
230
1.0
  2
SOLID
 70
     1
 71
     0
 91
        1
 92
        1
 93
        1
 72
     4
 94
        3
 73
     0
 74
     1
 95
       44
 96
       40
 40
0.0
 40
0.0
 40
0.0
 40
0.0
 40
1.0
 40
1.0
 40
1.0
 40
2.0
 40
2.0
 40
2.0
 40
3.0
 40
3.0
 40
3.0
 40
4.0
 40
4.0
 40
4.0
 40
5.0
 40
5.0
 40
5.0
 40
6.0
 40
6.0
 40
6.0
 40
7.0
 40
7.0
 40
7.0
 40
8.0
 40
8.0
 40
8.0
 40
9.0
 40
9.0
 40
9.0
 40
10.0
 40
10.0
 40
10.0
 40
11.0
 40
11.0
 40
11.0
 40
12.0
 40
12.0
 40
12.0
 40
13.0
 40
13.0
 40
13.0
 40
13.0
 10
87.00984833979268
 20
-138.9448350347082
 10
86.7769598849898
 20
-139.1036539365783
 10
86.67739662546607
 20
-139.1777234895111
 10
86.62572019318732
 20
-139.321383971246
 10
86.62572019318732
 20
-139.321383971246
 10
87.45736624332663
 20
-139.321383971246
 10
87.45736624332663
 20
-139.321383971246
 10
87.45736624332663
 20
-139.321383971246
 10
87.45736624332663
 20
-139.5267116621669
 10
87.45736624332663
 20
-139.5267116621669
 10
87.45736624332663
 20
-139.5267116621669
 10
86.35872529308047
 20
-139.5267116621669
 10
86.35872529308047
 20
-139.5267116621669
 10
86.39283173838443
 20
-139.169110750798
 10
86.46276717673501
 20
-139.0909070832828
 10
86.87411157767384
 20
-138.7925618142602
 10
87.14765215920268
 20
-138.5937798047613
 10
87.21793210710177
 20
-138.5259114237019
 10
87.21793210710177
 20
-138.3884521138404
 10
87.21793210710177
 20
-138.2699408291478
 10
87.1411064777807
 20
-138.1390272007083
 10
86.93061114363194
 20
-138.1390272007083
 10
86.65259193797228
 20
-138.1390272007083
 10
86.64363468971062
 20
-138.3695040886715
 10
86.6391560655798
 20
-138.4859483160729
 10
86.6391560655798
 20
-138.4859483160729
 10
86.39937741980641
 20
-138.4859483160729
 10
86.39937741980641
 20
-138.4859483160729
 10
86.40867917761659
 20
-138.3588242926672
 10
86.41970348316939
 20
-138.2468586893966
 10
86.50583087030063
 20
-138.128347404704
 10
86.62330862634765
 20
-137.9674614455429
 10
86.82209063584656
 20
-137.9336995097874
 10
86.94645858286408
 20
-137.9336995097874
 10
87.24273679459557
 20
-137.9336995097874
 10
87.46425643429714
 20
-138.1176676086997
 10
87.46425643429714
 20
-138.3905191711315
 10
87.46425643429714
 20
-138.6192735113521
 10
87.33988848727961
 20
-138.7184922613273
 10
87.00984833979268
 20
-138.9448350347082
 97
        0
 97
        0
 75
     2
 76
     1
 98
        0
  0
SPLINE
  5
D7
330
D1
100
AcDbEntity
  8
_U+30EC_U+30A4_U+30E4_U+30FC 1
370
     0
100
AcDbSpline
210
0.0
220
0.0
230
1.0
 70
    11
 71
     3
 72
    53
 73
    49
 74
     0
 42
0.0000000001
 43
0.0000000001
 12
1.0
 22
0.0
 32
0.0
 13
1.0
 23
0.0
 33
0.0
 40
0.0
 40
0.0
 40
0.0
 40
0.0
 40
1.0
 40
1.0
 40
1.0
 40
2.0
 40
2.0
 40
2.0
 40
3.0
 40
3.0
 40
3.0
 40
4.0
 40
4.0
 40
4.0
 40
5.0
 40
5.0
 40
5.0
 40
6.0
 40
6.0
 40
6.0
 40
7.0
 40
7.0
 40
7.0
 40
8.0
 40
8.0
 40
8.0
 40
9.0
 40
9.0
 40
9.0
 40
10.0
 40
10.0
 40
10.0
 40
11.0
 40
11.0
 40
11.0
 40
12.0
 40
12.0
 40
12.0
 40
13.0
 40
13.0
 40
13.0
 40
14.0
 40
14.0
 40
14.0
 40
15.0
 40
15.0
 40
15.0
 40
16.0
 40
16.0
 40
16.0
 40
16.0
 10
88.1477633785707
 20
-139.5773545658001
 30
0.0
 10
88.06439206782765
 20
-139.5773545658001
 30
0.0
 10
87.95552705049376
 20
-139.5604735979224
 30
0.0
 10
87.84735105225691
 20
-139.4970838409938
 30
0.0
 10
87.66166040560195
 20
-139.3871852950143
 30
0.0
 10
87.63926728494782
 20
-139.2559271570263
 30
0.0
 10
87.61894122158485
 20
-139.148095668338
 30
0.0
 10
87.61894122158485
 20
-139.148095668338
 30
0.0
 10
87.85630830051856
 20
-139.148095668338
 30
0.0
 10
87.85630830051856
 20
-139.148095668338
 30
0.0
 10
87.91487492376781
 20
-139.3468776778369
 30
0.0
 10
88.05061168588665
 20
-139.3765054990101
 30
0.0
 10
88.15017494541037
 20
-139.3765054990101
 30
0.0
 10
88.2993475799217
 20
-139.3765054990101
 30
0.0
 10
88.46195608682548
 20
-139.2769422394863
 30
0.0
 10
88.46195608682548
 20
-139.044398294232
 30
0.0
 10
88.46195608682548
 20
-138.7884276996779
 30
0.0
 10
88.27006426829708
 20
-138.7184922613273
 30
0.0
 10
88.14121769714873
 20
-138.7184922613273
 30
0.0
 10
88.10711125184476
 20
-138.7184922613273
 30
0.0
 10
87.95552705049376
 20
-138.7184922613273
 30
0.0
 10
87.86078692464939
 20
-138.8476833420242
 30
0.0
 10
87.86078692464939
 20
-138.8476833420242
 30
0.0
 10
87.67302922070327
 20
-138.8287353168553
 30
0.0
 10
87.67302922070327
 20
-138.8287353168553
 30
0.0
 10
87.67302922070327
 20
-138.8287353168553
 30
0.0
 10
87.80187579185161
 20
-137.9822753561294
 30
0.0
 10
87.80187579185161
 20
-137.9822753561294
 30
0.0
 10
87.80187579185161
 20
-137.9822753561294
 30
0.0
 10
88.63386635153945
 20
-137.9822753561294
 30
0.0
 10
88.63386635153945
 20
-137.9822753561294
 30
0.0
 10
88.63386635153945
 20
-137.9822753561294
 30
0.0
 10
88.63386635153945
 20
-138.176923251046
 30
0.0
 10
88.63386635153945
 20
-138.176923251046
 30
0.0
 10
88.63386635153945
 20
-138.176923251046
 30
0.0
 10
87.97619762340526
 20
-138.176923251046
 30
0.0
 10
87.97619762340526
 20
-138.176923251046
 30
0.0
 10
87.97619762340526
 20
-138.176923251046
 30
0.0
 10
87.90591767550616
 20
-138.5999809766347
 30
0.0
 10
87.90591767550616
 20
-138.5999809766347
 30
0.0
 10
87.9713744897259
 20
-138.5662190408793
 30
0.0
 10
88.0595689341483
 20
-138.5259114237019
 30
0.0
 10
88.1863484480055
 20
-138.5259114237019
 30
0.0
 10
88.45747746269467
 20
-138.5259114237019
 30
0.0
 10
88.71069198086053
 20
-138.7122910894539
 30
0.0
 10
88.71069198086053
 20
-139.0254502690631
 30
0.0
 10
88.71069198086053
 20
-139.3427435632546
 30
0.0
 10
88.47125784463566
 20
-139.5773545658001
 30
0.0
 10
88.1477633785707
 20
-139.5773545658001
 30
0.0
  0
HATCH
  5
D8
330
D1
100
AcDbEntity
  8
_U+30EC_U+30A4_U+30E4_U+30FC 1
 62
     7
420
 16777215
100
AcDbHatch
 10
0.0
 20
0.0
 30
0.0
210
0.0
220
0.0
230
1.0
  2
SOLID
 70
     1
 71
     0
 91
        1
 92
        1
 93
        1
 72
     4
 94
        3
 73
     0
 74
     1
 95
       53
 96
       49
 40
0.0
 40
0.0
 40
0.0
 40
0.0
 40
1.0
 40
1.0
 40
1.0
 40
2.0
 40
2.0
 40
2.0
 40
3.0
 40
3.0
 40
3.0
 40
4.0
 40
4.0
 40
4.0
 40
5.0
 40
5.0
 40
5.0
 40
6.0
 40
6.0
 40
6.0
 40
7.0
 40
7.0
 40
7.0
 40
8.0
 40
8.0
 40
8.0
 40
9.0
 40
9.0
 40
9.0
 40
10.0
 40
10.0
 40
10.0
 40
11.0
 40
11.0
 40
11.0
 40
12.0
 40
12.0
 40
12.0
 40
13.0
 40
13.0
 40
13.0
 40
14.0
 40
14.0
 40
14.0
 40
15.0
 40
15.0
 40
15.0
 40
16.0
 40
16.0
 40
16.0
 40
16.0
 10
88.1477633785707
 20
-139.5773545658001
 10
88.06439206782765
 20
-139.5773545658001
 10
87.95552705049376
 20
-139.5604735979224
 10
87.84735105225691
 20
-139.4970838409938
 10
87.66166040560195
 20
-139.3871852950143
 10
87.63926728494782
 20
-139.2559271570263
 10
87.61894122158485
 20
-139.148095668338
 10
87.61894122158485
 20
-139.148095668338
 10
87.85630830051856
 20
-139.148095668338
 10
87.85630830051856
 20
-139.148095668338
 10
87.91487492376781
 20
-139.3468776778369
 10
88.05061168588665
 20
-139.3765054990101
 10
88.15017494541037
 20
-139.3765054990101
 10
88.2993475799217
 20
-139.3765054990101
 10
88.46195608682548
 20
-139.2769422394863
 10
88.46195608682548
 20
-139.044398294232
 10
88.46195608682548
 20
-138.7884276996779
 10
88.27006426829708
 20
-138.7184922613273
 10
88.14121769714873
 20
-138.7184922613273
 10
88.10711125184476
 20
-138.7184922613273
 10
87.95552705049376
 20
-138.7184922613273
 10
87.86078692464939
 20
-138.8476833420242
 10
87.86078692464939
 20
-138.8476833420242
 10
87.67302922070327
 20
-138.8287353168553
 10
87.67302922070327
 20
-138.8287353168553
 10
87.67302922070327
 20
-138.8287353168553
 10
87.80187579185161
 20
-137.9822753561294
 10
87.80187579185161
 20
-137.9822753561294
 10
87.80187579185161
 20
-137.9822753561294
 10
88.63386635153945
 20
-137.9822753561294
 10
88.63386635153945
 20
-137.9822753561294
 10
88.63386635153945
 20
-137.9822753561294
 10
88.63386635153945
 20
-138.176923251046
 10
88.63386635153945
 20
-138.176923251046
 10
88.63386635153945
 20
-138.176923251046
 10
87.97619762340526
 20
-138.176923251046
 10
87.97619762340526
 20
-138.176923251046
 10
87.97619762340526
 20
-138.176923251046
 10
87.90591767550616
 20
-138.5999809766347
 10
87.90591767550616
 20
-138.5999809766347
 10
87.9713744897259
 20
-138.5662190408793
 10
88.0595689341483
 20
-138.5259114237019
 10
88.1863484480055
 20
-138.5259114237019
 10
88.45747746269467
 20
-138.5259114237019
 10
88.71069198086053
 20
-138.7122910894539
 10
88.71069198086053
 20
-139.0254502690631
 10
88.71069198086053
 20
-139.3427435632546
 10
88.47125784463566
 20
-139.5773545658001
 10
88.1477633785707
 20
-139.5773545658001
 97
        0
 97
        0
 75
     2
 76
     1
 98
        0
  0
ENDBLK
  5
D4
330
D1
100
AcDbEntity
  8
0
100
AcDbBlockEnd
  0
ENDSEC
  0
SECTION
  2
ENTITIES
  0
POLYLINE
  5
41
330
1F
100
AcDbEntity
  8
_U+30EC_U+30A4_U+30E4_U+30FC 1
 62
   253
420
 11711154
370
     9
100
AcDb2dPolyline
 66
     1
 10
0.0
 20
0.0
 30
0.0
  0
VERTEX
  5
42
330
41
100
AcDbEntity
  8
_U+30EC_U+30A4_U+30E4_U+30FC 1
 62
   253
420
 11711154
370
     9
100
AcDbVertex
100
AcDb2dVertex
 10
89.73008608867862
 20
-123.289624413622
 30
0.0
  0
VERTEX
  5
43
330
41
100
AcDbEntity
  8
_U+30EC_U+30A4_U+30E4_U+30FC 1
 62
   253
420
 11711154
370
     9
100
AcDbVertex
100
AcDb2dVertex
 10
84.81257339180654
 20
-123.289624413622
 30
0.0
  0
VERTEX
  5
44
330
41
100
AcDbEntity
  8
_U+30EC_U+30A4_U+30E4_U+30FC 1
 62
   253
420
 11711154
370
     9
100
AcDbVertex
100
AcDb2dVertex
 10
84.81257339180654
 20
-120.3747274699062
 30
0.0
  0
VERTEX
  5
45
330
41
100
AcDbEntity
  8
_U+30EC_U+30A4_U+30E4_U+30FC 1
 62
   253
420
 11711154
370
     9
100
AcDbVertex
100
AcDb2dVertex
 10
89.73008608867862
 20
-120.3747274699062
 30
0.0
  0
VERTEX
  5
46
330
41
100
AcDbEntity
  8
_U+30EC_U+30A4_U+30E4_U+30FC 1
 62
   253
420
 11711154
370
     9
100
AcDbVertex
100
AcDb2dVertex
 10
89.73008608867862
 20
-123.289624413622
 30
0.0
  0
SEQEND
  5
48
330
41
100
AcDbEntity
  8
_U+30EC_U+30A4_U+30E4_U+30FC 1
 62
   253
420
 11711154
370
     9
  0
HATCH
  5
47
330
1F
100
AcDbEntity
  8
_U+30EC_U+30A4_U+30E4_U+30FC 1
 62
   253
420
 11711154
100
AcDbHatch
 10
0.0
 20
0.0
 30
0.0
210
0.0
220
0.0
230
1.0
  2
SOLID
 70
     1
 71
     0
 91
        1
 92
        1
 93
        4
 72
     1
 10
89.73008608867862
 20
-123.289624413622
 11
84.81257339180654
 21
-123.289624413622
 72
     1
 10
84.81257339180654
 20
-123.289624413622
 11
84.81257339180654
 21
-120.3747274699062
 72
     1
 10
84.81257339180654
 20
-120.3747274699062
 11
89.73008608867862
 21
-120.3747274699062
 72
     1
 10
89.73008608867862
 20
-120.3747274699062
 11
89.73008608867862
 21
-123.289624413622
 97
        0
 75
     2
 76
     1
 98
        0
  0
POLYLINE
  5
49
330
1F
100
AcDbEntity
  8
_U+30EC_U+30A4_U+30E4_U+30FC 1
 62
   253
420
 11711154
370
     9
100
AcDb2dPolyline
 66
     1
 10
0.0
 20
0.0
 30
0.0
  0
VERTEX
  5
4A
330
49
100
AcDbEntity
  8
_U+30EC_U+30A4_U+30E4_U+30FC 1
 62
   253
420
 11711154
370
     9
100
AcDbVertex
100
AcDb2dVertex
 10
87.65994859694173
 20
-136.8395366324571
 30
0.0
  0
VERTEX
  5
4B
330
49
100
AcDbEntity
  8
_U+30EC_U+30A4_U+30E4_U+30FC 1
 62
   253
420
 11711154
370
     9
100
AcDbVertex
100
AcDb2dVertex
 10
86.85706386717457
 20
-136.8395366324571
 30
0.0
  0
VERTEX
  5
4C
330
49
100
AcDbEntity
  8
_U+30EC_U+30A4_U+30E4_U+30FC 1
 62
   253
420
 11711154
370
     9
100
AcDbVertex
100
AcDb2dVertex
 10
86.85706386717457
 20
-123.0564030247913
 30
0.0
  0
VERTEX
  5
4D
330
49
100
AcDbEntity
  8
_U+30EC_U+30A4_U+30E4_U+30FC 1
 62
   253
420
 11711154
370
     9
100
AcDbVertex
100
AcDb2dVertex
 10
87.65994859694173
 20
-123.0564030247913
 30
0.0
  0
VERTEX
  5
4E
330
49
100
AcDbEntity
  8
_U+30EC_U+30A4_U+30E4_U+30FC 1
 62
   253
420
 11711154
370
     9
100
AcDbVertex
100
AcDb2dVertex
 10
87.65994859694173
 20
-136.8395366324571
 30
0.0
  0
SEQEND
  5
50
330
49
100
AcDbEntity
  8
_U+30EC_U+30A4_U+30E4_U+30FC 1
 62
   253
420
 11711154
370
     9
  0
HATCH
  5
4F
330
1F
100
AcDbEntity
  8
_U+30EC_U+30A4_U+30E4_U+30FC 1
 62
   253
420
 11711154
100
AcDbHatch
 10
0.0
 20
0.0
 30
0.0
210
0.0
220
0.0
230
1.0
  2
SOLID
 70
     1
 71
     0
 91
        1
 92
        1
 93
        4
 72
     1
 10
87.65994859694173
 20
-136.8395366324571
 11
86.85706386717457
 21
-136.8395366324571
 72
     1
 10
86.85706386717457
 20
-136.8395366324571
 11
86.85706386717457
 21
-123.0564030247913
 72
     1
 10
86.85706386717457
 20
-123.0564030247913
 11
87.65994859694173
 21
-123.0564030247913
 72
     1
 10
87.65994859694173
 20
-123.0564030247913
 11
87.65994859694173
 21
-136.8395366324571
 97
        0
 75
     2
 76
     1
 98
        0
  0
POLYLINE
  5
51
330
1F
100
AcDbEntity
  8
_U+30EC_U+30A4_U+30E4_U+30FC 1
 62
   253
420
 11711154
370
     9
100
AcDb2dPolyline
 66
     1
 10
0.0
 20
0.0
 30
0.0
  0
VERTEX
  5
52
330
51
100
AcDbEntity
  8
_U+30EC_U+30A4_U+30E4_U+30FC 1
 62
   253
420
 11711154
370
     9
100
AcDbVertex
100
AcDb2dVertex
 10
99.74378662199067
 20
-136.7947338546903
 30
0.0
  0
VERTEX
  5
53
330
51
100
AcDbEntity
  8
_U+30EC_U+30A4_U+30E4_U+30FC 1
 62
   253
420
 11711154
370
     9
100
AcDbVertex
100
AcDb2dVertex
 10
74.79594442574562
 20
-136.7947338546903
 30
0.0
  0
VERTEX
  5
54
330
51
100
AcDbEntity
  8
_U+30EC_U+30A4_U+30E4_U+30FC 1
 62
   253
420
 11711154
370
     9
100
AcDbVertex
100
AcDb2dVertex
 10
74.79594442574562
 20
-135.8135882993797
 30
0.0
  0
VERTEX
  5
55
330
51
100
AcDbEntity
  8
_U+30EC_U+30A4_U+30E4_U+30FC 1
 62
   253
420
 11711154
370
     9
100
AcDbVertex
100
AcDb2dVertex
 10
99.74378662199067
 20
-135.8135882993797
 30
0.0
  0
VERTEX
  5
56
330
51
100
AcDbEntity
  8
_U+30EC_U+30A4_U+30E4_U+30FC 1
 62
   253
420
 11711154
370
     9
100
AcDbVertex
100
AcDb2dVertex
 10
99.74378662199067
 20
-136.7947338546903
 30
0.0
  0
SEQEND
  5
58
330
51
100
AcDbEntity
  8
_U+30EC_U+30A4_U+30E4_U+30FC 1
 62
   253
420
 11711154
370
     9
  0
HATCH
  5
57
330
1F
100
AcDbEntity
  8
_U+30EC_U+30A4_U+30E4_U+30FC 1
 62
   253
420
 11711154
100
AcDbHatch
 10
0.0
 20
0.0
 30
0.0
210
0.0
220
0.0
230
1.0
  2
SOLID
 70
     1
 71
     0
 91
        1
 92
        1
 93
        4
 72
     1
 10
99.74378662199067
 20
-136.7947338546903
 11
74.79594442574562
 21
-136.7947338546903
 72
     1
 10
74.79594442574562
 20
-136.7947338546903
 11
74.79594442574562
 21
-135.8135882993797
 72
     1
 10
74.79594442574562
 20
-135.8135882993797
 11
99.74378662199067
 21
-135.8135882993797
 72
     1
 10
99.74378662199067
 20
-135.8135882993797
 11
99.74378662199067
 21
-136.7947338546903
 97
        0
 75
     2
 76
     1
 98
        0
  0
SPLINE
  5
59
330
1F
100
AcDbEntity
  8
_U+30EC_U+30A4_U+30E4_U+30FC 1
 62
     7
420
 16777215
370
     9
100
AcDbSpline
210
0.0
220
0.0
230
1.0
 70
    11
 71
     3
 72
    17
 73
    13
 74
     0
 42
0.0000000001
 43
0.0000000001
 12
1.0
 22
0.0
 32
0.0
 13
1.0
 23
0.0
 33
0.0
 40
0.0
 40
0.0
 40
0.0
 40
0.0
 40
1.0
 40
1.0
 40
1.0
 40
2.0
 40
2.0
 40
2.0
 40
3.0
 40
3.0
 40
3.0
 40
4.0
 40
4.0
 40
4.0
 40
4.0
 10
102.4757329411818
 20
-123.340953580276
 30
0.0
 10
102.4757329411818
 20
-123.2858496914008
 30
0.0
 10
102.4309654423239
 20
-123.2410469136341
 30
0.0
 10
102.375826277064
 20
-123.2410469136341
 30
0.0
 10
102.3207249744197
 20
-123.2410469136341
 30
0.0
 10
102.275922196653
 20
-123.2858496914008
 30
0.0
 10
102.275922196653
 20
-123.340953580276
 30
0.0
 10
102.275922196653
 20
-123.3967630247065
 30
0.0
 10
102.3207249744197
 20
-123.4415658024729
 30
0.0
 10
102.375826277064
 20
-123.4415658024729
 30
0.0
 10
102.4309654423239
 20
-123.4415658024729
 30
0.0
 10
102.4757329411818
 20
-123.3967630247065
 30
0.0
 10
102.4757329411818
 20
-123.340953580276
 30
0.0
  0
POLYLINE
  5
5A
330
1F
100
AcDbEntity
  8
_U+30EC_U+30A4_U+30E4_U+30FC 1
 62
     7
420
 16777215
370
     9
100
AcDb2dPolyline
 66
     1
 10
0.0
 20
0.0
 30
0.0
  0
VERTEX
  5
5B
330
5A
100
AcDbEntity
  8
_U+30EC_U+30A4_U+30E4_U+30FC 1
 62
     7
420
 16777215
370
     9
100
AcDbVertex
100
AcDb2dVertex
 10
102.375826277064
 20
-123.2410469136341
 30
0.0
  0
VERTEX
  5
5C
330
5A
100
AcDbEntity
  8
_U+30EC_U+30A4_U+30E4_U+30FC 1
 62
     7
420
 16777215
370
     9
100
AcDbVertex
100
AcDb2dVertex
 10
102.375826277064
 20
-120.240389692162
 30
0.0
  0
SEQEND
  5
5D
330
5A
100
AcDbEntity
  8
_U+30EC_U+30A4_U+30E4_U+30FC 1
 62
     7
420
 16777215
370
     9
  0
POLYLINE
  5
5E
330
1F
100
AcDbEntity
  8
_U+30EC_U+30A4_U+30E4_U+30FC 1
 62
     7
420
 16777215
370
     9
100
AcDb2dPolyline
 66
     1
 10
0.0
 20
0.0
 30
0.0
  0
VERTEX
  5
5F
330
5E
100
AcDbEntity
  8
_U+30EC_U+30A4_U+30E4_U+30FC 1
 62
     7
420
 16777215
370
     9
100
AcDbVertex
100
AcDb2dVertex
 10
91.23009719941454
 20
-123.340953580276
 30
0.0
  0
VERTEX
  5
60
330
5E
100
AcDbEntity
  8
_U+30EC_U+30A4_U+30E4_U+30FC 1
 62
     7
420
 16777215
370
     9
100
AcDbVertex
100
AcDb2dVertex
 10
103.0893193144168
 20
-123.340953580276
 30
0.0
  0
SEQEND
  5
61
330
5E
100
AcDbEntity
  8
_U+30EC_U+30A4_U+30E4_U+30FC 1
 62
     7
420
 16777215
370
     9
  0
SPLINE
  5
62
330
1F
100
AcDbEntity
  8
_U+30EC_U+30A4_U+30E4_U+30FC 1
 62
     7
420
 16777215
370
     9
100
AcDbSpline
210
0.0
220
0.0
230
1.0
 70
    11
 71
     3
 72
    17
 73
    13
 74
     0
 42
0.0000000001
 43
0.0000000001
 12
1.0
 22
0.0
 32
0.0
 13
1.0
 23
0.0
 33
0.0
 40
0.0
 40
0.0
 40
0.0
 40
0.0
 40
1.0
 40
1.0
 40
1.0
 40
2.0
 40
2.0
 40
2.0
 40
3.0
 40
3.0
 40
3.0
 40
4.0
 40
4.0
 40
4.0
 40
4.0
 10
102.4757329411818
 20
-120.3402963588037
 30
0.0
 10
102.4757329411818
 20
-120.2851571921509
 30
0.0
 10
102.4309654423239
 20
-120.240389692162
 30
0.0
 10
102.375826277064
 20
-120.240389692162
 30
0.0
 10
102.3207249744197
 20
-120.240389692162
 30
0.0
 10
102.275922196653
 20
-120.2851571921509
 30
0.0
 10
102.275922196653
 20
-120.3402963588037
 30
0.0
 10
102.275922196653
 20
-120.3961058032344
 30
0.0
 10
102.3207249744197
 20
-120.440873303223
 30
0.0
 10
102.375826277064
 20
-120.440873303223
 30
0.0
 10
102.4309654423239
 20
-120.440873303223
 30
0.0
 10
102.4757329411818
 20
-120.3961058032344
 30
0.0
 10
102.4757329411818
 20
-120.3402963588037
 30
0.0
  0
POLYLINE
  5
63
330
1F
100
AcDbEntity
  8
_U+30EC_U+30A4_U+30E4_U+30FC 1
 62
     7
420
 16777215
370
     9
100
AcDb2dPolyline
 66
     1
 10
0.0
 20
0.0
 30
0.0
  0
VERTEX
  5
64
330
63
100
AcDbEntity
  8
_U+30EC_U+30A4_U+30E4_U+30FC 1
 62
     7
420
 16777215
370
     9
100
AcDbVertex
100
AcDb2dVertex
 10
91.23009719941454
 20
-120.3402963588037
 30
0.0
  0
VERTEX
  5
65
330
63
100
AcDbEntity
  8
_U+30EC_U+30A4_U+30E4_U+30FC 1
 62
     7
420
 16777215
370
     9
100
AcDbVertex
100
AcDb2dVertex
 10
106.7910517199777
 20
-120.3402963588037
 30
0.0
  0
SEQEND
  5
66
330
63
100
AcDbEntity
  8
_U+30EC_U+30A4_U+30E4_U+30FC 1
 62
     7
420
 16777215
370
     9
  0
INSERT
  5
68
330
1F
100
AcDbEntity
  8
_U+30EC_U+30A4_U+30E4_U+30FC 1
100
AcDbBlockReference
  2
block 2
 10
0.0
 20
0.0
 30
0.0
  0
SPLINE
  5
6D
330
1F
100
AcDbEntity
  8
_U+30EC_U+30A4_U+30E4_U+30FC 1
 62
     7
420
 16777215
370
     9
100
AcDbSpline
210
0.0
220
0.0
230
1.0
 70
    11
 71
     3
 72
    17
 73
    13
 74
     0
 42
0.0000000001
 43
0.0000000001
 12
1.0
 22
0.0
 32
0.0
 13
1.0
 23
0.0
 33
0.0
 40
0.0
 40
0.0
 40
0.0
 40
0.0
 40
1.0
 40
1.0
 40
1.0
 40
2.0
 40
2.0
 40
2.0
 40
3.0
 40
3.0
 40
3.0
 40
4.0
 40
4.0
 40
4.0
 40
4.0
 10
102.4757329411818
 20
-135.8135882993797
 30
0.0
 10
102.4757329411818
 20
-135.7584491327272
 30
0.0
 10
102.4309654423239
 20
-135.713681632738
 30
0.0
 10
102.375826277064
 20
-135.713681632738
 30
0.0
 10
102.3207249744197
 20
-135.713681632738
 30
0.0
 10
102.275922196653
 20
-135.7584491327272
 30
0.0
 10
102.275922196653
 20
-135.8135882993797
 30
0.0
 10
102.275922196653
 20
-135.8693977438107
 30
0.0
 10
102.3207249744197
 20
-135.9142005215768
 30
0.0
 10
102.375826277064
 20
-135.9142005215768
 30
0.0
 10
102.4309654423239
 20
-135.9142005215768
 30
0.0
 10
102.4757329411818
 20
-135.8693977438107
 30
0.0
 10
102.4757329411818
 20
-135.8135882993797
 30
0.0
  0
POLYLINE
  5
6E
330
1F
100
AcDbEntity
  8
_U+30EC_U+30A4_U+30E4_U+30FC 1
 62
     7
420
 16777215
370
     9
100
AcDb2dPolyline
 66
     1
 10
0.0
 20
0.0
 30
0.0
  0
VERTEX
  5
6F
330
6E
100
AcDbEntity
  8
_U+30EC_U+30A4_U+30E4_U+30FC 1
 62
     7
420
 16777215
370
     9
100
AcDbVertex
100
AcDb2dVertex
 10
102.375826277064
 20
-135.713681632738
 30
0.0
  0
VERTEX
  5
70
330
6E
100
AcDbEntity
  8
_U+30EC_U+30A4_U+30E4_U+30FC 1
 62
     7
420
 16777215
370
     9
100
AcDbVertex
100
AcDb2dVertex
 10
102.375826277064
 20
-123.5049599691239
 30
0.0
  0
SEQEND
  5
71
330
6E
100
AcDbEntity
  8
_U+30EC_U+30A4_U+30E4_U+30FC 1
 62
     7
420
 16777215
370
     9
  0
POLYLINE
  5
72
330
1F
100
AcDbEntity
  8
_U+30EC_U+30A4_U+30E4_U+30FC 1
 62
     7
420
 16777215
370
     9
100
AcDb2dPolyline
 66
     1
 10
0.0
 20
0.0
 30
0.0
  0
VERTEX
  5
73
330
72
100
AcDbEntity
  8
_U+30EC_U+30A4_U+30E4_U+30FC 1
 62
     7
420
 16777215
370
     9
100
AcDbVertex
100
AcDb2dVertex
 10
100.9157849254238
 20
-135.8135882993797
 30
0.0
  0
VERTEX
  5
74
330
72
100
AcDbEntity
  8
_U+30EC_U+30A4_U+30E4_U+30FC 1
 62
     7
420
 16777215
370
     9
100
AcDbVertex
100
AcDb2dVertex
 10
106.7021870000226
 20
-135.8135882993797
 30
0.0
  0
SEQEND
  5
75
330
72
100
AcDbEntity
  8
_U+30EC_U+30A4_U+30E4_U+30FC 1
 62
     7
420
 16777215
370
     9
  0
INSERT
  5
77
330
1F
100
AcDbEntity
  8
_U+30EC_U+30A4_U+30E4_U+30FC 1
100
AcDbBlockReference
  2
block 3
 10
0.0
 20
0.0
 30
0.0
  0
SPLINE
  5
88
330
1F
100
AcDbEntity
  8
_U+30EC_U+30A4_U+30E4_U+30FC 1
 62
     7
420
 16777215
370
     9
100
AcDbSpline
210
0.0
220
0.0
230
1.0
 70
    11
 71
     3
 72
    17
 73
    13
 74
     0
 42
0.0000000001
 43
0.0000000001
 12
1.0
 22
0.0
 32
0.0
 13
1.0
 23
0.0
 33
0.0
 40
0.0
 40
0.0
 40
0.0
 40
0.0
 40
1.0
 40
1.0
 40
1.0
 40
2.0
 40
2.0
 40
2.0
 40
3.0
 40
3.0
 40
3.0
 40
4.0
 40
4.0
 40
4.0
 40
4.0
 10
105.7210061917213
 20
-135.7839549660541
 30
0.0
 10
105.7210061917213
 20
-135.7288510771792
 30
0.0
 10
105.6762386928634
 20
-135.6840482994125
 30
0.0
 10
105.6210995276035
 20
-135.6840482994125
 30
0.0
 10
105.5659956401204
 20
-135.6840482994125
 30
0.0
 10
105.5211928634857
 20
-135.7288510771792
 30
0.0
 10
105.5211928634857
 20
-135.7839549660541
 30
0.0
 10
105.5211928634857
 20
-135.8397644104845
 30
0.0
 10
105.5659956401204
 20
-135.8845671882513
 30
0.0
 10
105.6210995276035
 20
-135.8845671882513
 30
0.0
 10
105.6762386928634
 20
-135.8845671882513
 30
0.0
 10
105.7210061917213
 20
-135.8397644104845
 30
0.0
 10
105.7210061917213
 20
-135.7839549660541
 30
0.0
  0
POLYLINE
  5
89
330
1F
100
AcDbEntity
  8
_U+30EC_U+30A4_U+30E4_U+30FC 1
 62
     7
420
 16777215
370
     9
100
AcDb2dPolyline
 66
     1
 10
0.0
 20
0.0
 30
0.0
  0
VERTEX
  5
8A
330
89
100
AcDbEntity
  8
_U+30EC_U+30A4_U+30E4_U+30FC 1
 62
     7
420
 16777215
370
     9
100
AcDbVertex
100
AcDb2dVertex
 10
105.6210995276035
 20
-135.6840482994125
 30
0.0
  0
VERTEX
  5
8B
330
89
100
AcDbEntity
  8
_U+30EC_U+30A4_U+30E4_U+30FC 1
 62
     7
420
 16777215
370
     9
100
AcDbVertex
100
AcDb2dVertex
 10
105.6210995276035
 20
-120.4746341365482
 30
0.0
  0
SEQEND
  5
8C
330
89
100
AcDbEntity
  8
_U+30EC_U+30A4_U+30E4_U+30FC 1
 62
     7
420
 16777215
370
     9
  0
SPLINE
  5
8D
330
1F
100
AcDbEntity
  8
_U+30EC_U+30A4_U+30E4_U+30FC 1
 62
     7
420
 16777215
370
     9
100
AcDbSpline
210
0.0
220
0.0
230
1.0
 70
    11
 71
     3
 72
    17
 73
    13
 74
     0
 42
0.0000000001
 43
0.0000000001
 12
1.0
 22
0.0
 32
0.0
 13
1.0
 23
0.0
 33
0.0
 40
0.0
 40
0.0
 40
0.0
 40
0.0
 40
1.0
 40
1.0
 40
1.0
 40
2.0
 40
2.0
 40
2.0
 40
3.0
 40
3.0
 40
3.0
 40
4.0
 40
4.0
 40
4.0
 40
4.0
 10
105.7210061917213
 20
-120.3395908032485
 30
0.0
 10
105.7210061917213
 20
-120.2844869143732
 30
0.0
 10
105.6762386928634
 20
-120.2396841366068
 30
0.0
 10
105.6210995276035
 20
-120.2396841366068
 30
0.0
 10
105.5659956401204
 20
-120.2396841366068
 30
0.0
 10
105.5211928634857
 20
-120.2844869143732
 30
0.0
 10
105.5211928634857
 20
-120.3395908032485
 30
0.0
 10
105.5211928634857
 20
-120.3954002476789
 30
0.0
 10
105.5659956401204
 20
-120.4402030254456
 30
0.0
 10
105.6210995276035
 20
-120.4402030254456
 30
0.0
 10
105.6762386928634
 20
-120.4402030254456
 30
0.0
 10
105.7210061917213
 20
-120.3954002476789
 30
0.0
 10
105.7210061917213
 20
-120.3395908032485
 30
0.0
  0
SPLINE
  5
8E
330
1F
100
AcDbEntity
  8
_U+30EC_U+30A4_U+30E4_U+30FC 1
 62
     7
420
 16777215
370
     9
100
AcDbSpline
210
0.0
220
0.0
230
1.0
 70
    11
 71
     3
 72
    17
 73
    13
 74
     0
 42
0.0000000001
 43
0.0000000001
 12
1.0
 22
0.0
 32
0.0
 13
1.0
 23
0.0
 33
0.0
 40
0.0
 40
0.0
 40
0.0
 40
0.0
 40
1.0
 40
1.0
 40
1.0
 40
2.0
 40
2.0
 40
2.0
 40
3.0
 40
3.0
 40
3.0
 40
4.0
 40
4.0
 40
4.0
 40
4.0
 10
105.7210061917213
 20
-136.8526246880092
 30
0.0
 10
105.7210061917213
 20
-136.7975207991337
 30
0.0
 10
105.6762386928634
 20
-136.7527180213676
 30
0.0
 10
105.6210995276035
 20
-136.7527180213676
 30
0.0
 10
105.5659956401204
 20
-136.7527180213676
 30
0.0
 10
105.5211928634857
 20
-136.7975207991337
 30
0.0
 10
105.5211928634857
 20
-136.8526246880092
 30
0.0
 10
105.5211928634857
 20
-136.9084341324397
 30
0.0
 10
105.5659956401204
 20
-136.9532369102064
 30
0.0
 10
105.6210995276035
 20
-136.9532369102064
 30
0.0
 10
105.6762386928634
 20
-136.9532369102064
 30
0.0
 10
105.7210061917213
 20
-136.9084341324397
 30
0.0
 10
105.7210061917213
 20
-136.8526246880092
 30
0.0
  0
SPLINE
  5
8F
330
1F
100
AcDbEntity
  8
_U+30EC_U+30A4_U+30E4_U+30FC 1
 62
     7
420
 16777215
370
     9
100
AcDbSpline
210
0.0
220
0.0
230
1.0
 70
    11
 71
     3
 72
    17
 73
    13
 74
     0
 42
0.0000000001
 43
0.0000000001
 12
1.0
 22
0.0
 32
0.0
 13
1.0
 23
0.0
 33
0.0
 40
0.0
 40
0.0
 40
0.0
 40
0.0
 40
1.0
 40
1.0
 40
1.0
 40
2.0
 40
2.0
 40
2.0
 40
3.0
 40
3.0
 40
3.0
 40
4.0
 40
4.0
 40
4.0
 40
4.0
 10
99.84852634154076
 20
-140.1199466316365
 30
0.0
 10
99.84852634154076
 20
-140.0648427427616
 30
0.0
 10
99.803723564906
 20
-140.0200399649949
 30
0.0
 10
99.74862219728521
 20
-140.0200399649949
 30
0.0
 10
99.69348051216298
 20
-140.0200399649949
 30
0.0
 10
99.64871301330508
 20
-140.0648427427616
 30
0.0
 10
99.64871301330508
 20
-140.1199466316365
 30
0.0
 10
99.64871301330508
 20
-140.175756076067
 30
0.0
 10
99.69348051216298
 20
-140.2205588538337
 30
0.0
 10
99.74862219728521
 20
-140.2205588538337
 30
0.0
 10
99.803723564906
 20
-140.2205588538337
 30
0.0
 10
99.84852634154076
 20
-140.175756076067
 30
0.0
 10
99.84852634154076
 20
-140.1199466316365
 30
0.0
  0
POLYLINE
  5
90
330
1F
100
AcDbEntity
  8
_U+30EC_U+30A4_U+30E4_U+30FC 1
 62
     7
420
 16777215
370
     9
100
AcDb2dPolyline
 66
     1
 10
0.0
 20
0.0
 30
0.0
  0
VERTEX
  5
91
330
90
100
AcDbEntity
  8
_U+30EC_U+30A4_U+30E4_U+30FC 1
 62
     7
420
 16777215
370
     9
100
AcDbVertex
100
AcDb2dVertex
 10
105.6210995276035
 20
-136.7527180213676
 30
0.0
  0
VERTEX
  5
92
330
90
100
AcDbEntity
  8
_U+30EC_U+30A4_U+30E4_U+30FC 1
 62
     7
420
 16777215
370
     9
100
AcDbVertex
100
AcDb2dVertex
 10
105.6210995276035
 20
-135.7525930216173
 30
0.0
  0
SEQEND
  5
93
330
90
100
AcDbEntity
  8
_U+30EC_U+30A4_U+30E4_U+30FC 1
 62
     7
420
 16777215
370
     9
  0
POLYLINE
  5
94
330
1F
100
AcDbEntity
  8
_U+30EC_U+30A4_U+30E4_U+30FC 1
 62
     7
420
 16777215
370
     9
100
AcDb2dPolyline
 66
     1
 10
0.0
 20
0.0
 30
0.0
  0
VERTEX
  5
95
330
94
100
AcDbEntity
  8
_U+30EC_U+30A4_U+30E4_U+30FC 1
 62
     7
420
 16777215
370
     9
100
AcDbVertex
100
AcDb2dVertex
 10
104.1610934537402
 20
-136.8526246880092
 30
0.0
  0
VERTEX
  5
96
330
94
100
AcDbEntity
  8
_U+30EC_U+30A4_U+30E4_U+30FC 1
 62
     7
420
 16777215
370
     9
100
AcDbVertex
100
AcDb2dVertex
 10
106.6208717243194
 20
-136.8526246880092
 30
0.0
  0
SEQEND
  5
97
330
94
100
AcDbEntity
  8
_U+30EC_U+30A4_U+30E4_U+30FC 1
 62
     7
420
 16777215
370
     9
  0
INSERT
  5
99
330
1F
100
AcDbEntity
  8
_U+30EC_U+30A4_U+30E4_U+30FC 1
100
AcDbBlockReference
  2
block 4
 10
0.0
 20
0.0
 30
0.0
  0
INSERT
  5
9F
330
1F
100
AcDbEntity
  8
_U+30EC_U+30A4_U+30E4_U+30FC 1
100
AcDbBlockReference
  2
block 5
 10
0.0
 20
0.0
 30
0.0
  0
SPLINE
  5
B0
330
1F
100
AcDbEntity
  8
_U+30EC_U+30A4_U+30E4_U+30FC 1
 62
     7
420
 16777215
370
     9
100
AcDbSpline
210
0.0
220
0.0
230
1.0
 70
    11
 71
     3
 72
    17
 73
    13
 74
     0
 42
0.0000000001
 43
0.0000000001
 12
1.0
 22
0.0
 32
0.0
 13
1.0
 23
0.0
 33
0.0
 40
0.0
 40
0.0
 40
0.0
 40
0.0
 40
1.0
 40
1.0
 40
1.0
 40
2.0
 40
2.0
 40
2.0
 40
3.0
 40
3.0
 40
3.0
 40
4.0
 40
4.0
 40
4.0
 40
4.0
 10
84.86115089056723
 20
-118.4010416370664
 30
0.0
 10
84.86115089056723
 20
-118.3459377481912
 30
0.0
 10
84.81634811393246
 20
-118.3011349704248
 30
0.0
 10
84.76124422644939
 20
-118.3011349704248
 30
0.0
 10
84.70610506118945
 20
-118.3011349704248
 30
0.0
 10
84.66133756233155
 20
-118.3459377481912
 30
0.0
 10
84.66133756233155
 20
-118.4010416370664
 30
0.0
 10
84.66133756233155
 20
-118.4568510814969
 30
0.0
 10
84.70610506118945
 20
-118.5016538592636
 30
0.0
 10
84.76124422644939
 20
-118.5016538592636
 30
0.0
 10
84.81634811393246
 20
-118.5016538592636
 30
0.0
 10
84.86115089056723
 20
-118.4568510814969
 30
0.0
 10
84.86115089056723
 20
-118.4010416370664
 30
0.0
  0
SPLINE
  5
B1
330
1F
100
AcDbEntity
  8
_U+30EC_U+30A4_U+30E4_U+30FC 1
 62
     7
420
 16777215
370
     9
100
AcDbSpline
210
0.0
220
0.0
230
1.0
 70
    11
 71
     3
 72
    17
 73
    13
 74
     0
 42
0.0000000001
 43
0.0000000001
 12
1.0
 22
0.0
 32
0.0
 13
1.0
 23
0.0
 33
0.0
 40
0.0
 40
0.0
 40
0.0
 40
0.0
 40
1.0
 40
1.0
 40
1.0
 40
2.0
 40
2.0
 40
2.0
 40
3.0
 40
3.0
 40
3.0
 40
4.0
 40
4.0
 40
4.0
 40
4.0
 10
89.87528715153485
 20
-118.4031230259548
 30
0.0
 10
89.87528715153485
 20
-118.3479838593017
 30
0.0
 10
89.83051965267695
 20
-118.3032163593132
 30
0.0
 10
89.77538048741701
 20
-118.3032163593132
 30
0.0
 10
89.72027659993394
 20
-118.3032163593132
 30
0.0
 10
89.67547382329917
 20
-118.3479838593017
 30
0.0
 10
89.67547382329917
 20
-118.4031230259548
 30
0.0
 10
89.67547382329917
 20
-118.4589324703853
 30
0.0
 10
89.72027659993394
 20
-118.5036999703741
 30
0.0
 10
89.77538048741701
 20
-118.5036999703741
 30
0.0
 10
89.83051965267695
 20
-118.5036999703741
 30
0.0
 10
89.87528715153485
 20
-118.4589324703853
 30
0.0
 10
89.87528715153485
 20
-118.4031230259548
 30
0.0
  0
POLYLINE
  5
B2
330
1F
100
AcDbEntity
  8
_U+30EC_U+30A4_U+30E4_U+30FC 1
 62
     7
420
 16777215
370
     9
100
AcDb2dPolyline
 66
     1
 10
0.0
 20
0.0
 30
0.0
  0
VERTEX
  5
B3
330
B2
100
AcDbEntity
  8
_U+30EC_U+30A4_U+30E4_U+30FC 1
 62
     7
420
 16777215
370
     9
100
AcDbVertex
100
AcDb2dVertex
 10
84.76124422644939
 20
-118.4010416370664
 30
0.0
  0
VERTEX
  5
B4
330
B2
100
AcDbEntity
  8
_U+30EC_U+30A4_U+30E4_U+30FC 1
 62
     7
420
 16777215
370
     9
100
AcDbVertex
100
AcDb2dVertex
 10
89.87528715153485
 20
-118.4010416370664
 30
0.0
  0
SEQEND
  5
B5
330
B2
100
AcDbEntity
  8
_U+30EC_U+30A4_U+30E4_U+30FC 1
 62
     7
420
 16777215
370
     9
  0
POLYLINE
  5
B6
330
1F
100
AcDbEntity
  8
_U+30EC_U+30A4_U+30E4_U+30FC 1
 62
     7
420
 16777215
370
     9
100
AcDb2dPolyline
 66
     1
 10
0.0
 20
0.0
 30
0.0
  0
VERTEX
  5
B7
330
B6
100
AcDbEntity
  8
_U+30EC_U+30A4_U+30E4_U+30FC 1
 62
     7
420
 16777215
370
     9
100
AcDbVertex
100
AcDb2dVertex
 10
84.76124422644939
 20
-116.9410002485427
 30
0.0
  0
VERTEX
  5
B8
330
B6
100
AcDbEntity
  8
_U+30EC_U+30A4_U+30E4_U+30FC 1
 62
     7
420
 16777215
370
     9
100
AcDbVertex
100
AcDb2dVertex
 10
84.76124422644939
 20
-119.4011666368164
 30
0.0
  0
SEQEND
  5
B9
330
B6
100
AcDbEntity
  8
_U+30EC_U+30A4_U+30E4_U+30FC 1
 62
     7
420
 16777215
370
     9
  0
POLYLINE
  5
BA
330
1F
100
AcDbEntity
  8
_U+30EC_U+30A4_U+30E4_U+30FC 1
 62
     7
420
 16777215
370
     9
100
AcDb2dPolyline
 66
     1
 10
0.0
 20
0.0
 30
0.0
  0
VERTEX
  5
BB
330
BA
100
AcDbEntity
  8
_U+30EC_U+30A4_U+30E4_U+30FC 1
 62
     7
420
 16777215
370
     9
100
AcDbVertex
100
AcDb2dVertex
 10
89.77471020965633
 20
-116.9410002485427
 30
0.0
  0
VERTEX
  5
BC
330
BA
100
AcDbEntity
  8
_U+30EC_U+30A4_U+30E4_U+30FC 1
 62
     7
420
 16777215
370
     9
100
AcDbVertex
100
AcDb2dVertex
 10
89.77471020965633
 20
-119.4011666368164
 30
0.0
  0
SEQEND
  5
BD
330
BA
100
AcDbEntity
  8
_U+30EC_U+30A4_U+30E4_U+30FC 1
 62
     7
420
 16777215
370
     9
  0
INSERT
  5
BF
330
1F
100
AcDbEntity
  8
_U+30EC_U+30A4_U+30E4_U+30FC 1
100
AcDbBlockReference
  2
block 6
 10
0.0
 20
0.0
 30
0.0
  0
SPLINE
  5
C4
330
1F
100
AcDbEntity
  8
_U+30EC_U+30A4_U+30E4_U+30FC 1
 62
     7
420
 16777215
370
     9
100
AcDbSpline
210
0.0
220
0.0
230
1.0
 70
    11
 71
     3
 72
    17
 73
    13
 74
     0
 42
0.0000000001
 43
0.0000000001
 12
1.0
 22
0.0
 32
0.0
 13
1.0
 23
0.0
 33
0.0
 40
0.0
 40
0.0
 40
0.0
 40
0.0
 40
1.0
 40
1.0
 40
1.0
 40
2.0
 40
2.0
 40
2.0
 40
3.0
 40
3.0
 40
3.0
 40
4.0
 40
4.0
 40
4.0
 40
4.0
 10
74.86932220350492
 20
-140.1226982983029
 30
0.0
 10
74.86932220350492
 20
-140.0675944094274
 30
0.0
 10
74.82455281328885
 20
-140.0227916316613
 30
0.0
 10
74.7694136480289
 20
-140.0227916316613
 30
0.0
 10
74.71430976054583
 20
-140.0227916316613
 30
0.0
 10
74.66950698391106
 20
-140.0675944094274
 30
0.0
 10
74.66950698391106
 20
-140.1226982983029
 30
0.0
 10
74.66950698391106
 20
-140.1785077427334
 30
0.0
 10
74.71430976054583
 20
-140.2233105204994
 30
0.0
 10
74.7694136480289
 20
-140.2233105204994
 30
0.0
 10
74.82455281328885
 20
-140.2233105204994
 30
0.0
 10
74.86932220350492
 20
-140.1785077427334
 30
0.0
 10
74.86932220350492
 20
-140.1226982983029
 30
0.0
  0
POLYLINE
  5
C5
330
1F
100
AcDbEntity
  8
_U+30EC_U+30A4_U+30E4_U+30FC 1
 62
     7
420
 16777215
370
     9
100
AcDb2dPolyline
 66
     1
 10
0.0
 20
0.0
 30
0.0
  0
VERTEX
  5
C6
330
C5
100
AcDbEntity
  8
_U+30EC_U+30A4_U+30E4_U+30FC 1
 62
     7
420
 16777215
370
     9
100
AcDbVertex
100
AcDb2dVertex
 10
74.7694136480289
 20
-140.1226982983029
 30
0.0
  0
VERTEX
  5
C7
330
C5
100
AcDbEntity
  8
_U+30EC_U+30A4_U+30E4_U+30FC 1
 62
     7
420
 16777215
370
     9
100
AcDbVertex
100
AcDb2dVertex
 10
99.84852634154076
 20
-140.1226982983029
 30
0.0
  0
SEQEND
  5
C8
330
C5
100
AcDbEntity
  8
_U+30EC_U+30A4_U+30E4_U+30FC 1
 62
     7
420
 16777215
370
     9
  0
POLYLINE
  5
C9
330
1F
100
AcDbEntity
  8
_U+30EC_U+30A4_U+30E4_U+30FC 1
 62
     7
420
 16777215
370
     9
100
AcDb2dPolyline
 66
     1
 10
0.0
 20
0.0
 30
0.0
  0
VERTEX
  5
CA
330
C9
100
AcDbEntity
  8
_U+30EC_U+30A4_U+30E4_U+30FC 1
 62
     7
420
 16777215
370
     9
100
AcDbVertex
100
AcDb2dVertex
 10
74.7694136480289
 20
-138.6626921875567
 30
0.0
  0
VERTEX
  5
CB
330
C9
100
AcDbEntity
  8
_U+30EC_U+30A4_U+30E4_U+30FC 1
 62
     7
420
 16777215
370
     9
100
AcDbVertex
100
AcDb2dVertex
 10
74.7694136480289
 20
-141.1231760758303
 30
0.0
  0
SEQEND
  5
CC
330
C9
100
AcDbEntity
  8
_U+30EC_U+30A4_U+30E4_U+30FC 1
 62
     7
420
 16777215
370
     9
  0
POLYLINE
  5
CD
330
1F
100
AcDbEntity
  8
_U+30EC_U+30A4_U+30E4_U+30FC 1
 62
     7
420
 16777215
370
     9
100
AcDb2dPolyline
 66
     1
 10
0.0
 20
0.0
 30
0.0
  0
VERTEX
  5
CE
330
CD
100
AcDbEntity
  8
_U+30EC_U+30A4_U+30E4_U+30FC 1
 62
     7
420
 16777215
370
     9
100
AcDbVertex
100
AcDb2dVertex
 10
99.74791664172969
 20
-138.6626921875567
 30
0.0
  0
VERTEX
  5
CF
330
CD
100
AcDbEntity
  8
_U+30EC_U+30A4_U+30E4_U+30FC 1
 62
     7
420
 16777215
370
     9
100
AcDbVertex
100
AcDb2dVertex
 10
99.74791664172969
 20
-141.1231760758303
 30
0.0
  0
SEQEND
  5
D0
330
CD
100
AcDbEntity
  8
_U+30EC_U+30A4_U+30E4_U+30FC 1
 62
     7
420
 16777215
370
     9
  0
INSERT
  5
D2
330
1F
100
AcDbEntity
  8
_U+30EC_U+30A4_U+30E4_U+30FC 1
100
AcDbBlockReference
  2
block 7
 10
0.0
 20
0.0
 30
0.0
  0
POLYLINE
  5
D9
330
1F
100
AcDbEntity
  8
_U+30EC_U+30A4_U+30E4_U+30FC 1
 62
     7
420
 16777215
370
    25
100
AcDb2dPolyline
 66
     1
 10
0.0
 20
0.0
 30
0.0
  0
VERTEX
  5
DA
330
D9
100
AcDbEntity
  8
_U+30EC_U+30A4_U+30E4_U+30FC 1
 62
     7
420
 16777215
370
    25
100
AcDbVertex
100
AcDb2dVertex
 10
86.77574639727739
 20
-135.8545810771473
 30
0.0
  0
VERTEX
  5
DB
330
D9
100
AcDbEntity
  8
_U+30EC_U+30A4_U+30E4_U+30FC 1
 62
     7
420
 16777215
370
    25
100
AcDbVertex
100
AcDb2dVertex
 10
86.77574639727739
 20
-123.3533713580505
 30
0.0
  0
VERTEX
  5
DC
330
D9
100
AcDbEntity
  8
_U+30EC_U+30A4_U+30E4_U+30FC 1
 62
     7
420
 16777215
370
    25
100
AcDbVertex
100
AcDb2dVertex
 10
84.77588450385366
 20
-123.3533713580505
 30
0.0
  0
VERTEX
  5
DD
330
D9
100
AcDbEntity
  8
_U+30EC_U+30A4_U+30E4_U+30FC 1
 62
     7
420
 16777215
370
    25
100
AcDbVertex
100
AcDb2dVertex
 10
84.77588450385366
 20
-120.3533844143561
 30
0.0
  0
VERTEX
  5
DE
330
D9
100
AcDbEntity
  8
_U+30EC_U+30A4_U+30E4_U+30FC 1
 62
     7
420
 16777215
370
    25
100
AcDbVertex
100
AcDb2dVertex
 10
89.77538048741701
 20
-120.3533844143561
 30
0.0
  0
VERTEX
  5
DF
330
D9
100
AcDbEntity
  8
_U+30EC_U+30A4_U+30E4_U+30FC 1
 62
     7
420
 16777215
370
    25
100
AcDbVertex
100
AcDb2dVertex
 10
89.77538048741701
 20
-123.3533713580505
 30
0.0
  0
VERTEX
  5
E0
330
D9
100
AcDbEntity
  8
_U+30EC_U+30A4_U+30E4_U+30FC 1
 62
     7
420
 16777215
370
    25
100
AcDbVertex
100
AcDb2dVertex
 10
87.7755185939933
 20
-123.3533713580505
 30
0.0
  0
VERTEX
  5
E1
330
D9
100
AcDbEntity
  8
_U+30EC_U+30A4_U+30E4_U+30FC 1
 62
     7
420
 16777215
370
    25
100
AcDbVertex
100
AcDb2dVertex
 10
87.77569720027834
 20
-123.3533713580505
 30
0.0
  0
VERTEX
  5
E2
330
D9
100
AcDbEntity
  8
_U+30EC_U+30A4_U+30E4_U+30FC 1
 62
     7
420
 16777215
370
    25
100
AcDbVertex
100
AcDb2dVertex
 10
87.77569720027834
 20
-135.8545810771473
 30
0.0
  0
VERTEX
  5
E3
330
D9
100
AcDbEntity
  8
_U+30EC_U+30A4_U+30E4_U+30FC 1
 62
     7
420
 16777215
370
    25
100
AcDbVertex
100
AcDb2dVertex
 10
87.7755185939933
 20
-135.8545810771473
 30
0.0
  0
VERTEX
  5
E4
330
D9
100
AcDbEntity
  8
_U+30EC_U+30A4_U+30E4_U+30FC 1
 62
     7
420
 16777215
370
    25
100
AcDbVertex
100
AcDb2dVertex
 10
99.70932023398109
 20
-135.8545810771473
 30
0.0
  0
VERTEX
  5
E5
330
D9
100
AcDbEntity
  8
_U+30EC_U+30A4_U+30E4_U+30FC 1
 62
     7
420
 16777215
370
    25
100
AcDbVertex
100
AcDb2dVertex
 10
99.70932023398109
 20
-136.8547060768976
 30
0.0
  0
VERTEX
  5
E6
330
D9
100
AcDbEntity
  8
_U+30EC_U+30A4_U+30E4_U+30FC 1
 62
     7
420
 16777215
370
    25
100
AcDbVertex
100
AcDb2dVertex
 10
74.77597531452815
 20
-136.8547060768976
 30
0.0
  0
VERTEX
  5
E7
330
D9
100
AcDbEntity
  8
_U+30EC_U+30A4_U+30E4_U+30FC 1
 62
     7
420
 16777215
370
    25
100
AcDbVertex
100
AcDb2dVertex
 10
74.77597531452815
 20
-135.8545810771473
 30
0.0
  0
VERTEX
  5
E8
330
D9
100
AcDbEntity
  8
_U+30EC_U+30A4_U+30E4_U+30FC 1
 62
     7
420
 16777215
370
    25
100
AcDbVertex
100
AcDb2dVertex
 10
86.77574639727739
 20
-135.8545810771473
 30
0.0
  0
SEQEND
  5
E9
330
D9
100
AcDbEntity
  8
_U+30EC_U+30A4_U+30E4_U+30FC 1
 62
     7
420
 16777215
370
    25
  0
ENDSEC
  0
SECTION
  2
OBJECTS
  0
DICTIONARY
  5
C
330
0
100
AcDbDictionary
281
     1
  3
ACAD_GROUP
350
D
  3
ACAD_LAYOUT
350
1A
  3
ACAD_MATERIAL
350
3B
  3
ACAD_MLEADERSTYLE
350
EB
  3
ACAD_MLINESTYLE
350
17
  3
ACAD_PLOTSETTINGS
350
19
  3
ACAD_PLOTSTYLENAME
350
E
  3
ACAD_TABLESTYLE
350
EA
  3
ACAD_VISUALSTYLE
350
2A
  0
SUN
  5
3F
330
29
100
AcDbSun
 90
        1
290
     0
 63
     7
421
 16777215
 40
1.0
291
     1
 91
  2455826
 92
 54000000
292
     0
 70
     2
 71
   256
280
     1
  0
DICTIONARY
  5
D
102
{ACAD_REACTORS
330
C
102
}
330
C
100
AcDbDictionary
281
     1
  0
DICTIONARY
  5
1A
102
{ACAD_REACTORS
330
C
102
}
330
C
100
AcDbDictionary
281
     1
  3
Layout1
350
1E
  3
Layout2
350
26
  3
Model
350
22
  0
DICTIONARY
  5
3B
102
{ACAD_REACTORS
330
C
102
}
330
C
100
AcDbDictionary
281
     1
  3
ByBlock
350
3D
  3
ByLayer
350
3C
  3
Global
350
3E
  0
DICTIONARY
  5
EB
102
{ACAD_REACTORS
330
C
102
}
330
C
100
AcDbDictionary
281
     1
  0
DICTIONARY
  5
17
102
{ACAD_REACTORS
330
C
102
}
330
C
100
AcDbDictionary
281
     1
  3
Standard
350
18
  0
DICTIONARY
  5
19
102
{ACAD_REACTORS
330
C
102
}
330
C
100
AcDbDictionary
281
     1
  0
ACDBDICTIONARYWDFLT
  5
E
102
{ACAD_REACTORS
330
C
102
}
330
C
100
AcDbDictionary
281
     1
  3
Normal
350
F
100
AcDbDictionaryWithDefault
340
F
  0
DICTIONARY
  5
EA
102
{ACAD_REACTORS
330
C
102
}
330
C
100
AcDbDictionary
281
     1
  0
DICTIONARY
  5
2A
102
{ACAD_REACTORS
330
C
102
}
330
C
100
AcDbDictionary
281
     1
  3
2dWireframe
350
2F
  3
3D Hidden
350
31
  3
3dWireframe
350
30
  3
Basic
350
32
  3
Brighten
350
36
  3
ColorChange
350
3A
  3
Conceptual
350
34
  3
Dim
350
35
  3
Facepattern
350
39
  3
Flat
350
2B
  3
FlatWithEdges
350
2C
  3
Gouraud
350
2D
  3
GouraudWithEdges
350
2E
  3
Linepattern
350
38
  3
Realistic
350
33
  3
Thicken
350
37
  0
LAYOUT
  5
1E
102
{ACAD_REACTORS
330
1A
102
}
330
1A
100
AcDbPlotSettings
  1

  2
none_device
  4

  6

 40
0.0
 41
0.0
 42
0.0
 43
0.0
 44
0.0
 45
0.0
 46
0.0
 47
0.0
 48
0.0
 49
0.0
140
0.0
141
0.0
142
1.0
143
1.0
 70
   688
 72
     0
 73
     0
 74
     5
  7

 75
    16
 76
     0
 77
     2
 78
   300
147
1.0
148
0.0
149
0.0
100
AcDbLayout
  1
Layout1
 70
     1
 71
     1
 10
0.0
 20
0.0
 11
12.0
 21
9.0
 12
0.0
 22
0.0
 32
0.0
 14
1.000000000000000E+20
 24
1.000000000000000E+20
 34
1.000000000000000E+20
 15
-1.000000000000000E+20
 25
-1.000000000000000E+20
 35
-1.000000000000000E+20
146
0.0
 13
0.0
 23
0.0
 33
0.0
 16
1.0
 26
0.0
 36
0.0
 17
0.0
 27
1.0
 37
0.0
 76
     0
330
1B
  0
LAYOUT
  5
26
102
{ACAD_REACTORS
330
1A
102
}
330
1A
100
AcDbPlotSettings
  1

  2
none_device
  4

  6

 40
0.0
 41
0.0
 42
0.0
 43
0.0
 44
0.0
 45
0.0
 46
0.0
 47
0.0
 48
0.0
 49
0.0
140
0.0
141
0.0
142
1.0
143
1.0
 70
   688
 72
     0
 73
     0
 74
     5
  7

 75
    16
 76
     0
 77
     2
 78
   300
147
1.0
148
0.0
149
0.0
100
AcDbLayout
  1
Layout2
 70
     1
 71
     2
 10
0.0
 20
0.0
 11
0.0
 21
0.0
 12
0.0
 22
0.0
 32
0.0
 14
0.0
 24
0.0
 34
0.0
 15
0.0
 25
0.0
 35
0.0
146
0.0
 13
0.0
 23
0.0
 33
0.0
 16
1.0
 26
0.0
 36
0.0
 17
0.0
 27
1.0
 37
0.0
 76
     0
330
23
  0
LAYOUT
  5
22
102
{ACAD_REACTORS
330
1A
102
}
330
1A
100
AcDbPlotSettings
  1

  2
none_device
  4

  6

 40
0.0
 41
0.0
 42
0.0
 43
0.0
 44
0.0
 45
0.0
 46
0.0
 47
0.0
 48
0.0
 49
0.0
140
0.0
141
0.0
142
1.0
143
1.0
 70
  1712
 72
     0
 73
     0
 74
     0
  7

 75
     0
 76
     0
 77
     2
 78
   300
147
1.0
148
0.0
149
0.0
100
AcDbLayout
  1
Model
 70
     1
 71
     0
 10
0.0
 20
0.0
 11
12.0
 21
9.0
 12
0.0
 22
0.0
 32
0.0
 14
1.000000000000000E+20
 24
1.000000000000000E+20
 34
1.000000000000000E+20
 15
-1.000000000000000E+20
 25
-1.000000000000000E+20
 35
-1.000000000000000E+20
146
0.0
 13
0.0
 23
0.0
 33
0.0
 16
1.0
 26
0.0
 36
0.0
 17
0.0
 27
1.0
 37
0.0
 76
     0
330
1F
331
29
  0
MATERIAL
  5
3D
102
{ACAD_REACTORS
330
3B
102
}
330
3B
100
AcDbMaterial
  1
ByBlock
 72
     1
 94
      127
  0
MATERIAL
  5
3C
102
{ACAD_REACTORS
330
3B
102
}
330
3B
100
AcDbMaterial
  1
ByLayer
 72
     1
 94
      127
  0
MATERIAL
  5
3E
102
{ACAD_REACTORS
330
3B
102
}
330
3B
100
AcDbMaterial
  1
Global
 72
     1
 94
      127
  0
MLINESTYLE
  5
18
102
{ACAD_REACTORS
330
17
102
}
330
17
100
AcDbMlineStyle
  2
Standard
 70
     0
  3

 62
   256
 51
90.0
 52
90.0
 71
     2
 49
0.5
 62
   256
  6
BYLAYER
 49
-0.5
 62
   256
  6
BYLAYER
  0
ACDBPLACEHOLDER
  5
F
102
{ACAD_REACTORS
330
E
102
}
330
E
  0
VISUALSTYLE
  5
2F
102
{ACAD_REACTORS
330
2A
102
}
330
2A
100
AcDbVisualStyle
  2
2dWireframe
 70
     4
177
     2
291
     0
 71
     0
176
     1
 72
     2
176
     1
 73
     0
176
     1
 90
        0
176
     1
 40
-0.6
176
     1
 41
-30.0
176
     1
 62
     5
 63
     7
421
 16777215
176
     1
 74
     1
176
     1
 91
        4
176
     1
 64
     7
176
     1
 65
   257
176
     1
 75
     1
176
     1
175
     1
176
     1
 42
1.0
176
     1
 92
        0
176
     1
 66
   257
176
     1
 43
1.0
176
     1
 76
     1
176
     1
 77
     6
176
     1
 78
     2
176
     1
 67
     7
176
     1
 79
     5
176
     1
170
     0
176
     1
171
     0
176
     1
290
     0
176
     1
 93
        1
176
     1
 44
0.0
176
     1
173
     0
176
     1
  0
VISUALSTYLE
  5
31
102
{ACAD_REACTORS
330
2A
102
}
330
2A
100
AcDbVisualStyle
  2
3D Hidden
 70
     6
177
     2
291
     0
 71
     1
176
     1
 72
     2
176
     1
 73
     2
176
     1
 90
        0
176
     1
 40
-0.6
176
     1
 41
-30.0
176
     1
 62
     5
 63
     7
421
 16777215
176
     1
 74
     2
176
     1
 91
        2
176
     1
 64
     7
176
     1
 65
   257
176
     1
 75
     2
176
     1
175
     1
176
     1
 42
40.0
176
     1
 92
        0
176
     1
 66
   257
176
     1
 43
1.0
176
     1
 76
     1
176
     1
 77
     6
176
     1
 78
     2
176
     1
 67
     7
176
     1
 79
     3
176
     1
170
     0
176
     1
171
     0
176
     1
290
     0
176
     1
 93
        1
176
     1
 44
0.0
176
     1
173
     0
176
     1
  0
VISUALSTYLE
  5
30
102
{ACAD_REACTORS
330
2A
102
}
330
2A
100
AcDbVisualStyle
  2
3dWireframe
 70
     5
177
     2
291
     0
 71
     0
176
     1
 72
     2
176
     1
 73
     0
176
     1
 90
        0
176
     1
 40
-0.6
176
     1
 41
-30.0
176
     1
 62
     5
 63
     7
421
 16777215
176
     1
 74
     1
176
     1
 91
        4
176
     1
 64
     7
176
     1
 65
   257
176
     1
 75
     1
176
     1
175
     1
176
     1
 42
1.0
176
     1
 92
        0
176
     1
 66
   257
176
     1
 43
1.0
176
     1
 76
     1
176
     1
 77
     6
176
     1
 78
     2
176
     1
 67
     7
176
     1
 79
     5
176
     1
170
     0
176
     1
171
     0
176
     1
290
     0
176
     1
 93
        1
176
     1
 44
0.0
176
     1
173
     0
176
     1
  0
VISUALSTYLE
  5
32
102
{ACAD_REACTORS
330
2A
102
}
330
2A
100
AcDbVisualStyle
  2
Basic
 70
     7
177
     2
291
     1
 71
     1
176
     1
 72
     0
176
     1
 73
     1
176
     1
 90
        0
176
     1
 40
-0.6
176
     1
 41
-30.0
176
     1
 62
     5
 63
     7
421
 16777215
176
     1
 74
     0
176
     1
 91
        4
176
     1
 64
     7
176
     1
 65
   257
176
     1
 75
     1
176
     1
175
     1
176
     1
 42
1.0
176
     1
 92
        8
176
     1
 66
     7
176
     1
 43
1.0
176
     1
 76
     1
176
     1
 77
     6
176
     1
 78
     2
176
     1
 67
     7
176
     1
 79
     5
176
     1
170
     0
176
     1
171
     0
176
     1
290
     0
176
     1
 93
        1
176
     1
 44
0.0
176
     1
173
     0
176
     1
  0
VISUALSTYLE
  5
36
102
{ACAD_REACTORS
330
2A
102
}
330
2A
100
AcDbVisualStyle
  2
Brighten
 70
    12
177
     2
291
     1
 71
     2
176
     1
 72
     2
176
     1
 73
     0
176
     1
 90
        0
176
     1
 40
-0.6
176
     1
 41
-30.0
176
     1
 62
     5
 63
     7
421
 16777215
176
     1
 74
     1
176
     1
 91
        4
176
     1
 64
     7
176
     1
 65
   257
176
     1
 75
     1
176
     1
175
     1
176
     1
 42
1.0
176
     1
 92
        8
176
     1
 66
     7
176
     1
 43
1.0
176
     1
 76
     1
176
     1
 77
     6
176
     1
 78
     2
176
     1
 67
     7
176
     1
 79
     5
176
     1
170
     0
176
     1
171
     0
176
     1
290
     0
176
     1
 93
        1
176
     1
 44
50.0
176
     1
173
     0
176
     1
  0
VISUALSTYLE
  5
3A
102
{ACAD_REACTORS
330
2A
102
}
330
2A
100
AcDbVisualStyle
  2
ColorChange
 70
    16
177
     2
291
     1
 71
     2
176
     1
 72
     2
176
     1
 73
     3
176
     1
 90
        0
176
     1
 40
-0.6
176
     1
 41
-30.0
176
     1
 62
     5
 63
     8
421
  8421504
176
     1
 74
     1
176
     1
 91
        4
176
     1
 64
     7
176
     1
 65
   257
176
     1
 75
     1
176
     1
175
     1
176
     1
 42
1.0
176
     1
 92
        8
176
     1
 66
     8
424
  8421504
176
     1
 43
1.0
176
     1
 76
     1
176
     1
 77
     6
176
     1
 78
     2
176
     1
 67
     7
176
     1
 79
     5
176
     1
170
     0
176
     1
171
     0
176
     1
290
     0
176
     1
 93
        1
176
     1
 44
0.0
176
     1
173
     0
176
     1
  0
VISUALSTYLE
  5
34
102
{ACAD_REACTORS
330
2A
102
}
330
2A
100
AcDbVisualStyle
  2
Conceptual
 70
     9
177
     2
291
     0
 71
     3
176
     1
 72
     2
176
     1
 73
     0
176
     1
 90
        0
176
     1
 40
-0.6
176
     1
 41
-30.0
176
     1
 62
     5
 63
     7
421
 16777215
176
     1
 74
     2
176
     1
 91
        2
176
     1
 64
     7
176
     1
 65
   257
176
     1
 75
     1
176
     1
175
     1
176
     1
 42
40.0
176
     1
 92
        8
176
     1
 66
     7
176
     1
 43
1.0
176
     1
 76
     1
176
     1
 77
     6
176
     1
 78
     2
176
     1
 67
     7
176
     1
 79
     3
176
     1
170
     0
176
     1
171
     0
176
     1
290
     0
176
     1
 93
        1
176
     1
 44
0.0
176
     1
173
     0
176
     1
  0
VISUALSTYLE
  5
35
102
{ACAD_REACTORS
330
2A
102
}
330
2A
100
AcDbVisualStyle
  2
Dim
 70
    11
177
     2
291
     1
 71
     2
176
     1
 72
     2
176
     1
 73
     0
176
     1
 90
        0
176
     1
 40
-0.6
176
     1
 41
-30.0
176
     1
 62
     5
 63
     7
421
 16777215
176
     1
 74
     1
176
     1
 91
        4
176
     1
 64
     7
176
     1
 65
   257
176
     1
 75
     1
176
     1
175
     1
176
     1
 42
1.0
176
     1
 92
        8
176
     1
 66
     7
176
     1
 43
1.0
176
     1
 76
     1
176
     1
 77
     6
176
     1
 78
     2
176
     1
 67
     7
176
     1
 79
     5
176
     1
170
     0
176
     1
171
     0
176
     1
290
     0
176
     1
 93
        1
176
     1
 44
-50.0
176
     1
173
     0
176
     1
  0
VISUALSTYLE
  5
39
102
{ACAD_REACTORS
330
2A
102
}
330
2A
100
AcDbVisualStyle
  2
Facepattern
 70
    15
177
     2
291
     1
 71
     2
176
     1
 72
     2
176
     1
 73
     0
176
     1
 90
        0
176
     1
 40
-0.6
176
     1
 41
-30.0
176
     1
 62
     5
 63
     7
421
 16777215
176
     1
 74
     1
176
     1
 91
        4
176
     1
 64
     7
176
     1
 65
   257
176
     1
 75
     1
176
     1
175
     1
176
     1
 42
1.0
176
     1
 92
        8
176
     1
 66
     7
176
     1
 43
1.0
176
     1
 76
     1
176
     1
 77
     6
176
     1
 78
     2
176
     1
 67
     7
176
     1
 79
     5
176
     1
170
     0
176
     1
171
     0
176
     1
290
     0
176
     1
 93
        1
176
     1
 44
0.0
176
     1
173
     0
176
     1
  0
VISUALSTYLE
  5
2B
102
{ACAD_REACTORS
330
2A
102
}
330
2A
100
AcDbVisualStyle
  2
Flat
 70
     0
177
     2
291
     1
 71
     2
176
     1
 72
     1
176
     1
 73
     1
176
     1
 90
        2
176
     1
 40
-0.6
176
     1
 41
30.0
176
     1
 62
     5
 63
     7
421
 16777215
176
     1
 74
     0
176
     1
 91
        4
176
     1
 64
     7
176
     1
 65
   257
176
     1
 75
     1
176
     1
175
     1
176
     1
 42
1.0
176
     1
 92
        8
176
     1
 66
     7
176
     1
 43
1.0
176
     1
 76
     1
176
     1
 77
     6
176
     1
 78
     2
176
     1
 67
     7
176
     1
 79
     5
176
     1
170
     0
176
     1
171
     0
176
     1
290
     0
176
     1
 93
       13
176
     1
 44
0.0
176
     1
173
     0
176
     1
  0
VISUALSTYLE
  5
2C
102
{ACAD_REACTORS
330
2A
102
}
330
2A
100
AcDbVisualStyle
  2
FlatWithEdges
 70
     1
177
     2
291
     1
 71
     2
176
     1
 72
     1
176
     1
 73
     1
176
     1
 90
        2
176
     1
 40
-0.6
176
     1
 41
30.0
176
     1
 62
     5
 63
     7
421
 16777215
176
     1
 74
     1
176
     1
 91
        4
176
     1
 64
     7
176
     1
 65
   257
176
     1
 75
     1
176
     1
175
     1
176
     1
 42
1.0
176
     1
 92
        0
176
     1
 66
   257
176
     1
 43
1.0
176
     1
 76
     1
176
     1
 77
     6
176
     1
 78
     2
176
     1
 67
     7
176
     1
 79
     5
176
     1
170
     0
176
     1
171
     0
176
     1
290
     0
176
     1
 93
       13
176
     1
 44
0.0
176
     1
173
     0
176
     1
  0
VISUALSTYLE
  5
2D
102
{ACAD_REACTORS
330
2A
102
}
330
2A
100
AcDbVisualStyle
  2
Gouraud
 70
     2
177
     2
291
     1
 71
     2
176
     1
 72
     2
176
     1
 73
     1
176
     1
 90
        2
176
     1
 40
-0.6
176
     1
 41
30.0
176
     1
 62
     5
 63
     7
421
 16777215
176
     1
 74
     0
176
     1
 91
        4
176
     1
 64
     7
176
     1
 65
   257
176
     1
 75
     1
176
     1
175
     1
176
     1
 42
1.0
176
     1
 92
        0
176
     1
 66
     7
176
     1
 43
1.0
176
     1
 76
     1
176
     1
 77
     6
176
     1
 78
     2
176
     1
 67
     7
176
     1
 79
     5
176
     1
170
     0
176
     1
171
     0
176
     1
290
     0
176
     1
 93
       13
176
     1
 44
0.0
176
     1
173
     0
176
     1
  0
VISUALSTYLE
  5
2E
102
{ACAD_REACTORS
330
2A
102
}
330
2A
100
AcDbVisualStyle
  2
GouraudWithEdges
 70
     3
177
     2
291
     1
 71
     2
176
     1
 72
     2
176
     1
 73
     1
176
     1
 90
        2
176
     1
 40
-0.6
176
     1
 41
30.0
176
     1
 62
     5
 63
     7
421
 16777215
176
     1
 74
     1
176
     1
 91
        4
176
     1
 64
     7
176
     1
 65
   257
176
     1
 75
     1
176
     1
175
     1
176
     1
 42
1.0
176
     1
 92
        0
176
     1
 66
   257
176
     1
 43
1.0
176
     1
 76
     1
176
     1
 77
     6
176
     1
 78
     2
176
     1
 67
     7
176
     1
 79
     5
176
     1
170
     0
176
     1
171
     0
176
     1
290
     0
176
     1
 93
       13
176
     1
 44
0.0
176
     1
173
     0
176
     1
  0
VISUALSTYLE
  5
38
102
{ACAD_REACTORS
330
2A
102
}
330
2A
100
AcDbVisualStyle
  2
Linepattern
 70
    14
177
     2
291
     1
 71
     2
176
     1
 72
     2
176
     1
 73
     0
176
     1
 90
        0
176
     1
 40
-0.6
176
     1
 41
-30.0
176
     1
 62
     5
 63
     7
421
 16777215
176
     1
 74
     1
176
     1
 91
        4
176
     1
 64
     7
176
     1
 65
   257
176
     1
 75
     7
176
     1
175
     7
176
     1
 42
1.0
176
     1
 92
        8
176
     1
 66
     7
176
     1
 43
1.0
176
     1
 76
     1
176
     1
 77
     6
176
     1
 78
     2
176
     1
 67
     7
176
     1
 79
     5
176
     1
170
     0
176
     1
171
     0
176
     1
290
     0
176
     1
 93
        1
176
     1
 44
0.0
176
     1
173
     0
176
     1
  0
VISUALSTYLE
  5
33
102
{ACAD_REACTORS
330
2A
102
}
330
2A
100
AcDbVisualStyle
  2
Realistic
 70
     8
177
     2
291
     0
 71
     2
176
     1
 72
     2
176
     1
 73
     0
176
     1
 90
        0
176
     1
 40
-0.6
176
     1
 41
-30.0
176
     1
 62
     5
 63
     7
421
 16777215
176
     1
 74
     1
176
     1
 91
        0
176
     1
 64
     7
176
     1
 65
   257
176
     1
 75
     1
176
     1
175
     1
176
     1
 42
1.0
176
     1
 92
        8
176
     1
 66
     8
424
  7895160
176
     1
 43
1.0
176
     1
 76
     1
176
     1
 77
     6
176
     1
 78
     2
176
     1
 67
     7
176
     1
 79
     5
176
     1
170
     0
176
     1
171
     0
176
     1
290
     0
176
     1
 93
       13
176
     1
 44
0.0
176
     1
173
     0
176
     1
  0
VISUALSTYLE
  5
37
102
{ACAD_REACTORS
330
2A
102
}
330
2A
100
AcDbVisualStyle
  2
Thicken
 70
    13
177
     2
291
     1
 71
     2
176
     1
 72
     2
176
     1
 73
     0
176
     1
 90
        0
176
     1
 40
-0.6
176
     1
 41
-30.0
176
     1
 62
     5
 63
     7
421
 16777215
176
     1
 74
     1
176
     1
 91
        4
176
     1
 64
     7
176
     1
 65
   257
176
     1
 75
     1
176
     1
175
     1
176
     1
 42
1.0
176
     1
 92
       12
176
     1
 66
     7
176
     1
 43
1.0
176
     1
 76
     1
176
     1
 77
     6
176
     1
 78
     2
176
     1
 67
     7
176
     1
 79
     5
176
     1
170
     0
176
     1
171
     0
176
     1
290
     0
176
     1
 93
        1
176
     1
 44
0.0
176
     1
173
     0
176
     1
  0
ENDSEC
  0
EOF
