  0
SECTION
  2
HEADER
  9
$ACADVER
  1
AC1024
  9
$ACADMAINTVER
 70
     6
  9
$DWGCODEPAGE
  3
UNDEFINED
  9
$INSBASE
 10
0.0
 20
0.0
 30
0.0
  9
$EXTMIN
 10
1.000000000000000E+20
 20
1.000000000000000E+20
 30
1.000000000000000E+20
  9
$EXTMAX
 10
-1.000000000000000E+20
 20
-1.000000000000000E+20
 30
-1.000000000000000E+20
  9
$LIMMIN
 10
0.0
 20
0.0
  9
$LIMMAX
 10
12.0
 20
9.0
  9
$ORTHOMODE
 70
     0
  9
$REGENMODE
 70
     1
  9
$FILLMODE
 70
     1
  9
$QTEXTMODE
 70
     0
  9
$MIRRTEXT
 70
     1
  9
$LTSCALE
 40
1.0
  9
$ATTMODE
 70
     1
  9
$TEXTSIZE
 40
0.2
  9
$TRACEWID
 40
0.05
  9
$TEXTSTYLE
  7
Standard
  9
$CLAYER
  8
0
  9
$CELTYPE
  6
ByLayer
  9
$CECOLOR
 62
   256
  9
$CELTSCALE
 40
1.0
  9
$DISPSILH
 70
     0
  9
$DIMSCALE
 40
1.0
  9
$DIMASZ
 40
0.18
  9
$DIMEXO
 40
0.0625
  9
$DIMDLI
 40
0.38
  9
$DIMRND
 40
0.0
  9
$DIMDLE
 40
0.0
  9
$DIMEXE
 40
0.18
  9
$DIMTP
 40
0.0
  9
$DIMTM
 40
0.0
  9
$DIMTXT
 40
0.18
  9
$DIMCEN
 40
0.09
  9
$DIMTSZ
 40
0.0
  9
$DIMTOL
 70
     0
  9
$DIMLIM
 70
     0
  9
$DIMTIH
 70
     1
  9
$DIMTOH
 70
     1
  9
$DIMSE1
 70
     0
  9
$DIMSE2
 70
     0
  9
$DIMTAD
 70
     0
  9
$DIMZIN
 70
     0
  9
$DIMBLK
  1

  9
$DIMASO
 70
     1
  9
$DIMSHO
 70
     1
  9
$DIMPOST
  1

  9
$DIMAPOST
  1

  9
$DIMALT
 70
     0
  9
$DIMALTD
 70
     2
  9
$DIMALTF
 40
25.4
  9
$DIMLFAC
 40
1.0
  9
$DIMTOFL
 70
     0
  9
$DIMTVP
 40
0.0
  9
$DIMTIX
 70
     0
  9
$DIMSOXD
 70
     0
  9
$DIMSAH
 70
     0
  9
$DIMBLK1
  1

  9
$DIMBLK2
  1

  9
$DIMSTYLE
  2
Standard
  9
$DIMCLRD
 70
     0
  9
$DIMCLRE
 70
     0
  9
$DIMCLRT
 70
     0
  9
$DIMTFAC
 40
1.0
  9
$DIMGAP
 40
0.09
  9
$DIMJUST
 70
     0
  9
$DIMSD1
 70
     0
  9
$DIMSD2
 70
     0
  9
$DIMTOLJ
 70
     1
  9
$DIMTZIN
 70
     0
  9
$DIMALTZ
 70
     0
  9
$DIMALTTZ
 70
     0
  9
$DIMUPT
 70
     0
  9
$DIMDEC
 70
     4
  9
$DIMTDEC
 70
     4
  9
$DIMALTU
 70
     2
  9
$DIMALTTD
 70
     2
  9
$DIMTXSTY
  7
Standard
  9
$DIMAUNIT
 70
     0
  9
$DIMADEC
 70
     0
  9
$DIMALTRND
 40
0.0
  9
$DIMAZIN
 70
     0
  9
$DIMDSEP
 70
    46
  9
$DIMATFIT
 70
     3
  9
$DIMFRAC
 70
     0
  9
$DIMLDRBLK
  1

  9
$DIMLUNIT
 70
     2
  9
$DIMLWD
 70
    -2
  9
$DIMLWE
 70
    -2
  9
$DIMTMOVE
 70
     0
  9
$DIMFXL
 40
1.0
  9
$DIMFXLON
 70
     0
  9
$DIMJOGANG
 40
0.7853981633974483
  9
$DIMTFILL
 70
     0
  9
$DIMTFILLCLR
 70
     0
  9
$DIMARCSYM
 70
     0
  9
$DIMLTYPE
  6

  9
$DIMLTEX1
  6

  9
$DIMLTEX2
  6

  9
$DIMTXTDIRECTION
 70
     0
  9
$LUNITS
 70
     2
  9
$LUPREC
 70
     4
  9
$SKETCHINC
 40
0.1
  9
$FILLETRAD
 40
0.5
  9
$AUNITS
 70
     0
  9
$AUPREC
 70
     0
  9
$MENU
  1
.
  9
$ELEVATION
 40
0.0
  9
$PELEVATION
 40
0.0
  9
$THICKNESS
 40
0.0
  9
$LIMCHECK
 70
     0
  9
$CHAMFERA
 40
0.5
  9
$CHAMFERB
 40
0.5
  9
$CHAMFERC
 40
1.0
  9
$CHAMFERD
 40
0.0
  9
$SKPOLY
 70
     0
  9
$TDCREATE
 40
2457917.622905093
  9
$TDUCREATE
 40
2457917.247905093
  9
$TDUPDATE
 40
2457917.622905093
  9
$TDUUPDATE
 40
2457917.247905093
  9
$TDINDWG
 40
0.0000000116
  9
$TDUSRTIMER
 40
0.0000000116
  9
$USRTIMER
 70
     1
  9
$ANGBASE
 50
0.0
  9
$ANGDIR
 70
     0
  9
$PDMODE
 70
     0
  9
$PDSIZE
 40
0.0
  9
$PLINEWID
 40
0.0
  9
$SPLFRAME
 70
     0
  9
$SPLINETYPE
 70
     6
  9
$SPLINESEGS
 70
     8
  9
$HANDSEED
  5
EB
  9
$SURFTAB1
 70
     6
  9
$SURFTAB2
 70
     6
  9
$SURFTYPE
 70
     6
  9
$SURFU
 70
     6
  9
$SURFV
 70
     6
  9
$UCSBASE
  2

  9
$UCSNAME
  2

  9
$UCSORG
 10
0.0
 20
0.0
 30
0.0
  9
$UCSXDIR
 10
1.0
 20
0.0
 30
0.0
  9
$UCSYDIR
 10
0.0
 20
1.0
 30
0.0
  9
$UCSORTHOREF
  2

  9
$UCSORTHOVIEW
 70
     0
  9
$UCSORGTOP
 10
0.0
 20
0.0
 30
0.0
  9
$UCSORGBOTTOM
 10
0.0
 20
0.0
 30
0.0
  9
$UCSORGLEFT
 10
0.0
 20
0.0
 30
0.0
  9
$UCSORGRIGHT
 10
0.0
 20
0.0
 30
0.0
  9
$UCSORGFRONT
 10
0.0
 20
0.0
 30
0.0
  9
$UCSORGBACK
 10
0.0
 20
0.0
 30
0.0
  9
$PUCSBASE
  2

  9
$PUCSNAME
  2

  9
$PUCSORG
 10
0.0
 20
0.0
 30
0.0
  9
$PUCSXDIR
 10
1.0
 20
0.0
 30
0.0
  9
$PUCSYDIR
 10
0.0
 20
1.0
 30
0.0
  9
$PUCSORTHOREF
  2

  9
$PUCSORTHOVIEW
 70
     0
  9
$PUCSORGTOP
 10
0.0
 20
0.0
 30
0.0
  9
$PUCSORGBOTTOM
 10
0.0
 20
0.0
 30
0.0
  9
$PUCSORGLEFT
 10
0.0
 20
0.0
 30
0.0
  9
$PUCSORGRIGHT
 10
0.0
 20
0.0
 30
0.0
  9
$PUCSORGFRONT
 10
0.0
 20
0.0
 30
0.0
  9
$PUCSORGBACK
 10
0.0
 20
0.0
 30
0.0
  9
$USERI1
 70
     0
  9
$USERI2
 70
     0
  9
$USERI3
 70
     0
  9
$USERI4
 70
     0
  9
$USERI5
 70
     0
  9
$USERR1
 40
0.0
  9
$USERR2
 40
0.0
  9
$USERR3
 40
0.0
  9
$USERR4
 40
0.0
  9
$USERR5
 40
0.0
  9
$WORLDVIEW
 70
     1
  9
$SHADEDGE
 70
     3
  9
$SHADEDIF
 70
    70
  9
$TILEMODE
 70
     1
  9
$MAXACTVP
 70
    64
  9
$PINSBASE
 10
0.0
 20
0.0
 30
0.0
  9
$PLIMCHECK
 70
     0
  9
$PEXTMIN
 10
1.000000000000000E+20
 20
1.000000000000000E+20
 30
1.000000000000000E+20
  9
$PEXTMAX
 10
-1.000000000000000E+20
 20
-1.000000000000000E+20
 30
-1.000000000000000E+20
  9
$PLIMMIN
 10
0.0
 20
0.0
  9
$PLIMMAX
 10
12.0
 20
9.0
  9
$UNITMODE
 70
     0
  9
$VISRETAIN
 70
     1
  9
$PLINEGEN
 70
     0
  9
$PSLTSCALE
 70
     1
  9
$TREEDEPTH
 70
  3020
  9
$CMLSTYLE
  2
Standard
  9
$CMLJUST
 70
     0
  9
$CMLSCALE
 40
1.0
  9
$PROXYGRAPHICS
 70
     1
  9
$MEASUREMENT
 70
     0
  9
$CELWEIGHT
370
    -1
  9
$ENDCAPS
280
     0
  9
$JOINSTYLE
280
     0
  9
$LWDISPLAY
290
     1
  9
$INSUNITS
 70
     1
  9
$HYPERLINKBASE
  1

  9
$STYLESHEET
  1

  9
$XEDIT
290
     1
  9
$CEPSNTYPE
380
     0
  9
$PSTYLEMODE
290
     1
  9
$FINGERPRINTGUID
  2
{EE84AA07-AB88-2060-FC76-4B9F2F827C79}
  9
$VERSIONGUID
  2
{FAEB1C32-E019-11D5-929B-00C0DF256EC4}
  9
$EXTNAMES
290
     1
  9
$PSVPSCALE
 40
0.0
  9
$OLESTARTUP
290
     0
  9
$SORTENTS
280
   127
  9
$INDEXCTL
280
     0
  9
$HIDETEXT
280
     1
  9
$XCLIPFRAME
280
     2
  9
$HALOGAP
280
     0
  9
$OBSCOLOR
 70
   257
  9
$OBSLTYPE
280
     0
  9
$INTERSECTIONDISPLAY
280
     0
  9
$INTERSECTIONCOLOR
 70
   257
  9
$DIMASSOC
280
     2
  9
$PROJECTNAME
  1

  9
$CAMERADISPLAY
290
     0
  9
$LENSLENGTH
 40
50.0
  9
$CAMERAHEIGHT
 40
0.0
  9
$STEPSPERSEC
 40
2.0
  9
$STEPSIZE
 40
6.0
  9
$3DDWFPREC
 40
2.0
  9
$PSOLWIDTH
 40
0.25
  9
$PSOLHEIGHT
 40
4.0
  9
$LOFTANG1
 40
1.570796326794897
  9
$LOFTANG2
 40
1.570796326794897
  9
$LOFTMAG1
 40
0.0
  9
$LOFTMAG2
 40
0.0
  9
$LOFTPARAM
 70
     7
  9
$LOFTNORMALS
280
     1
  9
$LATITUDE
 40
37.795
  9
$LONGITUDE
 40
-122.394
  9
$NORTHDIRECTION
 40
0.0
  9
$TIMEZONE
 70
 -8000
  9
$LIGHTGLYPHDISPLAY
280
     1
  9
$TILEMODELIGHTSYNCH
280
     1
  9
$CMATERIAL
347
3C
  9
$SOLIDHIST
280
     1
  9
$SHOWHIST
280
     1
  9
$DWFFRAME
280
     2
  9
$DGNFRAME
280
     2
  9
$REALWORLDSCALE
290
     1
  9
$INTERFERECOLOR
 62
   256
  9
$CSHADOW
280
     0
  9
$SHADOWPLANELOCATION
 40
0.0
  0
ENDSEC
  0
SECTION
  2
CLASSES
  0
CLASS
  1
ACDBDICTIONARYWDFLT
  2
AcDbDictionaryWithDefault
  3
ObjectDBX Classes
 90
        0
 91
        4
280
     0
281
     0
  0
CLASS
  1
VISUALSTYLE
  2
AcDbVisualStyle
  3
ObjectDBX Classes
 90
     4095
 91
        4
280
     0
281
     0
  0
CLASS
  1
MATERIAL
  2
AcDbMaterial
  3
ObjectDBX Classes
 90
     1153
 91
        4
280
     0
281
     0
  0
CLASS
  1
SUN
  2
AcDbSun
  3
SCENEOE
 90
     1024
 91
        4
280
     0
281
     0
  0
ENDSEC
  0
SECTION
  2
TABLES
  0
TABLE
  2
VPORT
  5
8
330
0
100
AcDbSymbolTable
 70
     1
  0
VPORT
  5
29
330
8
100
AcDbSymbolTableRecord
100
AcDbViewportTableRecord
  2
*Active
 70
     0
 10
0.0
 20
0.0
 11
1.0
 21
1.0
 12
0.0
 22
0.0
 13
0.0
 23
0.0
 14
0.5
 24
0.5
 15
0.5
 25
0.5
 16
0.0
 26
0.0
 36
1.0
 17
91.00082462281999
 27
-128.4993055234307
 37
0.0
 40
256.9986110468615
 41
0.7081814508812795
 42
50.0
 43
0.0
 44
0.0
 50
0.0
 51
0.0
 71
     0
 72
   100
 73
     1
 74
     3
 75
     0
 76
     0
 77
     0
 78
     0
281
     0
 65
     1
110
0.0
120
0.0
130
0.0
111
1.0
121
0.0
131
0.0
112
0.0
122
1.0
132
0.0
 79
     0
146
0.0
 60
     3
 61
     5
292
     1
282
     1
141
0.0
142
0.0
 63
   250
361
3F
  0
ENDTAB
  0
TABLE
  2
LTYPE
  5
5
330
0
100
AcDbSymbolTable
 70
     1
  0
LTYPE
  5
14
330
5
100
AcDbSymbolTableRecord
100
AcDbLinetypeTableRecord
  2
ByBlock
 70
     0
  3

 72
    65
 73
     0
 40
0.0
  0
LTYPE
  5
15
330
5
100
AcDbSymbolTableRecord
100
AcDbLinetypeTableRecord
  2
ByLayer
 70
     0
  3

 72
    65
 73
     0
 40
0.0
  0
LTYPE
  5
16
330
5
100
AcDbSymbolTableRecord
100
AcDbLinetypeTableRecord
  2
Continuous
 70
     0
  3
Solid line
 72
    65
 73
     0
 40
0.0
  0
ENDTAB
  0
TABLE
  2
LAYER
  5
2
330
0
100
AcDbSymbolTable
 70
     2
  0
LAYER
  5
10
330
2
100
AcDbSymbolTableRecord
100
AcDbLayerTableRecord
  2
0
 70
     0
 62
     7
  6
Continuous
370
    -3
390
F
347
3E
  0
LAYER
  5
40
330
2
100
AcDbSymbolTableRecord
100
AcDbLayerTableRecord
  2
_U+30EC_U+30A4_U+30E4_U+30FC 1
 70
     0
 62
     7
  6
Continuous
370
    -3
390
F
347
3E
  0
ENDTAB
  0
TABLE
  2
STYLE
  5
3
330
0
100
AcDbSymbolTable
 70
     1
  0
STYLE
  5
11
330
3
100
AcDbSymbolTableRecord
100
AcDbTextStyleTableRecord
  2
Standard
 70
     0
 40
0.0
 41
1.0
 50
0.0
 71
     0
 42
0.2
  3
txt
  4

  0
ENDTAB
  0
TABLE
  2
VIEW
  5
6
330
0
100
AcDbSymbolTable
 70
     0
  0
ENDTAB
  0
TABLE
  2
UCS
  5
7
330
0
100
AcDbSymbolTable
 70
     0
  0
ENDTAB
  0
TABLE
  2
APPID
  5
9
330
0
100
AcDbSymbolTable
 70
     1
  0
APPID
  5
12
330
9
100
AcDbSymbolTableRecord
100
AcDbRegAppTableRecord
  2
ACAD
 70
     0
  0
ENDTAB
  0
TABLE
  2
DIMSTYLE
  5
A
330
0
100
AcDbSymbolTable
 70
     1
100
AcDbDimStyleTable
  0
DIMSTYLE
105
27
330
A
100
AcDbSymbolTableRecord
100
AcDbDimStyleTableRecord
  2
Standard
 70
     0
178
     0
340
11
  0
ENDTAB
  0
TABLE
  2
BLOCK_RECORD
  5
1
330
0
100
AcDbSymbolTable
 70
     7
  0
BLOCK_RECORD
  5
1F
330
1
100
AcDbSymbolTableRecord
100
AcDbBlockTableRecord
  2
*Model_Space
340
22
 70
     0
280
     1
281
     0
  0
BLOCK_RECORD
  5
1B
330
1
100
AcDbSymbolTableRecord
100
AcDbBlockTableRecord
  2
*Paper_Space
340
1E
 70
     0
280
     1
281
     0
  0
BLOCK_RECORD
  5
23
330
1
100
AcDbSymbolTableRecord
100
AcDbBlockTableRecord
  2
*Paper_Space0
340
26
 70
     0
280
     1
281
     0
  0
BLOCK_RECORD
  5
67
330
1
100
AcDbSymbolTableRecord
100
AcDbBlockTableRecord
  2
block 2
340
0
102
{BLKREFS
331
68
102
}
 70
     0
280
     1
281
     0
  0
BLOCK_RECORD
  5
76
330
1
100
AcDbSymbolTableRecord
100
AcDbBlockTableRecord
  2
block 3
340
0
102
{BLKREFS
331
77
102
}
 70
     0
280
     1
281
     0
  0
BLOCK_RECORD
  5
97
330
1
100
AcDbSymbolTableRecord
100
AcDbBlockTableRecord
  2
block 4
340
0
102
{BLKREFS
331
98
102
}
 70
     0
280
     1
281
     0
  0
BLOCK_RECORD
  5
9D
330
1
100
AcDbSymbolTableRecord
100
AcDbBlockTableRecord
  2
block 5
340
0
102
{BLKREFS
331
9E
102
}
 70
     0
280
     1
281
     0
  0
BLOCK_RECORD
  5
BD
330
1
100
AcDbSymbolTableRecord
100
AcDbBlockTableRecord
  2
block 6
340
0
102
{BLKREFS
331
BE
102
}
 70
     0
280
     1
281
     0
  0
BLOCK_RECORD
  5
D0
330
1
100
AcDbSymbolTableRecord
100
AcDbBlockTableRecord
  2
block 7
340
0
102
{BLKREFS
331
D1
102
}
 70
     0
280
     1
281
     0
  0
ENDTAB
  0
ENDSEC
  0
SECTION
  2
BLOCKS
  0
BLOCK
  5
20
330
1F
100
AcDbEntity
  8
0
100
AcDbBlockBegin
  2
*Model_Space
 70
     0
 10
0.0
 20
0.0
 30
0.0
  3
*Model_Space
  1

  0
ENDBLK
  5
21
330
1F
100
AcDbEntity
  8
0
100
AcDbBlockEnd
  0
BLOCK
  5
1C
330
1B
100
AcDbEntity
 67
     1
  8
0
100
AcDbBlockBegin
  2
*Paper_Space
 70
     0
 10
0.0
 20
0.0
 30
0.0
  3
*Paper_Space
  1

  0
ENDBLK
  5
1D
330
1B
100
AcDbEntity
 67
     1
  8
0
100
AcDbBlockEnd
  0
BLOCK
  5
24
330
23
100
AcDbEntity
  8
0
100
AcDbBlockBegin
  2
*Paper_Space0
 70
     0
 10
0.0
 20
0.0
 30
0.0
  3
*Paper_Space0
  1

  0
ENDBLK
  5
25
330
23
100
AcDbEntity
  8
0
100
AcDbBlockEnd
  0
BLOCK
  5
69
330
67
100
AcDbEntity
  8
0
100
AcDbBlockBegin
  2
block 2
 70
     0
 10
0.0
 20
0.0
 30
0.0
  3
block 2
  1

  0
SPLINE
  5
6B
330
67
100
AcDbEntity
  8
_U+30EC_U+30A4_U+30E4_U+30FC 1
370
     0
100
AcDbSpline
210
0.0
220
0.0
230
1.0
 70
    11
 71
     3
 72
    62
 73
    58
 74
     0
 42
0.0000000001
 43
0.0000000001
 12
1.0
 22
0.0
 32
0.0
 13
1.0
 23
0.0
 33
0.0
 40
0.0
 40
0.0
 40
0.0
 40
0.0
 40
1.0
 40
1.0
 40
1.0
 40
2.0
 40
2.0
 40
2.0
 40
3.0
 40
3.0
 40
3.0
 40
4.0
 40
4.0
 40
4.0
 40
5.0
 40
5.0
 40
5.0
 40
6.0
 40
6.0
 40
6.0
 40
7.0
 40
7.0
 40
7.0
 40
8.0
 40
8.0
 40
8.0
 40
9.0
 40
9.0
 40
9.0
 40
10.0
 40
10.0
 40
10.0
 40
11.0
 40
11.0
 40
11.0
 40
12.0
 40
12.0
 40
12.0
 40
13.0
 40
13.0
 40
13.0
 40
14.0
 40
14.0
 40
14.0
 40
15.0
 40
15.0
 40
15.0
 40
16.0
 40
16.0
 40
16.0
 40
17.0
 40
17.0
 40
17.0
 40
18.0
 40
18.0
 40
18.0
 40
19.0
 40
19.0
 40
19.0
 40
19.0
 10
101.9899847835303
 20
-123.3826497087377
 30
0.0
 10
101.9899847835303
 20
-123.4842800255526
 30
0.0
 10
101.9689697010703
 20
-123.7171684803554
 30
0.0
 10
101.7829345448668
 20
-123.8504936756346
 30
0.0
 10
101.6706244320476
 20
-123.9297308717954
 30
0.0
 10
101.5714056820724
 20
-123.9342094959262
 30
0.0
 10
101.4866563331353
 20
-123.938688120057
 30
0.0
 10
101.4866563331353
 20
-123.938688120057
 30
0.0
 10
101.4866563331353
 20
-123.703732607963
 30
0.0
 10
101.4866563331353
 20
-123.703732607963
 30
0.0
 10
101.5607258860682
 20
-123.7013210411233
 30
0.0
 10
101.7953368886137
 20
-123.689952226022
 30
0.0
 10
101.7953368886137
 20
-123.3871283328685
 30
0.0
 10
101.7953368886137
 20
-123.2400227556483
 30
0.0
 10
101.7257459598116
 20
-123.0774142487445
 30
0.0
 10
101.4973361291396
 20
-123.0774142487445
 30
0.0
 10
101.3808919017381
 20
-123.0774142487445
 30
0.0
 10
101.3323160553961
 20
-123.1180663754705
 30
0.0
 10
101.3006211769318
 20
-123.1518283112259
 30
0.0
 10
101.2265516239989
 20
-123.2310655073867
 30
0.0
 10
101.2138047707035
 20
-123.3554334544042
 30
0.0
 10
101.2138047707035
 20
-123.414344587202
 30
0.0
 10
101.2138047707035
 20
-123.434670650565
 30
0.0
 10
101.2158718279946
 20
-123.4729112104512
 30
0.0
 10
101.2200059425769
 20
-123.5025390316244
 30
0.0
 10
101.2200059425769
 20
-123.5025390316244
 30
0.0
 10
101.0253580476603
 20
-123.5025390316244
 30
0.0
 10
101.0253580476603
 20
-123.5025390316244
 30
0.0
 10
101.0319037290823
 20
-123.4618869048984
 30
0.0
 10
101.0339707863735
 20
-123.4164116444931
 30
0.0
 10
101.0339707863735
 20
-123.4098659630712
 30
0.0
 10
101.0339707863735
 20
-123.3395860151721
 30
0.0
 10
101.0126111943649
 20
-123.1270236237321
 30
0.0
 10
100.7759331345282
 20
-123.1270236237321
 30
0.0
 10
100.5981662074894
 20
-123.1270236237321
 30
0.0
 10
100.5430446797254
 20
-123.2672390099818
 30
0.0
 10
100.5430446797254
 20
-123.3847167660288
 30
0.0
 10
100.5430446797254
 20
-123.6675591053678
 30
0.0
 10
100.7759331345282
 20
-123.6765163536295
 30
0.0
 10
100.8475911206214
 20
-123.6809949777603
 30
0.0
 10
100.8475911206214
 20
-123.6809949777603
 30
0.0
 10
100.8475911206214
 20
-123.898035993331
 30
0.0
 10
100.8475911206214
 20
-123.898035993331
 30
0.0
 10
100.7228786640554
 20
-123.8890787450694
 30
0.0
 10
100.3463297275176
 20
-123.8597954334448
 30
0.0
 10
100.3463297275176
 20
-123.3712808936364
 30
0.0
 10
100.3463297275176
 20
-123.131502247863
 30
0.0
 10
100.4734537509233
 20
-122.8738091055663
 30
0.0
 10
100.7693874531063
 20
-122.8738091055663
 30
0.0
 10
100.9557671188583
 20
-122.8738091055663
 30
0.0
 10
101.0381049009558
 20
-122.9757839319297
 30
0.0
 10
101.0994276005932
 20
-123.0818928728754
 30
0.0
 10
101.1269883644752
 20
-123.0164360586556
 30
0.0
 10
101.2072590892815
 20
-122.821788163739
 30
0.0
 10
101.4845892758441
 20
-122.821788163739
 30
0.0
 10
101.8228976524957
 20
-122.821788163739
 30
0.0
 10
101.9899847835303
 20
-123.0863714970062
 30
0.0
 10
101.9899847835303
 20
-123.3826497087377
 30
0.0
  0
HATCH
  5
6C
330
67
100
AcDbEntity
  8
_U+30EC_U+30A4_U+30E4_U+30FC 1
 62
     7
420
 16777215
100
AcDbHatch
 10
0.0
 20
0.0
 30
0.0
210
0.0
220
0.0
230
1.0
  2
SOLID
 70
     1
 71
     0
 91
        1
 92
        1
 93
        1
 72
     4
 94
        3
 73
     0
 74
     1
 95
       62
 96
       58
 40
0.0
 40
0.0
 40
0.0
 40
0.0
 40
1.0
 40
1.0
 40
1.0
 40
2.0
 40
2.0
 40
2.0
 40
3.0
 40
3.0
 40
3.0
 40
4.0
 40
4.0
 40
4.0
 40
5.0
 40
5.0
 40
5.0
 40
6.0
 40
6.0
 40
6.0
 40
7.0
 40
7.0
 40
7.0
 40
8.0
 40
8.0
 40
8.0
 40
9.0
 40
9.0
 40
9.0
 40
10.0
 40
10.0
 40
10.0
 40
11.0
 40
11.0
 40
11.0
 40
12.0
 40
12.0
 40
12.0
 40
13.0
 40
13.0
 40
13.0
 40
14.0
 40
14.0
 40
14.0
 40
15.0
 40
15.0
 40
15.0
 40
16.0
 40
16.0
 40
16.0
 40
17.0
 40
17.0
 40
17.0
 40
18.0
 40
18.0
 40
18.0
 40
19.0
 40
19.0
 40
19.0
 40
19.0
 10
101.9899847835303
 20
-123.3826497087377
 10
101.9899847835303
 20
-123.4842800255526
 10
101.9689697010703
 20
-123.7171684803554
 10
101.7829345448668
 20
-123.8504936756346
 10
101.6706244320476
 20
-123.9297308717954
 10
101.5714056820724
 20
-123.9342094959262
 10
101.4866563331353
 20
-123.938688120057
 10
101.4866563331353
 20
-123.938688120057
 10
101.4866563331353
 20
-123.703732607963
 10
101.4866563331353
 20
-123.703732607963
 10
101.5607258860682
 20
-123.7013210411233
 10
101.7953368886137
 20
-123.689952226022
 10
101.7953368886137
 20
-123.3871283328685
 10
101.7953368886137
 20
-123.2400227556483
 10
101.7257459598116
 20
-123.0774142487445
 10
101.4973361291396
 20
-123.0774142487445
 10
101.3808919017381
 20
-123.0774142487445
 10
101.3323160553961
 20
-123.1180663754705
 10
101.3006211769318
 20
-123.1518283112259
 10
101.2265516239989
 20
-123.2310655073867
 10
101.2138047707035
 20
-123.3554334544042
 10
101.2138047707035
 20
-123.414344587202
 10
101.2138047707035
 20
-123.434670650565
 10
101.2158718279946
 20
-123.4729112104512
 10
101.2200059425769
 20
-123.5025390316244
 10
101.2200059425769
 20
-123.5025390316244
 10
101.0253580476603
 20
-123.5025390316244
 10
101.0253580476603
 20
-123.5025390316244
 10
101.0319037290823
 20
-123.4618869048984
 10
101.0339707863735
 20
-123.4164116444931
 10
101.0339707863735
 20
-123.4098659630712
 10
101.0339707863735
 20
-123.3395860151721
 10
101.0126111943649
 20
-123.1270236237321
 10
100.7759331345282
 20
-123.1270236237321
 10
100.5981662074894
 20
-123.1270236237321
 10
100.5430446797254
 20
-123.2672390099818
 10
100.5430446797254
 20
-123.3847167660288
 10
100.5430446797254
 20
-123.6675591053678
 10
100.7759331345282
 20
-123.6765163536295
 10
100.8475911206214
 20
-123.6809949777603
 10
100.8475911206214
 20
-123.6809949777603
 10
100.8475911206214
 20
-123.898035993331
 10
100.8475911206214
 20
-123.898035993331
 10
100.7228786640554
 20
-123.8890787450694
 10
100.3463297275176
 20
-123.8597954334448
 10
100.3463297275176
 20
-123.3712808936364
 10
100.3463297275176
 20
-123.131502247863
 10
100.4734537509233
 20
-122.8738091055663
 10
100.7693874531063
 20
-122.8738091055663
 10
100.9557671188583
 20
-122.8738091055663
 10
101.0381049009558
 20
-122.9757839319297
 10
101.0994276005932
 20
-123.0818928728754
 10
101.1269883644752
 20
-123.0164360586556
 10
101.2072590892815
 20
-122.821788163739
 10
101.4845892758441
 20
-122.821788163739
 10
101.8228976524957
 20
-122.821788163739
 10
101.9899847835303
 20
-123.0863714970062
 10
101.9899847835303
 20
-123.3826497087377
 97
        0
 97
        0
 75
     2
 76
     1
 98
        0
  0
ENDBLK
  5
6A
330
67
100
AcDbEntity
  8
0
100
AcDbBlockEnd
  0
BLOCK
  5
78
330
76
100
AcDbEntity
  8
0
100
AcDbBlockBegin
  2
block 3
 70
     0
 10
0.0
 20
0.0
 30
0.0
  3
block 3
  1

  0
SPLINE
  5
7A
330
76
100
AcDbEntity
  8
_U+30EC_U+30A4_U+30E4_U+30FC 1
370
     0
100
AcDbSpline
210
0.0
220
0.0
230
1.0
 70
    11
 71
     3
 72
    32
 73
    28
 74
     0
 42
0.0000000001
 43
0.0000000001
 12
1.0
 22
0.0
 32
0.0
 13
1.0
 23
0.0
 33
0.0
 40
0.0
 40
0.0
 40
0.0
 40
0.0
 40
1.0
 40
1.0
 40
1.0
 40
2.0
 40
2.0
 40
2.0
 40
3.0
 40
3.0
 40
3.0
 40
4.0
 40
4.0
 40
4.0
 40
5.0
 40
5.0
 40
5.0
 40
6.0
 40
6.0
 40
6.0
 40
7.0
 40
7.0
 40
7.0
 40
8.0
 40
8.0
 40
8.0
 40
9.0
 40
9.0
 40
9.0
 40
9.0
 10
101.9899847835303
 20
-130.5766981010364
 30
0.0
 10
101.9899847835303
 20
-130.7620442381428
 30
0.0
 10
101.9203938547282
 20
-131.0242160045703
 30
0.0
 10
101.5882866499501
 20
-131.0648681312963
 30
0.0
 10
101.5882866499501
 20
-131.0648681312963
 30
0.0
 10
101.5882866499501
 20
-130.8368028101727
 30
0.0
 10
101.5882866499501
 20
-130.8368028101727
 30
0.0
 10
101.6475422922964
 20
-130.8254339950714
 30
0.0
 10
101.7953368886137
 20
-130.7913275497675
 30
0.0
 10
101.7953368886137
 20
-130.5742865341967
 30
0.0
 10
101.7953368886137
 20
-130.2625053927816
 30
0.0
 10
101.4652967411267
 20
-130.2218532660557
 30
0.0
 10
101.2603135597544
 20
-130.2080728841146
 30
0.0
 10
101.3405842845607
 20
-130.3052245767987
 30
0.0
 10
101.3977728696158
 20
-130.3775715819889
 30
0.0
 10
101.3977728696158
 20
-130.5722194769056
 30
0.0
 10
101.3977728696158
 20
-130.7644558049825
 30
0.0
 10
101.2920084382187
 20
-131.0876057614989
 30
0.0
 10
100.8858316805077
 20
-131.0876057614989
 30
0.0
 10
100.566471329025
 20
-131.0876057614989
 30
0.0
 10
100.3463297275176
 20
-130.875043370059
 30
0.0
 10
100.3463297275176
 20
-130.5360459743104
 30
0.0
 10
100.3463297275176
 20
-129.9865532444131
 30
0.0
 10
100.9006455910943
 20
-129.9751844293118
 30
0.0
 10
101.1142415111798
 20
-129.9751844293118
 30
0.0
 10
101.344718399143
 20
-129.9751844293118
 30
0.0
 10
101.9899847835303
 20
-129.9955104926747
 30
0.0
 10
101.9899847835303
 20
-130.5766981010364
 30
0.0
  0
SPLINE
  5
7B
330
76
100
AcDbEntity
  8
_U+30EC_U+30A4_U+30E4_U+30FC 1
370
     0
100
AcDbSpline
210
0.0
220
0.0
230
1.0
 70
    11
 71
     3
 72
    17
 73
    13
 74
     0
 42
0.0000000001
 43
0.0000000001
 12
1.0
 22
0.0
 32
0.0
 13
1.0
 23
0.0
 33
0.0
 40
0.0
 40
0.0
 40
0.0
 40
0.0
 40
1.0
 40
1.0
 40
1.0
 40
2.0
 40
2.0
 40
2.0
 40
3.0
 40
3.0
 40
3.0
 40
4.0
 40
4.0
 40
4.0
 40
4.0
 10
100.5389105651431
 20
-130.5336344074708
 30
0.0
 10
100.5389105651431
 20
-130.6604139213279
 30
0.0
 10
100.5960991501982
 20
-130.8478271157256
 30
0.0
 10
100.8816975659254
 20
-130.8478271157256
 30
0.0
 10
101.1080403393063
 20
-130.8478271157256
 30
0.0
 10
101.2031249746992
 20
-130.6986544812142
 30
0.0
 10
101.2031249746992
 20
-130.5539604708337
 30
0.0
 10
101.2031249746992
 20
-130.2738742078829
 30
0.0
 10
100.993663169196
 20
-130.2328775716084
 30
0.0
 10
100.8772189417946
 20
-130.2328775716084
 30
0.0
 10
100.7018635815954
 20
-130.2328775716084
 30
0.0
 10
100.5389105651431
 20
-130.3348523979718
 30
0.0
 10
100.5389105651431
 20
-130.5336344074708
 30
0.0
  0
HATCH
  5
7C
330
76
100
AcDbEntity
  8
_U+30EC_U+30A4_U+30E4_U+30FC 1
 62
     7
420
 16777215
100
AcDbHatch
 10
0.0
 20
0.0
 30
0.0
210
0.0
220
0.0
230
1.0
  2
SOLID
 70
     1
 71
     0
 91
        2
 92
        1
 93
        1
 72
     4
 94
        3
 73
     0
 74
     1
 95
       32
 96
       28
 40
0.0
 40
0.0
 40
0.0
 40
0.0
 40
1.0
 40
1.0
 40
1.0
 40
2.0
 40
2.0
 40
2.0
 40
3.0
 40
3.0
 40
3.0
 40
4.0
 40
4.0
 40
4.0
 40
5.0
 40
5.0
 40
5.0
 40
6.0
 40
6.0
 40
6.0
 40
7.0
 40
7.0
 40
7.0
 40
8.0
 40
8.0
 40
8.0
 40
9.0
 40
9.0
 40
9.0
 40
9.0
 10
101.9899847835303
 20
-130.5766981010364
 10
101.9899847835303
 20
-130.7620442381428
 10
101.9203938547282
 20
-131.0242160045703
 10
101.5882866499501
 20
-131.0648681312963
 10
101.5882866499501
 20
-131.0648681312963
 10
101.5882866499501
 20
-130.8368028101727
 10
101.5882866499501
 20
-130.8368028101727
 10
101.6475422922964
 20
-130.8254339950714
 10
101.7953368886137
 20
-130.7913275497675
 10
101.7953368886137
 20
-130.5742865341967
 10
101.7953368886137
 20
-130.2625053927816
 10
101.4652967411267
 20
-130.2218532660557
 10
101.2603135597544
 20
-130.2080728841146
 10
101.3405842845607
 20
-130.3052245767987
 10
101.3977728696158
 20
-130.3775715819889
 10
101.3977728696158
 20
-130.5722194769056
 10
101.3977728696158
 20
-130.7644558049825
 10
101.2920084382187
 20
-131.0876057614989
 10
100.8858316805077
 20
-131.0876057614989
 10
100.566471329025
 20
-131.0876057614989
 10
100.3463297275176
 20
-130.875043370059
 10
100.3463297275176
 20
-130.5360459743104
 10
100.3463297275176
 20
-129.9865532444131
 10
100.9006455910943
 20
-129.9751844293118
 10
101.1142415111798
 20
-129.9751844293118
 10
101.344718399143
 20
-129.9751844293118
 10
101.9899847835303
 20
-129.9955104926747
 10
101.9899847835303
 20
-130.5766981010364
 97
        0
 97
        0
 92
        1
 93
        1
 72
     4
 94
        3
 73
     0
 74
     1
 95
       17
 96
       13
 40
0.0
 40
0.0
 40
0.0
 40
0.0
 40
1.0
 40
1.0
 40
1.0
 40
2.0
 40
2.0
 40
2.0
 40
3.0
 40
3.0
 40
3.0
 40
4.0
 40
4.0
 40
4.0
 40
4.0
 10
100.5389105651431
 20
-130.5336344074708
 10
100.5389105651431
 20
-130.6604139213279
 10
100.5960991501982
 20
-130.8478271157256
 10
100.8816975659254
 20
-130.8478271157256
 10
101.1080403393063
 20
-130.8478271157256
 10
101.2031249746992
 20
-130.6986544812142
 10
101.2031249746992
 20
-130.5539604708337
 10
101.2031249746992
 20
-130.2738742078829
 10
100.993663169196
 20
-130.2328775716084
 10
100.8772189417946
 20
-130.2328775716084
 10
100.7018635815954
 20
-130.2328775716084
 10
100.5389105651431
 20
-130.3348523979718
 10
100.5389105651431
 20
-130.5336344074708
 97
        0
 97
        0
 75
     2
 76
     1
 98
        0
  0
POLYLINE
  5
7D
330
76
100
AcDbEntity
  8
_U+30EC_U+30A4_U+30E4_U+30FC 1
370
     0
100
AcDb2dPolyline
 66
     1
 10
0.0
 20
0.0
 30
0.0
  0
VERTEX
  5
7E
330
7D
100
AcDbEntity
  8
_U+30EC_U+30A4_U+30E4_U+30FC 1
370
     0
100
AcDbVertex
100
AcDb2dVertex
 10
101.9393418798971
 20
-129.7440185222515
 30
0.0
  0
VERTEX
  5
7F
330
7D
100
AcDbEntity
  8
_U+30EC_U+30A4_U+30E4_U+30FC 1
370
     0
100
AcDbVertex
100
AcDb2dVertex
 10
101.6875053999254
 20
-129.7440185222515
 30
0.0
  0
VERTEX
  5
80
330
7D
100
AcDbEntity
  8
_U+30EC_U+30A4_U+30E4_U+30FC 1
370
     0
100
AcDbVertex
100
AcDb2dVertex
 10
101.6875053999254
 20
-129.4749565648535
 30
0.0
  0
VERTEX
  5
81
330
7D
100
AcDbEntity
  8
_U+30EC_U+30A4_U+30E4_U+30FC 1
370
     0
100
AcDbVertex
100
AcDb2dVertex
 10
101.9393418798971
 20
-129.4749565648535
 30
0.0
  0
VERTEX
  5
82
330
7D
100
AcDbEntity
  8
_U+30EC_U+30A4_U+30E4_U+30FC 1
370
     0
100
AcDbVertex
100
AcDb2dVertex
 10
101.9393418798971
 20
-129.7440185222515
 30
0.0
  0
SEQEND
  5
83
330
7D
100
AcDbEntity
  8
_U+30EC_U+30A4_U+30E4_U+30FC 1
370
     0
  0
HATCH
  5
84
330
76
100
AcDbEntity
  8
_U+30EC_U+30A4_U+30E4_U+30FC 1
 62
     7
420
 16777215
100
AcDbHatch
 10
0.0
 20
0.0
 30
0.0
210
0.0
220
0.0
230
1.0
  2
SOLID
 70
     1
 71
     0
 91
        1
 92
        1
 93
        4
 72
     1
 10
101.9393418798971
 20
-129.7440185222515
 11
101.6875053999254
 21
-129.7440185222515
 72
     1
 10
101.6875053999254
 20
-129.7440185222515
 11
101.6875053999254
 21
-129.4749565648535
 72
     1
 10
101.6875053999254
 20
-129.4749565648535
 11
101.9393418798971
 21
-129.4749565648535
 72
     1
 10
101.9393418798971
 20
-129.4749565648535
 11
101.9393418798971
 21
-129.7440185222515
 97
        0
 75
     2
 76
     1
 98
        0
  0
SPLINE
  5
85
330
76
100
AcDbEntity
  8
_U+30EC_U+30A4_U+30E4_U+30FC 1
370
     0
100
AcDbSpline
210
0.0
220
0.0
230
1.0
 70
    11
 71
     3
 72
    53
 73
    49
 74
     0
 42
0.0000000001
 43
0.0000000001
 12
1.0
 22
0.0
 32
0.0
 13
1.0
 23
0.0
 33
0.0
 40
0.0
 40
0.0
 40
0.0
 40
0.0
 40
1.0
 40
1.0
 40
1.0
 40
2.0
 40
2.0
 40
2.0
 40
3.0
 40
3.0
 40
3.0
 40
4.0
 40
4.0
 40
4.0
 40
5.0
 40
5.0
 40
5.0
 40
6.0
 40
6.0
 40
6.0
 40
7.0
 40
7.0
 40
7.0
 40
8.0
 40
8.0
 40
8.0
 40
9.0
 40
9.0
 40
9.0
 40
10.0
 40
10.0
 40
10.0
 40
11.0
 40
11.0
 40
11.0
 40
12.0
 40
12.0
 40
12.0
 40
13.0
 40
13.0
 40
13.0
 40
14.0
 40
14.0
 40
14.0
 40
15.0
 40
15.0
 40
15.0
 40
16.0
 40
16.0
 40
16.0
 40
16.0
 10
101.9899847835303
 20
-128.7080783098369
 30
0.0
 10
101.9899847835303
 20
-128.7917941301284
 30
0.0
 10
101.9731038156526
 20
-128.8999701283653
 30
0.0
 10
101.909714058724
 20
-129.0088351456992
 30
0.0
 10
101.7998155127445
 20
-129.1941812828056
 30
0.0
 10
101.6685573747565
 20
-129.2165744034598
 30
0.0
 10
101.5607258860682
 20
-129.2369004668227
 30
0.0
 10
101.5607258860682
 20
-129.2369004668227
 30
0.0
 10
101.5607258860682
 20
-128.999533387889
 30
0.0
 10
101.5607258860682
 20
-128.999533387889
 30
0.0
 10
101.7595078955671
 20
-128.9409667646398
 30
0.0
 10
101.7891357167402
 20
-128.8052300025209
 30
0.0
 10
101.7891357167402
 20
-128.7056667429972
 30
0.0
 10
101.7891357167402
 20
-128.5564941084859
 30
0.0
 10
101.6895724572165
 20
-128.3935410920336
 30
0.0
 10
101.4570285119621
 20
-128.3935410920336
 30
0.0
 10
101.2010579174081
 20
-128.3935410920336
 30
0.0
 10
101.1311224790575
 20
-128.5857774201105
 30
0.0
 10
101.1311224790575
 20
-128.7146239912589
 30
0.0
 10
101.1311224790575
 20
-128.7487304365628
 30
0.0
 10
101.1311224790575
 20
-128.8999701283653
 30
0.0
 10
101.2603135597544
 20
-128.9950547637582
 30
0.0
 10
101.2603135597544
 20
-128.9950547637582
 30
0.0
 10
101.2413655345855
 20
-129.1828124677043
 30
0.0
 10
101.2413655345855
 20
-129.1828124677043
 30
0.0
 10
101.2413655345855
 20
-129.1828124677043
 30
0.0
 10
100.3949055738596
 20
-129.053965896556
 30
0.0
 10
100.3949055738596
 20
-129.053965896556
 30
0.0
 10
100.3949055738596
 20
-129.053965896556
 30
0.0
 10
100.3949055738596
 20
-128.2219753368681
 30
0.0
 10
100.3949055738596
 20
-128.2219753368681
 30
0.0
 10
100.3949055738596
 20
-128.2219753368681
 30
0.0
 10
100.5895534687762
 20
-128.2219753368681
 30
0.0
 10
100.5895534687762
 20
-128.2219753368681
 30
0.0
 10
100.5895534687762
 20
-128.2219753368681
 30
0.0
 10
100.5895534687762
 20
-128.8796440650023
 30
0.0
 10
100.5895534687762
 20
-128.8796440650023
 30
0.0
 10
100.5895534687762
 20
-128.8796440650023
 30
0.0
 10
101.0126111943649
 20
-128.9499240129014
 30
0.0
 10
101.0126111943649
 20
-128.9499240129014
 30
0.0
 10
100.9788492586095
 20
-128.8844671986817
 30
0.0
 10
100.938541641432
 20
-128.7962727542593
 30
0.0
 10
100.938541641432
 20
-128.6694932404021
 30
0.0
 10
100.938541641432
 20
-128.3983642257129
 30
0.0
 10
101.1249213071841
 20
-128.1451497075471
 30
0.0
 10
101.4380804867933
 20
-128.1451497075471
 30
0.0
 10
101.7553737809848
 20
-128.1451497075471
 30
0.0
 10
101.9899847835303
 20
-128.3845838437719
 30
0.0
 10
101.9899847835303
 20
-128.7080783098369
 30
0.0
  0
HATCH
  5
86
330
76
100
AcDbEntity
  8
_U+30EC_U+30A4_U+30E4_U+30FC 1
 62
     7
420
 16777215
100
AcDbHatch
 10
0.0
 20
0.0
 30
0.0
210
0.0
220
0.0
230
1.0
  2
SOLID
 70
     1
 71
     0
 91
        1
 92
        1
 93
        1
 72
     4
 94
        3
 73
     0
 74
     1
 95
       53
 96
       49
 40
0.0
 40
0.0
 40
0.0
 40
0.0
 40
1.0
 40
1.0
 40
1.0
 40
2.0
 40
2.0
 40
2.0
 40
3.0
 40
3.0
 40
3.0
 40
4.0
 40
4.0
 40
4.0
 40
5.0
 40
5.0
 40
5.0
 40
6.0
 40
6.0
 40
6.0
 40
7.0
 40
7.0
 40
7.0
 40
8.0
 40
8.0
 40
8.0
 40
9.0
 40
9.0
 40
9.0
 40
10.0
 40
10.0
 40
10.0
 40
11.0
 40
11.0
 40
11.0
 40
12.0
 40
12.0
 40
12.0
 40
13.0
 40
13.0
 40
13.0
 40
14.0
 40
14.0
 40
14.0
 40
15.0
 40
15.0
 40
15.0
 40
16.0
 40
16.0
 40
16.0
 40
16.0
 10
101.9899847835303
 20
-128.7080783098369
 10
101.9899847835303
 20
-128.7917941301284
 10
101.9731038156526
 20
-128.8999701283653
 10
101.909714058724
 20
-129.0088351456992
 10
101.7998155127445
 20
-129.1941812828056
 10
101.6685573747565
 20
-129.2165744034598
 10
101.5607258860682
 20
-129.2369004668227
 10
101.5607258860682
 20
-129.2369004668227
 10
101.5607258860682
 20
-128.999533387889
 10
101.5607258860682
 20
-128.999533387889
 10
101.7595078955671
 20
-128.9409667646398
 10
101.7891357167402
 20
-128.8052300025209
 10
101.7891357167402
 20
-128.7056667429972
 10
101.7891357167402
 20
-128.5564941084859
 10
101.6895724572165
 20
-128.3935410920336
 10
101.4570285119621
 20
-128.3935410920336
 10
101.2010579174081
 20
-128.3935410920336
 10
101.1311224790575
 20
-128.5857774201105
 10
101.1311224790575
 20
-128.7146239912589
 10
101.1311224790575
 20
-128.7487304365628
 10
101.1311224790575
 20
-128.8999701283653
 10
101.2603135597544
 20
-128.9950547637582
 10
101.2603135597544
 20
-128.9950547637582
 10
101.2413655345855
 20
-129.1828124677043
 10
101.2413655345855
 20
-129.1828124677043
 10
101.2413655345855
 20
-129.1828124677043
 10
100.3949055738596
 20
-129.053965896556
 10
100.3949055738596
 20
-129.053965896556
 10
100.3949055738596
 20
-129.053965896556
 10
100.3949055738596
 20
-128.2219753368681
 10
100.3949055738596
 20
-128.2219753368681
 10
100.3949055738596
 20
-128.2219753368681
 10
100.5895534687762
 20
-128.2219753368681
 10
100.5895534687762
 20
-128.2219753368681
 10
100.5895534687762
 20
-128.2219753368681
 10
100.5895534687762
 20
-128.8796440650023
 10
100.5895534687762
 20
-128.8796440650023
 10
100.5895534687762
 20
-128.8796440650023
 10
101.0126111943649
 20
-128.9499240129014
 10
101.0126111943649
 20
-128.9499240129014
 10
100.9788492586095
 20
-128.8844671986817
 10
100.938541641432
 20
-128.7962727542593
 10
100.938541641432
 20
-128.6694932404021
 10
100.938541641432
 20
-128.3983642257129
 10
101.1249213071841
 20
-128.1451497075471
 10
101.4380804867933
 20
-128.1451497075471
 10
101.7553737809848
 20
-128.1451497075471
 10
101.9899847835303
 20
-128.3845838437719
 10
101.9899847835303
 20
-128.7080783098369
 97
        0
 97
        0
 75
     2
 76
     1
 98
        0
  0
ENDBLK
  5
79
330
76
100
AcDbEntity
  8
0
100
AcDbBlockEnd
  0
BLOCK
  5
99
330
97
100
AcDbEntity
  8
0
100
AcDbBlockBegin
  2
block 4
 70
     0
 10
0.0
 20
0.0
 30
0.0
  3
block 4
  1

  0
SPLINE
  5
9B
330
97
100
AcDbEntity
  8
_U+30EC_U+30A4_U+30E4_U+30FC 1
370
     0
100
AcDbSpline
210
0.0
220
0.0
230
1.0
 70
    11
 71
     3
 72
    26
 73
    22
 74
     0
 42
0.0000000001
 43
0.0000000001
 12
1.0
 22
0.0
 32
0.0
 13
1.0
 23
0.0
 33
0.0
 40
0.0
 40
0.0
 40
0.0
 40
0.0
 40
1.0
 40
1.0
 40
1.0
 40
2.0
 40
2.0
 40
2.0
 40
3.0
 40
3.0
 40
3.0
 40
4.0
 40
4.0
 40
4.0
 40
5.0
 40
5.0
 40
5.0
 40
6.0
 40
6.0
 40
6.0
 40
7.0
 40
7.0
 40
7.0
 40
7.0
 10
105.3179470222816
 20
-134.9275091893584
 30
0.0
 10
105.3179470222816
 20
-134.9275091893584
 30
0.0
 10
104.2141384288076
 20
-134.9275091893584
 30
0.0
 10
104.2141384288076
 20
-134.9275091893584
 30
0.0
 10
104.2141384288076
 20
-134.9275091893584
 30
0.0
 10
104.2141384288076
 20
-135.2799424574995
 30
0.0
 10
104.2141384288076
 20
-135.2799424574995
 30
0.0
 10
104.2141384288076
 20
-135.2799424574995
 30
0.0
 10
104.0659993229418
 20
-135.2799424574995
 30
0.0
 10
104.0659993229418
 20
-135.2799424574995
 30
0.0
 10
104.0508409028067
 20
-134.9250976225187
 30
0.0
 10
103.8882323959029
 20
-134.8754882475311
 30
0.0
 10
103.7738552257927
 20
-134.8437933690668
 30
0.0
 10
103.7738552257927
 20
-134.8437933690668
 30
0.0
 10
103.7738552257927
 20
-134.687730543585
 30
0.0
 10
103.7738552257927
 20
-134.687730543585
 30
0.0
 10
103.7738552257927
 20
-134.687730543585
 30
0.0
 10
105.3179470222816
 20
-134.687730543585
 30
0.0
 10
105.3179470222816
 20
-134.687730543585
 30
0.0
 10
105.3179470222816
 20
-134.687730543585
 30
0.0
 10
105.3179470222816
 20
-134.9275091893584
 30
0.0
 10
105.3179470222816
 20
-134.9275091893584
 30
0.0
  0
HATCH
  5
9C
330
97
100
AcDbEntity
  8
_U+30EC_U+30A4_U+30E4_U+30FC 1
 62
     7
420
 16777215
100
AcDbHatch
 10
0.0
 20
0.0
 30
0.0
210
0.0
220
0.0
230
1.0
  2
SOLID
 70
     1
 71
     0
 91
        1
 92
        1
 93
        1
 72
     4
 94
        3
 73
     0
 74
     1
 95
       26
 96
       22
 40
0.0
 40
0.0
 40
0.0
 40
0.0
 40
1.0
 40
1.0
 40
1.0
 40
2.0
 40
2.0
 40
2.0
 40
3.0
 40
3.0
 40
3.0
 40
4.0
 40
4.0
 40
4.0
 40
5.0
 40
5.0
 40
5.0
 40
6.0
 40
6.0
 40
6.0
 40
7.0
 40
7.0
 40
7.0
 40
7.0
 10
105.3179470222816
 20
-134.9275091893584
 10
105.3179470222816
 20
-134.9275091893584
 10
104.2141384288076
 20
-134.9275091893584
 10
104.2141384288076
 20
-134.9275091893584
 10
104.2141384288076
 20
-134.9275091893584
 10
104.2141384288076
 20
-135.2799424574995
 10
104.2141384288076
 20
-135.2799424574995
 10
104.2141384288076
 20
-135.2799424574995
 10
104.0659993229418
 20
-135.2799424574995
 10
104.0659993229418
 20
-135.2799424574995
 10
104.0508409028067
 20
-134.9250976225187
 10
103.8882323959029
 20
-134.8754882475311
 10
103.7738552257927
 20
-134.8437933690668
 10
103.7738552257927
 20
-134.8437933690668
 10
103.7738552257927
 20
-134.687730543585
 10
103.7738552257927
 20
-134.687730543585
 10
103.7738552257927
 20
-134.687730543585
 10
105.3179470222816
 20
-134.687730543585
 10
105.3179470222816
 20
-134.687730543585
 10
105.3179470222816
 20
-134.687730543585
 10
105.3179470222816
 20
-134.9275091893584
 10
105.3179470222816
 20
-134.9275091893584
 97
        0
 97
        0
 75
     2
 76
     1
 98
        0
  0
ENDBLK
  5
9A
330
97
100
AcDbEntity
  8
0
100
AcDbBlockEnd
  0
BLOCK
  5
9F
330
9D
100
AcDbEntity
  8
0
100
AcDbBlockBegin
  2
block 5
 70
     0
 10
0.0
 20
0.0
 30
0.0
  3
block 5
  1

  0
SPLINE
  5
A1
330
9D
100
AcDbEntity
  8
_U+30EC_U+30A4_U+30E4_U+30FC 1
370
     0
100
AcDbSpline
210
0.0
220
0.0
230
1.0
 70
    11
 71
     3
 72
    26
 73
    22
 74
     0
 42
0.0000000001
 43
0.0000000001
 12
1.0
 22
0.0
 32
0.0
 13
1.0
 23
0.0
 33
0.0
 40
0.0
 40
0.0
 40
0.0
 40
0.0
 40
1.0
 40
1.0
 40
1.0
 40
2.0
 40
2.0
 40
2.0
 40
3.0
 40
3.0
 40
3.0
 40
4.0
 40
4.0
 40
4.0
 40
5.0
 40
5.0
 40
5.0
 40
6.0
 40
6.0
 40
6.0
 40
7.0
 40
7.0
 40
7.0
 40
7.0
 10
105.3179470222816
 20
-129.7123236437872
 30
0.0
 10
105.3179470222816
 20
-129.7123236437872
 30
0.0
 10
104.2141384288076
 20
-129.7123236437872
 30
0.0
 10
104.2141384288076
 20
-129.7123236437872
 30
0.0
 10
104.2141384288076
 20
-129.7123236437872
 30
0.0
 10
104.2141384288076
 20
-130.0647569119283
 30
0.0
 10
104.2141384288076
 20
-130.0647569119283
 30
0.0
 10
104.2141384288076
 20
-130.0647569119283
 30
0.0
 10
104.0659993229418
 20
-130.0647569119283
 30
0.0
 10
104.0659993229418
 20
-130.0647569119283
 30
0.0
 10
104.0508409028067
 20
-129.7099120769475
 30
0.0
 10
103.8882323959029
 20
-129.6603027019599
 30
0.0
 10
103.7738552257927
 20
-129.6286078234956
 30
0.0
 10
103.7738552257927
 20
-129.6286078234956
 30
0.0
 10
103.7738552257927
 20
-129.4725449980138
 30
0.0
 10
103.7738552257927
 20
-129.4725449980138
 30
0.0
 10
103.7738552257927
 20
-129.4725449980138
 30
0.0
 10
105.3179470222816
 20
-129.4725449980138
 30
0.0
 10
105.3179470222816
 20
-129.4725449980138
 30
0.0
 10
105.3179470222816
 20
-129.4725449980138
 30
0.0
 10
105.3179470222816
 20
-129.7123236437872
 30
0.0
 10
105.3179470222816
 20
-129.7123236437872
 30
0.0
  0
HATCH
  5
A2
330
9D
100
AcDbEntity
  8
_U+30EC_U+30A4_U+30E4_U+30FC 1
 62
     7
420
 16777215
100
AcDbHatch
 10
0.0
 20
0.0
 30
0.0
210
0.0
220
0.0
230
1.0
  2
SOLID
 70
     1
 71
     0
 91
        1
 92
        1
 93
        1
 72
     4
 94
        3
 73
     0
 74
     1
 95
       26
 96
       22
 40
0.0
 40
0.0
 40
0.0
 40
0.0
 40
1.0
 40
1.0
 40
1.0
 40
2.0
 40
2.0
 40
2.0
 40
3.0
 40
3.0
 40
3.0
 40
4.0
 40
4.0
 40
4.0
 40
5.0
 40
5.0
 40
5.0
 40
6.0
 40
6.0
 40
6.0
 40
7.0
 40
7.0
 40
7.0
 40
7.0
 10
105.3179470222816
 20
-129.7123236437872
 10
105.3179470222816
 20
-129.7123236437872
 10
104.2141384288076
 20
-129.7123236437872
 10
104.2141384288076
 20
-129.7123236437872
 10
104.2141384288076
 20
-129.7123236437872
 10
104.2141384288076
 20
-130.0647569119283
 10
104.2141384288076
 20
-130.0647569119283
 10
104.2141384288076
 20
-130.0647569119283
 10
104.0659993229418
 20
-130.0647569119283
 10
104.0659993229418
 20
-130.0647569119283
 10
104.0508409028067
 20
-129.7099120769475
 10
103.8882323959029
 20
-129.6603027019599
 10
103.7738552257927
 20
-129.6286078234956
 10
103.7738552257927
 20
-129.6286078234956
 10
103.7738552257927
 20
-129.4725449980138
 10
103.7738552257927
 20
-129.4725449980138
 10
103.7738552257927
 20
-129.4725449980138
 10
105.3179470222816
 20
-129.4725449980138
 10
105.3179470222816
 20
-129.4725449980138
 10
105.3179470222816
 20
-129.4725449980138
 10
105.3179470222816
 20
-129.7123236437872
 10
105.3179470222816
 20
-129.7123236437872
 97
        0
 97
        0
 75
     2
 76
     1
 98
        0
  0
SPLINE
  5
A3
330
9D
100
AcDbEntity
  8
_U+30EC_U+30A4_U+30E4_U+30FC 1
370
     0
100
AcDbSpline
210
0.0
220
0.0
230
1.0
 70
    11
 71
     3
 72
    44
 73
    40
 74
     0
 42
0.0000000001
 43
0.0000000001
 12
1.0
 22
0.0
 32
0.0
 13
1.0
 23
0.0
 33
0.0
 40
0.0
 40
0.0
 40
0.0
 40
0.0
 40
1.0
 40
1.0
 40
1.0
 40
2.0
 40
2.0
 40
2.0
 40
3.0
 40
3.0
 40
3.0
 40
4.0
 40
4.0
 40
4.0
 40
5.0
 40
5.0
 40
5.0
 40
6.0
 40
6.0
 40
6.0
 40
7.0
 40
7.0
 40
7.0
 40
8.0
 40
8.0
 40
8.0
 40
9.0
 40
9.0
 40
9.0
 40
10.0
 40
10.0
 40
10.0
 40
11.0
 40
11.0
 40
11.0
 40
12.0
 40
12.0
 40
12.0
 40
13.0
 40
13.0
 40
13.0
 40
13.0
 10
104.7364149043715
 20
-128.3029350807715
 30
0.0
 10
104.894889296693
 20
-128.5358235355744
 30
0.0
 10
104.9693033591743
 20
-128.6353867950981
 30
0.0
 10
105.1126193313607
 20
-128.6874077369254
 30
0.0
 10
105.1126193313607
 20
-128.6874077369254
 30
0.0
 10
105.1126193313607
 20
-127.855072667689
 30
0.0
 10
105.1126193313607
 20
-127.855072667689
 30
0.0
 10
105.1126193313607
 20
-127.855072667689
 30
0.0
 10
105.3179470222816
 20
-127.855072667689
 30
0.0
 10
105.3179470222816
 20
-127.855072667689
 30
0.0
 10
105.3179470222816
 20
-127.855072667689
 30
0.0
 10
105.3179470222816
 20
-128.9540581274837
 30
0.0
 10
105.3179470222816
 20
-128.9540581274837
 30
0.0
 10
104.9603461109127
 20
-128.9199516821797
 30
0.0
 10
104.8824869529461
 20
-128.8500162438292
 30
0.0
 10
104.5841416839234
 20
-128.4386718428903
 30
0.0
 10
104.385015164876
 20
-128.1651312613615
 30
0.0
 10
104.3174912933651
 20
-128.0948513134624
 30
0.0
 10
104.1796874739551
 20
-128.0948513134624
 30
0.0
 10
104.0611761892625
 20
-128.0948513134624
 30
0.0
 10
103.930262560823
 20
-128.1716769427835
 30
0.0
 10
103.930262560823
 20
-128.3821722769322
 30
0.0
 10
103.930262560823
 20
-128.6601914825919
 30
0.0
 10
104.1610839583347
 20
-128.6691487308535
 30
0.0
 10
104.2775281857362
 20
-128.6736273549844
 30
0.0
 10
104.2775281857362
 20
-128.6736273549844
 30
0.0
 10
104.2775281857362
 20
-128.9134060007578
 30
0.0
 10
104.2775281857362
 20
-128.9134060007578
 30
0.0
 10
104.1500596527819
 20
-128.9044487524961
 30
0.0
 10
104.0384385590598
 20
-128.8930799373948
 30
0.0
 10
103.9199272743672
 20
-128.8069525502635
 30
0.0
 10
103.7586968056576
 20
-128.6894747942165
 30
0.0
 10
103.7249348699021
 20
-128.4906927847176
 30
0.0
 10
103.7249348699021
 20
-128.3663248377001
 30
0.0
 10
103.7249348699021
 20
-128.0700466259686
 30
0.0
 10
103.9089029688144
 20
-127.848526986267
 30
0.0
 10
104.1817545312462
 20
-127.848526986267
 30
0.0
 10
104.4105088714668
 20
-127.848526986267
 30
0.0
 10
104.509727621442
 20
-127.9728949332846
 30
0.0
 10
104.7364149043715
 20
-128.3029350807715
 30
0.0
  0
HATCH
  5
A4
330
9D
100
AcDbEntity
  8
_U+30EC_U+30A4_U+30E4_U+30FC 1
 62
     7
420
 16777215
100
AcDbHatch
 10
0.0
 20
0.0
 30
0.0
210
0.0
220
0.0
230
1.0
  2
SOLID
 70
     1
 71
     0
 91
        1
 92
        1
 93
        1
 72
     4
 94
        3
 73
     0
 74
     1
 95
       44
 96
       40
 40
0.0
 40
0.0
 40
0.0
 40
0.0
 40
1.0
 40
1.0
 40
1.0
 40
2.0
 40
2.0
 40
2.0
 40
3.0
 40
3.0
 40
3.0
 40
4.0
 40
4.0
 40
4.0
 40
5.0
 40
5.0
 40
5.0
 40
6.0
 40
6.0
 40
6.0
 40
7.0
 40
7.0
 40
7.0
 40
8.0
 40
8.0
 40
8.0
 40
9.0
 40
9.0
 40
9.0
 40
10.0
 40
10.0
 40
10.0
 40
11.0
 40
11.0
 40
11.0
 40
12.0
 40
12.0
 40
12.0
 40
13.0
 40
13.0
 40
13.0
 40
13.0
 10
104.7364149043715
 20
-128.3029350807715
 10
104.894889296693
 20
-128.5358235355744
 10
104.9693033591743
 20
-128.6353867950981
 10
105.1126193313607
 20
-128.6874077369254
 10
105.1126193313607
 20
-128.6874077369254
 10
105.1126193313607
 20
-127.855072667689
 10
105.1126193313607
 20
-127.855072667689
 10
105.1126193313607
 20
-127.855072667689
 10
105.3179470222816
 20
-127.855072667689
 10
105.3179470222816
 20
-127.855072667689
 10
105.3179470222816
 20
-127.855072667689
 10
105.3179470222816
 20
-128.9540581274837
 10
105.3179470222816
 20
-128.9540581274837
 10
104.9603461109127
 20
-128.9199516821797
 10
104.8824869529461
 20
-128.8500162438292
 10
104.5841416839234
 20
-128.4386718428903
 10
104.385015164876
 20
-128.1651312613615
 10
104.3174912933651
 20
-128.0948513134624
 10
104.1796874739551
 20
-128.0948513134624
 10
104.0611761892625
 20
-128.0948513134624
 10
103.930262560823
 20
-128.1716769427835
 10
103.930262560823
 20
-128.3821722769322
 10
103.930262560823
 20
-128.6601914825919
 10
104.1610839583347
 20
-128.6691487308535
 10
104.2775281857362
 20
-128.6736273549844
 10
104.2775281857362
 20
-128.6736273549844
 10
104.2775281857362
 20
-128.9134060007578
 10
104.2775281857362
 20
-128.9134060007578
 10
104.1500596527819
 20
-128.9044487524961
 10
104.0384385590598
 20
-128.8930799373948
 10
103.9199272743672
 20
-128.8069525502635
 10
103.7586968056576
 20
-128.6894747942165
 10
103.7249348699021
 20
-128.4906927847176
 10
103.7249348699021
 20
-128.3663248377001
 10
103.7249348699021
 20
-128.0700466259686
 10
103.9089029688144
 20
-127.848526986267
 10
104.1817545312462
 20
-127.848526986267
 10
104.4105088714668
 20
-127.848526986267
 10
104.509727621442
 20
-127.9728949332846
 10
104.7364149043715
 20
-128.3029350807715
 97
        0
 97
        0
 75
     2
 76
     1
 98
        0
  0
POLYLINE
  5
A5
330
9D
100
AcDbEntity
  8
_U+30EC_U+30A4_U+30E4_U+30FC 1
370
     0
100
AcDb2dPolyline
 66
     1
 10
0.0
 20
0.0
 30
0.0
  0
VERTEX
  5
A6
330
A5
100
AcDbEntity
  8
_U+30EC_U+30A4_U+30E4_U+30FC 1
370
     0
100
AcDbVertex
100
AcDb2dVertex
 10
105.3179470222816
 20
-127.6149495123671
 30
0.0
  0
VERTEX
  5
A7
330
A5
100
AcDbEntity
  8
_U+30EC_U+30A4_U+30E4_U+30FC 1
370
     0
100
AcDbVertex
100
AcDb2dVertex
 10
105.0664550518584
 20
-127.6149495123671
 30
0.0
  0
VERTEX
  5
A8
330
A5
100
AcDbEntity
  8
_U+30EC_U+30A4_U+30E4_U+30FC 1
370
     0
100
AcDbVertex
100
AcDb2dVertex
 10
105.0664550518584
 20
-127.3458875549691
 30
0.0
  0
VERTEX
  5
A9
330
A5
100
AcDbEntity
  8
_U+30EC_U+30A4_U+30E4_U+30FC 1
370
     0
100
AcDbVertex
100
AcDb2dVertex
 10
105.3179470222816
 20
-127.3458875549691
 30
0.0
  0
VERTEX
  5
AA
330
A5
100
AcDbEntity
  8
_U+30EC_U+30A4_U+30E4_U+30FC 1
370
     0
100
AcDbVertex
100
AcDb2dVertex
 10
105.3179470222816
 20
-127.6149495123671
 30
0.0
  0
SEQEND
  5
AB
330
A5
100
AcDbEntity
  8
_U+30EC_U+30A4_U+30E4_U+30FC 1
370
     0
  0
HATCH
  5
AC
330
9D
100
AcDbEntity
  8
_U+30EC_U+30A4_U+30E4_U+30FC 1
 62
     7
420
 16777215
100
AcDbHatch
 10
0.0
 20
0.0
 30
0.0
210
0.0
220
0.0
230
1.0
  2
SOLID
 70
     1
 71
     0
 91
        1
 92
        1
 93
        4
 72
     1
 10
105.3179470222816
 20
-127.6149495123671
 11
105.0664550518584
 21
-127.6149495123671
 72
     1
 10
105.0664550518584
 20
-127.6149495123671
 11
105.0664550518584
 21
-127.3458875549691
 72
     1
 10
105.0664550518584
 20
-127.3458875549691
 11
105.3179470222816
 21
-127.3458875549691
 72
     1
 10
105.3179470222816
 20
-127.3458875549691
 11
105.3179470222816
 21
-127.6149495123671
 97
        0
 75
     2
 76
     1
 98
        0
  0
SPLINE
  5
AD
330
9D
100
AcDbEntity
  8
_U+30EC_U+30A4_U+30E4_U+30FC 1
370
     0
100
AcDbSpline
210
0.0
220
0.0
230
1.0
 70
    11
 71
     3
 72
    53
 73
    49
 74
     0
 42
0.0000000001
 43
0.0000000001
 12
1.0
 22
0.0
 32
0.0
 13
1.0
 23
0.0
 33
0.0
 40
0.0
 40
0.0
 40
0.0
 40
0.0
 40
1.0
 40
1.0
 40
1.0
 40
2.0
 40
2.0
 40
2.0
 40
3.0
 40
3.0
 40
3.0
 40
4.0
 40
4.0
 40
4.0
 40
5.0
 40
5.0
 40
5.0
 40
6.0
 40
6.0
 40
6.0
 40
7.0
 40
7.0
 40
7.0
 40
8.0
 40
8.0
 40
8.0
 40
9.0
 40
9.0
 40
9.0
 40
10.0
 40
10.0
 40
10.0
 40
11.0
 40
11.0
 40
11.0
 40
12.0
 40
12.0
 40
12.0
 40
13.0
 40
13.0
 40
13.0
 40
14.0
 40
14.0
 40
14.0
 40
15.0
 40
15.0
 40
15.0
 40
16.0
 40
16.0
 40
16.0
 40
16.0
 10
105.3689344354633
 20
-126.5790092999525
 30
0.0
 10
105.3689344354633
 20
-126.6623806106955
 30
0.0
 10
105.3517089580371
 20
-126.7712456280294
 30
0.0
 10
105.2883192011085
 20
-126.8794216262663
 30
0.0
 10
105.1787651646775
 20
-127.0651122729212
 30
0.0
 10
105.047162517141
 20
-127.0875053935754
 30
0.0
 10
104.9396755380012
 20
-127.1078314569383
 30
0.0
 10
104.9396755380012
 20
-127.1078314569383
 30
0.0
 10
104.9396755380012
 20
-126.8704643780046
 30
0.0
 10
104.9396755380012
 20
-126.8704643780046
 30
0.0
 10
105.1381130379516
 20
-126.8118977547554
 30
0.0
 10
105.1677408591247
 20
-126.6761609926365
 30
0.0
 10
105.1677408591247
 20
-126.5765977331128
 30
0.0
 10
105.1677408591247
 20
-126.4274250986015
 30
0.0
 10
105.0685221091495
 20
-126.2648165916977
 30
0.0
 10
104.8356336543467
 20
-126.2648165916977
 30
0.0
 10
104.5800075693411
 20
-126.2648165916977
 30
0.0
 10
104.509727621442
 20
-126.4567084102261
 30
0.0
 10
104.509727621442
 20
-126.5855549813745
 30
0.0
 10
104.509727621442
 20
-126.6196614266784
 30
0.0
 10
104.509727621442
 20
-126.7712456280294
 30
0.0
 10
104.6392632116874
 20
-126.8659857538738
 30
0.0
 10
104.6392632116874
 20
-126.8659857538738
 30
0.0
 10
104.61997067697
 20
-127.0537434578199
 30
0.0
 10
104.61997067697
 20
-127.0537434578199
 30
0.0
 10
104.61997067697
 20
-127.0537434578199
 30
0.0
 10
103.7738552257927
 20
-126.9248968866716
 30
0.0
 10
103.7738552257927
 20
-126.9248968866716
 30
0.0
 10
103.7738552257927
 20
-126.9248968866716
 30
0.0
 10
103.7738552257927
 20
-126.0929063269837
 30
0.0
 10
103.7738552257927
 20
-126.0929063269837
 30
0.0
 10
103.7738552257927
 20
-126.0929063269837
 30
0.0
 10
103.9681586111607
 20
-126.0929063269837
 30
0.0
 10
103.9681586111607
 20
-126.0929063269837
 30
0.0
 10
103.9681586111607
 20
-126.0929063269837
 30
0.0
 10
103.9681586111607
 20
-126.7505750551179
 30
0.0
 10
103.9681586111607
 20
-126.7505750551179
 30
0.0
 10
103.9681586111607
 20
-126.7505750551179
 30
0.0
 10
104.3912163367494
 20
-126.820855003017
 30
0.0
 10
104.3912163367494
 20
-126.820855003017
 30
0.0
 10
104.357454400994
 20
-126.7553981887973
 30
0.0
 10
104.3174912933651
 20
-126.6672037443749
 30
0.0
 10
104.3174912933651
 20
-126.5404242305177
 30
0.0
 10
104.3174912933651
 20
-126.2692952158285
 30
0.0
 10
104.5035264495686
 20
-126.0160806976627
 30
0.0
 10
104.8170301387263
 20
-126.0160806976627
 30
0.0
 10
105.1339789233693
 20
-126.0160806976627
 30
0.0
 10
105.3689344354633
 20
-126.2555148338875
 30
0.0
 10
105.3689344354633
 20
-126.5790092999525
 30
0.0
  0
HATCH
  5
AE
330
9D
100
AcDbEntity
  8
_U+30EC_U+30A4_U+30E4_U+30FC 1
 62
     7
420
 16777215
100
AcDbHatch
 10
0.0
 20
0.0
 30
0.0
210
0.0
220
0.0
230
1.0
  2
SOLID
 70
     1
 71
     0
 91
        1
 92
        1
 93
        1
 72
     4
 94
        3
 73
     0
 74
     1
 95
       53
 96
       49
 40
0.0
 40
0.0
 40
0.0
 40
0.0
 40
1.0
 40
1.0
 40
1.0
 40
2.0
 40
2.0
 40
2.0
 40
3.0
 40
3.0
 40
3.0
 40
4.0
 40
4.0
 40
4.0
 40
5.0
 40
5.0
 40
5.0
 40
6.0
 40
6.0
 40
6.0
 40
7.0
 40
7.0
 40
7.0
 40
8.0
 40
8.0
 40
8.0
 40
9.0
 40
9.0
 40
9.0
 40
10.0
 40
10.0
 40
10.0
 40
11.0
 40
11.0
 40
11.0
 40
12.0
 40
12.0
 40
12.0
 40
13.0
 40
13.0
 40
13.0
 40
14.0
 40
14.0
 40
14.0
 40
15.0
 40
15.0
 40
15.0
 40
16.0
 40
16.0
 40
16.0
 40
16.0
 10
105.3689344354633
 20
-126.5790092999525
 10
105.3689344354633
 20
-126.6623806106955
 10
105.3517089580371
 20
-126.7712456280294
 10
105.2883192011085
 20
-126.8794216262663
 10
105.1787651646775
 20
-127.0651122729212
 10
105.047162517141
 20
-127.0875053935754
 10
104.9396755380012
 20
-127.1078314569383
 10
104.9396755380012
 20
-127.1078314569383
 10
104.9396755380012
 20
-126.8704643780046
 10
104.9396755380012
 20
-126.8704643780046
 10
105.1381130379516
 20
-126.8118977547554
 10
105.1677408591247
 20
-126.6761609926365
 10
105.1677408591247
 20
-126.5765977331128
 10
105.1677408591247
 20
-126.4274250986015
 10
105.0685221091495
 20
-126.2648165916977
 10
104.8356336543467
 20
-126.2648165916977
 10
104.5800075693411
 20
-126.2648165916977
 10
104.509727621442
 20
-126.4567084102261
 10
104.509727621442
 20
-126.5855549813745
 10
104.509727621442
 20
-126.6196614266784
 10
104.509727621442
 20
-126.7712456280294
 10
104.6392632116874
 20
-126.8659857538738
 10
104.6392632116874
 20
-126.8659857538738
 10
104.61997067697
 20
-127.0537434578199
 10
104.61997067697
 20
-127.0537434578199
 10
104.61997067697
 20
-127.0537434578199
 10
103.7738552257927
 20
-126.9248968866716
 10
103.7738552257927
 20
-126.9248968866716
 10
103.7738552257927
 20
-126.9248968866716
 10
103.7738552257927
 20
-126.0929063269837
 10
103.7738552257927
 20
-126.0929063269837
 10
103.7738552257927
 20
-126.0929063269837
 10
103.9681586111607
 20
-126.0929063269837
 10
103.9681586111607
 20
-126.0929063269837
 10
103.9681586111607
 20
-126.0929063269837
 10
103.9681586111607
 20
-126.7505750551179
 10
103.9681586111607
 20
-126.7505750551179
 10
103.9681586111607
 20
-126.7505750551179
 10
104.3912163367494
 20
-126.820855003017
 10
104.3912163367494
 20
-126.820855003017
 10
104.357454400994
 20
-126.7553981887973
 10
104.3174912933651
 20
-126.6672037443749
 10
104.3174912933651
 20
-126.5404242305177
 10
104.3174912933651
 20
-126.2692952158285
 10
104.5035264495686
 20
-126.0160806976627
 10
104.8170301387263
 20
-126.0160806976627
 10
105.1339789233693
 20
-126.0160806976627
 10
105.3689344354633
 20
-126.2555148338875
 10
105.3689344354633
 20
-126.5790092999525
 97
        0
 97
        0
 75
     2
 76
     1
 98
        0
  0
ENDBLK
  5
A0
330
9D
100
AcDbEntity
  8
0
100
AcDbBlockEnd
  0
BLOCK
  5
BF
330
BD
100
AcDbEntity
  8
0
100
AcDbBlockBegin
  2
block 6
 70
     0
 10
0.0
 20
0.0
 30
0.0
  3
block 6
  1

  0
SPLINE
  5
C1
330
BD
100
AcDbEntity
  8
_U+30EC_U+30A4_U+30E4_U+30FC 1
370
     0
100
AcDbSpline
210
0.0
220
0.0
230
1.0
 70
    11
 71
     3
 72
    53
 73
    49
 74
     0
 42
0.0000000001
 43
0.0000000001
 12
1.0
 22
0.0
 32
0.0
 13
1.0
 23
0.0
 33
0.0
 40
0.0
 40
0.0
 40
0.0
 40
0.0
 40
1.0
 40
1.0
 40
1.0
 40
2.0
 40
2.0
 40
2.0
 40
3.0
 40
3.0
 40
3.0
 40
4.0
 40
4.0
 40
4.0
 40
5.0
 40
5.0
 40
5.0
 40
6.0
 40
6.0
 40
6.0
 40
7.0
 40
7.0
 40
7.0
 40
8.0
 40
8.0
 40
8.0
 40
9.0
 40
9.0
 40
9.0
 40
10.0
 40
10.0
 40
10.0
 40
11.0
 40
11.0
 40
11.0
 40
12.0
 40
12.0
 40
12.0
 40
13.0
 40
13.0
 40
13.0
 40
14.0
 40
14.0
 40
14.0
 40
15.0
 40
15.0
 40
15.0
 40
16.0
 40
16.0
 40
16.0
 40
16.0
 10
87.51421031883326
 20
-119.3880614935905
 30
0.0
 10
87.43049449854169
 20
-119.3880614935905
 30
0.0
 10
87.32231850030485
 20
-119.3711805257128
 30
0.0
 10
87.21345348297095
 20
-119.3077907687842
 30
0.0
 10
87.0281073458645
 20
-119.1978922228047
 30
0.0
 10
87.00571422521038
 20
-119.0666340848167
 30
0.0
 10
86.98538816184741
 20
-118.9588025961284
 30
0.0
 10
86.98538816184741
 20
-118.9588025961284
 30
0.0
 10
87.22275524078113
 20
-118.9588025961284
 30
0.0
 10
87.22275524078113
 20
-118.9588025961284
 30
0.0
 10
87.28132186403037
 20
-119.1575846056273
 30
0.0
 10
87.41705862614921
 20
-119.1872124268004
 30
0.0
 10
87.51662188567293
 20
-119.1872124268004
 30
0.0
 10
87.66579452018425
 20
-119.1872124268004
 30
0.0
 10
87.82874753663657
 20
-119.0876491672767
 30
0.0
 10
87.82874753663657
 20
-118.8551052220223
 30
0.0
 10
87.82874753663657
 20
-118.5991346274683
 30
0.0
 10
87.63651120855963
 20
-118.5291991891177
 30
0.0
 10
87.50766463741128
 20
-118.5291991891177
 30
0.0
 10
87.4735581921073
 20
-118.5291991891177
 30
0.0
 10
87.32231850030485
 20
-118.5291991891177
 30
0.0
 10
87.22723386491195
 20
-118.6583902698146
 30
0.0
 10
87.22723386491195
 20
-118.6583902698146
 30
0.0
 10
87.03947616096583
 20
-118.6394422446457
 30
0.0
 10
87.03947616096583
 20
-118.6394422446457
 30
0.0
 10
87.03947616096583
 20
-118.6394422446457
 30
0.0
 10
87.16832273211418
 20
-117.7929822839198
 30
0.0
 10
87.16832273211418
 20
-117.7929822839198
 30
0.0
 10
87.16832273211418
 20
-117.7929822839198
 30
0.0
 10
88.00031329180202
 20
-117.7929822839198
 30
0.0
 10
88.00031329180202
 20
-117.7929822839198
 30
0.0
 10
88.00031329180202
 20
-117.7929822839198
 30
0.0
 10
88.00031329180202
 20
-117.9876301788364
 30
0.0
 10
88.00031329180202
 20
-117.9876301788364
 30
0.0
 10
88.00031329180202
 20
-117.9876301788364
 30
0.0
 10
87.34264456366782
 20
-117.9876301788364
 30
0.0
 10
87.34264456366782
 20
-117.9876301788364
 30
0.0
 10
87.34264456366782
 20
-117.9876301788364
 30
0.0
 10
87.27236461576872
 20
-118.4106879044251
 30
0.0
 10
87.27236461576872
 20
-118.4106879044251
 30
0.0
 10
87.33782142998847
 20
-118.3769259686697
 30
0.0
 10
87.42601587441087
 20
-118.3366183514922
 30
0.0
 10
87.55279538826805
 20
-118.3366183514922
 30
0.0
 10
87.82392440295722
 20
-118.3366183514922
 30
0.0
 10
88.07713892112308
 20
-118.5229980172443
 30
0.0
 10
88.07713892112308
 20
-118.8361571968535
 30
0.0
 10
88.07713892112308
 20
-119.153450491045
 30
0.0
 10
87.83770478489822
 20
-119.3880614935905
 30
0.0
 10
87.51421031883326
 20
-119.3880614935905
 30
0.0
  0
HATCH
  5
C2
330
BD
100
AcDbEntity
  8
_U+30EC_U+30A4_U+30E4_U+30FC 1
 62
     7
420
 16777215
100
AcDbHatch
 10
0.0
 20
0.0
 30
0.0
210
0.0
220
0.0
230
1.0
  2
SOLID
 70
     1
 71
     0
 91
        1
 92
        1
 93
        1
 72
     4
 94
        3
 73
     0
 74
     1
 95
       53
 96
       49
 40
0.0
 40
0.0
 40
0.0
 40
0.0
 40
1.0
 40
1.0
 40
1.0
 40
2.0
 40
2.0
 40
2.0
 40
3.0
 40
3.0
 40
3.0
 40
4.0
 40
4.0
 40
4.0
 40
5.0
 40
5.0
 40
5.0
 40
6.0
 40
6.0
 40
6.0
 40
7.0
 40
7.0
 40
7.0
 40
8.0
 40
8.0
 40
8.0
 40
9.0
 40
9.0
 40
9.0
 40
10.0
 40
10.0
 40
10.0
 40
11.0
 40
11.0
 40
11.0
 40
12.0
 40
12.0
 40
12.0
 40
13.0
 40
13.0
 40
13.0
 40
14.0
 40
14.0
 40
14.0
 40
15.0
 40
15.0
 40
15.0
 40
16.0
 40
16.0
 40
16.0
 40
16.0
 10
87.51421031883326
 20
-119.3880614935905
 10
87.43049449854169
 20
-119.3880614935905
 10
87.32231850030485
 20
-119.3711805257128
 10
87.21345348297095
 20
-119.3077907687842
 10
87.0281073458645
 20
-119.1978922228047
 10
87.00571422521038
 20
-119.0666340848167
 10
86.98538816184741
 20
-118.9588025961284
 10
86.98538816184741
 20
-118.9588025961284
 10
87.22275524078113
 20
-118.9588025961284
 10
87.22275524078113
 20
-118.9588025961284
 10
87.28132186403037
 20
-119.1575846056273
 10
87.41705862614921
 20
-119.1872124268004
 10
87.51662188567293
 20
-119.1872124268004
 10
87.66579452018425
 20
-119.1872124268004
 10
87.82874753663657
 20
-119.0876491672767
 10
87.82874753663657
 20
-118.8551052220223
 10
87.82874753663657
 20
-118.5991346274683
 10
87.63651120855963
 20
-118.5291991891177
 10
87.50766463741128
 20
-118.5291991891177
 10
87.4735581921073
 20
-118.5291991891177
 10
87.32231850030485
 20
-118.5291991891177
 10
87.22723386491195
 20
-118.6583902698146
 10
87.22723386491195
 20
-118.6583902698146
 10
87.03947616096583
 20
-118.6394422446457
 10
87.03947616096583
 20
-118.6394422446457
 10
87.03947616096583
 20
-118.6394422446457
 10
87.16832273211418
 20
-117.7929822839198
 10
87.16832273211418
 20
-117.7929822839198
 10
87.16832273211418
 20
-117.7929822839198
 10
88.00031329180202
 20
-117.7929822839198
 10
88.00031329180202
 20
-117.7929822839198
 10
88.00031329180202
 20
-117.7929822839198
 10
88.00031329180202
 20
-117.9876301788364
 10
88.00031329180202
 20
-117.9876301788364
 10
88.00031329180202
 20
-117.9876301788364
 10
87.34264456366782
 20
-117.9876301788364
 10
87.34264456366782
 20
-117.9876301788364
 10
87.34264456366782
 20
-117.9876301788364
 10
87.27236461576872
 20
-118.4106879044251
 10
87.27236461576872
 20
-118.4106879044251
 10
87.33782142998847
 20
-118.3769259686697
 10
87.42601587441087
 20
-118.3366183514922
 10
87.55279538826805
 20
-118.3366183514922
 10
87.82392440295722
 20
-118.3366183514922
 10
88.07713892112308
 20
-118.5229980172443
 10
88.07713892112308
 20
-118.8361571968535
 10
88.07713892112308
 20
-119.153450491045
 10
87.83770478489822
 20
-119.3880614935905
 10
87.51421031883326
 20
-119.3880614935905
 97
        0
 97
        0
 75
     2
 76
     1
 98
        0
  0
ENDBLK
  5
C0
330
BD
100
AcDbEntity
  8
0
100
AcDbBlockEnd
  0
BLOCK
  5
D2
330
D0
100
AcDbEntity
  8
0
100
AcDbBlockBegin
  2
block 7
 70
     0
 10
0.0
 20
0.0
 30
0.0
  3
block 7
  1

  0
SPLINE
  5
D4
330
D0
100
AcDbEntity
  8
_U+30EC_U+30A4_U+30E4_U+30FC 1
370
     0
100
AcDbSpline
210
0.0
220
0.0
230
1.0
 70
    11
 71
     3
 72
    44
 73
    40
 74
     0
 42
0.0000000001
 43
0.0000000001
 12
1.0
 22
0.0
 32
0.0
 13
1.0
 23
0.0
 33
0.0
 40
0.0
 40
0.0
 40
0.0
 40
0.0
 40
1.0
 40
1.0
 40
1.0
 40
2.0
 40
2.0
 40
2.0
 40
3.0
 40
3.0
 40
3.0
 40
4.0
 40
4.0
 40
4.0
 40
5.0
 40
5.0
 40
5.0
 40
6.0
 40
6.0
 40
6.0
 40
7.0
 40
7.0
 40
7.0
 40
8.0
 40
8.0
 40
8.0
 40
9.0
 40
9.0
 40
9.0
 40
10.0
 40
10.0
 40
10.0
 40
11.0
 40
11.0
 40
11.0
 40
12.0
 40
12.0
 40
12.0
 40
13.0
 40
13.0
 40
13.0
 40
13.0
 10
87.16918400598549
 20
-137.4761908293462
 30
0.0
 10
86.9362955511826
 20
-137.6350097312163
 30
0.0
 10
86.83673229165888
 20
-137.7090792841491
 30
0.0
 10
86.78505585938012
 20
-137.8527397658841
 30
0.0
 10
86.78505585938012
 20
-137.8527397658841
 30
0.0
 10
87.61670190951943
 20
-137.8527397658841
 30
0.0
 10
87.61670190951943
 20
-137.8527397658841
 30
0.0
 10
87.61670190951943
 20
-137.8527397658841
 30
0.0
 10
87.61670190951943
 20
-138.0580674568049
 30
0.0
 10
87.61670190951943
 20
-138.0580674568049
 30
0.0
 10
87.61670190951943
 20
-138.0580674568049
 30
0.0
 10
86.51806095927327
 20
-138.0580674568049
 30
0.0
 10
86.51806095927327
 20
-138.0580674568049
 30
0.0
 10
86.55216740457723
 20
-137.700466545436
 30
0.0
 10
86.62210284292782
 20
-137.6222628779208
 30
0.0
 10
87.03344724386665
 20
-137.3239176088982
 30
0.0
 10
87.30698782539548
 20
-137.1251355993993
 30
0.0
 10
87.37726777329458
 20
-137.0572672183399
 30
0.0
 10
87.37726777329458
 20
-136.9198079084784
 30
0.0
 10
87.37726777329458
 20
-136.8012966237858
 30
0.0
 10
87.3004421439735
 20
-136.6703829953463
 30
0.0
 10
87.08994680982474
 20
-136.6703829953463
 30
0.0
 10
86.81192760416508
 20
-136.6703829953463
 30
0.0
 10
86.80297035590343
 20
-136.9008598833095
 30
0.0
 10
86.7984917317726
 20
-137.017304110711
 30
0.0
 10
86.7984917317726
 20
-137.017304110711
 30
0.0
 10
86.55871308599922
 20
-137.017304110711
 30
0.0
 10
86.55871308599922
 20
-137.017304110711
 30
0.0
 10
86.5680148438094
 20
-136.8901800873052
 30
0.0
 10
86.57903914936219
 20
-136.7782144840346
 30
0.0
 10
86.66516653649343
 20
-136.659703199342
 30
0.0
 10
86.78264429254045
 20
-136.4988172401809
 30
0.0
 10
86.98142630203937
 20
-136.4650553044254
 30
0.0
 10
87.10579424905688
 20
-136.4650553044254
 30
0.0
 10
87.40207246078837
 20
-136.4650553044254
 30
0.0
 10
87.62359210048994
 20
-136.6490234033377
 30
0.0
 10
87.62359210048994
 20
-136.9218749657695
 30
0.0
 10
87.62359210048994
 20
-137.1506293059901
 30
0.0
 10
87.49922415347243
 20
-137.2498480559653
 30
0.0
 10
87.16918400598549
 20
-137.4761908293462
 30
0.0
  0
HATCH
  5
D5
330
D0
100
AcDbEntity
  8
_U+30EC_U+30A4_U+30E4_U+30FC 1
 62
     7
420
 16777215
100
AcDbHatch
 10
0.0
 20
0.0
 30
0.0
210
0.0
220
0.0
230
1.0
  2
SOLID
 70
     1
 71
     0
 91
        1
 92
        1
 93
        1
 72
     4
 94
        3
 73
     0
 74
     1
 95
       44
 96
       40
 40
0.0
 40
0.0
 40
0.0
 40
0.0
 40
1.0
 40
1.0
 40
1.0
 40
2.0
 40
2.0
 40
2.0
 40
3.0
 40
3.0
 40
3.0
 40
4.0
 40
4.0
 40
4.0
 40
5.0
 40
5.0
 40
5.0
 40
6.0
 40
6.0
 40
6.0
 40
7.0
 40
7.0
 40
7.0
 40
8.0
 40
8.0
 40
8.0
 40
9.0
 40
9.0
 40
9.0
 40
10.0
 40
10.0
 40
10.0
 40
11.0
 40
11.0
 40
11.0
 40
12.0
 40
12.0
 40
12.0
 40
13.0
 40
13.0
 40
13.0
 40
13.0
 10
87.16918400598549
 20
-137.4761908293462
 10
86.9362955511826
 20
-137.6350097312163
 10
86.83673229165888
 20
-137.7090792841491
 10
86.78505585938012
 20
-137.8527397658841
 10
86.78505585938012
 20
-137.8527397658841
 10
87.61670190951943
 20
-137.8527397658841
 10
87.61670190951943
 20
-137.8527397658841
 10
87.61670190951943
 20
-137.8527397658841
 10
87.61670190951943
 20
-138.0580674568049
 10
87.61670190951943
 20
-138.0580674568049
 10
87.61670190951943
 20
-138.0580674568049
 10
86.51806095927327
 20
-138.0580674568049
 10
86.51806095927327
 20
-138.0580674568049
 10
86.55216740457723
 20
-137.700466545436
 10
86.62210284292782
 20
-137.6222628779208
 10
87.03344724386665
 20
-137.3239176088982
 10
87.30698782539548
 20
-137.1251355993993
 10
87.37726777329458
 20
-137.0572672183399
 10
87.37726777329458
 20
-136.9198079084784
 10
87.37726777329458
 20
-136.8012966237858
 10
87.3004421439735
 20
-136.6703829953463
 10
87.08994680982474
 20
-136.6703829953463
 10
86.81192760416508
 20
-136.6703829953463
 10
86.80297035590343
 20
-136.9008598833095
 10
86.7984917317726
 20
-137.017304110711
 10
86.7984917317726
 20
-137.017304110711
 10
86.55871308599922
 20
-137.017304110711
 10
86.55871308599922
 20
-137.017304110711
 10
86.5680148438094
 20
-136.8901800873052
 10
86.57903914936219
 20
-136.7782144840346
 10
86.66516653649343
 20
-136.659703199342
 10
86.78264429254045
 20
-136.4988172401809
 10
86.98142630203937
 20
-136.4650553044254
 10
87.10579424905688
 20
-136.4650553044254
 10
87.40207246078837
 20
-136.4650553044254
 10
87.62359210048994
 20
-136.6490234033377
 10
87.62359210048994
 20
-136.9218749657695
 10
87.62359210048994
 20
-137.1506293059901
 10
87.49922415347243
 20
-137.2498480559653
 10
87.16918400598549
 20
-137.4761908293462
 97
        0
 97
        0
 75
     2
 76
     1
 98
        0
  0
SPLINE
  5
D6
330
D0
100
AcDbEntity
  8
_U+30EC_U+30A4_U+30E4_U+30FC 1
370
     0
100
AcDbSpline
210
0.0
220
0.0
230
1.0
 70
    11
 71
     3
 72
    53
 73
    49
 74
     0
 42
0.0000000001
 43
0.0000000001
 12
1.0
 22
0.0
 32
0.0
 13
1.0
 23
0.0
 33
0.0
 40
0.0
 40
0.0
 40
0.0
 40
0.0
 40
1.0
 40
1.0
 40
1.0
 40
2.0
 40
2.0
 40
2.0
 40
3.0
 40
3.0
 40
3.0
 40
4.0
 40
4.0
 40
4.0
 40
5.0
 40
5.0
 40
5.0
 40
6.0
 40
6.0
 40
6.0
 40
7.0
 40
7.0
 40
7.0
 40
8.0
 40
8.0
 40
8.0
 40
9.0
 40
9.0
 40
9.0
 40
10.0
 40
10.0
 40
10.0
 40
11.0
 40
11.0
 40
11.0
 40
12.0
 40
12.0
 40
12.0
 40
13.0
 40
13.0
 40
13.0
 40
14.0
 40
14.0
 40
14.0
 40
15.0
 40
15.0
 40
15.0
 40
16.0
 40
16.0
 40
16.0
 40
16.0
 10
88.3070990447635
 20
-138.1087103604381
 30
0.0
 10
88.22372773402046
 20
-138.1087103604381
 30
0.0
 10
88.11486271668656
 20
-138.0918293925604
 30
0.0
 10
88.00668671844971
 20
-138.0284396356318
 30
0.0
 10
87.82099607179475
 20
-137.9185410896523
 30
0.0
 10
87.79860295114064
 20
-137.7872829516643
 30
0.0
 10
87.77827688777765
 20
-137.679451462976
 30
0.0
 10
87.77827688777765
 20
-137.679451462976
 30
0.0
 10
88.01564396671137
 20
-137.679451462976
 30
0.0
 10
88.01564396671137
 20
-137.679451462976
 30
0.0
 10
88.07421058996061
 20
-137.8782334724749
 30
0.0
 10
88.20994735207947
 20
-137.907861293648
 30
0.0
 10
88.30951061160319
 20
-137.907861293648
 30
0.0
 10
88.4586832461145
 20
-137.907861293648
 30
0.0
 10
88.6212917530183
 20
-137.8082980341243
 30
0.0
 10
88.6212917530183
 20
-137.57575408887
 30
0.0
 10
88.6212917530183
 20
-137.3197834943159
 30
0.0
 10
88.42939993448988
 20
-137.2498480559653
 30
0.0
 10
88.30055336334154
 20
-137.2498480559653
 30
0.0
 10
88.26644691803756
 20
-137.2498480559653
 30
0.0
 10
88.11486271668656
 20
-137.2498480559653
 30
0.0
 10
88.02012259084219
 20
-137.3790391366622
 30
0.0
 10
88.02012259084219
 20
-137.3790391366622
 30
0.0
 10
87.83236488689607
 20
-137.3600911114933
 30
0.0
 10
87.83236488689607
 20
-137.3600911114933
 30
0.0
 10
87.83236488689607
 20
-137.3600911114933
 30
0.0
 10
87.96121145804442
 20
-136.5136311507674
 30
0.0
 10
87.96121145804442
 20
-136.5136311507674
 30
0.0
 10
87.96121145804442
 20
-136.5136311507674
 30
0.0
 10
88.79320201773226
 20
-136.5136311507674
 30
0.0
 10
88.79320201773226
 20
-136.5136311507674
 30
0.0
 10
88.79320201773226
 20
-136.5136311507674
 30
0.0
 10
88.79320201773226
 20
-136.708279045684
 30
0.0
 10
88.79320201773226
 20
-136.708279045684
 30
0.0
 10
88.79320201773226
 20
-136.708279045684
 30
0.0
 10
88.13553328959806
 20
-136.708279045684
 30
0.0
 10
88.13553328959806
 20
-136.708279045684
 30
0.0
 10
88.13553328959806
 20
-136.708279045684
 30
0.0
 10
88.06525334169896
 20
-137.1313367712727
 30
0.0
 10
88.06525334169896
 20
-137.1313367712727
 30
0.0
 10
88.13071015591872
 20
-137.0975748355173
 30
0.0
 10
88.2189046003411
 20
-137.0572672183399
 30
0.0
 10
88.3456841141983
 20
-137.0572672183399
 30
0.0
 10
88.61681312888747
 20
-137.0572672183399
 30
0.0
 10
88.87002764705333
 20
-137.2436468840919
 30
0.0
 10
88.87002764705333
 20
-137.5568060637011
 30
0.0
 10
88.87002764705333
 20
-137.8740993578926
 30
0.0
 10
88.63059351082846
 20
-138.1087103604381
 30
0.0
 10
88.3070990447635
 20
-138.1087103604381
 30
0.0
  0
HATCH
  5
D7
330
D0
100
AcDbEntity
  8
_U+30EC_U+30A4_U+30E4_U+30FC 1
 62
     7
420
 16777215
100
AcDbHatch
 10
0.0
 20
0.0
 30
0.0
210
0.0
220
0.0
230
1.0
  2
SOLID
 70
     1
 71
     0
 91
        1
 92
        1
 93
        1
 72
     4
 94
        3
 73
     0
 74
     1
 95
       53
 96
       49
 40
0.0
 40
0.0
 40
0.0
 40
0.0
 40
1.0
 40
1.0
 40
1.0
 40
2.0
 40
2.0
 40
2.0
 40
3.0
 40
3.0
 40
3.0
 40
4.0
 40
4.0
 40
4.0
 40
5.0
 40
5.0
 40
5.0
 40
6.0
 40
6.0
 40
6.0
 40
7.0
 40
7.0
 40
7.0
 40
8.0
 40
8.0
 40
8.0
 40
9.0
 40
9.0
 40
9.0
 40
10.0
 40
10.0
 40
10.0
 40
11.0
 40
11.0
 40
11.0
 40
12.0
 40
12.0
 40
12.0
 40
13.0
 40
13.0
 40
13.0
 40
14.0
 40
14.0
 40
14.0
 40
15.0
 40
15.0
 40
15.0
 40
16.0
 40
16.0
 40
16.0
 40
16.0
 10
88.3070990447635
 20
-138.1087103604381
 10
88.22372773402046
 20
-138.1087103604381
 10
88.11486271668656
 20
-138.0918293925604
 10
88.00668671844971
 20
-138.0284396356318
 10
87.82099607179475
 20
-137.9185410896523
 10
87.79860295114064
 20
-137.7872829516643
 10
87.77827688777765
 20
-137.679451462976
 10
87.77827688777765
 20
-137.679451462976
 10
88.01564396671137
 20
-137.679451462976
 10
88.01564396671137
 20
-137.679451462976
 10
88.07421058996061
 20
-137.8782334724749
 10
88.20994735207947
 20
-137.907861293648
 10
88.30951061160319
 20
-137.907861293648
 10
88.4586832461145
 20
-137.907861293648
 10
88.6212917530183
 20
-137.8082980341243
 10
88.6212917530183
 20
-137.57575408887
 10
88.6212917530183
 20
-137.3197834943159
 10
88.42939993448988
 20
-137.2498480559653
 10
88.30055336334154
 20
-137.2498480559653
 10
88.26644691803756
 20
-137.2498480559653
 10
88.11486271668656
 20
-137.2498480559653
 10
88.02012259084219
 20
-137.3790391366622
 10
88.02012259084219
 20
-137.3790391366622
 10
87.83236488689607
 20
-137.3600911114933
 10
87.83236488689607
 20
-137.3600911114933
 10
87.83236488689607
 20
-137.3600911114933
 10
87.96121145804442
 20
-136.5136311507674
 10
87.96121145804442
 20
-136.5136311507674
 10
87.96121145804442
 20
-136.5136311507674
 10
88.79320201773226
 20
-136.5136311507674
 10
88.79320201773226
 20
-136.5136311507674
 10
88.79320201773226
 20
-136.5136311507674
 10
88.79320201773226
 20
-136.708279045684
 10
88.79320201773226
 20
-136.708279045684
 10
88.79320201773226
 20
-136.708279045684
 10
88.13553328959806
 20
-136.708279045684
 10
88.13553328959806
 20
-136.708279045684
 10
88.13553328959806
 20
-136.708279045684
 10
88.06525334169896
 20
-137.1313367712727
 10
88.06525334169896
 20
-137.1313367712727
 10
88.13071015591872
 20
-137.0975748355173
 10
88.2189046003411
 20
-137.0572672183399
 10
88.3456841141983
 20
-137.0572672183399
 10
88.61681312888747
 20
-137.0572672183399
 10
88.87002764705333
 20
-137.2436468840919
 10
88.87002764705333
 20
-137.5568060637011
 10
88.87002764705333
 20
-137.8740993578926
 10
88.63059351082846
 20
-138.1087103604381
 10
88.3070990447635
 20
-138.1087103604381
 97
        0
 97
        0
 75
     2
 76
     1
 98
        0
  0
ENDBLK
  5
D3
330
D0
100
AcDbEntity
  8
0
100
AcDbBlockEnd
  0
ENDSEC
  0
SECTION
  2
ENTITIES
  0
POLYLINE
  5
41
330
1F
100
AcDbEntity
  8
_U+30EC_U+30A4_U+30E4_U+30FC 1
 62
   253
420
 11711154
370
     9
100
AcDb2dPolyline
 66
     1
 10
0.0
 20
0.0
 30
0.0
  0
VERTEX
  5
42
330
41
100
AcDbEntity
  8
_U+30EC_U+30A4_U+30E4_U+30FC 1
 62
   253
420
 11711154
370
     9
100
AcDbVertex
100
AcDb2dVertex
 10
89.88943354006283
 20
-124.8213149687947
 30
0.0
  0
VERTEX
  5
43
330
41
100
AcDbEntity
  8
_U+30EC_U+30A4_U+30E4_U+30FC 1
 62
   253
420
 11711154
370
     9
100
AcDbVertex
100
AcDb2dVertex
 10
84.97188783218654
 20
-124.8213149687947
 30
0.0
  0
VERTEX
  5
44
330
41
100
AcDbEntity
  8
_U+30EC_U+30A4_U+30E4_U+30FC 1
 62
   253
420
 11711154
370
     9
100
AcDbVertex
100
AcDb2dVertex
 10
84.97188783218654
 20
-121.9064180250789
 30
0.0
  0
VERTEX
  5
45
330
41
100
AcDbEntity
  8
_U+30EC_U+30A4_U+30E4_U+30FC 1
 62
   253
420
 11711154
370
     9
100
AcDbVertex
100
AcDb2dVertex
 10
89.88943354006283
 20
-121.9064180250789
 30
0.0
  0
VERTEX
  5
46
330
41
100
AcDbEntity
  8
_U+30EC_U+30A4_U+30E4_U+30FC 1
 62
   253
420
 11711154
370
     9
100
AcDbVertex
100
AcDb2dVertex
 10
89.88943354006283
 20
-124.8213149687947
 30
0.0
  0
SEQEND
  5
48
330
41
100
AcDbEntity
  8
_U+30EC_U+30A4_U+30E4_U+30FC 1
 62
   253
420
 11711154
370
     9
  0
HATCH
  5
47
330
1F
100
AcDbEntity
  8
_U+30EC_U+30A4_U+30E4_U+30FC 1
 62
   253
420
 11711154
100
AcDbHatch
 10
0.0
 20
0.0
 30
0.0
210
0.0
220
0.0
230
1.0
  2
SOLID
 70
     1
 71
     0
 91
        1
 92
        1
 93
        4
 72
     1
 10
89.88943354006283
 20
-124.8213149687947
 11
84.97188783218654
 21
-124.8213149687947
 72
     1
 10
84.97188783218654
 20
-124.8213149687947
 11
84.97188783218654
 21
-121.9064180250789
 72
     1
 10
84.97188783218654
 20
-121.9064180250789
 11
89.88943354006283
 21
-121.9064180250789
 72
     1
 10
89.88943354006283
 20
-121.9064180250789
 11
89.88943354006283
 21
-124.8213149687947
 97
        0
 75
     2
 76
     1
 98
        0
  0
POLYLINE
  5
49
330
1F
100
AcDbEntity
  8
_U+30EC_U+30A4_U+30E4_U+30FC 1
 62
   253
420
 11711154
370
     9
100
AcDb2dPolyline
 66
     1
 10
0.0
 20
0.0
 30
0.0
  0
VERTEX
  5
4A
330
49
100
AcDbEntity
  8
_U+30EC_U+30A4_U+30E4_U+30FC 1
 62
   253
420
 11711154
370
     9
100
AcDbVertex
100
AcDb2dVertex
 10
87.81926303732172
 20
-135.370887466157
 30
0.0
  0
VERTEX
  5
4B
330
49
100
AcDbEntity
  8
_U+30EC_U+30A4_U+30E4_U+30FC 1
 62
   253
420
 11711154
370
     9
100
AcDbVertex
100
AcDb2dVertex
 10
87.01655250224502
 20
-135.370887466157
 30
0.0
  0
VERTEX
  5
4C
330
49
100
AcDbEntity
  8
_U+30EC_U+30A4_U+30E4_U+30FC 1
 62
   253
420
 11711154
370
     9
100
AcDbVertex
100
AcDb2dVertex
 10
87.01655250224502
 20
-124.588093579964
 30
0.0
  0
VERTEX
  5
4D
330
49
100
AcDbEntity
  8
_U+30EC_U+30A4_U+30E4_U+30FC 1
 62
   253
420
 11711154
370
     9
100
AcDbVertex
100
AcDb2dVertex
 10
87.81926303732172
 20
-124.588093579964
 30
0.0
  0
VERTEX
  5
4E
330
49
100
AcDbEntity
  8
_U+30EC_U+30A4_U+30E4_U+30FC 1
 62
   253
420
 11711154
370
     9
100
AcDbVertex
100
AcDb2dVertex
 10
87.81926303732172
 20
-135.370887466157
 30
0.0
  0
SEQEND
  5
50
330
49
100
AcDbEntity
  8
_U+30EC_U+30A4_U+30E4_U+30FC 1
 62
   253
420
 11711154
370
     9
  0
HATCH
  5
4F
330
1F
100
AcDbEntity
  8
_U+30EC_U+30A4_U+30E4_U+30FC 1
 62
   253
420
 11711154
100
AcDbHatch
 10
0.0
 20
0.0
 30
0.0
210
0.0
220
0.0
230
1.0
  2
SOLID
 70
     1
 71
     0
 91
        1
 92
        1
 93
        4
 72
     1
 10
87.81926303732172
 20
-135.370887466157
 11
87.01655250224502
 21
-135.370887466157
 72
     1
 10
87.01655250224502
 20
-135.370887466157
 11
87.01655250224502
 21
-124.588093579964
 72
     1
 10
87.01655250224502
 20
-124.588093579964
 11
87.81926303732172
 21
-124.588093579964
 72
     1
 10
87.81926303732172
 20
-124.588093579964
 11
87.81926303732172
 21
-135.370887466157
 97
        0
 75
     2
 76
     1
 98
        0
  0
POLYLINE
  5
51
330
1F
100
AcDbEntity
  8
_U+30EC_U+30A4_U+30E4_U+30FC 1
 62
   253
420
 11711154
370
     9
100
AcDb2dPolyline
 66
     1
 10
0.0
 20
0.0
 30
0.0
  0
VERTEX
  5
52
330
51
100
AcDbEntity
  8
_U+30EC_U+30A4_U+30E4_U+30FC 1
 62
   253
420
 11711154
370
     9
100
AcDbVertex
100
AcDb2dVertex
 10
99.90327745125505
 20
-135.3261199661685
 30
0.0
  0
VERTEX
  5
53
330
51
100
AcDbEntity
  8
_U+30EC_U+30A4_U+30E4_U+30FC 1
 62
   253
420
 11711154
370
     9
100
AcDbVertex
100
AcDb2dVertex
 10
74.95529225439785
 20
-135.3261199661685
 30
0.0
  0
VERTEX
  5
54
330
51
100
AcDbEntity
  8
_U+30EC_U+30A4_U+30E4_U+30FC 1
 62
   253
420
 11711154
370
     9
100
AcDbVertex
100
AcDb2dVertex
 10
74.95529225439785
 20
-134.3449391330802
 30
0.0
  0
VERTEX
  5
55
330
51
100
AcDbEntity
  8
_U+30EC_U+30A4_U+30E4_U+30FC 1
 62
   253
420
 11711154
370
     9
100
AcDbVertex
100
AcDb2dVertex
 10
99.90327745125505
 20
-134.3449391330802
 30
0.0
  0
VERTEX
  5
56
330
51
100
AcDbEntity
  8
_U+30EC_U+30A4_U+30E4_U+30FC 1
 62
   253
420
 11711154
370
     9
100
AcDbVertex
100
AcDb2dVertex
 10
99.90327745125505
 20
-135.3261199661685
 30
0.0
  0
SEQEND
  5
58
330
51
100
AcDbEntity
  8
_U+30EC_U+30A4_U+30E4_U+30FC 1
 62
   253
420
 11711154
370
     9
  0
HATCH
  5
57
330
1F
100
AcDbEntity
  8
_U+30EC_U+30A4_U+30E4_U+30FC 1
 62
   253
420
 11711154
100
AcDbHatch
 10
0.0
 20
0.0
 30
0.0
210
0.0
220
0.0
230
1.0
  2
SOLID
 70
     1
 71
     0
 91
        1
 92
        1
 93
        4
 72
     1
 10
99.90327745125505
 20
-135.3261199661685
 11
74.95529225439785
 21
-135.3261199661685
 72
     1
 10
74.95529225439785
 20
-135.3261199661685
 11
74.95529225439785
 21
-134.3449391330802
 72
     1
 10
74.95529225439785
 20
-134.3449391330802
 11
99.90327745125505
 21
-134.3449391330802
 72
     1
 10
99.90327745125505
 20
-134.3449391330802
 11
99.90327745125505
 21
-135.3261199661685
 97
        0
 75
     2
 76
     1
 98
        0
  0
SPLINE
  5
59
330
1F
100
AcDbEntity
  8
_U+30EC_U+30A4_U+30E4_U+30FC 1
 62
     7
420
 16777215
370
     9
100
AcDbSpline
210
0.0
220
0.0
230
1.0
 70
    11
 71
     3
 72
    17
 73
    13
 74
     0
 42
0.0000000001
 43
0.0000000001
 12
1.0
 22
0.0
 32
0.0
 13
1.0
 23
0.0
 33
0.0
 40
0.0
 40
0.0
 40
0.0
 40
0.0
 40
1.0
 40
1.0
 40
1.0
 40
2.0
 40
2.0
 40
2.0
 40
3.0
 40
3.0
 40
3.0
 40
4.0
 40
4.0
 40
4.0
 40
4.0
 10
102.6352590482231
 20
-124.8726441354484
 30
0.0
 10
102.6352590482231
 20
-124.8175402465735
 30
0.0
 10
102.5904562715883
 20
-124.7727374688068
 30
0.0
 10
102.5353523841052
 20
-124.7727374688068
 30
0.0
 10
102.4802132188453
 20
-124.7727374688068
 30
0.0
 10
102.4354457199874
 20
-124.8175402465735
 30
0.0
 10
102.4354457199874
 20
-124.8726441354484
 30
0.0
 10
102.4354457199874
 20
-124.9284535798791
 30
0.0
 10
102.4802132188453
 20
-124.9732563576456
 30
0.0
 10
102.5353523841052
 20
-124.9732563576456
 30
0.0
 10
102.5904562715883
 20
-124.9732563576456
 30
0.0
 10
102.6352590482231
 20
-124.9284535798791
 30
0.0
 10
102.6352590482231
 20
-124.8726441354484
 30
0.0
  0
POLYLINE
  5
5A
330
1F
100
AcDbEntity
  8
_U+30EC_U+30A4_U+30E4_U+30FC 1
 62
     7
420
 16777215
370
     9
100
AcDb2dPolyline
 66
     1
 10
0.0
 20
0.0
 30
0.0
  0
VERTEX
  5
5B
330
5A
100
AcDbEntity
  8
_U+30EC_U+30A4_U+30E4_U+30FC 1
 62
     7
420
 16777215
370
     9
100
AcDbVertex
100
AcDb2dVertex
 10
102.5353523841052
 20
-124.7727374688068
 30
0.0
  0
VERTEX
  5
5C
330
5A
100
AcDbEntity
  8
_U+30EC_U+30A4_U+30E4_U+30FC 1
 62
     7
420
 16777215
370
     9
100
AcDbVertex
100
AcDb2dVertex
 10
102.5353523841052
 20
-121.7720802473347
 30
0.0
  0
SEQEND
  5
5D
330
5A
100
AcDbEntity
  8
_U+30EC_U+30A4_U+30E4_U+30FC 1
 62
     7
420
 16777215
370
     9
  0
POLYLINE
  5
5E
330
1F
100
AcDbEntity
  8
_U+30EC_U+30A4_U+30E4_U+30FC 1
 62
     7
420
 16777215
370
     9
100
AcDb2dPolyline
 66
     1
 10
0.0
 20
0.0
 30
0.0
  0
VERTEX
  5
5F
330
5E
100
AcDbEntity
  8
_U+30EC_U+30A4_U+30E4_U+30FC 1
 62
     7
420
 16777215
370
     9
100
AcDbVertex
100
AcDb2dVertex
 10
91.38940933512859
 20
-124.8726441354484
 30
0.0
  0
VERTEX
  5
60
330
5E
100
AcDbEntity
  8
_U+30EC_U+30A4_U+30E4_U+30FC 1
 62
     7
420
 16777215
370
     9
100
AcDbVertex
100
AcDb2dVertex
 10
103.2484926436893
 20
-124.8726441354484
 30
0.0
  0
SEQEND
  5
61
330
5E
100
AcDbEntity
  8
_U+30EC_U+30A4_U+30E4_U+30FC 1
 62
     7
420
 16777215
370
     9
  0
SPLINE
  5
62
330
1F
100
AcDbEntity
  8
_U+30EC_U+30A4_U+30E4_U+30FC 1
 62
     7
420
 16777215
370
     9
100
AcDbSpline
210
0.0
220
0.0
230
1.0
 70
    11
 71
     3
 72
    17
 73
    13
 74
     0
 42
0.0000000001
 43
0.0000000001
 12
1.0
 22
0.0
 32
0.0
 13
1.0
 23
0.0
 33
0.0
 40
0.0
 40
0.0
 40
0.0
 40
0.0
 40
1.0
 40
1.0
 40
1.0
 40
2.0
 40
2.0
 40
2.0
 40
3.0
 40
3.0
 40
3.0
 40
4.0
 40
4.0
 40
4.0
 40
4.0
 10
102.6352590482231
 20
-121.8719869139764
 30
0.0
 10
102.6352590482231
 20
-121.8168477473236
 30
0.0
 10
102.5904562715883
 20
-121.7720802473347
 30
0.0
 10
102.5353523841052
 20
-121.7720802473347
 30
0.0
 10
102.4802132188453
 20
-121.7720802473347
 30
0.0
 10
102.4354457199874
 20
-121.8168477473236
 30
0.0
 10
102.4354457199874
 20
-121.8719869139764
 30
0.0
 10
102.4354457199874
 20
-121.9277963584068
 30
0.0
 10
102.4802132188453
 20
-121.9725638583957
 30
0.0
 10
102.5353523841052
 20
-121.9725638583957
 30
0.0
 10
102.5904562715883
 20
-121.9725638583957
 30
0.0
 10
102.6352590482231
 20
-121.9277963584068
 30
0.0
 10
102.6352590482231
 20
-121.8719869139764
 30
0.0
  0
POLYLINE
  5
63
330
1F
100
AcDbEntity
  8
_U+30EC_U+30A4_U+30E4_U+30FC 1
 62
     7
420
 16777215
370
     9
100
AcDb2dPolyline
 66
     1
 10
0.0
 20
0.0
 30
0.0
  0
VERTEX
  5
64
330
63
100
AcDbEntity
  8
_U+30EC_U+30A4_U+30E4_U+30FC 1
 62
     7
420
 16777215
370
     9
100
AcDbVertex
100
AcDb2dVertex
 10
91.38940933512859
 20
-121.8719869139764
 30
0.0
  0
VERTEX
  5
65
330
63
100
AcDbEntity
  8
_U+30EC_U+30A4_U+30E4_U+30FC 1
 62
     7
420
 16777215
370
     9
100
AcDbVertex
100
AcDb2dVertex
 10
106.9505805288177
 20
-121.8719869139764
 30
0.0
  0
SEQEND
  5
66
330
63
100
AcDbEntity
  8
_U+30EC_U+30A4_U+30E4_U+30FC 1
 62
     7
420
 16777215
370
     9
  0
INSERT
  5
68
330
1F
100
AcDbEntity
  8
_U+30EC_U+30A4_U+30E4_U+30FC 1
100
AcDbBlockReference
  2
block 2
 10
0.0
 20
0.0
 30
0.0
  0
SPLINE
  5
6D
330
1F
100
AcDbEntity
  8
_U+30EC_U+30A4_U+30E4_U+30FC 1
 62
     7
420
 16777215
370
     9
100
AcDbSpline
210
0.0
220
0.0
230
1.0
 70
    11
 71
     3
 72
    17
 73
    13
 74
     0
 42
0.0000000001
 43
0.0000000001
 12
1.0
 22
0.0
 32
0.0
 13
1.0
 23
0.0
 33
0.0
 40
0.0
 40
0.0
 40
0.0
 40
0.0
 40
1.0
 40
1.0
 40
1.0
 40
2.0
 40
2.0
 40
2.0
 40
3.0
 40
3.0
 40
3.0
 40
4.0
 40
4.0
 40
4.0
 40
4.0
 10
102.6352590482231
 20
-134.3449391330802
 30
0.0
 10
102.6352590482231
 20
-134.2898352442053
 30
0.0
 10
102.5904562715883
 20
-134.2450324664386
 30
0.0
 10
102.5353523841052
 20
-134.2450324664386
 30
0.0
 10
102.4802132188453
 20
-134.2450324664386
 30
0.0
 10
102.4354457199874
 20
-134.2898352442053
 30
0.0
 10
102.4354457199874
 20
-134.3449391330802
 30
0.0
 10
102.4354457199874
 20
-134.4007485775107
 30
0.0
 10
102.4802132188453
 20
-134.4455513552774
 30
0.0
 10
102.5353523841052
 20
-134.4455513552774
 30
0.0
 10
102.5904562715883
 20
-134.4455513552774
 30
0.0
 10
102.6352590482231
 20
-134.4007485775107
 30
0.0
 10
102.6352590482231
 20
-134.3449391330802
 30
0.0
  0
POLYLINE
  5
6E
330
1F
100
AcDbEntity
  8
_U+30EC_U+30A4_U+30E4_U+30FC 1
 62
     7
420
 16777215
370
     9
100
AcDb2dPolyline
 66
     1
 10
0.0
 20
0.0
 30
0.0
  0
VERTEX
  5
6F
330
6E
100
AcDbEntity
  8
_U+30EC_U+30A4_U+30E4_U+30FC 1
 62
     7
420
 16777215
370
     9
100
AcDbVertex
100
AcDb2dVertex
 10
102.5353523841052
 20
-134.2450324664386
 30
0.0
  0
VERTEX
  5
70
330
6E
100
AcDbEntity
  8
_U+30EC_U+30A4_U+30E4_U+30FC 1
 62
     7
420
 16777215
370
     9
100
AcDbVertex
100
AcDb2dVertex
 10
102.5353523841052
 20
-125.0366505242962
 30
0.0
  0
SEQEND
  5
71
330
6E
100
AcDbEntity
  8
_U+30EC_U+30A4_U+30E4_U+30FC 1
 62
     7
420
 16777215
370
     9
  0
POLYLINE
  5
72
330
1F
100
AcDbEntity
  8
_U+30EC_U+30A4_U+30E4_U+30FC 1
 62
     7
420
 16777215
370
     9
100
AcDb2dPolyline
 66
     1
 10
0.0
 20
0.0
 30
0.0
  0
VERTEX
  5
73
330
72
100
AcDbEntity
  8
_U+30EC_U+30A4_U+30E4_U+30FC 1
 62
     7
420
 16777215
370
     9
100
AcDbVertex
100
AcDb2dVertex
 10
101.0753110324651
 20
-134.3449391330802
 30
0.0
  0
VERTEX
  5
74
330
72
100
AcDbEntity
  8
_U+30EC_U+30A4_U+30E4_U+30FC 1
 62
     7
420
 16777215
370
     9
100
AcDbVertex
100
AcDb2dVertex
 10
106.8616805288405
 20
-134.3449391330802
 30
0.0
  0
SEQEND
  5
75
330
72
100
AcDbEntity
  8
_U+30EC_U+30A4_U+30E4_U+30FC 1
 62
     7
420
 16777215
370
     9
  0
INSERT
  5
77
330
1F
100
AcDbEntity
  8
_U+30EC_U+30A4_U+30E4_U+30FC 1
100
AcDbBlockReference
  2
block 3
 10
0.0
 20
0.0
 30
0.0
  0
SPLINE
  5
87
330
1F
100
AcDbEntity
  8
_U+30EC_U+30A4_U+30E4_U+30FC 1
 62
     7
420
 16777215
370
     9
100
AcDbSpline
210
0.0
220
0.0
230
1.0
 70
    11
 71
     3
 72
    17
 73
    13
 74
     0
 42
0.0000000001
 43
0.0000000001
 12
1.0
 22
0.0
 32
0.0
 13
1.0
 23
0.0
 33
0.0
 40
0.0
 40
0.0
 40
0.0
 40
0.0
 40
1.0
 40
1.0
 40
1.0
 40
2.0
 40
2.0
 40
2.0
 40
3.0
 40
3.0
 40
3.0
 40
4.0
 40
4.0
 40
4.0
 40
4.0
 10
105.8805322987626
 20
-134.3153057997547
 30
0.0
 10
105.8805322987626
 20
-134.2602019108791
 30
0.0
 10
105.8357295221278
 20
-134.215399133113
 30
0.0
 10
105.7806256346447
 20
-134.215399133113
 30
0.0
 10
105.7254864693848
 20
-134.215399133113
 30
0.0
 10
105.6807189705269
 20
-134.2602019108791
 30
0.0
 10
105.6807189705269
 20
-134.3153057997547
 30
0.0
 10
105.6807189705269
 20
-134.3711152441851
 30
0.0
 10
105.7254864693848
 20
-134.4159180219519
 30
0.0
 10
105.7806256346447
 20
-134.4159180219519
 30
0.0
 10
105.8357295221278
 20
-134.4159180219519
 30
0.0
 10
105.8805322987626
 20
-134.3711152441851
 30
0.0
 10
105.8805322987626
 20
-134.3153057997547
 30
0.0
  0
POLYLINE
  5
88
330
1F
100
AcDbEntity
  8
_U+30EC_U+30A4_U+30E4_U+30FC 1
 62
     7
420
 16777215
370
     9
100
AcDb2dPolyline
 66
     1
 10
0.0
 20
0.0
 30
0.0
  0
VERTEX
  5
89
330
88
100
AcDbEntity
  8
_U+30EC_U+30A4_U+30E4_U+30FC 1
 62
     7
420
 16777215
370
     9
100
AcDbVertex
100
AcDb2dVertex
 10
105.7806256346447
 20
-134.215399133113
 30
0.0
  0
VERTEX
  5
8A
330
88
100
AcDbEntity
  8
_U+30EC_U+30A4_U+30E4_U+30FC 1
 62
     7
420
 16777215
370
     9
100
AcDbVertex
100
AcDb2dVertex
 10
105.7806256346447
 20
-122.0063246917205
 30
0.0
  0
SEQEND
  5
8B
330
88
100
AcDbEntity
  8
_U+30EC_U+30A4_U+30E4_U+30FC 1
 62
     7
420
 16777215
370
     9
  0
SPLINE
  5
8C
330
1F
100
AcDbEntity
  8
_U+30EC_U+30A4_U+30E4_U+30FC 1
 62
     7
420
 16777215
370
     9
100
AcDbSpline
210
0.0
220
0.0
230
1.0
 70
    11
 71
     3
 72
    17
 73
    13
 74
     0
 42
0.0000000001
 43
0.0000000001
 12
1.0
 22
0.0
 32
0.0
 13
1.0
 23
0.0
 33
0.0
 40
0.0
 40
0.0
 40
0.0
 40
0.0
 40
1.0
 40
1.0
 40
1.0
 40
2.0
 40
2.0
 40
2.0
 40
3.0
 40
3.0
 40
3.0
 40
4.0
 40
4.0
 40
4.0
 40
4.0
 10
105.8805322987626
 20
-121.8712813584212
 30
0.0
 10
105.8805322987626
 20
-121.8161774695459
 30
0.0
 10
105.8357295221278
 20
-121.7713746917795
 30
0.0
 10
105.7806256346447
 20
-121.7713746917795
 30
0.0
 10
105.7254864693848
 20
-121.7713746917795
 30
0.0
 10
105.6807189705269
 20
-121.8161774695459
 30
0.0
 10
105.6807189705269
 20
-121.8712813584212
 30
0.0
 10
105.6807189705269
 20
-121.9270908028516
 30
0.0
 10
105.7254864693848
 20
-121.971893580618
 30
0.0
 10
105.7806256346447
 20
-121.971893580618
 30
0.0
 10
105.8357295221278
 20
-121.971893580618
 30
0.0
 10
105.8805322987626
 20
-121.9270908028516
 30
0.0
 10
105.8805322987626
 20
-121.8712813584212
 30
0.0
  0
SPLINE
  5
8D
330
1F
100
AcDbEntity
  8
_U+30EC_U+30A4_U+30E4_U+30FC 1
 62
     7
420
 16777215
370
     9
100
AcDbSpline
210
0.0
220
0.0
230
1.0
 70
    11
 71
     3
 72
    17
 73
    13
 74
     0
 42
0.0000000001
 43
0.0000000001
 12
1.0
 22
0.0
 32
0.0
 13
1.0
 23
0.0
 33
0.0
 40
0.0
 40
0.0
 40
0.0
 40
0.0
 40
1.0
 40
1.0
 40
1.0
 40
2.0
 40
2.0
 40
2.0
 40
3.0
 40
3.0
 40
3.0
 40
4.0
 40
4.0
 40
4.0
 40
4.0
 10
105.8805322987626
 20
-135.3839755217098
 30
0.0
 10
105.8805322987626
 20
-135.3288716328342
 30
0.0
 10
105.8357295221278
 20
-135.2840688550681
 30
0.0
 10
105.7806256346447
 20
-135.2840688550681
 30
0.0
 10
105.7254864693848
 20
-135.2840688550681
 30
0.0
 10
105.6807189705269
 20
-135.3288716328342
 30
0.0
 10
105.6807189705269
 20
-135.3839755217098
 30
0.0
 10
105.6807189705269
 20
-135.4397849661402
 30
0.0
 10
105.7254864693848
 20
-135.484587743907
 30
0.0
 10
105.7806256346447
 20
-135.484587743907
 30
0.0
 10
105.8357295221278
 20
-135.484587743907
 30
0.0
 10
105.8805322987626
 20
-135.4397849661402
 30
0.0
 10
105.8805322987626
 20
-135.3839755217098
 30
0.0
  0
SPLINE
  5
8E
330
1F
100
AcDbEntity
  8
_U+30EC_U+30A4_U+30E4_U+30FC 1
 62
     7
420
 16777215
370
     9
100
AcDbSpline
210
0.0
220
0.0
230
1.0
 70
    11
 71
     3
 72
    17
 73
    13
 74
     0
 42
0.0000000001
 43
0.0000000001
 12
1.0
 22
0.0
 32
0.0
 13
1.0
 23
0.0
 33
0.0
 40
0.0
 40
0.0
 40
0.0
 40
0.0
 40
1.0
 40
1.0
 40
1.0
 40
2.0
 40
2.0
 40
2.0
 40
3.0
 40
3.0
 40
3.0
 40
4.0
 40
4.0
 40
4.0
 40
4.0
 10
100.0080171708051
 20
-138.6512974653371
 30
0.0
 10
100.0080171708051
 20
-138.5961935764622
 30
0.0
 10
99.96324967194725
 20
-138.5513907986955
 30
0.0
 10
99.90811050668731
 20
-138.5513907986955
 30
0.0
 10
99.85300661920424
 20
-138.5513907986955
 30
0.0
 10
99.80820384256947
 20
-138.5961935764622
 30
0.0
 10
99.80820384256947
 20
-138.6512974653371
 30
0.0
 10
99.80820384256947
 20
-138.7071069097675
 30
0.0
 10
99.85300661920424
 20
-138.7519096875342
 30
0.0
 10
99.90811050668731
 20
-138.7519096875342
 30
0.0
 10
99.96324967194725
 20
-138.7519096875342
 30
0.0
 10
100.0080171708051
 20
-138.7071069097675
 30
0.0
 10
100.0080171708051
 20
-138.6512974653371
 30
0.0
  0
POLYLINE
  5
8F
330
1F
100
AcDbEntity
  8
_U+30EC_U+30A4_U+30E4_U+30FC 1
 62
     7
420
 16777215
370
     9
100
AcDb2dPolyline
 66
     1
 10
0.0
 20
0.0
 30
0.0
  0
VERTEX
  5
90
330
8F
100
AcDbEntity
  8
_U+30EC_U+30A4_U+30E4_U+30FC 1
 62
     7
420
 16777215
370
     9
100
AcDbVertex
100
AcDb2dVertex
 10
105.7806256346447
 20
-135.2840688550681
 30
0.0
  0
VERTEX
  5
91
330
8F
100
AcDbEntity
  8
_U+30EC_U+30A4_U+30E4_U+30FC 1
 62
     7
420
 16777215
370
     9
100
AcDbVertex
100
AcDb2dVertex
 10
105.7806256346447
 20
-134.2839791330954
 30
0.0
  0
SEQEND
  5
92
330
8F
100
AcDbEntity
  8
_U+30EC_U+30A4_U+30E4_U+30FC 1
 62
     7
420
 16777215
370
     9
  0
POLYLINE
  5
93
330
1F
100
AcDbEntity
  8
_U+30EC_U+30A4_U+30E4_U+30FC 1
 62
     7
420
 16777215
370
     9
100
AcDb2dPolyline
 66
     1
 10
0.0
 20
0.0
 30
0.0
  0
VERTEX
  5
94
330
93
100
AcDbEntity
  8
_U+30EC_U+30A4_U+30E4_U+30FC 1
 62
     7
420
 16777215
370
     9
100
AcDbVertex
100
AcDb2dVertex
 10
104.3205842830046
 20
-135.3839755217098
 30
0.0
  0
VERTEX
  5
95
330
93
100
AcDbEntity
  8
_U+30EC_U+30A4_U+30E4_U+30FC 1
 62
     7
420
 16777215
370
     9
100
AcDbVertex
100
AcDb2dVertex
 10
106.7803978313606
 20
-135.3839755217098
 30
0.0
  0
SEQEND
  5
96
330
93
100
AcDbEntity
  8
_U+30EC_U+30A4_U+30E4_U+30FC 1
 62
     7
420
 16777215
370
     9
  0
INSERT
  5
98
330
1F
100
AcDbEntity
  8
_U+30EC_U+30A4_U+30E4_U+30FC 1
100
AcDbBlockReference
  2
block 4
 10
0.0
 20
0.0
 30
0.0
  0
INSERT
  5
9E
330
1F
100
AcDbEntity
  8
_U+30EC_U+30A4_U+30E4_U+30FC 1
100
AcDbBlockReference
  2
block 5
 10
0.0
 20
0.0
 30
0.0
  0
SPLINE
  5
AF
330
1F
100
AcDbEntity
  8
_U+30EC_U+30A4_U+30E4_U+30FC 1
 62
     7
420
 16777215
370
     9
100
AcDbSpline
210
0.0
220
0.0
230
1.0
 70
    11
 71
     3
 72
    17
 73
    13
 74
     0
 42
0.0000000001
 43
0.0000000001
 12
1.0
 22
0.0
 32
0.0
 13
1.0
 23
0.0
 33
0.0
 40
0.0
 40
0.0
 40
0.0
 40
0.0
 40
1.0
 40
1.0
 40
1.0
 40
2.0
 40
2.0
 40
2.0
 40
3.0
 40
3.0
 40
3.0
 40
4.0
 40
4.0
 40
4.0
 40
4.0
 10
85.02046533094722
 20
-119.9323794144613
 30
0.0
 10
85.02046533094722
 20
-119.8772755255861
 30
0.0
 10
84.97569997875615
 20
-119.8324727478197
 30
0.0
 10
84.9205586668294
 20
-119.8324727478197
 30
0.0
 10
84.86545477934632
 20
-119.8324727478197
 30
0.0
 10
84.82065200271155
 20
-119.8772755255861
 30
0.0
 10
84.82065200271155
 20
-119.9323794144613
 30
0.0
 10
84.82065200271155
 20
-119.9881888588918
 30
0.0
 10
84.86545477934632
 20
-120.0329916366585
 30
0.0
 10
84.9205586668294
 20
-120.0329916366585
 30
0.0
 10
84.97569997875615
 20
-120.0329916366585
 30
0.0
 10
85.02046533094722
 20
-119.9881888588918
 30
0.0
 10
85.02046533094722
 20
-119.9323794144613
 30
0.0
  0
SPLINE
  5
B0
330
1F
100
AcDbEntity
  8
_U+30EC_U+30A4_U+30E4_U+30FC 1
 62
     7
420
 16777215
370
     9
100
AcDbSpline
210
0.0
220
0.0
230
1.0
 70
    11
 71
     3
 72
    17
 73
    13
 74
     0
 42
0.0000000001
 43
0.0000000001
 12
1.0
 22
0.0
 32
0.0
 13
1.0
 23
0.0
 33
0.0
 40
0.0
 40
0.0
 40
0.0
 40
0.0
 40
1.0
 40
1.0
 40
1.0
 40
2.0
 40
2.0
 40
2.0
 40
3.0
 40
3.0
 40
3.0
 40
4.0
 40
4.0
 40
4.0
 40
4.0
 10
90.03446048080733
 20
-119.9344608033497
 30
0.0
 10
90.03446048080733
 20
-119.879321636697
 30
0.0
 10
89.98969298194945
 20
-119.8345541367081
 30
0.0
 10
89.93455381668949
 20
-119.8345541367081
 30
0.0
 10
89.87944992920642
 20
-119.8345541367081
 30
0.0
 10
89.83464715257166
 20
-119.879321636697
 30
0.0
 10
89.83464715257166
 20
-119.9344608033497
 30
0.0
 10
89.83464715257166
 20
-119.9902702477802
 30
0.0
 10
89.87944992920642
 20
-120.0350377477691
 30
0.0
 10
89.93455381668949
 20
-120.0350377477691
 30
0.0
 10
89.98969298194945
 20
-120.0350377477691
 30
0.0
 10
90.03446048080733
 20
-119.9902702477802
 30
0.0
 10
90.03446048080733
 20
-119.9344608033497
 30
0.0
  0
POLYLINE
  5
B1
330
1F
100
AcDbEntity
  8
_U+30EC_U+30A4_U+30E4_U+30FC 1
 62
     7
420
 16777215
370
     9
100
AcDb2dPolyline
 66
     1
 10
0.0
 20
0.0
 30
0.0
  0
VERTEX
  5
B2
330
B1
100
AcDbEntity
  8
_U+30EC_U+30A4_U+30E4_U+30FC 1
 62
     7
420
 16777215
370
     9
100
AcDbVertex
100
AcDb2dVertex
 10
84.9205586668294
 20
-119.9323794144613
 30
0.0
  0
VERTEX
  5
B3
330
B1
100
AcDbEntity
  8
_U+30EC_U+30A4_U+30E4_U+30FC 1
 62
     7
420
 16777215
370
     9
100
AcDbVertex
100
AcDb2dVertex
 10
90.03446048080733
 20
-119.9323794144613
 30
0.0
  0
SEQEND
  5
B4
330
B1
100
AcDbEntity
  8
_U+30EC_U+30A4_U+30E4_U+30FC 1
 62
     7
420
 16777215
370
     9
  0
POLYLINE
  5
B5
330
1F
100
AcDbEntity
  8
_U+30EC_U+30A4_U+30E4_U+30FC 1
 62
     7
420
 16777215
370
     9
100
AcDb2dPolyline
 66
     1
 10
0.0
 20
0.0
 30
0.0
  0
VERTEX
  5
B6
330
B5
100
AcDbEntity
  8
_U+30EC_U+30A4_U+30E4_U+30FC 1
 62
     7
420
 16777215
370
     9
100
AcDbVertex
100
AcDb2dVertex
 10
84.9205586668294
 20
-118.4723380259376
 30
0.0
  0
VERTEX
  5
B7
330
B5
100
AcDbEntity
  8
_U+30EC_U+30A4_U+30E4_U+30FC 1
 62
     7
420
 16777215
370
     9
100
AcDbVertex
100
AcDb2dVertex
 10
84.9205586668294
 20
-120.9328571919891
 30
0.0
  0
SEQEND
  5
B8
330
B5
100
AcDbEntity
  8
_U+30EC_U+30A4_U+30E4_U+30FC 1
 62
     7
420
 16777215
370
     9
  0
POLYLINE
  5
B9
330
1F
100
AcDbEntity
  8
_U+30EC_U+30A4_U+30E4_U+30FC 1
 62
     7
420
 16777215
370
     9
100
AcDb2dPolyline
 66
     1
 10
0.0
 20
0.0
 30
0.0
  0
VERTEX
  5
BA
330
B9
100
AcDbEntity
  8
_U+30EC_U+30A4_U+30E4_U+30FC 1
 62
     7
420
 16777215
370
     9
100
AcDbVertex
100
AcDb2dVertex
 10
89.93388353892881
 20
-118.4723380259376
 30
0.0
  0
VERTEX
  5
BB
330
B9
100
AcDbEntity
  8
_U+30EC_U+30A4_U+30E4_U+30FC 1
 62
     7
420
 16777215
370
     9
100
AcDbVertex
100
AcDb2dVertex
 10
89.93388353892881
 20
-120.9328571919891
 30
0.0
  0
SEQEND
  5
BC
330
B9
100
AcDbEntity
  8
_U+30EC_U+30A4_U+30E4_U+30FC 1
 62
     7
420
 16777215
370
     9
  0
INSERT
  5
BE
330
1F
100
AcDbEntity
  8
_U+30EC_U+30A4_U+30E4_U+30FC 1
100
AcDbBlockReference
  2
block 6
 10
0.0
 20
0.0
 30
0.0
  0
SPLINE
  5
C3
330
1F
100
AcDbEntity
  8
_U+30EC_U+30A4_U+30E4_U+30FC 1
 62
     7
420
 16777215
370
     9
100
AcDbSpline
210
0.0
220
0.0
230
1.0
 70
    11
 71
     3
 72
    17
 73
    13
 74
     0
 42
0.0000000001
 43
0.0000000001
 12
1.0
 22
0.0
 32
0.0
 13
1.0
 23
0.0
 33
0.0
 40
0.0
 40
0.0
 40
0.0
 40
0.0
 40
1.0
 40
1.0
 40
1.0
 40
2.0
 40
2.0
 40
2.0
 40
3.0
 40
3.0
 40
3.0
 40
4.0
 40
4.0
 40
4.0
 40
4.0
 10
75.0286700303036
 20
-138.654084409781
 30
0.0
 10
75.0286700303036
 20
-138.5989452431279
 30
0.0
 10
74.98386725366883
 20
-138.5541777431394
 30
0.0
 10
74.92876336618576
 20
-138.5541777431394
 30
0.0
 10
74.87362420092582
 20
-138.5541777431394
 30
0.0
 10
74.82885670206794
 20
-138.5989452431279
 30
0.0
 10
74.82885670206794
 20
-138.654084409781
 30
0.0
 10
74.82885670206794
 20
-138.7098938542115
 30
0.0
 10
74.87362420092582
 20
-138.7546613542
 30
0.0
 10
74.92876336618576
 20
-138.7546613542
 30
0.0
 10
74.98386725366883
 20
-138.7546613542
 30
0.0
 10
75.0286700303036
 20
-138.7098938542115
 30
0.0
 10
75.0286700303036
 20
-138.654084409781
 30
0.0
  0
POLYLINE
  5
C4
330
1F
100
AcDbEntity
  8
_U+30EC_U+30A4_U+30E4_U+30FC 1
 62
     7
420
 16777215
370
     9
100
AcDb2dPolyline
 66
     1
 10
0.0
 20
0.0
 30
0.0
  0
VERTEX
  5
C5
330
C4
100
AcDbEntity
  8
_U+30EC_U+30A4_U+30E4_U+30FC 1
 62
     7
420
 16777215
370
     9
100
AcDbVertex
100
AcDb2dVertex
 10
74.92876336618576
 20
-138.654084409781
 30
0.0
  0
VERTEX
  5
C6
330
C4
100
AcDbEntity
  8
_U+30EC_U+30A4_U+30E4_U+30FC 1
 62
     7
420
 16777215
370
     9
100
AcDbVertex
100
AcDb2dVertex
 10
100.0076643930364
 20
-138.654084409781
 30
0.0
  0
SEQEND
  5
C7
330
C4
100
AcDbEntity
  8
_U+30EC_U+30A4_U+30E4_U+30FC 1
 62
     7
420
 16777215
370
     9
  0
POLYLINE
  5
C8
330
1F
100
AcDbEntity
  8
_U+30EC_U+30A4_U+30E4_U+30FC 1
 62
     7
420
 16777215
370
     9
100
AcDb2dPolyline
 66
     1
 10
0.0
 20
0.0
 30
0.0
  0
VERTEX
  5
C9
330
C8
100
AcDbEntity
  8
_U+30EC_U+30A4_U+30E4_U+30FC 1
 62
     7
420
 16777215
370
     9
100
AcDbVertex
100
AcDb2dVertex
 10
74.92876336618576
 20
-137.1940430212573
 30
0.0
  0
VERTEX
  5
CA
330
C8
100
AcDbEntity
  8
_U+30EC_U+30A4_U+30E4_U+30FC 1
 62
     7
420
 16777215
370
     9
100
AcDbVertex
100
AcDb2dVertex
 10
74.92876336618576
 20
-139.6545269095309
 30
0.0
  0
SEQEND
  5
CB
330
C8
100
AcDbEntity
  8
_U+30EC_U+30A4_U+30E4_U+30FC 1
 62
     7
420
 16777215
370
     9
  0
POLYLINE
  5
CC
330
1F
100
AcDbEntity
  8
_U+30EC_U+30A4_U+30E4_U+30FC 1
 62
     7
420
 16777215
370
     9
100
AcDb2dPolyline
 66
     1
 10
0.0
 20
0.0
 30
0.0
  0
VERTEX
  5
CD
330
CC
100
AcDbEntity
  8
_U+30EC_U+30A4_U+30E4_U+30FC 1
 62
     7
420
 16777215
370
     9
100
AcDbVertex
100
AcDb2dVertex
 10
99.90708745115785
 20
-137.1940430212573
 30
0.0
  0
VERTEX
  5
CE
330
CC
100
AcDbEntity
  8
_U+30EC_U+30A4_U+30E4_U+30FC 1
 62
     7
420
 16777215
370
     9
100
AcDbVertex
100
AcDb2dVertex
 10
99.90708745115785
 20
-139.6545269095309
 30
0.0
  0
SEQEND
  5
CF
330
CC
100
AcDbEntity
  8
_U+30EC_U+30A4_U+30E4_U+30FC 1
 62
     7
420
 16777215
370
     9
  0
INSERT
  5
D1
330
1F
100
AcDbEntity
  8
_U+30EC_U+30A4_U+30E4_U+30FC 1
100
AcDbBlockReference
  2
block 7
 10
0.0
 20
0.0
 30
0.0
  0
POLYLINE
  5
D8
330
1F
100
AcDbEntity
  8
_U+30EC_U+30A4_U+30E4_U+30FC 1
 62
     7
420
 16777215
370
    25
100
AcDb2dPolyline
 66
     1
 10
0.0
 20
0.0
 30
0.0
  0
VERTEX
  5
D9
330
D8
100
AcDbEntity
  8
_U+30EC_U+30A4_U+30E4_U+30FC 1
 62
     7
420
 16777215
370
    25
100
AcDbVertex
100
AcDb2dVertex
 10
86.93527250431865
 20
-134.3859319108479
 30
0.0
  0
VERTEX
  5
DA
330
D8
100
AcDbEntity
  8
_U+30EC_U+30A4_U+30E4_U+30FC 1
 62
     7
420
 16777215
370
    25
100
AcDbVertex
100
AcDb2dVertex
 10
86.93527250431865
 20
-124.8850619132232
 30
0.0
  0
VERTEX
  5
DB
330
D8
100
AcDbEntity
  8
_U+30EC_U+30A4_U+30E4_U+30FC 1
 62
     7
420
 16777215
370
    25
100
AcDbVertex
100
AcDb2dVertex
 10
84.93502255534928
 20
-124.8850619132232
 30
0.0
  0
VERTEX
  5
DC
330
D8
100
AcDbEntity
  8
_U+30EC_U+30A4_U+30E4_U+30FC 1
 62
     7
420
 16777215
370
    25
100
AcDbVertex
100
AcDb2dVertex
 10
84.93502255534928
 20
-121.8850749695288
 30
0.0
  0
VERTEX
  5
DD
330
D8
100
AcDbEntity
  8
_U+30EC_U+30A4_U+30E4_U+30FC 1
 62
     7
420
 16777215
370
    25
100
AcDbVertex
100
AcDb2dVertex
 10
89.93455381668949
 20
-121.8850749695288
 30
0.0
  0
VERTEX
  5
DE
330
D8
100
AcDbEntity
  8
_U+30EC_U+30A4_U+30E4_U+30FC 1
 62
     7
420
 16777215
370
    25
100
AcDbVertex
100
AcDb2dVertex
 10
89.93455381668949
 20
-124.8850619132232
 30
0.0
  0
VERTEX
  5
DF
330
D8
100
AcDbEntity
  8
_U+30EC_U+30A4_U+30E4_U+30FC 1
 62
     7
420
 16777215
370
    25
100
AcDbVertex
100
AcDb2dVertex
 10
87.93500942325768
 20
-124.8850619132232
 30
0.0
  0
VERTEX
  5
E0
330
D8
100
AcDbEntity
  8
_U+30EC_U+30A4_U+30E4_U+30FC 1
 62
     7
420
 16777215
370
    25
100
AcDbVertex
100
AcDb2dVertex
 10
87.93500942325768
 20
-124.8850619132232
 30
0.0
  0
VERTEX
  5
E1
330
D8
100
AcDbEntity
  8
_U+30EC_U+30A4_U+30E4_U+30FC 1
 62
     7
420
 16777215
370
    25
100
AcDbVertex
100
AcDb2dVertex
 10
87.93500942325768
 20
-134.3859319108479
 30
0.0
  0
VERTEX
  5
E2
330
D8
100
AcDbEntity
  8
_U+30EC_U+30A4_U+30E4_U+30FC 1
 62
     7
420
 16777215
370
    25
100
AcDbVertex
100
AcDb2dVertex
 10
87.93500942325768
 20
-134.3859319108479
 30
0.0
  0
VERTEX
  5
E3
330
D8
100
AcDbEntity
  8
_U+30EC_U+30A4_U+30E4_U+30FC 1
 62
     7
420
 16777215
370
    25
100
AcDbVertex
100
AcDb2dVertex
 10
99.86884634102235
 20
-134.3859319108479
 30
0.0
  0
VERTEX
  5
E4
330
D8
100
AcDbEntity
  8
_U+30EC_U+30A4_U+30E4_U+30FC 1
 62
     7
420
 16777215
370
    25
100
AcDbVertex
100
AcDb2dVertex
 10
99.86884634102235
 20
-135.3860569105982
 30
0.0
  0
VERTEX
  5
E5
330
D8
100
AcDbEntity
  8
_U+30EC_U+30A4_U+30E4_U+30FC 1
 62
     7
420
 16777215
370
    25
100
AcDbVertex
100
AcDb2dVertex
 10
74.93529164793283
 20
-135.3860569105982
 30
0.0
  0
VERTEX
  5
E6
330
D8
100
AcDbEntity
  8
_U+30EC_U+30A4_U+30E4_U+30FC 1
 62
     7
420
 16777215
370
    25
100
AcDbVertex
100
AcDb2dVertex
 10
74.93529164793283
 20
-134.3859319108479
 30
0.0
  0
VERTEX
  5
E7
330
D8
100
AcDbEntity
  8
_U+30EC_U+30A4_U+30E4_U+30FC 1
 62
     7
420
 16777215
370
    25
100
AcDbVertex
100
AcDb2dVertex
 10
86.93527250431865
 20
-134.3859319108479
 30
0.0
  0
SEQEND
  5
E8
330
D8
100
AcDbEntity
  8
_U+30EC_U+30A4_U+30E4_U+30FC 1
 62
     7
420
 16777215
370
    25
  0
ENDSEC
  0
SECTION
  2
OBJECTS
  0
DICTIONARY
  5
C
330
0
100
AcDbDictionary
281
     1
  3
ACAD_GROUP
350
D
  3
ACAD_LAYOUT
350
1A
  3
ACAD_MATERIAL
350
3B
  3
ACAD_MLEADERSTYLE
350
EA
  3
ACAD_MLINESTYLE
350
17
  3
ACAD_PLOTSETTINGS
350
19
  3
ACAD_PLOTSTYLENAME
350
E
  3
ACAD_TABLESTYLE
350
E9
  3
ACAD_VISUALSTYLE
350
2A
  0
SUN
  5
3F
330
29
100
AcDbSun
 90
        1
290
     0
 63
     7
421
 16777215
 40
1.0
291
     1
 91
  2455826
 92
 54000000
292
     0
 70
     2
 71
   256
280
     1
  0
DICTIONARY
  5
D
102
{ACAD_REACTORS
330
C
102
}
330
C
100
AcDbDictionary
281
     1
  0
DICTIONARY
  5
1A
102
{ACAD_REACTORS
330
C
102
}
330
C
100
AcDbDictionary
281
     1
  3
Layout1
350
1E
  3
Layout2
350
26
  3
Model
350
22
  0
DICTIONARY
  5
3B
102
{ACAD_REACTORS
330
C
102
}
330
C
100
AcDbDictionary
281
     1
  3
ByBlock
350
3D
  3
ByLayer
350
3C
  3
Global
350
3E
  0
DICTIONARY
  5
EA
102
{ACAD_REACTORS
330
C
102
}
330
C
100
AcDbDictionary
281
     1
  0
DICTIONARY
  5
17
102
{ACAD_REACTORS
330
C
102
}
330
C
100
AcDbDictionary
281
     1
  3
Standard
350
18
  0
DICTIONARY
  5
19
102
{ACAD_REACTORS
330
C
102
}
330
C
100
AcDbDictionary
281
     1
  0
ACDBDICTIONARYWDFLT
  5
E
102
{ACAD_REACTORS
330
C
102
}
330
C
100
AcDbDictionary
281
     1
  3
Normal
350
F
100
AcDbDictionaryWithDefault
340
F
  0
DICTIONARY
  5
E9
102
{ACAD_REACTORS
330
C
102
}
330
C
100
AcDbDictionary
281
     1
  0
DICTIONARY
  5
2A
102
{ACAD_REACTORS
330
C
102
}
330
C
100
AcDbDictionary
281
     1
  3
2dWireframe
350
2F
  3
3D Hidden
350
31
  3
3dWireframe
350
30
  3
Basic
350
32
  3
Brighten
350
36
  3
ColorChange
350
3A
  3
Conceptual
350
34
  3
Dim
350
35
  3
Facepattern
350
39
  3
Flat
350
2B
  3
FlatWithEdges
350
2C
  3
Gouraud
350
2D
  3
GouraudWithEdges
350
2E
  3
Linepattern
350
38
  3
Realistic
350
33
  3
Thicken
350
37
  0
LAYOUT
  5
1E
102
{ACAD_REACTORS
330
1A
102
}
330
1A
100
AcDbPlotSettings
  1

  2
none_device
  4

  6

 40
0.0
 41
0.0
 42
0.0
 43
0.0
 44
0.0
 45
0.0
 46
0.0
 47
0.0
 48
0.0
 49
0.0
140
0.0
141
0.0
142
1.0
143
1.0
 70
   688
 72
     0
 73
     0
 74
     5
  7

 75
    16
 76
     0
 77
     2
 78
   300
147
1.0
148
0.0
149
0.0
100
AcDbLayout
  1
Layout1
 70
     1
 71
     1
 10
0.0
 20
0.0
 11
12.0
 21
9.0
 12
0.0
 22
0.0
 32
0.0
 14
1.000000000000000E+20
 24
1.000000000000000E+20
 34
1.000000000000000E+20
 15
-1.000000000000000E+20
 25
-1.000000000000000E+20
 35
-1.000000000000000E+20
146
0.0
 13
0.0
 23
0.0
 33
0.0
 16
1.0
 26
0.0
 36
0.0
 17
0.0
 27
1.0
 37
0.0
 76
     0
330
1B
  0
LAYOUT
  5
26
102
{ACAD_REACTORS
330
1A
102
}
330
1A
100
AcDbPlotSettings
  1

  2
none_device
  4

  6

 40
0.0
 41
0.0
 42
0.0
 43
0.0
 44
0.0
 45
0.0
 46
0.0
 47
0.0
 48
0.0
 49
0.0
140
0.0
141
0.0
142
1.0
143
1.0
 70
   688
 72
     0
 73
     0
 74
     5
  7

 75
    16
 76
     0
 77
     2
 78
   300
147
1.0
148
0.0
149
0.0
100
AcDbLayout
  1
Layout2
 70
     1
 71
     2
 10
0.0
 20
0.0
 11
0.0
 21
0.0
 12
0.0
 22
0.0
 32
0.0
 14
0.0
 24
0.0
 34
0.0
 15
0.0
 25
0.0
 35
0.0
146
0.0
 13
0.0
 23
0.0
 33
0.0
 16
1.0
 26
0.0
 36
0.0
 17
0.0
 27
1.0
 37
0.0
 76
     0
330
23
  0
LAYOUT
  5
22
102
{ACAD_REACTORS
330
1A
102
}
330
1A
100
AcDbPlotSettings
  1

  2
none_device
  4

  6

 40
0.0
 41
0.0
 42
0.0
 43
0.0
 44
0.0
 45
0.0
 46
0.0
 47
0.0
 48
0.0
 49
0.0
140
0.0
141
0.0
142
1.0
143
1.0
 70
  1712
 72
     0
 73
     0
 74
     0
  7

 75
     0
 76
     0
 77
     2
 78
   300
147
1.0
148
0.0
149
0.0
100
AcDbLayout
  1
Model
 70
     1
 71
     0
 10
0.0
 20
0.0
 11
12.0
 21
9.0
 12
0.0
 22
0.0
 32
0.0
 14
1.000000000000000E+20
 24
1.000000000000000E+20
 34
1.000000000000000E+20
 15
-1.000000000000000E+20
 25
-1.000000000000000E+20
 35
-1.000000000000000E+20
146
0.0
 13
0.0
 23
0.0
 33
0.0
 16
1.0
 26
0.0
 36
0.0
 17
0.0
 27
1.0
 37
0.0
 76
     0
330
1F
331
29
  0
MATERIAL
  5
3D
102
{ACAD_REACTORS
330
3B
102
}
330
3B
100
AcDbMaterial
  1
ByBlock
 72
     1
 94
      127
  0
MATERIAL
  5
3C
102
{ACAD_REACTORS
330
3B
102
}
330
3B
100
AcDbMaterial
  1
ByLayer
 72
     1
 94
      127
  0
MATERIAL
  5
3E
102
{ACAD_REACTORS
330
3B
102
}
330
3B
100
AcDbMaterial
  1
Global
 72
     1
 94
      127
  0
MLINESTYLE
  5
18
102
{ACAD_REACTORS
330
17
102
}
330
17
100
AcDbMlineStyle
  2
Standard
 70
     0
  3

 62
   256
 51
90.0
 52
90.0
 71
     2
 49
0.5
 62
   256
  6
BYLAYER
 49
-0.5
 62
   256
  6
BYLAYER
  0
ACDBPLACEHOLDER
  5
F
102
{ACAD_REACTORS
330
E
102
}
330
E
  0
VISUALSTYLE
  5
2F
102
{ACAD_REACTORS
330
2A
102
}
330
2A
100
AcDbVisualStyle
  2
2dWireframe
 70
     4
177
     2
291
     0
 71
     0
176
     1
 72
     2
176
     1
 73
     0
176
     1
 90
        0
176
     1
 40
-0.6
176
     1
 41
-30.0
176
     1
 62
     5
 63
     7
421
 16777215
176
     1
 74
     1
176
     1
 91
        4
176
     1
 64
     7
176
     1
 65
   257
176
     1
 75
     1
176
     1
175
     1
176
     1
 42
1.0
176
     1
 92
        0
176
     1
 66
   257
176
     1
 43
1.0
176
     1
 76
     1
176
     1
 77
     6
176
     1
 78
     2
176
     1
 67
     7
176
     1
 79
     5
176
     1
170
     0
176
     1
171
     0
176
     1
290
     0
176
     1
 93
        1
176
     1
 44
0.0
176
     1
173
     0
176
     1
  0
VISUALSTYLE
  5
31
102
{ACAD_REACTORS
330
2A
102
}
330
2A
100
AcDbVisualStyle
  2
3D Hidden
 70
     6
177
     2
291
     0
 71
     1
176
     1
 72
     2
176
     1
 73
     2
176
     1
 90
        0
176
     1
 40
-0.6
176
     1
 41
-30.0
176
     1
 62
     5
 63
     7
421
 16777215
176
     1
 74
     2
176
     1
 91
        2
176
     1
 64
     7
176
     1
 65
   257
176
     1
 75
     2
176
     1
175
     1
176
     1
 42
40.0
176
     1
 92
        0
176
     1
 66
   257
176
     1
 43
1.0
176
     1
 76
     1
176
     1
 77
     6
176
     1
 78
     2
176
     1
 67
     7
176
     1
 79
     3
176
     1
170
     0
176
     1
171
     0
176
     1
290
     0
176
     1
 93
        1
176
     1
 44
0.0
176
     1
173
     0
176
     1
  0
VISUALSTYLE
  5
30
102
{ACAD_REACTORS
330
2A
102
}
330
2A
100
AcDbVisualStyle
  2
3dWireframe
 70
     5
177
     2
291
     0
 71
     0
176
     1
 72
     2
176
     1
 73
     0
176
     1
 90
        0
176
     1
 40
-0.6
176
     1
 41
-30.0
176
     1
 62
     5
 63
     7
421
 16777215
176
     1
 74
     1
176
     1
 91
        4
176
     1
 64
     7
176
     1
 65
   257
176
     1
 75
     1
176
     1
175
     1
176
     1
 42
1.0
176
     1
 92
        0
176
     1
 66
   257
176
     1
 43
1.0
176
     1
 76
     1
176
     1
 77
     6
176
     1
 78
     2
176
     1
 67
     7
176
     1
 79
     5
176
     1
170
     0
176
     1
171
     0
176
     1
290
     0
176
     1
 93
        1
176
     1
 44
0.0
176
     1
173
     0
176
     1
  0
VISUALSTYLE
  5
32
102
{ACAD_REACTORS
330
2A
102
}
330
2A
100
AcDbVisualStyle
  2
Basic
 70
     7
177
     2
291
     1
 71
     1
176
     1
 72
     0
176
     1
 73
     1
176
     1
 90
        0
176
     1
 40
-0.6
176
     1
 41
-30.0
176
     1
 62
     5
 63
     7
421
 16777215
176
     1
 74
     0
176
     1
 91
        4
176
     1
 64
     7
176
     1
 65
   257
176
     1
 75
     1
176
     1
175
     1
176
     1
 42
1.0
176
     1
 92
        8
176
     1
 66
     7
176
     1
 43
1.0
176
     1
 76
     1
176
     1
 77
     6
176
     1
 78
     2
176
     1
 67
     7
176
     1
 79
     5
176
     1
170
     0
176
     1
171
     0
176
     1
290
     0
176
     1
 93
        1
176
     1
 44
0.0
176
     1
173
     0
176
     1
  0
VISUALSTYLE
  5
36
102
{ACAD_REACTORS
330
2A
102
}
330
2A
100
AcDbVisualStyle
  2
Brighten
 70
    12
177
     2
291
     1
 71
     2
176
     1
 72
     2
176
     1
 73
     0
176
     1
 90
        0
176
     1
 40
-0.6
176
     1
 41
-30.0
176
     1
 62
     5
 63
     7
421
 16777215
176
     1
 74
     1
176
     1
 91
        4
176
     1
 64
     7
176
     1
 65
   257
176
     1
 75
     1
176
     1
175
     1
176
     1
 42
1.0
176
     1
 92
        8
176
     1
 66
     7
176
     1
 43
1.0
176
     1
 76
     1
176
     1
 77
     6
176
     1
 78
     2
176
     1
 67
     7
176
     1
 79
     5
176
     1
170
     0
176
     1
171
     0
176
     1
290
     0
176
     1
 93
        1
176
     1
 44
50.0
176
     1
173
     0
176
     1
  0
VISUALSTYLE
  5
3A
102
{ACAD_REACTORS
330
2A
102
}
330
2A
100
AcDbVisualStyle
  2
ColorChange
 70
    16
177
     2
291
     1
 71
     2
176
     1
 72
     2
176
     1
 73
     3
176
     1
 90
        0
176
     1
 40
-0.6
176
     1
 41
-30.0
176
     1
 62
     5
 63
     8
421
  8421504
176
     1
 74
     1
176
     1
 91
        4
176
     1
 64
     7
176
     1
 65
   257
176
     1
 75
     1
176
     1
175
     1
176
     1
 42
1.0
176
     1
 92
        8
176
     1
 66
     8
424
  8421504
176
     1
 43
1.0
176
     1
 76
     1
176
     1
 77
     6
176
     1
 78
     2
176
     1
 67
     7
176
     1
 79
     5
176
     1
170
     0
176
     1
171
     0
176
     1
290
     0
176
     1
 93
        1
176
     1
 44
0.0
176
     1
173
     0
176
     1
  0
VISUALSTYLE
  5
34
102
{ACAD_REACTORS
330
2A
102
}
330
2A
100
AcDbVisualStyle
  2
Conceptual
 70
     9
177
     2
291
     0
 71
     3
176
     1
 72
     2
176
     1
 73
     0
176
     1
 90
        0
176
     1
 40
-0.6
176
     1
 41
-30.0
176
     1
 62
     5
 63
     7
421
 16777215
176
     1
 74
     2
176
     1
 91
        2
176
     1
 64
     7
176
     1
 65
   257
176
     1
 75
     1
176
     1
175
     1
176
     1
 42
40.0
176
     1
 92
        8
176
     1
 66
     7
176
     1
 43
1.0
176
     1
 76
     1
176
     1
 77
     6
176
     1
 78
     2
176
     1
 67
     7
176
     1
 79
     3
176
     1
170
     0
176
     1
171
     0
176
     1
290
     0
176
     1
 93
        1
176
     1
 44
0.0
176
     1
173
     0
176
     1
  0
VISUALSTYLE
  5
35
102
{ACAD_REACTORS
330
2A
102
}
330
2A
100
AcDbVisualStyle
  2
Dim
 70
    11
177
     2
291
     1
 71
     2
176
     1
 72
     2
176
     1
 73
     0
176
     1
 90
        0
176
     1
 40
-0.6
176
     1
 41
-30.0
176
     1
 62
     5
 63
     7
421
 16777215
176
     1
 74
     1
176
     1
 91
        4
176
     1
 64
     7
176
     1
 65
   257
176
     1
 75
     1
176
     1
175
     1
176
     1
 42
1.0
176
     1
 92
        8
176
     1
 66
     7
176
     1
 43
1.0
176
     1
 76
     1
176
     1
 77
     6
176
     1
 78
     2
176
     1
 67
     7
176
     1
 79
     5
176
     1
170
     0
176
     1
171
     0
176
     1
290
     0
176
     1
 93
        1
176
     1
 44
-50.0
176
     1
173
     0
176
     1
  0
VISUALSTYLE
  5
39
102
{ACAD_REACTORS
330
2A
102
}
330
2A
100
AcDbVisualStyle
  2
Facepattern
 70
    15
177
     2
291
     1
 71
     2
176
     1
 72
     2
176
     1
 73
     0
176
     1
 90
        0
176
     1
 40
-0.6
176
     1
 41
-30.0
176
     1
 62
     5
 63
     7
421
 16777215
176
     1
 74
     1
176
     1
 91
        4
176
     1
 64
     7
176
     1
 65
   257
176
     1
 75
     1
176
     1
175
     1
176
     1
 42
1.0
176
     1
 92
        8
176
     1
 66
     7
176
     1
 43
1.0
176
     1
 76
     1
176
     1
 77
     6
176
     1
 78
     2
176
     1
 67
     7
176
     1
 79
     5
176
     1
170
     0
176
     1
171
     0
176
     1
290
     0
176
     1
 93
        1
176
     1
 44
0.0
176
     1
173
     0
176
     1
  0
VISUALSTYLE
  5
2B
102
{ACAD_REACTORS
330
2A
102
}
330
2A
100
AcDbVisualStyle
  2
Flat
 70
     0
177
     2
291
     1
 71
     2
176
     1
 72
     1
176
     1
 73
     1
176
     1
 90
        2
176
     1
 40
-0.6
176
     1
 41
30.0
176
     1
 62
     5
 63
     7
421
 16777215
176
     1
 74
     0
176
     1
 91
        4
176
     1
 64
     7
176
     1
 65
   257
176
     1
 75
     1
176
     1
175
     1
176
     1
 42
1.0
176
     1
 92
        8
176
     1
 66
     7
176
     1
 43
1.0
176
     1
 76
     1
176
     1
 77
     6
176
     1
 78
     2
176
     1
 67
     7
176
     1
 79
     5
176
     1
170
     0
176
     1
171
     0
176
     1
290
     0
176
     1
 93
       13
176
     1
 44
0.0
176
     1
173
     0
176
     1
  0
VISUALSTYLE
  5
2C
102
{ACAD_REACTORS
330
2A
102
}
330
2A
100
AcDbVisualStyle
  2
FlatWithEdges
 70
     1
177
     2
291
     1
 71
     2
176
     1
 72
     1
176
     1
 73
     1
176
     1
 90
        2
176
     1
 40
-0.6
176
     1
 41
30.0
176
     1
 62
     5
 63
     7
421
 16777215
176
     1
 74
     1
176
     1
 91
        4
176
     1
 64
     7
176
     1
 65
   257
176
     1
 75
     1
176
     1
175
     1
176
     1
 42
1.0
176
     1
 92
        0
176
     1
 66
   257
176
     1
 43
1.0
176
     1
 76
     1
176
     1
 77
     6
176
     1
 78
     2
176
     1
 67
     7
176
     1
 79
     5
176
     1
170
     0
176
     1
171
     0
176
     1
290
     0
176
     1
 93
       13
176
     1
 44
0.0
176
     1
173
     0
176
     1
  0
VISUALSTYLE
  5
2D
102
{ACAD_REACTORS
330
2A
102
}
330
2A
100
AcDbVisualStyle
  2
Gouraud
 70
     2
177
     2
291
     1
 71
     2
176
     1
 72
     2
176
     1
 73
     1
176
     1
 90
        2
176
     1
 40
-0.6
176
     1
 41
30.0
176
     1
 62
     5
 63
     7
421
 16777215
176
     1
 74
     0
176
     1
 91
        4
176
     1
 64
     7
176
     1
 65
   257
176
     1
 75
     1
176
     1
175
     1
176
     1
 42
1.0
176
     1
 92
        0
176
     1
 66
     7
176
     1
 43
1.0
176
     1
 76
     1
176
     1
 77
     6
176
     1
 78
     2
176
     1
 67
     7
176
     1
 79
     5
176
     1
170
     0
176
     1
171
     0
176
     1
290
     0
176
     1
 93
       13
176
     1
 44
0.0
176
     1
173
     0
176
     1
  0
VISUALSTYLE
  5
2E
102
{ACAD_REACTORS
330
2A
102
}
330
2A
100
AcDbVisualStyle
  2
GouraudWithEdges
 70
     3
177
     2
291
     1
 71
     2
176
     1
 72
     2
176
     1
 73
     1
176
     1
 90
        2
176
     1
 40
-0.6
176
     1
 41
30.0
176
     1
 62
     5
 63
     7
421
 16777215
176
     1
 74
     1
176
     1
 91
        4
176
     1
 64
     7
176
     1
 65
   257
176
     1
 75
     1
176
     1
175
     1
176
     1
 42
1.0
176
     1
 92
        0
176
     1
 66
   257
176
     1
 43
1.0
176
     1
 76
     1
176
     1
 77
     6
176
     1
 78
     2
176
     1
 67
     7
176
     1
 79
     5
176
     1
170
     0
176
     1
171
     0
176
     1
290
     0
176
     1
 93
       13
176
     1
 44
0.0
176
     1
173
     0
176
     1
  0
VISUALSTYLE
  5
38
102
{ACAD_REACTORS
330
2A
102
}
330
2A
100
AcDbVisualStyle
  2
Linepattern
 70
    14
177
     2
291
     1
 71
     2
176
     1
 72
     2
176
     1
 73
     0
176
     1
 90
        0
176
     1
 40
-0.6
176
     1
 41
-30.0
176
     1
 62
     5
 63
     7
421
 16777215
176
     1
 74
     1
176
     1
 91
        4
176
     1
 64
     7
176
     1
 65
   257
176
     1
 75
     7
176
     1
175
     7
176
     1
 42
1.0
176
     1
 92
        8
176
     1
 66
     7
176
     1
 43
1.0
176
     1
 76
     1
176
     1
 77
     6
176
     1
 78
     2
176
     1
 67
     7
176
     1
 79
     5
176
     1
170
     0
176
     1
171
     0
176
     1
290
     0
176
     1
 93
        1
176
     1
 44
0.0
176
     1
173
     0
176
     1
  0
VISUALSTYLE
  5
33
102
{ACAD_REACTORS
330
2A
102
}
330
2A
100
AcDbVisualStyle
  2
Realistic
 70
     8
177
     2
291
     0
 71
     2
176
     1
 72
     2
176
     1
 73
     0
176
     1
 90
        0
176
     1
 40
-0.6
176
     1
 41
-30.0
176
     1
 62
     5
 63
     7
421
 16777215
176
     1
 74
     1
176
     1
 91
        0
176
     1
 64
     7
176
     1
 65
   257
176
     1
 75
     1
176
     1
175
     1
176
     1
 42
1.0
176
     1
 92
        8
176
     1
 66
     8
424
  7895160
176
     1
 43
1.0
176
     1
 76
     1
176
     1
 77
     6
176
     1
 78
     2
176
     1
 67
     7
176
     1
 79
     5
176
     1
170
     0
176
     1
171
     0
176
     1
290
     0
176
     1
 93
       13
176
     1
 44
0.0
176
     1
173
     0
176
     1
  0
VISUALSTYLE
  5
37
102
{ACAD_REACTORS
330
2A
102
}
330
2A
100
AcDbVisualStyle
  2
Thicken
 70
    13
177
     2
291
     1
 71
     2
176
     1
 72
     2
176
     1
 73
     0
176
     1
 90
        0
176
     1
 40
-0.6
176
     1
 41
-30.0
176
     1
 62
     5
 63
     7
421
 16777215
176
     1
 74
     1
176
     1
 91
        4
176
     1
 64
     7
176
     1
 65
   257
176
     1
 75
     1
176
     1
175
     1
176
     1
 42
1.0
176
     1
 92
       12
176
     1
 66
     7
176
     1
 43
1.0
176
     1
 76
     1
176
     1
 77
     6
176
     1
 78
     2
176
     1
 67
     7
176
     1
 79
     5
176
     1
170
     0
176
     1
171
     0
176
     1
290
     0
176
     1
 93
        1
176
     1
 44
0.0
176
     1
173
     0
176
     1
  0
ENDSEC
  0
EOF
